  0
SECTION
  2
HEADER
  9
$ACADVER
  1
AC1015
  9
$DWGCODEPAGE
  3
ANSI_1252
  9
$EXTMAX
 10
16.5354330709
 20
11.6929133858
 30
0.0
  9
$EXTMIN
 10
0.0
 20
0.0
 30
0.0
  9
$LIMMIN
 10
0.0
 20
0.0
  9
$LIMMAX
 10
16.5354330709
 20
11.6929133858
  9
$VIEWCTR
 10
8.2677165354
 20
5.8464566929
  9
$VIEWSIZE
 40
11.6929133858
  9
$CLAYER
  8
0
  9
$LTSCALE
 40
0.9094488189
  9
$CELTYPE
  6
BYLAYER
  9
$DIMSCALE
 40
1.0
  9
$DIMASZ
 40
0.1875
  9
$DIMEXO
 40
0.1033464567
  9
$DIMDLI
 40
0.6283464567
  9
$DIMEXE
 40
0.2976377953
  9
$DIMCEN
 40
0.1488188976
  9
$DIMLFAC
 40
1.0
  9
$DIMBLK
  1
_CLOSED
  9
$DIMTXT
 40
0.15625
  9
$DIMTOL
 70
0
  9
$DIMLIM
 70
0
  9
$DIMTFAC
 40
1.0
  9
$PDMODE
 70
3
  9
$PDSIZE
 40
0.3125
  9
$HANDSEED
  5
3E1
  9
$TILEMODE
 70
1
  9
$MEASUREMENT
 70
0
  9
$INSUNITS
 70
1
  0
ENDSEC
  0
SECTION
  2
CLASSES
  0
CLASS
  1
ACDBDICTIONARYWDFLT
  2
AcDbDictionaryWithDefault
  3
AutoCAD 2000
 90
0
280
0
281
0
  0
CLASS
  1
ACDBPLACEHOLDER
  2
AcDbPlaceHolder
  3
AutoCAD 2000
 90
0
280
0
281
0
  0
CLASS
  1
LAYOUT
  2
AcDbLayout
  3
AutoCAD 2000
 90
0
280
0
281
0
  0
ENDSEC
  0
SECTION
  2
TABLES
  0
TABLE
  2
VPORT
  5
8
100
AcDbSymbolTable
 70
2
  0
VPORT
  5
1F4
100
AcDbSymbolTableRecord
100
AcDbViewportTableRecord
  2
*ACTIVE
 70
0
 10
0.0
 20
0.0
 11
1.0
 21
1.0
 12
8.2677165354
 22
5.8464566929
 13
0.0
 23
0.0
 14
1.0
 24
1.0
 15
0.0
 25
0.0
 16
0.0
 26
0.0
 36
1.0
 17
0.0
 27
0.0
 37
0.0
 40
11.6929133858
 41
1.4141414141
 42
50.0
 43
0.0
 44
0.0
 50
0.0
 51
0.0
 71
0
 72
100
 73
1
 74
1
 75
0
 76
0
 77
0
 78
0
  0
ENDTAB
  0
TABLE
  2
LTYPE
  5
5
100
AcDbSymbolTable
 70
6
  0
LTYPE
  5
14
100
AcDbSymbolTableRecord
100
AcDbLinetypeTableRecord
  2
BYBLOCK
 70
0
  3

 72
65
 73
0
 40
0.0
  0
LTYPE
  5
15
100
AcDbSymbolTableRecord
100
AcDbLinetypeTableRecord
  2
BYLAYER
 70
0
  3

 72
65
 73
0
 40
0.0
  0
LTYPE
  5
16
100
AcDbSymbolTableRecord
100
AcDbLinetypeTableRecord
  2
CONTINUOUS
 70
64
  3
Solid line
 72
65
 73
0
 40
0.0
  0
LTYPE
  5
1F5
100
AcDbSymbolTableRecord
100
AcDbLinetypeTableRecord
  2
CENTER
 70
64
  3
____ _ ____ _ ____ _ ____ _ ____ _ ____ _ ____
 72
65
 73
4
 40
0.6
 49
0.375
 74
0
 49
-0.075
 74
0
 49
0.075
 74
0
 49
-0.075
 74
0
  0
LTYPE
  5
1F6
100
AcDbSymbolTableRecord
100
AcDbLinetypeTableRecord
  2
HIDDEN
 70
64
  3
- - - - - - - - - - - - - - - - - - - -
 72
65
 73
2
 40
0.2
 49
0.1
 74
0
 49
-0.1
 74
0
  0
LTYPE
  5
1F7
100
AcDbSymbolTableRecord
100
AcDbLinetypeTableRecord
  2
PHANTOM
 70
64
  3
_____ _ _ _____ _ _ _____ _ _ _____
 72
65
 73
6
 40
0.8
 49
0.45
 74
0
 49
-0.05
 74
0
 49
0.1
 74
0
 49
-0.05
 74
0
 49
0.1
 74
0
 49
-0.05
 74
0
  0
LTYPE
  5
1F8
100
AcDbSymbolTableRecord
100
AcDbLinetypeTableRecord
  2
DOT
 70
64
  3
. . . . . . . . . . . . . . . . . . . .
 72
65
 73
2
 40
0.2
 49
0.1
 74
0
 49
-0.1
 74
0
  0
LTYPE
  5
1F9
100
AcDbSymbolTableRecord
100
AcDbLinetypeTableRecord
  2
DASHED
 70
64
  3
- - - - - - - - - - - - - - - - - - - -
 72
65
 73
2
 40
0.2
 49
0.1
 74
0
 49
-0.1
 74
0
  0
ENDTAB
  0
TABLE
  2
LAYER
  5
2
100
AcDbSymbolTable
 70
36
  0
LAYER
  5
10
100
AcDbSymbolTableRecord
100
AcDbLayerTableRecord
  2
0
 70
0
 62
7
  6
CONTINUOUS
370
-3
390
F
  0
LAYER
  5
1FA
100
AcDbSymbolTableRecord
100
AcDbLayerTableRecord
  2
DEFAULT_1
 70
0
 62
7
  6
CENTER
370
-3
390
F
  0
LAYER
  5
1FB
100
AcDbSymbolTableRecord
100
AcDbLayerTableRecord
  2
DEFAULT_2
 70
0
 62
8
  6
HIDDEN
370
-3
390
F
  0
LAYER
  5
1FC
100
AcDbSymbolTableRecord
100
AcDbLayerTableRecord
  2
DEFAULT_3
 70
0
 62
7
  6
PHANTOM
370
-3
390
F
  0
LAYER
  5
1FD
100
AcDbSymbolTableRecord
100
AcDbLayerTableRecord
  2
1-003
 70
0
 62
7
  6
CONTINUOUS
370
-3
390
F
  0
LAYER
  5
1FE
100
AcDbSymbolTableRecord
100
AcDbLayerTableRecord
  2
1-004
 70
0
 62
7
  6
CONTINUOUS
370
-3
390
F
  0
LAYER
  5
1FF
100
AcDbSymbolTableRecord
100
AcDbLayerTableRecord
  2
1-016
 70
0
 62
7
  6
CONTINUOUS
370
-3
390
F
  0
LAYER
  5
200
100
AcDbSymbolTableRecord
100
AcDbLayerTableRecord
  2
1-017
 70
0
 62
7
  6
CONTINUOUS
370
-3
390
F
  0
LAYER
  5
201
100
AcDbSymbolTableRecord
100
AcDbLayerTableRecord
  2
1-017_1
 70
0
 62
7
  6
CONTINUOUS
370
-3
390
F
  0
LAYER
  5
202
100
AcDbSymbolTableRecord
100
AcDbLayerTableRecord
  2
1-502
 70
0
 62
7
  6
CONTINUOUS
370
-3
390
F
  0
LAYER
  5
203
100
AcDbSymbolTableRecord
100
AcDbLayerTableRecord
  2
1-506
 70
0
 62
7
  6
CONTINUOUS
370
-3
390
F
  0
LAYER
  5
204
100
AcDbSymbolTableRecord
100
AcDbLayerTableRecord
  2
1-552
 70
0
 62
7
  6
CONTINUOUS
370
-3
390
F
  0
LAYER
  5
205
100
AcDbSymbolTableRecord
100
AcDbLayerTableRecord
  2
1-553
 70
0
 62
7
  6
CONTINUOUS
370
-3
390
F
  0
LAYER
  5
206
100
AcDbSymbolTableRecord
100
AcDbLayerTableRecord
  2
1-602
 70
0
 62
7
  6
CONTINUOUS
370
-3
390
F
  0
LAYER
  5
207
100
AcDbSymbolTableRecord
100
AcDbLayerTableRecord
  2
1-603
 70
0
 62
7
  6
CONTINUOUS
370
-3
390
F
  0
LAYER
  5
208
100
AcDbSymbolTableRecord
100
AcDbLayerTableRecord
  2
10016
 70
0
 62
7
  6
CONTINUOUS
370
-3
390
F
  0
LAYER
  5
209
100
AcDbSymbolTableRecord
100
AcDbLayerTableRecord
  2
10016_1
 70
0
 62
7
  6
CONTINUOUS
370
-3
390
F
  0
LAYER
  5
20A
100
AcDbSymbolTableRecord
100
AcDbLayerTableRecord
  2
10172
 70
0
 62
7
  6
CONTINUOUS
370
-3
390
F
  0
LAYER
  5
20B
100
AcDbSymbolTableRecord
100
AcDbLayerTableRecord
  2
10173
 70
0
 62
7
  6
CONTINUOUS
370
-3
390
F
  0
LAYER
  5
20C
100
AcDbSymbolTableRecord
100
AcDbLayerTableRecord
  2
10224
 70
0
 62
7
  6
CONTINUOUS
370
-3
390
F
  0
LAYER
  5
20D
100
AcDbSymbolTableRecord
100
AcDbLayerTableRecord
  2
10295
 70
0
 62
7
  6
CONTINUOUS
370
-3
390
F
  0
LAYER
  5
20E
100
AcDbSymbolTableRecord
100
AcDbLayerTableRecord
  2
10378
 70
0
 62
7
  6
CONTINUOUS
370
-3
390
F
  0
LAYER
  5
20F
100
AcDbSymbolTableRecord
100
AcDbLayerTableRecord
  2
10382
 70
0
 62
7
  6
CONTINUOUS
370
-3
390
F
  0
LAYER
  5
210
100
AcDbSymbolTableRecord
100
AcDbLayerTableRecord
  2
10529
 70
0
 62
7
  6
CONTINUOUS
370
-3
390
F
  0
LAYER
  5
211
100
AcDbSymbolTableRecord
100
AcDbLayerTableRecord
  2
10529_3
 70
0
 62
7
  6
CONTINUOUS
370
-3
390
F
  0
LAYER
  5
212
100
AcDbSymbolTableRecord
100
AcDbLayerTableRecord
  2
11003
 70
0
 62
7
  6
CONTINUOUS
370
-3
390
F
  0
LAYER
  5
213
100
AcDbSymbolTableRecord
100
AcDbLayerTableRecord
  2
2-240
 70
0
 62
7
  6
CONTINUOUS
370
-3
390
F
  0
LAYER
  5
214
100
AcDbSymbolTableRecord
100
AcDbLayerTableRecord
  2
3-252
 70
0
 62
7
  6
CONTINUOUS
370
-3
390
F
  0
LAYER
  5
215
100
AcDbSymbolTableRecord
100
AcDbLayerTableRecord
  2
3_ALL_SYMBOLS
 70
0
 62
7
  6
CONTINUOUS
370
-3
390
F
  0
LAYER
  5
216
100
AcDbSymbolTableRecord
100
AcDbLayerTableRecord
  2
91083
 70
0
 62
7
  6
CONTINUOUS
370
-3
390
F
  0
LAYER
  5
217
100
AcDbSymbolTableRecord
100
AcDbLayerTableRecord
  2
91083_1
 70
0
 62
7
  6
CONTINUOUS
370
-3
390
F
  0
LAYER
  5
218
100
AcDbSymbolTableRecord
100
AcDbLayerTableRecord
  2
92006
 70
0
 62
7
  6
CONTINUOUS
370
-3
390
F
  0
LAYER
  5
219
100
AcDbSymbolTableRecord
100
AcDbLayerTableRecord
  2
ALL_ASSEMBLY_MEMBERS
 70
0
 62
7
  6
CONTINUOUS
370
-3
390
F
  0
LAYER
  5
21A
100
AcDbSymbolTableRecord
100
AcDbLayerTableRecord
  2
ALL_ASSEMBLY_MEMBERS_1
 70
0
 62
7
  6
CONTINUOUS
370
-3
390
F
  0
LAYER
  5
21B
100
AcDbSymbolTableRecord
100
AcDbLayerTableRecord
  2
ALL_ASSEMBLY_MEMBERS_2
 70
0
 62
7
  6
CONTINUOUS
370
-3
390
F
  0
LAYER
  5
21C
100
AcDbSymbolTableRecord
100
AcDbLayerTableRecord
  2
ALL_ASSEMBLY_MEMBERS_3
 70
0
 62
7
  6
CONTINUOUS
370
-3
390
F
  0
LAYER
  5
21D
100
AcDbSymbolTableRecord
100
AcDbLayerTableRecord
  2
ALL_ASSEMBLY_MEMBERS_4
 70
0
 62
7
  6
CONTINUOUS
370
-3
390
F
  0
LAYER
  5
21E
100
AcDbSymbolTableRecord
100
AcDbLayerTableRecord
  2
ALL_ASSEMBLY_MEMBERS_5
 70
0
 62
7
  6
CONTINUOUS
370
-3
390
F
  0
LAYER
  5
21F
100
AcDbSymbolTableRecord
100
AcDbLayerTableRecord
  2
ALL_ASSEMBLY_MEMBERS_6
 70
0
 62
7
  6
CONTINUOUS
370
-3
390
F
  0
LAYER
  5
220
100
AcDbSymbolTableRecord
100
AcDbLayerTableRecord
  2
ALL_ASSEMBLY_MEMBERS_7
 70
0
 62
7
  6
CONTINUOUS
370
-3
390
F
  0
LAYER
  5
221
100
AcDbSymbolTableRecord
100
AcDbLayerTableRecord
  2
ALL_ASSEMBLY_MEMBERS_8
 70
0
 62
7
  6
CONTINUOUS
370
-3
390
F
  0
LAYER
  5
222
100
AcDbSymbolTableRecord
100
AcDbLayerTableRecord
  2
ALL_ASSEMBLY_MEMBERS_9
 70
0
 62
7
  6
CONTINUOUS
370
-3
390
F
  0
LAYER
  5
223
100
AcDbSymbolTableRecord
100
AcDbLayerTableRecord
  2
COLOR10
 70
0
 62
7
  6
CONTINUOUS
370
-3
390
F
  0
LAYER
  5
224
100
AcDbSymbolTableRecord
100
AcDbLayerTableRecord
  2
COLOR11
 70
0
 62
7
  6
CONTINUOUS
370
-3
390
F
  0
LAYER
  5
225
100
AcDbSymbolTableRecord
100
AcDbLayerTableRecord
  2
COLOR12
 70
0
 62
7
  6
CONTINUOUS
370
-3
390
F
  0
LAYER
  5
226
100
AcDbSymbolTableRecord
100
AcDbLayerTableRecord
  2
COLOR13
 70
0
 62
7
  6
CONTINUOUS
370
-3
390
F
  0
LAYER
  5
227
100
AcDbSymbolTableRecord
100
AcDbLayerTableRecord
  2
COLOR14
 70
0
 62
7
  6
CONTINUOUS
370
-3
390
F
  0
LAYER
  5
228
100
AcDbSymbolTableRecord
100
AcDbLayerTableRecord
  2
COLOR15
 70
0
 62
7
  6
CONTINUOUS
370
-3
390
F
  0
LAYER
  5
229
100
AcDbSymbolTableRecord
100
AcDbLayerTableRecord
  2
COLOR16
 70
0
 62
7
  6
CONTINUOUS
370
-3
390
F
  0
LAYER
  5
22A
100
AcDbSymbolTableRecord
100
AcDbLayerTableRecord
  2
COLOR2
 70
0
 62
7
  6
CONTINUOUS
370
-3
390
F
  0
LAYER
  5
22B
100
AcDbSymbolTableRecord
100
AcDbLayerTableRecord
  2
COLOR3
 70
0
 62
7
  6
CONTINUOUS
370
-3
390
F
  0
LAYER
  5
22C
100
AcDbSymbolTableRecord
100
AcDbLayerTableRecord
  2
COLOR4
 70
0
 62
7
  6
CONTINUOUS
370
-3
390
F
  0
LAYER
  5
22D
100
AcDbSymbolTableRecord
100
AcDbLayerTableRecord
  2
COLOR5
 70
0
 62
7
  6
CONTINUOUS
370
-3
390
F
  0
LAYER
  5
22E
100
AcDbSymbolTableRecord
100
AcDbLayerTableRecord
  2
COLOR6
 70
0
 62
7
  6
CONTINUOUS
370
-3
390
F
  0
LAYER
  5
22F
100
AcDbSymbolTableRecord
100
AcDbLayerTableRecord
  2
COLOR7
 70
0
 62
7
  6
CONTINUOUS
370
-3
390
F
  0
LAYER
  5
230
100
AcDbSymbolTableRecord
100
AcDbLayerTableRecord
  2
COLOR8
 70
0
 62
7
  6
CONTINUOUS
370
-3
390
F
  0
LAYER
  5
231
100
AcDbSymbolTableRecord
100
AcDbLayerTableRecord
  2
COLOR9
 70
0
 62
7
  6
CONTINUOUS
370
-3
390
F
  0
LAYER
  5
232
100
AcDbSymbolTableRecord
100
AcDbLayerTableRecord
  2
DEFAULT_COORDINATE_SYSTEM
 70
0
 62
7
  6
CONTINUOUS
370
-3
390
F
  0
LAYER
  5
233
100
AcDbSymbolTableRecord
100
AcDbLayerTableRecord
  2
DEFAULT_DATUM_AXES
 70
0
 62
7
  6
CONTINUOUS
370
-3
390
F
  0
LAYER
  5
234
100
AcDbSymbolTableRecord
100
AcDbLayerTableRecord
  2
DEFAULT_DATUM_CURVES
 70
0
 62
7
  6
CONTINUOUS
370
-3
390
F
  0
LAYER
  5
235
100
AcDbSymbolTableRecord
100
AcDbLayerTableRecord
  2
DEFAULT_DATUM_PLANES
 70
0
 62
7
  6
CONTINUOUS
370
-3
390
F
  0
LAYER
  5
236
100
AcDbSymbolTableRecord
100
AcDbLayerTableRecord
  2
INTF_10016
 70
0
 62
7
  6
CONTINUOUS
370
-3
390
F
  0
LAYER
  5
237
100
AcDbSymbolTableRecord
100
AcDbLayerTableRecord
  2
INTF_10172
 70
0
 62
7
  6
CONTINUOUS
370
-3
390
F
  0
LAYER
  5
238
100
AcDbSymbolTableRecord
100
AcDbLayerTableRecord
  2
INTF_10173
 70
0
 62
7
  6
CONTINUOUS
370
-3
390
F
  0
LAYER
  5
239
100
AcDbSymbolTableRecord
100
AcDbLayerTableRecord
  2
INTF_10224
 70
0
 62
7
  6
CONTINUOUS
370
-3
390
F
  0
LAYER
  5
23A
100
AcDbSymbolTableRecord
100
AcDbLayerTableRecord
  2
INTF_10295
 70
0
 62
7
  6
CONTINUOUS
370
-3
390
F
  0
LAYER
  5
23B
100
AcDbSymbolTableRecord
100
AcDbLayerTableRecord
  2
INTF_10378
 70
0
 62
7
  6
CONTINUOUS
370
-3
390
F
  0
LAYER
  5
23C
100
AcDbSymbolTableRecord
100
AcDbLayerTableRecord
  2
INTF_10382
 70
0
 62
7
  6
CONTINUOUS
370
-3
390
F
  0
LAYER
  5
23D
100
AcDbSymbolTableRecord
100
AcDbLayerTableRecord
  2
INTF_10529
 70
0
 62
7
  6
CONTINUOUS
370
-3
390
F
  0
LAYER
  5
23E
100
AcDbSymbolTableRecord
100
AcDbLayerTableRecord
  2
INTF_11003
 70
0
 62
7
  6
CONTINUOUS
370
-3
390
F
  0
LAYER
  5
23F
100
AcDbSymbolTableRecord
100
AcDbLayerTableRecord
  2
INTF_91083
 70
0
 62
7
  6
CONTINUOUS
370
-3
390
F
  0
LAYER
  5
240
100
AcDbSymbolTableRecord
100
AcDbLayerTableRecord
  2
INTF_92006
 70
0
 62
7
  6
CONTINUOUS
370
-3
390
F
  0
LAYER
  5
241
100
AcDbSymbolTableRecord
100
AcDbLayerTableRecord
  2
SOLID_GEOMETRY
 70
0
 62
7
  6
CONTINUOUS
370
-3
390
F
  0
ENDTAB
  0
TABLE
  2
STYLE
  5
3
100
AcDbSymbolTable
 70
1
  0
STYLE
  5
11
100
AcDbSymbolTableRecord
100
AcDbTextStyleTableRecord
  2
STANDARD
 70
0
 40
0.0
 41
0.8
 50
0.0
 71
0
 42
0.2
  3
txt
  4

  0
STYLE
  5
242
100
AcDbSymbolTableRecord
100
AcDbTextStyleTableRecord
  2
TEXTSTYLE_1
 70
0
 40
0.0
 41
0.8
 50
0.0
 71
0
 42
0.2
  3
gdt
  4

  0
ENDTAB
  0
TABLE
  2
VIEW
  5
6
100
AcDbSymbolTable
 70
0
  0
ENDTAB
  0
TABLE
  2
UCS
  5
7
100
AcDbSymbolTable
 70
0
  0
ENDTAB
  0
TABLE
  2
APPID
  5
9
100
AcDbSymbolTable
 70
1
  0
APPID
  5
243
100
AcDbSymbolTableRecord
100
AcDbRegAppTableRecord
  2
ACAD
 70
0
  0
ENDTAB
  0
TABLE
  2
BLOCK_RECORD
  5
1
100
AcDbSymbolTable
 70
0
  0
BLOCK_RECORD
  5
244
100
AcDbSymbolTableRecord
100
AcDbBlockTableRecord
  2
*Model_Space
  0
BLOCK_RECORD
  5
245
100
AcDbSymbolTableRecord
100
AcDbBlockTableRecord
  2
*Paper_Space
  0
ENDTAB
  0
TABLE
  2
DIMSTYLE
  5
A
100
AcDbSymbolTable
 70
1
100
AcDbDimStyleTable
 71
0
  0
DIMSTYLE
105
246
100
AcDbSymbolTableRecord
100
AcDbDimStyleTableRecord
  2
STANDARD
 70
0
  3

  4

 40
1.0
 41
0.1875
 42
0.0625
 43
0.38
 44
0.18
 45
0.0
 46
0.0
 47
0.01
 48
0.01
140
0.15625
141
0.09
142
0.0
143
25.4
144
1.0
145
0.0
146
1.0
147
0.09
 71
0.0
 72
0.0
 73
1
 74
1
 75
0
 76
0
 77
0
 78
4
170
0
171
2
172
0
173
0
174
0
175
0
176
0
177
0
178
0
270
2
271
2
272
2
273
2
274
2
275
0
280
0
281
0
282
0
283
1
284
4
285
0
286
0
287
3
288
0
340
11
  0
ENDTAB
  0
ENDSEC
  0
SECTION
  2
BLOCKS
  0
BLOCK
  5
20
100
AcDbEntity
  8
0
100
AcDbBlockBegin
  2
*Model_Space
 70
0
 10
0.0
 20
0.0
 30
0.0
  3
*Model_Space
  1

  0
ENDBLK
  5
21
100
AcDbEntity
  8
0
100
AcDbBlockEnd
  0
BLOCK
  5
1C
100
AcDbEntity
  8
0
100
AcDbBlockBegin
  2
*Paper_Space
 70
0
 10
0.0
 20
0.0
 30
0.0
  3
*Paper_Space
  1

  0
ENDBLK
  5
1D
100
AcDbEntity
  8
0
100
AcDbBlockEnd
  0
ENDSEC
  0
SECTION
  2
ENTITIES
  0
LINE
  5
247
100
AcDbEntity
  8
0
100
AcDbLine
 62
7
  6
CONTINUOUS
 10
2.9439891921
 20
7.9100732745
 11
2.4340097472
 21
7.3188255993
  0
LINE
  5
248
100
AcDbEntity
  8
0
100
AcDbLine
 62
7
  6
CONTINUOUS
 10
3.5477260238
 20
8.4534627245
 11
2.9439891921
 21
7.9100732745
  0
LINE
  5
249
100
AcDbEntity
  8
0
100
AcDbLine
 62
7
  6
CONTINUOUS
 10
4.0195502229
 20
7.0392520344
 11
4.3449801698
 21
7.4359414563
  0
LINE
  5
24A
100
AcDbEntity
  8
0
100
AcDbLine
 62
7
  6
CONTINUOUS
 10
4.3449801698
 20
7.4359414563
 11
4.7411231251
 21
7.7957275381
  0
LINE
  5
24B
100
AcDbEntity
  8
0
100
AcDbLine
 62
7
  6
CONTINUOUS
 10
11.1915160865
 20
2.0040388167
 11
11.444569389
 21
2.0040388167
  0
LINE
  5
24C
100
AcDbEntity
  8
0
100
AcDbLine
 62
6
  6
CONTINUOUS
 10
11.444569389
 20
2.0040388167
 11
13.784462784
 21
2.0040388167
  0
LINE
  5
24D
100
AcDbEntity
  8
0
100
AcDbLine
 62
7
  6
CONTINUOUS
 10
13.7845160865
 20
2.0040388167
 11
14.0375160865
 21
2.0040388167
  0
LINE
  5
24E
100
AcDbEntity
  8
0
100
AcDbLine
 62
9
  6
CONTINUOUS
 10
13.7845158233
 20
2.0180388167
 11
11.4445163498
 21
2.0180388167
  0
LINE
  5
24F
100
AcDbEntity
  8
0
100
AcDbLine
 62
9
  6
CONTINUOUS
 10
11.5101445774
 20
2.1280388167
 11
13.7188875956
 21
2.1280388167
  0
LINE
  5
250
100
AcDbEntity
  8
0
100
AcDbLine
 62
9
  6
CONTINUOUS
 10
13.6864382597
 20
2.1790388167
 11
11.5425939133
 21
2.1790388167
  0
LINE
  5
251
100
AcDbEntity
  8
0
100
AcDbLine
 62
7
  6
CONTINUOUS
 10
13.9395160865
 20
2.1960388167
 11
13.6829444736
 21
2.1960388167
  0
LINE
  5
252
100
AcDbEntity
  8
0
100
AcDbLine
 62
7
  6
CONTINUOUS
 10
11.5460876994
 20
2.1960388167
 11
11.2895160865
 21
2.1960388167
  0
LWPOLYLINE
  5
253
100
AcDbEntity
  8
0
100
AcDbPolyline
 62
7
  6
CONTINUOUS
 90
4
 70
0
 10
4.7411231252
 20
7.7957275382
 10
5.1872315788
 20
8.0931164806
 10
5.6725783838
 20
8.3211046865
 10
6.1853824005
 20
8.4745303259
  0
LINE
  5
254
100
AcDbEntity
  8
0
100
AcDbLine
 62
9
  6
CONTINUOUS
 10
11.5737703507
 20
2.2370388167
 11
13.6552618223
 21
2.2370388167
  0
LINE
  5
255
100
AcDbEntity
  8
0
100
AcDbLine
 62
9
  6
CONTINUOUS
 10
13.6309864047
 20
2.2780388167
 11
11.5980457683
 21
2.2780388167
  0
LINE
  5
256
100
AcDbEntity
  8
0
100
AcDbLine
 62
9
  6
CONTINUOUS
 10
11.6351727119
 20
2.3340388167
 11
13.5938594611
 21
2.3340388167
  0
LINE
  5
257
100
AcDbEntity
  8
0
100
AcDbLine
 62
9
  6
CONTINUOUS
 10
13.5664640619
 20
2.3690388167
 11
11.6625681112
 21
2.3690388167
  0
LINE
  5
258
100
AcDbEntity
  8
0
100
AcDbLine
 62
9
  6
CONTINUOUS
 10
11.672692493
 20
2.3840388167
 11
13.55633968
 21
2.3840388167
  0
LINE
  5
259
100
AcDbEntity
  8
0
100
AcDbLine
 62
7
  6
CONTINUOUS
 10
13.8395160865
 20
2.3880388167
 11
13.5524574368
 21
2.3880388167
  0
LINE
  5
25A
100
AcDbEntity
  8
0
100
AcDbLine
 62
7
  6
CONTINUOUS
 10
11.6765747362
 20
2.3880388167
 11
11.3895160865
 21
2.3880388167
  0
LINE
  5
25B
100
AcDbEntity
  8
0
100
AcDbLine
 62
7
  6
CONTINUOUS
 10
13.5519732372
 20
2.5590388167
 11
11.6770589358
 21
2.5590388167
  0
LINE
  5
25C
100
AcDbEntity
  8
0
100
AcDbLine
 62
9
  6
CONTINUOUS
 10
13.757696359
 20
2.5680305556
 11
13.5519732372
 21
2.5680305556
  0
LINE
  5
25D
100
AcDbEntity
  8
0
100
AcDbLine
 62
9
  6
CONTINUOUS
 10
11.6770589358
 20
2.5680305556
 11
11.471335814
 21
2.5680305556
  0
LINE
  5
25E
100
AcDbEntity
  8
0
100
AcDbLine
 62
7
  6
CONTINUOUS
 10
13.739516086
 20
2.5790388167
 11
13.5520160865
 21
2.5790388167
  0
LINE
  5
25F
100
AcDbEntity
  8
0
100
AcDbLine
 62
7
  6
CONTINUOUS
 10
11.6770160865
 20
2.5790388167
 11
11.489516087
 21
2.5790388167
  0
LINE
  5
260
100
AcDbEntity
  8
0
100
AcDbLine
 62
7
  6
CONTINUOUS
 10
11.6770588106
 20
2.6040388167
 11
13.5519733624
 21
2.6040388167
  0
LINE
  5
261
100
AcDbEntity
  8
0
100
AcDbLine
 62
9
  6
CONTINUOUS
 10
13.4299862354
 20
2.6730388167
 11
13.3320160865
 21
2.6730388167
  0
LINE
  5
262
100
AcDbEntity
  8
0
100
AcDbLine
 62
9
  6
CONTINUOUS
 10
13.3100004526
 20
2.6730388167
 11
11.9245725352
 21
2.6730388167
  0
LINE
  5
263
100
AcDbEntity
  8
0
100
AcDbLine
 62
9
  6
CONTINUOUS
 10
11.8970160865
 20
2.6730388167
 11
11.7990459376
 21
2.6730388167
  0
LINE
  5
264
100
AcDbEntity
  8
0
100
AcDbLine
 62
7
  6
CONTINUOUS
 10
13.3320145838
 20
2.7085388167
 11
13.31706041
 21
2.7085388167
  0
LINE
  5
265
100
AcDbEntity
  8
0
100
AcDbLine
 62
7
  6
CONTINUOUS
 10
12.6294740921
 20
2.7085388167
 11
12.5995684555
 21
2.7085388167
  0
LINE
  5
266
100
AcDbEntity
  8
0
100
AcDbLine
 62
7
  6
CONTINUOUS
 10
11.911967067
 20
2.7085388167
 11
11.8970144126
 21
2.7085388167
  0
LINE
  5
267
100
AcDbEntity
  8
0
100
AcDbLine
 62
9
  6
CONTINUOUS
 10
13.4022632518
 20
3.0780388167
 11
11.8267689212
 21
3.0780388167
  0
LINE
  5
268
100
AcDbEntity
  8
0
100
AcDbLine
 62
9
  6
CONTINUOUS
 10
12.090021075
 20
3.6165332966
 11
13.139011098
 21
3.6165332966
  0
LINE
  5
269
100
AcDbEntity
  8
0
100
AcDbLine
 62
9
  6
CONTINUOUS
 10
13.0491811741
 20
3.8069338268
 11
12.1798509989
 21
3.8069338268
  0
LINE
  5
26A
100
AcDbEntity
  8
0
100
AcDbLine
 62
9
  6
CONTINUOUS
 10
12.2046512817
 20
3.9475833746
 11
13.02438132
 21
3.9475833746
  0
LINE
  5
26B
100
AcDbEntity
  8
0
100
AcDbLine
 62
9
  6
CONTINUOUS
 10
12.2815178408
 20
4.0120388167
 11
12.9475143322
 21
4.0120388167
  0
LINE
  5
26C
100
AcDbEntity
  8
0
100
AcDbLine
 62
7
  6
CONTINUOUS
 10
12.363305805
 20
4.1710388167
 11
12.8657462606
 21
4.1710388167
  0
LINE
  5
26D
100
AcDbEntity
  8
0
100
AcDbLine
 62
7
  6
CONTINUOUS
 10
12.4245061543
 20
4.2390388167
 11
12.8195160277
 21
4.2390388167
  0
LINE
  5
26E
100
AcDbEntity
  8
0
100
AcDbLine
 62
7
  6
CONTINUOUS
 10
12.4295170242
 20
4.2910388167
 11
12.7995151488
 21
4.2910388167
  0
LINE
  5
26F
100
AcDbEntity
  8
0
100
AcDbLine
 62
7
  6
CONTINUOUS
 10
12.4595174809
 20
4.3510388167
 11
12.7689909197
 21
4.3510388167
  0
LINE
  5
270
100
AcDbEntity
  8
0
100
AcDbLine
 62
7
  6
CONTINUOUS
 10
12.4510160865
 20
4.3595388167
 11
12.4512994876
 21
4.3595388167
  0
LINE
  5
271
100
AcDbEntity
  8
0
100
AcDbLine
 62
7
  6
CONTINUOUS
 10
12.4600412533
 20
4.3595388167
 11
12.4674059695
 21
4.3595388167
  0
LINE
  5
272
100
AcDbEntity
  8
0
100
AcDbLine
 62
7
  6
CONTINUOUS
 10
12.4923004121
 20
4.3595388167
 11
12.5059086331
 21
4.3595388167
  0
LINE
  5
273
100
AcDbEntity
  8
0
100
AcDbLine
 62
7
  6
CONTINUOUS
 10
12.5431657994
 20
4.3595388167
 11
12.560945797
 21
4.3595388167
  0
LINE
  5
274
100
AcDbEntity
  8
0
100
AcDbLine
 62
7
  6
CONTINUOUS
 10
12.6048936211
 20
4.3595388167
 11
12.6241385519
 21
4.3595388167
  0
LINE
  5
275
100
AcDbEntity
  8
0
100
AcDbLine
 62
7
  6
CONTINUOUS
 10
12.668086376
 20
4.3595388167
 11
12.6858663736
 21
4.3595388167
  0
LINE
  5
276
100
AcDbEntity
  8
0
100
AcDbLine
 62
7
  6
CONTINUOUS
 10
12.7231235399
 20
4.3595388167
 11
12.7367317609
 21
4.3595388167
  0
LINE
  5
277
100
AcDbEntity
  8
0
100
AcDbLine
 62
7
  6
CONTINUOUS
 10
12.7616262035
 20
4.3595388167
 11
12.7689909197
 21
4.3595388167
  0
LINE
  5
278
100
AcDbEntity
  8
0
100
AcDbLine
 62
7
  6
CONTINUOUS
 10
12.7777326854
 20
4.3595388167
 11
12.7779845764
 21
4.3595388167
  0
LINE
  5
279
100
AcDbEntity
  8
0
100
AcDbLine
 62
7
  6
CONTINUOUS
 10
12.430766826
 20
4.3810388167
 11
12.4365352316
 21
4.3810388167
  0
LINE
  5
27A
100
AcDbEntity
  8
0
100
AcDbLine
 62
7
  6
CONTINUOUS
 10
12.4529729152
 20
4.3810388167
 11
12.4693979422
 21
4.3810388167
  0
LINE
  5
27B
100
AcDbEntity
  8
0
100
AcDbLine
 62
7
  6
CONTINUOUS
 10
12.4997714213
 20
4.3810388167
 11
12.5243540257
 21
4.3810388167
  0
LINE
  5
27C
100
AcDbEntity
  8
0
100
AcDbLine
 62
7
  6
CONTINUOUS
 10
12.5640401465
 20
4.3810388167
 11
12.5930440569
 21
4.3810388167
  0
LINE
  5
27D
100
AcDbEntity
  8
0
100
AcDbLine
 62
7
  6
CONTINUOUS
 10
12.6359881161
 20
4.3810388167
 11
12.6649920265
 21
4.3810388167
  0
LINE
  5
27E
100
AcDbEntity
  8
0
100
AcDbLine
 62
7
  6
CONTINUOUS
 10
12.7046781473
 20
4.3810388167
 11
12.7292607517
 21
4.3810388167
  0
LINE
  5
27F
100
AcDbEntity
  8
0
100
AcDbLine
 62
7
  6
CONTINUOUS
 10
12.7596342308
 20
4.3810388167
 11
12.7760592578
 21
4.3810388167
  0
LINE
  5
280
100
AcDbEntity
  8
0
100
AcDbLine
 62
7
  6
CONTINUOUS
 10
12.7924969414
 20
4.3810388167
 11
12.798265347
 21
4.3810388167
  0
LINE
  5
281
100
AcDbEntity
  8
0
100
AcDbLine
 62
6
  6
CONTINUOUS
 10
12.6361660847
 20
4.6840388167
 11
12.5928660883
 21
4.6840388167
  0
LINE
  5
282
100
AcDbEntity
  8
0
100
AcDbLine
 62
7
  6
CONTINUOUS
 10
12.798265347
 20
5.0290388167
 11
12.7924969414
 21
5.0290388167
  0
LINE
  5
283
100
AcDbEntity
  8
0
100
AcDbLine
 62
7
  6
CONTINUOUS
 10
12.7760592578
 20
5.0290388167
 11
12.7596342308
 21
5.0290388167
  0
LINE
  5
284
100
AcDbEntity
  8
0
100
AcDbLine
 62
7
  6
CONTINUOUS
 10
12.7292607517
 20
5.0290388167
 11
12.7046781473
 21
5.0290388167
  0
LINE
  5
285
100
AcDbEntity
  8
0
100
AcDbLine
 62
7
  6
CONTINUOUS
 10
12.6649920265
 20
5.0290388167
 11
12.6359881161
 21
5.0290388167
  0
LINE
  5
286
100
AcDbEntity
  8
0
100
AcDbLine
 62
7
  6
CONTINUOUS
 10
12.5930440569
 20
5.0290388167
 11
12.5640401465
 21
5.0290388167
  0
LINE
  5
287
100
AcDbEntity
  8
0
100
AcDbLine
 62
7
  6
CONTINUOUS
 10
12.5243540257
 20
5.0290388167
 11
12.4997714213
 21
5.0290388167
  0
LINE
  5
288
100
AcDbEntity
  8
0
100
AcDbLine
 62
7
  6
CONTINUOUS
 10
12.4693979422
 20
5.0290388167
 11
12.4529729152
 21
5.0290388167
  0
LINE
  5
289
100
AcDbEntity
  8
0
100
AcDbLine
 62
7
  6
CONTINUOUS
 10
12.4365352316
 20
5.0290388167
 11
12.430766826
 21
5.0290388167
  0
LINE
  5
28A
100
AcDbEntity
  8
0
100
AcDbLine
 62
7
  6
CONTINUOUS
 10
12.7780160865
 20
5.0505388167
 11
12.7777326854
 21
5.0505388167
  0
LINE
  5
28B
100
AcDbEntity
  8
0
100
AcDbLine
 62
7
  6
CONTINUOUS
 10
12.7689909197
 20
5.0505388167
 11
12.7616262035
 21
5.0505388167
  0
LINE
  5
28C
100
AcDbEntity
  8
0
100
AcDbLine
 62
7
  6
CONTINUOUS
 10
12.7367317609
 20
5.0505388167
 11
12.7231235399
 21
5.0505388167
  0
LINE
  5
28D
100
AcDbEntity
  8
0
100
AcDbLine
 62
7
  6
CONTINUOUS
 10
12.6858663736
 20
5.0505388167
 11
12.668086376
 21
5.0505388167
  0
LINE
  5
28E
100
AcDbEntity
  8
0
100
AcDbLine
 62
7
  6
CONTINUOUS
 10
12.560945797
 20
5.0505388167
 11
12.5431657994
 21
5.0505388167
  0
LINE
  5
28F
100
AcDbEntity
  8
0
100
AcDbLine
 62
7
  6
CONTINUOUS
 10
12.5059086331
 20
5.0505388167
 11
12.4923004121
 21
5.0505388167
  0
LINE
  5
290
100
AcDbEntity
  8
0
100
AcDbLine
 62
7
  6
CONTINUOUS
 10
12.4674059695
 20
5.0505388167
 11
12.4600412533
 21
5.0505388167
  0
LINE
  5
291
100
AcDbEntity
  8
0
100
AcDbLine
 62
7
  6
CONTINUOUS
 10
12.4512994876
 20
5.0505388167
 11
12.4510475966
 21
5.0505388167
  0
LINE
  5
292
100
AcDbEntity
  8
0
100
AcDbLine
 62
6
  6
CONTINUOUS
 10
12.6361660847
 20
5.0590388167
 11
12.5928660883
 21
5.0590388167
  0
LINE
  5
293
100
AcDbEntity
  8
0
100
AcDbLine
 62
7
  6
CONTINUOUS
 10
12.6361660847
 20
5.0590388167
 11
12.769515644
 21
5.0590388167
  0
LINE
  5
294
100
AcDbEntity
  8
0
100
AcDbLine
 62
7
  6
CONTINUOUS
 10
12.4595167025
 20
5.0590382218
 11
12.5928660865
 21
5.0590384878
  0
LINE
  5
295
100
AcDbEntity
  8
0
100
AcDbLine
 62
7
  6
CONTINUOUS
 10
3.9435870894
 20
6.758172667
 11
2.4092569391
 21
7.0287164698
  0
LINE
  5
296
100
AcDbEntity
  8
0
100
AcDbLine
 62
7
  6
CONTINUOUS
 10
4.0195499659
 20
7.0392520797
 11
2.4340099482
 21
7.3188255639
  0
LINE
  5
297
100
AcDbEntity
  8
0
100
AcDbLine
 62
7
  6
CONTINUOUS
 10
12.3335864615
 20
4.0519122329
 11
12.3606946123
 21
4.0362408
  0
LINE
  5
298
100
AcDbEntity
  8
0
100
AcDbLine
 62
7
  6
CONTINUOUS
 10
12.3335950933
 20
4.1019028457
 11
12.3606904447
 21
4.0862387535
  0
LINE
  5
299
100
AcDbEntity
  8
0
100
AcDbLine
 62
7
  6
CONTINUOUS
 10
12.3404886995
 20
4.147915133
 11
12.3607269812
 21
4.1362146366
  0
LINE
  5
29A
100
AcDbEntity
  8
0
100
AcDbLine
 62
7
  6
CONTINUOUS
 10
12.8954150826
 20
4.0339282877
 11
12.8683084792
 21
4.0496006088
  0
LINE
  5
29B
100
AcDbEntity
  8
0
100
AcDbLine
 62
7
  6
CONTINUOUS
 10
12.8954248755
 20
4.083904803
 11
12.8682881773
 21
4.0995957452
  0
LINE
  5
29C
100
AcDbEntity
  8
0
100
AcDbLine
 62
7
  6
CONTINUOUS
 10
12.8954420182
 20
4.1339038326
 11
12.8683177006
 21
4.1495858046
  0
LINE
  5
29D
100
AcDbEntity
  8
0
100
AcDbLine
 62
9
  6
CONTINUOUS
 10
12.7982906314
 20
4.0267054834
 11
12.7806090698
 21
4.0423285817
  0
LINE
  5
29E
100
AcDbEntity
  8
0
100
AcDbLine
 62
7
  6
CONTINUOUS
 10
12.4510160865
 20
4.3595388167
 11
12.4595160865
 21
4.3510388167
  0
LINE
  5
29F
100
AcDbEntity
  8
0
100
AcDbLine
 62
7
  6
CONTINUOUS
 10
12.8657660984
 20
4.1710388048
 11
12.8727869107
 21
4.1640179926
  0
LINE
  5
2A0
100
AcDbEntity
  8
0
100
AcDbLine
 62
7
  6
CONTINUOUS
 10
12.8957660859
 20
4.0335359139
 11
12.8954150915
 21
4.0339345556
  0
LINE
  5
2A1
100
AcDbEntity
  8
0
100
AcDbLine
 62
7
  6
CONTINUOUS
 10
12.8957660864
 20
4.0835421121
 11
12.8954249165
 21
4.0839342093
  0
LINE
  5
2A2
100
AcDbEntity
  8
0
100
AcDbLine
 62
7
  6
CONTINUOUS
 10
12.3332660865
 20
4.1022849534
 11
12.3335950894
 21
4.1018999902
  0
LINE
  5
2A3
100
AcDbEntity
  8
0
100
AcDbLine
 62
7
  6
CONTINUOUS
 10
12.3332660865
 20
4.0522849805
 11
12.3335864519
 21
4.0519051018
  0
LINE
  5
2A4
100
AcDbEntity
  8
0
100
AcDbLine
 62
7
  6
CONTINUOUS
 10
6.1853824005
 20
8.4745303259
 11
6.713653593
 21
8.5500781352
  0
LINE
  5
2A5
100
AcDbEntity
  8
0
100
AcDbLine
 62
7
  6
CONTINUOUS
 10
6.713653593
 20
8.5500781352
 11
7.1407207112
 21
8.553482624
  0
LINE
  5
2A6
100
AcDbEntity
  8
0
100
AcDbLine
 62
7
  6
CONTINUOUS
 10
7.1407207112
 20
8.553482624
 11
7.1419710998
 21
8.5534173413
  0
LINE
  5
2A7
100
AcDbEntity
  8
0
100
AcDbLine
 62
7
  6
CONTINUOUS
 10
12.7695160865
 20
5.0590388167
 11
12.7780160865
 21
5.0505388167
  0
LINE
  5
2A8
100
AcDbEntity
  8
0
100
AcDbLine
 62
7
  6
CONTINUOUS
 10
12.8957660863
 20
4.1335383383
 11
12.8954420404
 21
4.1339202252
  0
LINE
  5
2A9
100
AcDbEntity
  8
0
100
AcDbLine
 62
6
  6
CONTINUOUS
 10
11.4445160865
 20
2.0180388167
 11
11.4445160865
 21
2.0040388167
  0
LINE
  5
2AA
100
AcDbEntity
  8
0
100
AcDbLine
 62
7
  6
CONTINUOUS
 10
11.4895160865
 20
3.5110388167
 11
11.4895160865
 21
2.5790388167
  0
LINE
  5
2AB
100
AcDbEntity
  8
0
100
AcDbLine
 62
7
  6
CONTINUOUS
 10
12.3403955591
 20
4.1481682887
 11
12.3404893822
 21
4.1479158153
  0
LINE
  5
2AC
100
AcDbEntity
  8
0
100
AcDbLine
 62
7
  6
CONTINUOUS
 10
11.6770160865
 20
2.5590388167
 11
11.6770160865
 21
2.6040388167
  0
LINE
  5
2AD
100
AcDbEntity
  8
0
100
AcDbLine
 62
7
  6
CONTINUOUS
 10
11.8970160865
 20
2.6040388167
 11
11.8970160865
 21
2.7085388167
  0
LINE
  5
2AE
100
AcDbEntity
  8
0
100
AcDbLine
 62
7
  6
CONTINUOUS
 10
11.911970635
 20
2.7085388167
 11
11.911970635
 21
2.6040388167
  0
LINE
  5
2AF
100
AcDbEntity
  8
0
100
AcDbLine
 62
7
  6
CONTINUOUS
 10
12.4595160865
 20
5.0590388167
 11
12.4510160865
 21
5.0505388167
  0
LINE
  5
2B0
100
AcDbEntity
  8
0
100
AcDbLine
 62
7
  6
CONTINUOUS
 10
12.3606919508
 20
4.0245864862
 11
12.3389874865
 21
4.0120388167
  0
LINE
  5
2B1
100
AcDbEntity
  8
0
100
AcDbLine
 62
7
  6
CONTINUOUS
 10
12.3332660865
 20
4.1085387748
 11
12.3332660865
 21
4.102284956
  0
LINE
  5
2B2
100
AcDbEntity
  8
0
100
AcDbLine
 62
7
  6
CONTINUOUS
 10
12.3332660865
 20
4.0585387583
 11
12.3332660865
 21
4.0522849804
  0
LINE
  5
2B3
100
AcDbEntity
  8
0
100
AcDbLine
 62
7
  6
CONTINUOUS
 10
12.3603268975
 20
4.0366650222
 11
12.3603268975
 21
4.0241650222
  0
LINE
  5
2B4
100
AcDbEntity
  8
0
100
AcDbLine
 62
7
  6
CONTINUOUS
 10
12.3603313173
 20
4.0866529576
 11
12.3603313173
 21
4.0741560452
  0
LINE
  5
2B5
100
AcDbEntity
  8
0
100
AcDbLine
 62
7
  6
CONTINUOUS
 10
12.3603403013
 20
4.1366646578
 11
12.3603403013
 21
4.1241697068
  0
LINE
  5
2B6
100
AcDbEntity
  8
0
100
AcDbLine
 62
7
  6
CONTINUOUS
 10
12.4245160277
 20
4.2390388167
 11
12.4245160277
 21
4.1710388167
  0
LINE
  5
2B7
100
AcDbEntity
  8
0
100
AcDbLine
 62
7
  6
CONTINUOUS
 10
12.4295160865
 20
4.2910388167
 11
12.4295160865
 21
4.2390388167
  0
LINE
  5
2B8
100
AcDbEntity
  8
0
100
AcDbLine
 62
7
  6
CONTINUOUS
 10
12.4307669596
 20
4.3810388167
 11
12.4307669596
 21
5.0290388167
  0
LINE
  5
2B9
100
AcDbEntity
  8
0
100
AcDbLine
 62
7
  6
CONTINUOUS
 10
12.4365351653
 20
5.0290388167
 11
12.4365351653
 21
4.3810388167
  0
LINE
  5
2BA
100
AcDbEntity
  8
0
100
AcDbLine
 62
7
  6
CONTINUOUS
 10
12.4529728927
 20
4.3810388167
 11
12.4529728927
 21
5.0290388167
  0
LINE
  5
2BB
100
AcDbEntity
  8
0
100
AcDbLine
 62
7
  6
CONTINUOUS
 10
12.4600412533
 20
4.3595388167
 11
12.4600412533
 21
4.3704458935
  0
LINE
  5
2BC
100
AcDbEntity
  8
0
100
AcDbLine
 62
7
  6
CONTINUOUS
 10
12.4600412533
 20
5.03963174
 11
12.4600412533
 21
5.0505388167
  0
LINE
  5
2BD
100
AcDbEntity
  8
0
100
AcDbLine
 62
7
  6
CONTINUOUS
 10
12.4630160865
 20
4.3510388167
 11
12.4630160865
 21
4.2910388167
  0
LINE
  5
2BE
100
AcDbEntity
  8
0
100
AcDbLine
 62
7
  6
CONTINUOUS
 10
12.4693993528
 20
5.0290388167
 11
12.4693993528
 21
4.3810388167
  0
LINE
  5
2BF
100
AcDbEntity
  8
0
100
AcDbLine
 62
7
  6
CONTINUOUS
 10
12.3632667416
 20
4.1710394718
 11
12.3403960687
 21
4.148168799
  0
LINE
  5
2C0
100
AcDbEntity
  8
0
100
AcDbLine
 62
7
  6
CONTINUOUS
 10
12.8682583723
 20
4.0112215091
 11
12.8954128896
 21
4.0269245987
  0
LINE
  5
2C1
100
AcDbEntity
  8
0
100
AcDbLine
 62
7
  6
CONTINUOUS
 10
12.8683038203
 20
4.1112147083
 11
12.8954335272
 21
4.1268986428
  0
LINE
  5
2C2
100
AcDbEntity
  8
0
100
AcDbLine
 62
7
  6
CONTINUOUS
 10
12.8683060294
 20
4.0612211269
 11
12.8954390155
 21
4.0769071905
  0
LWPOLYLINE
  5
2C3
100
AcDbEntity
  8
0
100
AcDbPolyline
 62
7
  6
CONTINUOUS
 90
5
 70
0
 10
6.4990179632
 20
9.7336837931
 10
5.7045570616
 20
9.560214304
 10
4.9395947834
 20
9.285700317
 10
4.2166261029
 20
8.9146642042
 10
3.5477260239
 20
8.4534627246
  0
LINE
  5
2C4
100
AcDbEntity
  8
0
100
AcDbLine
 62
7
  6
CONTINUOUS
 10
7.2505463488
 20
9.8020182918
 11
6.4990179632
 21
9.7336837931
  0
LINE
  5
2C5
100
AcDbEntity
  8
0
100
AcDbLine
 62
7
  6
CONTINUOUS
 10
7.2512113285
 20
9.8020388693
 11
7.2505463483
 21
9.8020182918
  0
LINE
  5
2C6
100
AcDbEntity
  8
0
100
AcDbLine
 62
7
  6
CONTINUOUS
 10
12.4923004121
 20
4.3595388167
 11
12.4923004121
 21
5.0505388167
  0
LINE
  5
2C7
100
AcDbEntity
  8
0
100
AcDbLine
 62
7
  6
CONTINUOUS
 10
12.4997723128
 20
4.3810388167
 11
12.4997723128
 21
5.0290388167
  0
LINE
  5
2C8
100
AcDbEntity
  8
0
100
AcDbLine
 62
9
  6
CONTINUOUS
 10
12.5234820704
 20
4.2390388167
 11
12.5234820704
 21
4.1710388167
  0
LINE
  5
2C9
100
AcDbEntity
  8
0
100
AcDbLine
 62
7
  6
CONTINUOUS
 10
12.5243562476
 20
5.0290388167
 11
12.5243562476
 21
4.3810388167
  0
LINE
  5
2CA
100
AcDbEntity
  8
0
100
AcDbLine
 62
7
  6
CONTINUOUS
 10
12.5431657994
 20
4.3595388167
 11
12.5431657994
 21
5.0505388167
  0
LINE
  5
2CB
100
AcDbEntity
  8
0
100
AcDbLine
 62
7
  6
CONTINUOUS
 10
12.560945797
 20
5.0505388167
 11
12.560945797
 21
4.3595388167
  0
LINE
  5
2CC
100
AcDbEntity
  8
0
100
AcDbLine
 62
7
  6
CONTINUOUS
 10
12.5640404322
 20
4.3810388167
 11
12.5640404322
 21
5.0290388167
  0
LINE
  5
2CD
100
AcDbEntity
  8
0
100
AcDbLine
 62
6
  6
CONTINUOUS
 10
12.5928660865
 20
4.6840388167
 11
12.5928660865
 21
5.0590388167
  0
LINE
  5
2CE
100
AcDbEntity
  8
0
100
AcDbLine
 62
7
  6
CONTINUOUS
 10
12.5930391605
 20
4.6840388167
 11
12.5930391605
 21
4.3810388167
  0
LINE
  5
2CF
100
AcDbEntity
  8
0
100
AcDbLine
 62
7
  6
CONTINUOUS
 10
12.599561538
 20
2.6040388167
 11
12.599561538
 21
2.7085388167
  0
LINE
  5
2D0
100
AcDbEntity
  8
0
100
AcDbLine
 62
7
  6
CONTINUOUS
 10
12.6048936211
 20
4.3595388167
 11
12.6048936211
 21
4.6840388167
  0
LINE
  5
2D1
100
AcDbEntity
  8
0
100
AcDbLine
 62
7
  6
CONTINUOUS
 10
12.6241385519
 20
4.6840388167
 11
12.6241385519
 21
4.3595388167
  0
LINE
  5
2D2
100
AcDbEntity
  8
0
100
AcDbLine
 62
7
  6
CONTINUOUS
 10
12.629470635
 20
2.7085388167
 11
12.629470635
 21
2.6040388167
  0
LINE
  5
2D3
100
AcDbEntity
  8
0
100
AcDbLine
 62
7
  6
CONTINUOUS
 10
12.6359930125
 20
4.3810388167
 11
12.6359930125
 21
4.6840388167
  0
LINE
  5
2D4
100
AcDbEntity
  8
0
100
AcDbLine
 62
6
  6
CONTINUOUS
 10
12.6361660865
 20
4.6840388167
 11
12.6361660865
 21
5.0590388167
  0
LINE
  5
2D5
100
AcDbEntity
  8
0
100
AcDbLine
 62
7
  6
CONTINUOUS
 10
12.6649917408
 20
5.0290388167
 11
12.6649917408
 21
4.3810388167
  0
LINE
  5
2D6
100
AcDbEntity
  8
0
100
AcDbLine
 62
7
  6
CONTINUOUS
 10
12.668086376
 20
4.3595388167
 11
12.668086376
 21
5.0505388167
  0
LINE
  5
2D7
100
AcDbEntity
  8
0
100
AcDbLine
 62
7
  6
CONTINUOUS
 10
12.6858663736
 20
5.0505388167
 11
12.6858663736
 21
4.3595388167
  0
LINE
  5
2D8
100
AcDbEntity
  8
0
100
AcDbLine
 62
7
  6
CONTINUOUS
 10
12.7046759254
 20
4.3810388167
 11
12.7046759254
 21
5.0290388167
  0
LINE
  5
2D9
100
AcDbEntity
  8
0
100
AcDbLine
 62
7
  6
CONTINUOUS
 10
12.7292598602
 20
5.0290388167
 11
12.7292598602
 21
4.3810388167
  0
LINE
  5
2DA
100
AcDbEntity
  8
0
100
AcDbLine
 62
9
  6
CONTINUOUS
 10
12.730444791
 20
4.2390388167
 11
12.730444791
 21
4.1710388167
  0
LINE
  5
2DB
100
AcDbEntity
  8
0
100
AcDbLine
 62
7
  6
CONTINUOUS
 10
12.7367317609
 20
5.0505388167
 11
12.7367317609
 21
4.3595388167
  0
LINE
  5
2DC
100
AcDbEntity
  8
0
100
AcDbLine
 62
7
  6
CONTINUOUS
 10
12.7596328202
 20
4.3810388167
 11
12.7596328202
 21
5.0290388167
  0
LINE
  5
2DD
100
AcDbEntity
  8
0
100
AcDbLine
 62
9
  6
CONTINUOUS
 10
12.7636004617
 20
4.1710388167
 11
12.7636004617
 21
4.2390388167
  0
LINE
  5
2DE
100
AcDbEntity
  8
0
100
AcDbLine
 62
7
  6
CONTINUOUS
 10
12.7660160865
 20
4.3510388167
 11
12.7660160865
 21
4.2910388167
  0
LINE
  5
2DF
100
AcDbEntity
  8
0
100
AcDbLine
 62
7
  6
CONTINUOUS
 10
12.7689909197
 20
5.0505388167
 11
12.7689909197
 21
5.03963174
  0
LINE
  5
2E0
100
AcDbEntity
  8
0
100
AcDbLine
 62
7
  6
CONTINUOUS
 10
12.7689909197
 20
4.3704458935
 11
12.7689909197
 21
4.3595388167
  0
LINE
  5
2E1
100
AcDbEntity
  8
0
100
AcDbLine
 62
7
  6
CONTINUOUS
 10
12.7760592803
 20
5.0290388167
 11
12.7760592803
 21
4.3810388167
  0
LINE
  5
2E2
100
AcDbEntity
  8
0
100
AcDbLine
 62
9
  6
CONTINUOUS
 10
12.7806090698
 20
4.0423285817
 11
12.7806090698
 21
4.0548285817
  0
LINE
  5
2E3
100
AcDbEntity
  8
0
100
AcDbLine
 62
7
  6
CONTINUOUS
 10
12.7924970077
 20
4.3810388167
 11
12.7924970077
 21
5.0290388167
  0
LINE
  5
2E4
100
AcDbEntity
  8
0
100
AcDbLine
 62
7
  6
CONTINUOUS
 10
12.7958433783
 20
4.2390388167
 11
12.7958433783
 21
4.1710388167
  0
LINE
  5
2E5
100
AcDbEntity
  8
0
100
AcDbLine
 62
7
  6
CONTINUOUS
 10
12.7982652134
 20
5.0290388167
 11
12.7982652134
 21
4.3810388167
  0
LINE
  5
2E6
100
AcDbEntity
  8
0
100
AcDbLine
 62
7
  6
CONTINUOUS
 10
12.7995160865
 20
4.2910388167
 11
12.7995160865
 21
4.2390388167
  0
LINE
  5
2E7
100
AcDbEntity
  8
0
100
AcDbLine
 62
7
  6
CONTINUOUS
 10
12.8195160277
 20
4.1710388167
 11
12.8195160277
 21
4.2390388167
  0
LINE
  5
2E8
100
AcDbEntity
  8
0
100
AcDbLine
 62
7
  6
CONTINUOUS
 10
12.8686647836
 20
4.099160243
 11
12.8686647835
 21
4.1116372835
  0
LINE
  5
2E9
100
AcDbEntity
  8
0
100
AcDbLine
 62
7
  6
CONTINUOUS
 10
12.8686806013
 20
4.0491697812
 11
12.8686806013
 21
4.0616563054
  0
LINE
  5
2EA
100
AcDbEntity
  8
0
100
AcDbLine
 62
7
  6
CONTINUOUS
 10
12.8686915178
 20
4.1491541169
 11
12.8686915178
 21
4.1616512694
  0
LINE
  5
2EB
100
AcDbEntity
  8
0
100
AcDbLine
 62
7
  6
CONTINUOUS
 10
12.8957660865
 20
4.1335386751
 11
12.8957660865
 21
4.1272854447
  0
LINE
  5
2EC
100
AcDbEntity
  8
0
100
AcDbLine
 62
7
  6
CONTINUOUS
 10
12.8957660865
 20
4.0835415601
 11
12.8957660865
 21
4.0772821723
  0
LINE
  5
2ED
100
AcDbEntity
  8
0
100
AcDbLine
 62
7
  6
CONTINUOUS
 10
12.8957660865
 20
4.0335359489
 11
12.8957660865
 21
4.0272882109
  0
LINE
  5
2EE
100
AcDbEntity
  8
0
100
AcDbLine
 62
6
  6
CONTINUOUS
 10
12.204650853
 20
3.9475833746
 11
12.1798505429
 21
3.8069338268
  0
LINE
  5
2EF
100
AcDbEntity
  8
0
100
AcDbLine
 62
7
  6
CONTINUOUS
 10
12.3332660865
 20
4.0585387701
 11
12.3335893331
 21
4.0589203207
  0
LINE
  5
2F0
100
AcDbEntity
  8
0
100
AcDbLine
 62
7
  6
CONTINUOUS
 10
12.8957660851
 20
4.127284776
 11
12.895433527
 21
4.1268987759
  0
LINE
  5
2F1
100
AcDbEntity
  8
0
100
AcDbLine
 62
7
  6
CONTINUOUS
 10
12.3332660865
 20
4.108538801
 11
12.3336122914
 21
4.108933661
  0
LINE
  5
2F2
100
AcDbEntity
  8
0
100
AcDbLine
 62
7
  6
CONTINUOUS
 10
12.7780160865
 20
4.3595388167
 11
12.7695160865
 21
4.3510388167
  0
LINE
  5
2F3
100
AcDbEntity
  8
0
100
AcDbLine
 62
9
  6
CONTINUOUS
 10
12.7806090698
 20
4.0548285817
 11
12.7982906314
 21
4.07045168
  0
LINE
  5
2F4
100
AcDbEntity
  8
0
100
AcDbLine
 62
6
  6
CONTINUOUS
 10
13.02438132
 20
3.9475833746
 11
13.0491816301
 21
3.8069338268
  0
LINE
  5
2F5
100
AcDbEntity
  8
0
100
AcDbLine
 62
7
  6
CONTINUOUS
 10
13.317061538
 20
2.6040388167
 11
13.317061538
 21
2.7085388167
  0
LINE
  5
2F6
100
AcDbEntity
  8
0
100
AcDbLine
 62
7
  6
CONTINUOUS
 10
13.3320160865
 20
2.7085388167
 11
13.3320160865
 21
2.6040388167
  0
LINE
  5
2F7
100
AcDbEntity
  8
0
100
AcDbLine
 62
7
  6
CONTINUOUS
 10
12.8727871419
 20
4.1640177611
 11
12.8726854338
 21
4.163747242
  0
LINE
  5
2F8
100
AcDbEntity
  8
0
100
AcDbLine
 62
7
  6
CONTINUOUS
 10
12.8957660862
 20
4.0772820057
 11
12.8954390294
 21
4.0768970074
  0
LINE
  5
2F9
100
AcDbEntity
  8
0
100
AcDbLine
 62
7
  6
CONTINUOUS
 10
12.8957660865
 20
4.0272886934
 11
12.89541294
 21
4.0268890837
  0
LINE
  5
2FA
100
AcDbEntity
  8
0
100
AcDbLine
 62
7
  6
CONTINUOUS
 10
13.5520160865
 20
2.5590388167
 11
13.5520160865
 21
2.6040388167
  0
LINE
  5
2FB
100
AcDbEntity
  8
0
100
AcDbLine
 62
7
  6
CONTINUOUS
 10
13.7395160865
 20
2.5790388167
 11
13.7395160865
 21
2.9582638979
  0
LINE
  5
2FC
100
AcDbEntity
  8
0
100
AcDbLine
 62
7
  6
CONTINUOUS
 10
13.7395178834
 20
2.9815831939
 11
13.7395160865
 21
3.5110388167
  0
LINE
  5
2FD
100
AcDbEntity
  8
0
100
AcDbLine
 62
6
  6
CONTINUOUS
 10
13.7845160865
 20
2.0180388167
 11
13.7845160865
 21
2.0040388167
  0
LINE
  5
2FE
100
AcDbEntity
  8
0
100
AcDbLine
 62
7
  6
CONTINUOUS
 10
13.7395156802
 20
2.981583194
 11
13.7395160865
 21
2.9815988163
  0
LINE
  5
2FF
100
AcDbEntity
  8
0
100
AcDbLine
 62
7
  6
CONTINUOUS
 10
13.7395092915
 20
2.9815831945
 11
13.7395160582
 21
2.9815988167
  0
ARC
  5
300
100
AcDbEntity
  8
0
100
AcDbCircle
 62
7
  6
CONTINUOUS
 10
7.4455010087
 20
3.5110310693
 40
6.294
100
AcDbArc
 50
0.0000785783
 51
91.7689441519
  0
ARC
  5
301
100
AcDbEntity
  8
0
100
AcDbCircle
 62
7
  6
CONTINUOUS
 10
6.6290910472
 20
4.1857555653
 40
5.9945601044
100
AcDbArc
 50
8.0868930631
 51
8.29450716
  0
ARC
  5
302
100
AcDbEntity
  8
0
100
AcDbCircle
 62
7
  6
CONTINUOUS
 10
7.0569978965
 20
5.1627306449
 40
5.5622441159
100
AcDbArc
 50
351.6974246034
 51
351.9211751736
  0
ARC
  5
303
100
AcDbEntity
  8
0
100
AcDbCircle
 62
7
  6
CONTINUOUS
 10
6.3035156511
 20
3.5110372177
 40
5.186
100
AcDbArc
 50
0.0000176662
 51
65.9154442231
  0
ARC
  5
304
100
AcDbEntity
  8
0
100
AcDbCircle
 62
7
  6
CONTINUOUS
 10
9.1843034581
 20
4.0299089133
 40
3.683066176
100
AcDbArc
 50
15.7402498878
 51
15.8582734879
  0
ARC
  5
305
100
AcDbEntity
  8
0
100
AcDbCircle
 62
7
  6
CONTINUOUS
 10
6.9535833013
 20
4.9653635682
 40
3.593
100
AcDbArc
 50
65.915246771
 51
86.9944921623
  0
ARC
  5
306
100
AcDbEntity
  8
0
100
AcDbCircle
 62
7
  6
CONTINUOUS
 10
9.4519406759
 20
5.304545846
 40
3.4049502594
100
AcDbArc
 50
343.9499105063
 51
344.2628360836
  0
ARC
  5
307
100
AcDbEntity
  8
0
100
AcDbCircle
 62
7
  6
CONTINUOUS
 10
9.9578504064
 20
4.2501313173
 40
2.8787823238
100
AcDbArc
 50
15.849070492
 51
16.1430712194
  0
ARC
  5
308
100
AcDbEntity
  8
0
100
AcDbCircle
 62
7
  6
CONTINUOUS
 10
3.8639038165
 20
6.9195744652
 40
0.18
100
AcDbArc
 50
296.2753693355
 51
43.6033415742
  0
ARC
  5
309
100
AcDbEntity
  8
0
100
AcDbCircle
 62
7
  6
CONTINUOUS
 10
2.5393373887
 20
7.1531312641
 40
0.18
100
AcDbArc
 50
116.3966584289
 51
223.7246306637
  0
ARC
  5
30A
100
AcDbEntity
  8
0
100
AcDbCircle
 62
7
  6
CONTINUOUS
 10
13.6558984116
 20
-52.3518714092
 40
56.5175596941
100
AcDbArc
 50
91.0557814099
 51
91.1889503952
  0
ARC
  5
30B
100
AcDbEntity
  8
0
100
AcDbCircle
 62
7
  6
CONTINUOUS
 10
10.9256400955
 20
3.0134700804
 40
2.7473026884
100
AcDbArc
 50
47.1935761929
 51
47.4184212812
  0
ARC
  5
30C
100
AcDbEntity
  8
0
100
AcDbCircle
 62
7
  6
CONTINUOUS
 10
11.0198340192
 20
3.1995244851
 40
2.5246826647
100
AcDbArc
 50
46.4398398133
 51
46.9188778743
  0
ARC
  5
30D
100
AcDbEntity
  8
0
100
AcDbCircle
 62
7
  6
CONTINUOUS
 10
10.998412696
 20
3.3318360197
 40
2.4738565882
100
AcDbArc
 50
43.3186690123
 51
43.6675884168
  0
ARC
  5
30E
100
AcDbEntity
  8
0
100
AcDbCircle
 62
7
  6
CONTINUOUS
 10
10.7606694928
 20
3.6929890949
 40
2.4180208549
100
AcDbArc
 50
33.5413425835
 51
33.7492365695
  0
ARC
  5
30F
100
AcDbEntity
  8
0
100
AcDbCircle
 62
7
  6
CONTINUOUS
 10
11.1584227994
 20
3.266808067
 40
2.4032562927
100
AcDbArc
 50
47.4180133619
 51
47.6711804194
  0
ARC
  5
310
100
AcDbEntity
  8
0
100
AcDbCircle
 62
7
  6
CONTINUOUS
 10
11.0113535308
 20
3.5665918081
 40
2.2374297721
100
AcDbArc
 50
40.8157081871
 51
41.5472419103
  0
ARC
  5
311
100
AcDbEntity
  8
0
100
AcDbCircle
 62
7
  6
CONTINUOUS
 10
11.0226021965
 20
3.868020301
 40
2.1029896436
100
AcDbArc
 50
33.7488193553
 51
33.9840153299
  0
ARC
  5
312
100
AcDbEntity
  8
0
100
AcDbCircle
 62
7
  6
CONTINUOUS
 10
11.3374830612
 20
3.5388080201
 40
2.0599094458
100
AcDbArc
 50
46.9262471137
 51
47.2128444241
  0
ARC
  5
313
100
AcDbEntity
  8
0
100
AcDbCircle
 62
7
  6
CONTINUOUS
 10
11.4028761912
 20
3.5355035936
 40
2.0400002889
100
AcDbArc
 50
47.7769407376
 51
47.9588634878
  0
ARC
  5
314
100
AcDbEntity
  8
0
100
AcDbCircle
 62
7
  6
CONTINUOUS
 10
11.3807281752
 20
3.6973339746
 40
1.9449382886
100
AcDbArc
 50
43.8001783107
 51
44.0875880096
  0
ARC
  5
315
100
AcDbEntity
  8
0
100
AcDbCircle
 62
7
  6
CONTINUOUS
 10
11.2571497147
 20
4.0261476173
 40
1.8201172585
100
AcDbArc
 50
33.983540121
 51
34.2507707049
  0
ARC
  5
316
100
AcDbEntity
  8
0
100
AcDbCircle
 62
6
  6
CONTINUOUS
 10
11.4567830672
 20
2.6505574768
 40
0.343
100
AcDbArc
 50
352.1878524775
 51
3.7580464624
  0
ARC
  5
317
100
AcDbEntity
  8
0
100
AcDbCircle
 62
6
  6
CONTINUOUS
 10
11.4567830672
 20
2.6505574768
 40
0.343
100
AcDbArc
 50
309.0112542966
 51
344.4090738676
  0
ARC
  5
318
100
AcDbEntity
  8
0
100
AcDbCircle
 62
7
  6
CONTINUOUS
 10
11.4790888629
 20
2.2193446624
 40
0.191
100
AcDbArc
 50
117.9672901181
 51
187.0087046342
  0
ARC
  5
319
100
AcDbEntity
  8
0
100
AcDbCircle
 62
7
  6
CONTINUOUS
 10
11.3809622036
 20
2.0283527778
 40
0.191
100
AcDbArc
 50
118.6054573412
 51
187.3134948397
  0
ARC
  5
31A
100
AcDbEntity
  8
0
100
AcDbCircle
 62
7
  6
CONTINUOUS
 10
11.5069147275
 20
2.5160388168
 40
0.063
100
AcDbArc
 50
112.8800611775
 51
124.3845618996
  0
ARC
  5
31B
100
AcDbEntity
  8
0
100
AcDbCircle
 62
6
  6
CONTINUOUS
 10
11.4806960077
 20
2.1825988167
 40
0.062
100
AcDbArc
 50
298.3576365766
 51
356.7083028349
  0
ARC
  5
31C
100
AcDbEntity
  8
0
100
AcDbCircle
 62
7
  6
CONTINUOUS
 10
10.9256400982
 20
6.3966075502
 40
2.7473026844
100
AcDbArc
 50
312.5815787146
 51
312.8064238072
  0
ARC
  5
31D
100
AcDbEntity
  8
0
100
AcDbCircle
 62
7
  6
CONTINUOUS
 10
10.8962122867
 20
6.3411131958
 40
2.7044828815
100
AcDbArc
 50
313.3265782079
 51
313.5519326179
  0
ARC
  5
31E
100
AcDbEntity
  8
0
100
AcDbCircle
 62
7
  6
CONTINUOUS
 10
10.9985462133
 20
6.0781152006
 40
2.4736727213
100
AcDbArc
 50
316.3321344946
 51
316.6813395928
  0
ARC
  5
31F
100
AcDbEntity
  8
0
100
AcDbCircle
 62
7
  6
CONTINUOUS
 10
11.1584228014
 20
6.1432695643
 40
2.4032562898
100
AcDbArc
 50
312.3288195802
 51
312.5819866336
  0
ARC
  5
320
100
AcDbEntity
  8
0
100
AcDbCircle
 62
7
  6
CONTINUOUS
 10
11.1570338138
 20
6.0643824478
 40
2.3242094521
100
AcDbArc
 50
313.0720118244
 51
313.2636835454
  0
ARC
  5
321
100
AcDbEntity
  8
0
100
AcDbCircle
 62
7
  6
CONTINUOUS
 10
10.852455695
 20
5.6561226656
 40
2.3078322242
100
AcDbArc
 50
326.0289720278
 51
326.4611120101
  0
ARC
  5
322
100
AcDbEntity
  8
0
100
AcDbCircle
 62
7
  6
CONTINUOUS
 10
10.6271777824
 20
5.4742707277
 40
2.2870274681
100
AcDbArc
 50
331.0300772502
 51
331.4442048775
  0
ARC
  5
323
100
AcDbEntity
  8
0
100
AcDbCircle
 62
7
  6
CONTINUOUS
 10
11.3666721506
 20
5.9146131788
 40
2.0939804683
100
AcDbArc
 50
312.0431798106
 51
312.3292704858
  0
ARC
  5
324
100
AcDbEntity
  8
0
100
AcDbCircle
 62
7
  6
CONTINUOUS
 10
11.124195745
 20
5.7447643614
 40
2.0875020866
100
AcDbArc
 50
318.4264877417
 51
319.2105621609
  0
ARC
  5
325
100
AcDbEntity
  8
0
100
AcDbCircle
 62
7
  6
CONTINUOUS
 10
11.3374830614
 20
5.8712696131
 40
2.0599094455
100
AcDbArc
 50
312.7871555759
 51
313.073752886
  0
ARC
  5
326
100
AcDbEntity
  8
0
100
AcDbCircle
 62
7
  6
CONTINUOUS
 10
11.380728175
 20
5.712743659
 40
1.9449382888
100
AcDbArc
 50
315.9124119904
 51
316.1998216896
  0
ARC
  5
327
100
AcDbEntity
  8
0
100
AcDbCircle
 62
7
  6
CONTINUOUS
 10
10.9796266643
 20
5.2792253569
 40
1.8842087677
100
AcDbArc
 50
330.7840758442
 51
331.0279904711
  0
ARC
  5
328
100
AcDbEntity
  8
0
100
AcDbCircle
 62
6
  6
CONTINUOUS
 10
11.9132550619
 20
2.7726645798
 40
1.52
100
AcDbArc
 50
356.2419535375
 51
11.5898335018
  0
ARC
  5
329
100
AcDbEntity
  8
0
100
AcDbCircle
 62
6
  6
CONTINUOUS
 10
12.2267305541
 20
2.8369538928
 40
1.2
100
AcDbArc
 50
11.5898335019
 51
40.5151811264
  0
ARC
  5
32A
100
AcDbEntity
  8
0
100
AcDbCircle
 62
7
  6
CONTINUOUS
 10
12.4156553392
 20
3.2187284825
 40
0.8389025328
100
AcDbArc
 50
93.7559931826
 51
93.8972325267
  0
ARC
  5
32B
100
AcDbEntity
  8
0
100
AcDbCircle
 62
7
  6
CONTINUOUS
 10
12.4151578973
 20
3.284705275
 40
0.8291659134
100
AcDbArc
 50
93.7468747487
 51
93.913621983
  0
ARC
  5
32C
100
AcDbEntity
  8
0
100
AcDbCircle
 62
7
  6
CONTINUOUS
 10
12.4139987723
 20
3.2505236601
 40
0.8133074883
100
AcDbArc
 50
93.740129906
 51
93.9082034079
  0
ARC
  5
32D
100
AcDbEntity
  8
0
100
AcDbCircle
 62
6
  6
CONTINUOUS
 10
11.7859274417
 20
3.8763930979
 40
0.4
100
AcDbArc
 50
319.4848188738
 51
350.0
  0
ARC
  5
32E
100
AcDbEntity
  8
0
100
AcDbCircle
 62
7
  6
CONTINUOUS
 10
11.5792020439
 20
2.4104048076
 40
0.191
100
AcDbArc
 50
124.3845618873
 51
186.7247317394
  0
ARC
  5
32F
100
AcDbEntity
  8
0
100
AcDbCircle
 62
6
  6
CONTINUOUS
 10
11.5695160865
 20
2.0180388167
 40
0.125
100
AcDbArc
 50
118.357636576
 51
180.0
  0
ARC
  5
330
100
AcDbEntity
  8
0
100
AcDbCircle
 62
6
  6
CONTINUOUS
 10
11.6204650284
 20
2.1745601071
 40
0.078
100
AcDbArc
 50
126.7734275123
 51
176.7083028314
  0
ARC
  5
331
100
AcDbEntity
  8
0
100
AcDbCircle
 62
6
  6
CONTINUOUS
 10
11.6752804958
 20
2.2671407522
 40
0.078
100
AcDbArc
 50
120.9443106095
 51
171.9684266468
  0
ARC
  5
332
100
AcDbEntity
  8
0
100
AcDbCircle
 62
6
  6
CONTINUOUS
 10
12.2814658577
 20
3.9340388167
 40
0.078
100
AcDbArc
 50
89.9981906749
 51
169.9997189654
  0
ARC
  5
333
100
AcDbEntity
  8
0
100
AcDbCircle
 62
6
  6
CONTINUOUS
 10
11.5366537242
 20
2.2867013808
 40
0.062
100
AcDbArc
 50
306.7734275097
 51
351.9684266472
  0
ARC
  5
334
100
AcDbEntity
  8
0
100
AcDbCircle
 62
6
  6
CONTINUOUS
 10
11.6032918382
 20
2.3872142014
 40
0.062
100
AcDbArc
 50
300.9443106033
 51
342.9532818298
  0
ARC
  5
335
100
AcDbEntity
  8
0
100
AcDbCircle
 62
6
  6
CONTINUOUS
 10
11.6922059802
 20
2.3599511244
 40
0.031
100
AcDbArc
 50
129.0112542894
 51
162.9532818068
  0
ARC
  5
336
100
AcDbEntity
  8
0
100
AcDbCircle
 62
7
  6
CONTINUOUS
 10
12.5572208516
 20
12.9949699007
 40
8.8382485067
100
AcDbArc
 50
271.3243126488
 51
271.5486859196
  0
ARC
  5
337
100
AcDbEntity
  8
0
100
AcDbCircle
 62
7
  6
CONTINUOUS
 10
12.5528727954
 20
9.6180631525
 40
5.4679799022
100
AcDbArc
 50
272.0908326227
 51
272.5684642305
  0
ARC
  5
338
100
AcDbEntity
  8
0
100
AcDbCircle
 62
6
  6
CONTINUOUS
 10
13.3157771111
 20
2.7726645798
 40
1.52
100
AcDbArc
 50
168.4101664982
 51
183.7580464625
  0
ARC
  5
339
100
AcDbEntity
  8
0
100
AcDbCircle
 62
6
  6
CONTINUOUS
 10
13.0023016189
 20
2.8369538928
 40
1.2
100
AcDbArc
 50
139.4848188736
 51
168.4101664981
  0
ARC
  5
33A
100
AcDbEntity
  8
0
100
AcDbCircle
 62
6
  6
CONTINUOUS
 10
13.4431047313
 20
3.8763930979
 40
0.4
100
AcDbArc
 50
190.0
 51
220.5151811262
  0
ARC
  5
33B
100
AcDbEntity
  8
0
100
AcDbCircle
 62
6
  6
CONTINUOUS
 10
13.6085671446
 20
2.1745601071
 40
0.078
100
AcDbArc
 50
3.2916971686
 51
53.2265724877
  0
ARC
  5
33C
100
AcDbEntity
  8
0
100
AcDbCircle
 62
6
  6
CONTINUOUS
 10
13.5537516772
 20
2.2671407522
 40
0.078
100
AcDbArc
 50
8.0315733532
 51
59.0556893905
  0
ARC
  5
33D
100
AcDbEntity
  8
0
100
AcDbCircle
 62
6
  6
CONTINUOUS
 10
12.9475663153
 20
3.9340388167
 40
0.078
100
AcDbArc
 50
10.0000000225
 51
90.0018093251
  0
ARC
  5
33E
100
AcDbEntity
  8
0
100
AcDbCircle
 62
6
  6
CONTINUOUS
 10
13.5368261928
 20
2.3599511244
 40
0.031
100
AcDbArc
 50
17.0467181932
 51
50.9887457106
  0
ARC
  5
33F
100
AcDbEntity
  8
0
100
AcDbCircle
 62
7
  6
CONTINUOUS
 10
12.6538958565
 20
7.3515777534
 40
3.1992443494
100
AcDbArc
 50
272.5800472769
 51
272.7840355774
  0
ARC
  5
340
100
AcDbEntity
  8
0
100
AcDbCircle
 62
7
  6
CONTINUOUS
 10
12.8141315652
 20
4.8493716257
 40
0.8274079986
100
AcDbArc
 50
273.7339628844
 51
273.8981146855
  0
ARC
  5
341
100
AcDbEntity
  8
0
100
AcDbCircle
 62
7
  6
CONTINUOUS
 10
12.8273828733
 20
4.7562899448
 40
0.6338722076
100
AcDbArc
 50
273.7845370278
 51
274.4440196036
  0
ARC
  5
342
100
AcDbEntity
  8
0
100
AcDbCircle
 62
7
  6
CONTINUOUS
 10
14.3033959781
 20
3.0134657996
 40
2.7473084796
100
AcDbArc
 50
132.5815782061
 51
132.8064228218
  0
ARC
  5
343
100
AcDbEntity
  8
0
100
AcDbCircle
 62
7
  6
CONTINUOUS
 10
14.3328243111
 20
3.0689597066
 40
2.7044893591
100
AcDbArc
 50
133.3265776297
 51
133.5519314972
  0
ARC
  5
344
100
AcDbEntity
  8
0
100
AcDbCircle
 62
7
  6
CONTINUOUS
 10
14.2306202007
 20
3.3318353344
 40
2.4738575848
100
AcDbArc
 50
136.3324129917
 51
136.6813309396
  0
ARC
  5
345
100
AcDbEntity
  8
0
100
AcDbCircle
 62
7
  6
CONTINUOUS
 10
14.0706091355
 20
3.266808421
 40
2.4032558709
100
AcDbArc
 50
132.3288210591
 51
132.5819881665
  0
ARC
  5
346
100
AcDbEntity
  8
0
100
AcDbCircle
 62
7
  6
CONTINUOUS
 10
14.071996567
 20
3.3456971947
 40
2.3242067607
100
AcDbArc
 50
133.0720133648
 51
133.2637093223
  0
ARC
  5
347
100
AcDbEntity
  8
0
100
AcDbCircle
 62
7
  6
CONTINUOUS
 10
14.3765659596
 20
3.7539619843
 40
2.3078195804
100
AcDbArc
 50
146.0289705818
 51
146.4611129261
  0
ARC
  5
348
100
AcDbEntity
  8
0
100
AcDbCircle
 62
7
  6
CONTINUOUS
 10
13.8623578838
 20
3.495466773
 40
2.0939773144
100
AcDbArc
 50
132.0431788353
 51
132.3292699335
  0
ARC
  5
349
100
AcDbEntity
  8
0
100
AcDbCircle
 62
7
  6
CONTINUOUS
 10
14.1048299413
 20
3.665318947
 40
2.0874934681
100
AcDbArc
 50
138.4264861231
 51
139.2105637795
  0
ARC
  5
34A
100
AcDbEntity
  8
0
100
AcDbCircle
 62
7
  6
CONTINUOUS
 10
13.8915466923
 20
3.5388105754
 40
2.059905927
100
AcDbArc
 50
132.7871544669
 51
133.0737522573
  0
ARC
  5
34B
100
AcDbEntity
  8
0
100
AcDbCircle
 62
7
  6
CONTINUOUS
 10
13.8483039978
 20
3.6973339746
 40
1.9449382886
100
AcDbArc
 50
135.9124119904
 51
136.1998216893
  0
ARC
  5
34C
100
AcDbEntity
  8
0
100
AcDbCircle
 62
7
  6
CONTINUOUS
 10
14.5157353398
 20
2.8479335466
 40
0.7845151216
100
AcDbArc
 50
174.1700448899
 51
174.4898438221
  0
ARC
  5
34D
100
AcDbEntity
  8
0
100
AcDbCircle
 62
6
  6
CONTINUOUS
 10
13.7722491058
 20
2.6505574768
 40
0.343
100
AcDbArc
 50
176.2419535376
 51
187.8121475225
  0
ARC
  5
34E
100
AcDbEntity
  8
0
100
AcDbCircle
 62
6
  6
CONTINUOUS
 10
13.7722491058
 20
2.6505574768
 40
0.343
100
AcDbArc
 50
195.5909261324
 51
230.9887457034
  0
ARC
  5
34F
100
AcDbEntity
  8
0
100
AcDbCircle
 62
7
  6
CONTINUOUS
 10
13.7499433101
 20
2.2193446624
 40
0.191
100
AcDbArc
 50
352.9912953658
 51
62.0327098819
  0
ARC
  5
350
100
AcDbEntity
  8
0
100
AcDbCircle
 62
7
  6
CONTINUOUS
 10
13.6498301291
 20
2.4104048076
 40
0.191
100
AcDbArc
 50
353.2752682606
 51
55.6154381127
  0
ARC
  5
351
100
AcDbEntity
  8
0
100
AcDbCircle
 62
7
  6
CONTINUOUS
 10
13.8480699694
 20
2.0283527778
 40
0.191
100
AcDbArc
 50
352.6865051603
 51
61.3945426588
  0
ARC
  5
352
100
AcDbEntity
  8
0
100
AcDbCircle
 62
6
  6
CONTINUOUS
 10
13.6595160865
 20
2.0180388167
 40
0.125
100
AcDbArc
 50
0.0
 51
61.642363424
  0
ARC
  5
353
100
AcDbEntity
  8
0
100
AcDbCircle
 62
7
  6
CONTINUOUS
 10
13.7221174455
 20
2.5160388168
 40
0.063
100
AcDbArc
 50
55.6154381004
 51
78.4954993087
  0
ARC
  5
354
100
AcDbEntity
  8
0
100
AcDbCircle
 62
6
  6
CONTINUOUS
 10
13.7483361653
 20
2.1825988167
 40
0.062
100
AcDbArc
 50
183.2916971651
 51
241.6423634234
  0
ARC
  5
355
100
AcDbEntity
  8
0
100
AcDbCircle
 62
6
  6
CONTINUOUS
 10
13.6923784488
 20
2.2867013808
 40
0.062
100
AcDbArc
 50
188.0315733528
 51
233.2265724903
  0
ARC
  5
356
100
AcDbEntity
  8
0
100
AcDbCircle
 62
6
  6
CONTINUOUS
 10
13.6257403348
 20
2.3872142014
 40
0.062
100
AcDbArc
 50
197.0467181702
 51
239.0556893967
  0
ARC
  5
357
100
AcDbEntity
  8
0
100
AcDbCircle
 62
7
  6
CONTINUOUS
 10
14.3033959797
 20
6.3966118357
 40
2.747308482
100
AcDbArc
 50
227.1935771783
 51
227.4184217897
  0
ARC
  5
358
100
AcDbEntity
  8
0
100
AcDbCircle
 62
7
  6
CONTINUOUS
 10
14.2091999315
 20
6.2105550064
 40
2.5246852362
100
AcDbArc
 50
226.4398396355
 51
226.9188772159
  0
ARC
  5
359
100
AcDbEntity
  8
0
100
AcDbCircle
 62
7
  6
CONTINUOUS
 10
14.2304873941
 20
6.0781165589
 40
2.4736746968
100
AcDbArc
 50
223.3186605027
 51
223.667862713
  0
ARC
  5
35A
100
AcDbEntity
  8
0
100
AcDbCircle
 62
7
  6
CONTINUOUS
 10
14.4683594052
 20
5.7170863318
 40
2.4180169059
100
AcDbArc
 50
213.5413418763
 51
213.7492362052
  0
ARC
  5
35B
100
AcDbEntity
  8
0
100
AcDbCircle
 62
7
  6
CONTINUOUS
 10
14.0706091371
 20
6.1432692142
 40
2.4032558732
100
AcDbArc
 50
227.418011829
 51
227.6711789405
  0
ARC
  5
35C
100
AcDbEntity
  8
0
100
AcDbCircle
 62
7
  6
CONTINUOUS
 10
14.5751263492
 20
5.4598846463
 40
2.2566740898
100
AcDbArc
 50
208.5593583606
 51
209.1827123069
  0
ARC
  5
35D
100
AcDbEntity
  8
0
100
AcDbCircle
 62
7
  6
CONTINUOUS
 10
14.2176860807
 20
5.843492333
 40
2.2374396552
100
AcDbArc
 50
220.8157098027
 51
221.5472402947
  0
ARC
  5
35E
100
AcDbEntity
  8
0
100
AcDbCircle
 62
7
  6
CONTINUOUS
 10
14.2064301554
 20
5.5420575006
 40
2.1029898858
100
AcDbArc
 50
213.7488204591
 51
213.9840163968
  0
ARC
  5
35F
100
AcDbEntity
  8
0
100
AcDbCircle
 62
7
  6
CONTINUOUS
 10
13.8915466926
 20
5.8712670584
 40
2.0599059274
100
AcDbArc
 50
226.9262477423
 51
227.2128455331
  0
ARC
  5
360
100
AcDbEntity
  8
0
100
AcDbCircle
 62
7
  6
CONTINUOUS
 10
13.8261643266
 20
5.8745833143
 40
2.0400127649
100
AcDbArc
 50
227.7769422222
 51
227.9588638621
  0
ARC
  5
361
100
AcDbEntity
  8
0
100
AcDbCircle
 62
7
  6
CONTINUOUS
 10
13.8483039981
 20
5.7127436592
 40
1.944938289
100
AcDbArc
 50
223.8001783104
 51
224.0875880096
  0
ARC
  5
362
100
AcDbEntity
  8
0
100
AcDbCircle
 62
7
  6
CONTINUOUS
 10
13.9718842336
 20
5.3839311978
 40
1.820119391
100
AcDbArc
 50
213.9835397212
 51
214.2507699989
  0
ARC
  5
363
100
AcDbEntity
  8
0
100
AcDbCircle
 62
7
  6
CONTINUOUS
 10
12.6596140861
 20
9.2357984736
 40
5.0776825422
100
AcDbArc
 50
271.5626260752
 51
271.7554143625
  0
ARC
  5
364
100
AcDbEntity
  8
0
100
AcDbCircle
 62
7
  6
CONTINUOUS
 10
11.8802438118
 20
44.0700154838
 40
39.9206755846
100
AcDbArc
 50
271.0539169058
 51
271.2431619237
  0
ARC
  5
365
100
AcDbEntity
  8
0
100
AcDbCircle
 62
7
  6
CONTINUOUS
 10
18.5999521566
 20
5.2243236559
 40
5.9945712488
100
AcDbArc
 50
188.0868932561
 51
188.294506967
  0
ARC
  5
366
100
AcDbEntity
  8
0
100
AcDbCircle
 62
7
  6
CONTINUOUS
 10
18.1720246239
 20
4.2473483779
 40
5.5622343638
100
AcDbArc
 50
171.6974244073
 51
171.9211753697
  0
ARC
  5
367
100
AcDbEntity
  8
0
100
AcDbCircle
 62
7
  6
CONTINUOUS
 10
16.0447237435
 20
5.3801672959
 40
3.6830610047
100
AcDbArc
 50
195.740249542
 51
195.8582733101
  0
ARC
  5
368
100
AcDbEntity
  8
0
100
AcDbCircle
 62
7
  6
CONTINUOUS
 10
15.7770806412
 20
4.1055348746
 40
3.4049389731
100
AcDbArc
 50
163.9499099232
 51
164.2628365387
  0
ARC
  5
369
100
AcDbEntity
  8
0
100
AcDbCircle
 62
7
  6
CONTINUOUS
 10
15.271192947
 20
5.1599495284
 40
2.8787939565
100
AcDbArc
 50
195.8490712239
 51
196.1430707603
  0
ARC
  5
36A
100
AcDbEntity
  8
0
100
AcDbCircle
 62
7
  6
CONTINUOUS
 10
15.3391397632
 20
2.8583840548
 40
1.6053513892
100
AcDbArc
 50
176.8588072381
 51
177.1888250607
  0
ARC
  5
36B
100
AcDbEntity
  8
0
100
AcDbCircle
 62
7
  6
CONTINUOUS
 10
15.318393357
 20
2.8586372984
 40
1.5846177137
100
AcDbArc
 50
177.1611805063
 51
177.5049064048
  0
ARC
  5
36C
100
AcDbEntity
  8
0
100
AcDbCircle
 62
7
  6
CONTINUOUS
 10
15.2235367977
 20
2.8218083207
 40
1.4925672549
100
AcDbArc
 50
174.0092134504
 51
174.4778451678
  0
ARC
  5
36D
100
AcDbEntity
  8
0
100
AcDbCircle
 62
7
  6
CONTINUOUS
 10
15.0711158283
 20
2.8674537791
 40
1.338377301
100
AcDbArc
 50
180.5841834388
 51
182.056479003
  0
ARC
  5
36E
100
AcDbEntity
  8
0
100
AcDbCircle
 62
7
  6
CONTINUOUS
 10
15.0560572979
 20
2.8673411469
 40
1.3233184056
100
AcDbArc
 50
180.218613041
 51
180.5859545731
  0
ARC
  5
36F
100
AcDbEntity
  8
0
100
AcDbCircle
 62
7
  6
CONTINUOUS
 10
14.9908964102
 20
2.8649630094
 40
1.258120229
100
AcDbArc
 50
182.0742161406
 51
183.7217894484
  0
ARC
  5
370
100
AcDbEntity
  8
0
100
AcDbCircle
 62
7
  6
CONTINUOUS
 10
14.9519556817
 20
2.8479376457
 40
1.2197320947
100
AcDbArc
 50
174.4719093292
 51
175.3720462921
  0
ARC
  5
371
100
AcDbEntity
  8
0
100
AcDbCircle
 62
7
  6
CONTINUOUS
 10
14.8889637719
 20
2.8528898153
 40
1.1562620834
100
AcDbArc
 50
176.5106000459
 51
177.9452370162
  0
ARC
  5
372
100
AcDbEntity
  8
0
100
AcDbCircle
 62
7
  6
CONTINUOUS
 10
14.8803789414
 20
2.8533868843
 40
1.1476649661
100
AcDbArc
 50
177.9546697637
 51
179.5554177158
  0
ARC
  5
373
100
AcDbEntity
  8
0
100
AcDbCircle
 62
7
  6
CONTINUOUS
 10
14.8438163879
 20
2.8555963163
 40
1.1107424069
100
AcDbArc
 50
183.7321211488
 51
185.0302500583
  0
LINE
  5
374
100
AcDbEntity
  8
0
100
AcDbLine
 62
7
  6
CONTINUOUS
 10
13.7391209135
 20
2.9775853826
 11
13.7394416165
 21
2.9807143603
  0
LINE
  5
375
100
AcDbEntity
  8
0
100
AcDbLine
 62
7
  6
CONTINUOUS
 10
13.7394416165
 20
2.9807143603
 11
13.7395178396
 21
2.9815830342
  0
LINE
  5
376
100
AcDbEntity
  8
0
100
AcDbLine
 62
7
  6
CONTINUOUS
 10
13.7386970869
 20
2.9734795209
 11
13.7395177935
 21
2.9815828455
  0
LINE
  5
377
100
AcDbEntity
  8
0
100
AcDbLine
 62
7
  6
CONTINUOUS
 10
12.4411435492
 20
4.370101597
 11
12.4445290845
 21
4.3665635301
  0
LINE
  5
378
100
AcDbEntity
  8
0
100
AcDbLine
 62
7
  6
CONTINUOUS
 10
12.4411435492
 20
4.370101597
 11
12.4376854703
 21
4.373731546
  0
LINE
  5
379
100
AcDbEntity
  8
0
100
AcDbLine
 62
7
  6
CONTINUOUS
 10
12.4376854703
 20
4.373731546
 11
12.4334905983
 21
4.3781552987
  0
LINE
  5
37A
100
AcDbEntity
  8
0
100
AcDbLine
 62
7
  6
CONTINUOUS
 10
12.4334905983
 20
4.3781552987
 11
12.4307669596
 21
4.3810388167
  0
LINE
  5
37B
100
AcDbEntity
  8
0
100
AcDbLine
 62
7
  6
CONTINUOUS
 10
12.504864976
 20
5.0469243005
 11
12.5059086331
 21
5.0505388167
  0
LINE
  5
37C
100
AcDbEntity
  8
0
100
AcDbLine
 62
7
  6
CONTINUOUS
 10
12.462644535
 20
5.0435107411
 11
12.4650864031
 21
5.0471238627
  0
LINE
  5
37D
100
AcDbEntity
  8
0
100
AcDbLine
 62
7
  6
CONTINUOUS
 10
12.4650864031
 20
5.0471238627
 11
12.4674059695
 21
5.0505388167
  0
LINE
  5
37E
100
AcDbEntity
  8
0
100
AcDbLine
 62
7
  6
CONTINUOUS
 10
12.4445290845
 20
5.0435141033
 11
12.4411358434
 21
5.0399679654
  0
LINE
  5
37F
100
AcDbEntity
  8
0
100
AcDbLine
 62
7
  6
CONTINUOUS
 10
12.4411358434
 20
5.0399679654
 11
12.4376854703
 21
5.0363460873
  0
LINE
  5
380
100
AcDbEntity
  8
0
100
AcDbLine
 62
7
  6
CONTINUOUS
 10
12.4376854703
 20
5.0363460873
 11
12.4334906297
 21
5.0319223679
  0
LINE
  5
381
100
AcDbEntity
  8
0
100
AcDbLine
 62
7
  6
CONTINUOUS
 10
12.4334906297
 20
5.0319223679
 11
12.4307669596
 21
5.0290388167
  0
LINE
  5
382
100
AcDbEntity
  8
0
100
AcDbLine
 62
7
  6
CONTINUOUS
 10
12.724167197
 20
4.363153333
 11
12.7231235399
 21
4.3595388167
  0
LINE
  5
383
100
AcDbEntity
  8
0
100
AcDbLine
 62
7
  6
CONTINUOUS
 10
12.7663876379
 20
4.3665668922
 11
12.7639457699
 21
4.3629537708
  0
LINE
  5
384
100
AcDbEntity
  8
0
100
AcDbLine
 62
7
  6
CONTINUOUS
 10
12.7639457699
 20
4.3629537708
 11
12.7616262035
 21
4.3595388167
  0
LINE
  5
385
100
AcDbEntity
  8
0
100
AcDbLine
 62
7
  6
CONTINUOUS
 10
12.7878885461
 20
4.3701015155
 11
12.7845030885
 21
4.3665635301
  0
LINE
  5
386
100
AcDbEntity
  8
0
100
AcDbLine
 62
7
  6
CONTINUOUS
 10
12.7845030886
 20
4.3665635304
 11
12.7878885461
 21
4.3701015155
  0
LINE
  5
387
100
AcDbEntity
  8
0
100
AcDbLine
 62
7
  6
CONTINUOUS
 10
12.7878885461
 20
4.3701015156
 11
12.7913467027
 21
4.373731546
  0
LINE
  5
388
100
AcDbEntity
  8
0
100
AcDbLine
 62
7
  6
CONTINUOUS
 10
12.7913467027
 20
4.373731546
 11
12.7955415434
 21
4.3781552656
  0
LINE
  5
389
100
AcDbEntity
  8
0
100
AcDbLine
 62
7
  6
CONTINUOUS
 10
12.7955415434
 20
4.3781552656
 11
12.7982652134
 21
4.3810388167
  0
LINE
  5
38A
100
AcDbEntity
  8
0
100
AcDbLine
 62
7
  6
CONTINUOUS
 10
12.7878962904
 20
5.0399680065
 11
12.7845030886
 21
5.0435141031
  0
LINE
  5
38B
100
AcDbEntity
  8
0
100
AcDbLine
 62
7
  6
CONTINUOUS
 10
12.7845030885
 20
5.0435141033
 11
12.7878962904
 21
5.0399680065
  0
LINE
  5
38C
100
AcDbEntity
  8
0
100
AcDbLine
 62
7
  6
CONTINUOUS
 10
12.7878962904
 20
5.0399680065
 11
12.7913467027
 21
5.0363460873
  0
LINE
  5
38D
100
AcDbEntity
  8
0
100
AcDbLine
 62
7
  6
CONTINUOUS
 10
12.7913467027
 20
5.0363460873
 11
12.7955415747
 21
5.0319223348
  0
LINE
  5
38E
100
AcDbEntity
  8
0
100
AcDbLine
 62
7
  6
CONTINUOUS
 10
12.7955415747
 20
5.0319223348
 11
12.7982652134
 21
5.0290388167
  0
LINE
  5
38F
100
AcDbEntity
  8
0
100
AcDbLine
 62
7
  6
CONTINUOUS
 10
13.7373519563
 20
2.7582045509
 11
13.738977564
 21
2.7421376846
  0
LINE
  5
390
100
AcDbEntity
  8
0
100
AcDbLine
 62
7
  6
CONTINUOUS
 10
13.738977564
 20
2.7421376846
 11
13.7394962912
 21
2.7392335387
  0
SPLINE
  5
391
100
AcDbEntity
  8
0
100
AcDbSpline
 62
7
  6
CONTINUOUS
 70
0
 71
3
 72
9
 73
5
 74
3
 42
0.0000001
 43
0.0000001
 44
0.0000000001
 12
0.005289045
 22
-0.0691812589
 32
0.0
 13
0.0044081387
 23
-0.06924297
 33
0.0
 40
0.0
 40
0.0
 40
0.0
 40
0.0
 40
0.4777691489
 40
1.0
 40
1.0
 40
1.0
 40
1.0
 10
13.7348454851
 20
2.9232642511
 30
0.0
 10
13.7356877992
 20
2.9122466941
 30
0.0
 10
13.7372795219
 20
2.8891733325
 30
0.0
 10
13.7387487316
 20
2.8660924082
 30
0.0
 10
13.739516087
 20
2.8540388031
 30
0.0
 11
13.7348454851
 21
2.9232642511
 31
0.0
 11
13.737180786
 21
2.8901974871
 31
0.0
 11
13.739516087
 21
2.8540388031
 31
0.0
  0
SPLINE
  5
392
100
AcDbEntity
  8
0
100
AcDbSpline
 62
7
  6
CONTINUOUS
 70
0
 71
3
 72
11
 73
7
 74
5
 42
0.0000001
 43
0.0000001
 44
0.0000000001
 12
-0.0079752797
 22
0.087890998
 32
0.0
 13
-0.0055803118
 23
0.0880754945
 33
0.0
 40
0.0
 40
0.0
 40
0.0
 40
0.0
 40
0.21435772
 40
0.4588573366
 40
0.7240190793
 40
1.0
 40
1.0
 40
1.0
 40
1.0
 10
13.7395160865
 20
2.7656084331
 30
0.0
 10
13.7389462322
 20
2.7718884711
 30
0.0
 10
13.7378742103
 20
2.7853448048
 30
0.0
 10
13.7363518374
 20
2.8065890124
 30
0.0
 10
13.7348085898
 20
2.8296490864
 30
0.0
 10
13.7338127818
 20
2.8455369076
 30
0.0
 10
13.7332994286
 20
2.8536392929
 30
0.0
 11
13.7395160865
 21
2.7656084331
 31
0.0
 11
13.7379680243
 21
2.7844625043
 31
0.0
 11
13.7364115113
 21
2.805983895
 31
0.0
 11
13.7348459688
 21
2.8293325483
 31
0.0
 11
13.7332994286
 21
2.8536392929
 31
0.0
  0
LINE
  5
393
100
AcDbEntity
  8
0
100
AcDbLine
 62
7
  6
CONTINUOUS
 10
13.7332994286
 20
2.8536392929
 11
13.7327485249
 21
2.8622920148
  0
SPLINE
  5
394
100
AcDbEntity
  8
0
100
AcDbSpline
 62
7
  6
CONTINUOUS
 70
0
 71
3
 72
32
 73
28
 74
26
 42
0.0000001
 43
0.0000001
 44
0.0000000001
 12
-0.4206684983
 22
-0.0173971516
 32
0.0
 13
0.0
 23
-0.4210280826
 33
0.0
 40
0.0
 40
0.0
 40
0.0
 40
0.0
 40
0.1447793446
 40
0.2254696269
 40
0.3095557676
 40
0.3954056454
 40
0.4812821829
 40
0.5654241185
 40
0.6460703156
 40
0.721539767
 40
0.7904239832
 40
0.8219747929
 40
0.8513732204
 40
0.8784507966
 40
0.9030393331
 40
0.9249976523
 40
0.9442515092
 40
0.9607375828
 40
0.9743939599
 40
0.9851617229
 40
0.9894461578
 40
0.9929907175
 40
0.9957934758
 40
0.9978594641
 40
0.9986238518
 40
0.9992194914
 40
1.0
 40
1.0
 40
1.0
 40
1.0
 10
12.7806090698
 20
4.0548285817
 30
0.0
 10
12.7603077
 20
4.053988999
 30
0.0
 10
12.7286849775
 20
4.0528462935
 30
0.0
 10
12.6852652331
 20
4.0513994786
 30
0.0
 10
12.6501095872
 20
4.0502760671
 30
0.0
 10
12.6142257609
 20
4.0491522736
 30
0.0
 10
12.5783340878
 20
4.0480287036
 30
0.0
 10
12.5431730548
 20
4.0469057949
 30
0.0
 10
12.5094732997
 20
4.0457841518
 30
0.0
 10
12.4779161069
 20
4.0446625443
 30
0.0
 10
12.4532477024
 20
4.0437048104
 30
0.0
 10
12.4350430395
 20
4.0429286995
 30
0.0
 10
12.4227019945
 20
4.0423642994
 30
0.0
 10
12.4113391135
 20
4.0418006553
 30
0.0
 10
12.4010217539
 20
4.0412377658
 30
0.0
 10
12.3918041673
 20
4.0406751947
 30
0.0
 10
12.3837260085
 20
4.0401139794
 30
0.0
 10
12.3768158628
 20
4.0395555644
 30
0.0
 10
12.371101152
 20
4.0390000867
 30
0.0
 10
12.3671005155
 20
4.0385147918
 30
0.0
 10
12.3645218117
 20
4.0381102785
 30
0.0
 10
12.36305542
 20
4.0378330637
 30
0.0
 10
12.361906561
 20
4.0375564094
 30
0.0
 10
12.3611529411
 20
4.0373162099
 30
0.0
 10
12.3607158957
 20
4.0371063396
 30
0.0
 10
12.3604675445
 20
4.0369489481
 30
0.0
 10
12.3603268975
 20
4.0367745608
 30
0.0
 10
12.3603268975
 20
4.0366650222
 30
0.0
 11
12.7806090698
 21
4.0548285817
 31
0.0
 11
12.7196951985
 21
4.0525581367
 31
0.0
 11
12.685741296
 21
4.0514229143
 31
0.0
 11
12.6503568751
 21
4.0502876918
 31
0.0
 11
12.6142294972
 21
4.0491524693
 31
0.0
 11
12.5780908892
 21
4.0480172469
 31
0.0
 11
12.5426829651
 21
4.0468820244
 31
0.0
 11
12.5087476341
 21
4.0457468019
 31
0.0
 11
12.4769931613
 21
4.0446115795
 31
0.0
 11
12.4480131981
 21
4.043476357
 31
0.0
 11
12.4347415536
 21
4.0429087457
 31
0.0
 11
12.4223770117
 21
4.0423411345
 31
0.0
 11
12.4109907308
 21
4.0417735233
 31
0.0
 11
12.4006538388
 21
4.041205912
 31
0.0
 11
12.3914262108
 21
4.0406383008
 31
0.0
 11
12.3833396928
 21
4.0400706896
 31
0.0
 11
12.3764218401
 21
4.0395030783
 31
0.0
 11
12.3707002077
 21
4.0389354671
 31
0.0
 11
12.3662023507
 21
4.0383678559
 31
0.0
 11
12.364420949
 21
4.0380840502
 31
0.0
 11
12.3629558243
 21
4.0378002446
 31
0.0
 11
12.3618104211
 21
4.037516439
 31
0.0
 11
12.3609881836
 21
4.0372326334
 31
0.0
 11
12.3606993285
 21
4.0370907306
 31
0.0
 11
12.3604925564
 21
4.0369488278
 31
0.0
 11
12.3603268975
 21
4.0366650222
 31
0.0
  0
SPLINE
  5
395
100
AcDbEntity
  8
0
100
AcDbSpline
 62
7
  6
CONTINUOUS
 70
0
 71
3
 72
11
 73
7
 74
5
 42
0.0000001
 43
0.0000001
 44
0.0000000001
 12
-0.1223538273
 22
-0.0026026162
 32
0.0
 13
-0.1222362066
 23
-0.0059617495
 33
0.0
 40
0.0
 40
0.0
 40
0.0
 40
0.0
 40
0.3183067311
 40
0.5963033744
 40
0.8256941594
 40
1.0
 40
1.0
 40
1.0
 40
1.0
 10
12.4831811008
 20
4.1535202617
 30
0.0
 10
12.4701990852
 20
4.1532441183
 30
0.0
 10
12.445879553
 20
4.1527049845
 30
0.0
 10
12.4122068335
 20
4.1518576248
 30
0.0
 10
12.3844106046
 20
4.1510192152
 30
0.0
 10
12.3679536666
 20
4.1503896362
 30
0.0
 10
12.360851505
 20
4.1500432469
 30
0.0
 11
12.4831811008
 21
4.1535202617
 31
0.0
 11
12.4442360157
 21
4.1526477907
 31
0.0
 11
12.4102255211
 21
4.1517767243
 31
0.0
 11
12.3821657608
 21
4.1509084992
 31
0.0
 11
12.360851505
 21
4.1500432469
 31
0.0
  0
SPLINE
  5
396
100
AcDbEntity
  8
0
100
AcDbSpline
 62
7
  6
CONTINUOUS
 70
0
 71
3
 72
12
 73
8
 74
6
 42
0.0000001
 43
0.0000001
 44
0.0000000001
 12
-0.0194064948
 22
-0.0009465007
 32
0.0
 13
-0.0190453025
 23
-0.0038450433
 33
0.0
 40
0.0
 40
0.0
 40
0.0
 40
0.0
 40
0.3628016572
 40
0.6511780189
 40
0.8639160436
 40
0.9415873792
 40
1.0
 40
1.0
 40
1.0
 40
1.0
 10
12.360851505
 20
4.1500432469
 30
0.0
 10
12.3585046022
 20
4.1499287829
 30
0.0
 10
12.3542928618
 20
4.1497076749
 30
0.0
 10
12.3487097735
 20
4.1493411407
 30
0.0
 10
12.3449739036
 20
4.1490218659
 30
0.0
 10
12.3427312298
 20
4.1487487467
 30
0.0
 10
12.3418602123
 20
4.148610474
 30
0.0
 10
12.3414893836
 20
4.1485356076
 30
0.0
 11
12.360851505
 21
4.1500432469
 31
0.0
 11
12.353812568
 21
4.149665279
 31
0.0
 11
12.3482222636
 21
4.1492879143
 31
0.0
 11
12.3441060496
 21
4.148911306
 31
0.0
 11
12.342608682
 21
4.1487233335
 31
0.0
 11
12.3414893836
 21
4.1485356076
 31
0.0
  0
LINE
  5
397
100
AcDbEntity
  8
0
100
AcDbLine
 62
7
  6
CONTINUOUS
 10
12.3414893836
 20
4.1485356076
 11
12.3403989967
 21
4.1481683701
  0
SPLINE
  5
398
100
AcDbEntity
  8
0
100
AcDbSpline
 62
7
  6
CONTINUOUS
 70
0
 71
3
 72
13
 73
9
 74
7
 42
0.0000001
 43
0.0000001
 44
0.0000000001
 12
0.2532035721
 22
0.016563946
 32
0.0
 13
0.2536368965
 23
0.0073985115
 33
0.0
 40
0.0
 40
0.0
 40
0.0
 40
0.0
 40
0.0770846518
 40
0.1722832526
 40
0.283791589
 40
0.4093333018
 40
0.6926390769
 40
1.0
 40
1.0
 40
1.0
 40
1.0
 10
12.3609375988
 20
4.012098483
 30
0.0
 10
12.3674436352
 20
4.0125240917
 30
0.0
 10
12.3819939472
 20
4.0133296966
 30
0.0
 10
12.4059728239
 20
4.0144202763
 30
0.0
 10
12.4340537711
 20
4.0155151792
 30
0.0
 10
12.4780396744
 20
4.0170474487
 30
0.0
 10
12.5385896353
 20
4.01889958
 30
0.0
 10
12.588530063
 20
4.0202808178
 30
0.0
 10
12.6145160865
 20
4.0210388222
 30
0.0
 11
12.3609375988
 21
4.012098483
 31
0.0
 11
12.3804654622
 21
4.0132162593
 31
0.0
 11
12.4045957552
 21
4.0143335973
 31
0.0
 11
12.4328683592
 21
4.0154505338
 31
0.0
 11
12.4647042703
 21
4.0165690626
 31
0.0
 11
12.5365568903
 21
4.0188037301
 31
0.0
 11
12.6145160865
 21
4.0210388222
 31
0.0
  0
LINE
  5
399
100
AcDbEntity
  8
0
100
AcDbLine
 62
7
  6
CONTINUOUS
 10
12.4522939322
 20
4.3665602652
 11
12.455237682
 21
4.3638840669
  0
LINE
  5
39A
100
AcDbEntity
  8
0
100
AcDbLine
 62
7
  6
CONTINUOUS
 10
12.3336076493
 20
4.0589205534
 11
12.3361202846
 21
4.0596653696
  0
SPLINE
  5
39B
100
AcDbEntity
  8
0
100
AcDbSpline
 62
7
  6
CONTINUOUS
 70
0
 71
3
 72
11
 73
7
 74
5
 42
0.0000001
 43
0.0000001
 44
0.0000000001
 12
0.0221324494
 22
0.0044203336
 32
0.0
 13
0.0225170411
 23
0.0015386754
 33
0.0
 40
0.0
 40
0.0
 40
0.0
 40
0.0
 40
0.1592207781
 40
0.3794201887
 40
0.6599430458
 40
1.0
 40
1.0
 40
1.0
 40
1.0
 10
12.3361202846
 20
4.0596653696
 30
0.0
 10
12.3372949332
 20
4.0598999726
 30
0.0
 10
12.3401207817
 20
4.0603196501
 30
0.0
 10
12.3450549719
 20
4.0608696778
 30
0.0
 10
12.3513565731
 20
4.0614245274
 30
0.0
 10
12.356012892
 20
4.0617654141
 30
0.0
 10
12.3585652508
 20
4.0619398266
 30
0.0
 11
12.3361202846
 21
4.0596653696
 31
0.0
 11
12.3396685545
 21
4.0602339839
 31
0.0
 11
12.3446057206
 21
4.0608025981
 31
0.0
 11
12.3509114103
 21
4.0613712123
 31
0.0
 11
12.3585652508
 21
4.0619398266
 31
0.0
  0
SPLINE
  5
39C
100
AcDbEntity
  8
0
100
AcDbSpline
 62
7
  6
CONTINUOUS
 70
0
 71
3
 72
13
 73
9
 74
7
 42
0.0000001
 43
0.0000001
 44
0.0000000001
 12
0.2531953689
 22
0.0165638322
 32
0.0
 13
0.2536350749
 23
0.0071766394
 33
0.0
 40
0.0
 40
0.0
 40
0.0
 40
0.0
 40
0.0771687878
 40
0.1724355952
 40
0.283831644
 40
0.4093651243
 40
0.6927209445
 40
1.0
 40
1.0
 40
1.0
 40
1.0
 10
12.3609457233
 20
4.0620989459
 30
0.0
 10
12.3674586499
 20
4.0625250162
 30
0.0
 10
12.3820214766
 20
4.0633293027
 30
0.0
 10
12.4060029721
 20
4.0644194561
 30
0.0
 10
12.4340784727
 20
4.0655172407
 30
0.0
 10
12.4780570799
 20
4.0670472663
 30
0.0
 10
12.5386019565
 20
4.0688898003
 30
0.0
 10
12.5885371372
 20
4.070303916
 30
0.0
 10
12.6145160527
 20
4.071038993
 30
0.0
 11
12.3609457233
 21
4.0620989459
 31
0.0
 11
12.3804943528
 21
4.0632164518
 31
0.0
 11
12.4046411823
 21
4.0643339577
 31
0.0
 11
12.4328843358
 21
4.0654514636
 31
0.0
 11
12.4647171633
 21
4.0665689695
 31
0.0
 11
12.5365801548
 21
4.0688039812
 31
0.0
 11
12.6145160527
 21
4.071038993
 31
0.0
  0
LINE
  5
39D
100
AcDbEntity
  8
0
100
AcDbLine
 62
7
  6
CONTINUOUS
 10
12.3336161099
 20
4.1089336067
 11
12.3360728705
 21
4.1096628105
  0
SPLINE
  5
39E
100
AcDbEntity
  8
0
100
AcDbSpline
 62
7
  6
CONTINUOUS
 70
0
 71
3
 72
11
 73
7
 74
5
 42
0.0000001
 43
0.0000001
 44
0.0000000001
 12
0.0221777314
 22
0.0044344056
 32
0.0
 13
0.0225639471
 23
0.0015440258
 33
0.0
 40
0.0
 40
0.0
 40
0.0
 40
0.0
 40
0.1592285899
 40
0.3798329955
 40
0.6605552582
 40
1.0
 40
1.0
 40
1.0
 40
1.0
 10
12.3360728705
 20
4.1096628105
 30
0.0
 10
12.3372499801
 20
4.1098981719
 30
0.0
 10
12.3400851377
 20
4.1103173927
 30
0.0
 10
12.3450344118
 20
4.110866987
 30
0.0
 10
12.3513492586
 20
4.1114215158
 30
0.0
 10
12.3560121908
 20
4.111762936
 30
0.0
 10
12.3585652618
 20
4.1119376399
 30
0.0
 11
12.3360728705
 21
4.1096628105
 31
0.0
 11
12.3396289091
 21
4.1102315178
 31
0.0
 11
12.3445857379
 21
4.1108002252
 31
0.0
 11
12.3509092308
 21
4.1113689325
 31
0.0
 11
12.3585652618
 21
4.1119376399
 31
0.0
  0
SPLINE
  5
39F
100
AcDbEntity
  8
0
100
AcDbSpline
 62
7
  6
CONTINUOUS
 70
0
 71
3
 72
13
 73
9
 74
7
 42
0.0000001
 43
0.0000001
 44
0.0000000001
 12
0.2531663075
 22
0.0165918949
 32
0.0
 13
0.2536078575
 23
0.0071780801
 33
0.0
 40
0.0
 40
0.0
 40
0.0
 40
0.0
 40
0.0769704739
 40
0.1722723498
 40
0.2838154777
 40
0.4093182385
 40
0.6926439421
 40
1.0
 40
1.0
 40
1.0
 40
1.0
 10
12.3609729827
 20
4.1120988373
 30
0.0
 10
12.3674684263
 20
4.1125245326
 30
0.0
 10
12.3820157203
 20
4.1133314168
 30
0.0
 10
12.4059933832
 20
4.1144195914
 30
0.0
 10
12.4340787306
 20
4.1155160812
 30
0.0
 10
12.47805987
 20
4.1170475958
 30
0.0
 10
12.5385996301
 20
4.1188901211
 30
0.0
 10
12.5885334493
 20
4.1203034202
 30
0.0
 10
12.6145160865
 20
4.121038829
 30
0.0
 11
12.3609729827
 21
4.1120988373
 31
0.0
 11
12.3804691164
 21
4.1132163362
 31
0.0
 11
12.4046222622
 21
4.1143338352
 31
0.0
 11
12.4328997319
 21
4.1154513342
 31
0.0
 11
12.4647213488
 21
4.1165688332
 31
0.0
 11
12.5365689948
 21
4.1188038311
 31
0.0
 11
12.6145160865
 21
4.121038829
 31
0.0
  0
LINE
  5
3A0
100
AcDbEntity
  8
0
100
AcDbLine
 62
7
  6
CONTINUOUS
 10
12.8954094848
 20
4.0268894037
 11
12.892923988
 21
4.0261544834
  0
SPLINE
  5
3A1
100
AcDbEntity
  8
0
100
AcDbSpline
 62
7
  6
CONTINUOUS
 70
0
 71
3
 72
11
 73
7
 74
5
 42
0.0000001
 43
0.0000001
 44
0.0000000001
 12
-0.0222278368
 22
-0.0044429145
 32
0.0
 13
-0.0226150477
 23
-0.0015413752
 33
0.0
 40
0.0
 40
0.0
 40
0.0
 40
0.0
 40
0.1591009788
 40
0.3795114793
 40
0.6602004382
 40
1.0
 40
1.0
 40
1.0
 40
1.0
 10
12.892923988
 20
4.0261544834
 30
0.0
 10
12.8917451644
 20
4.0259188594
 30
0.0
 10
12.8889060813
 20
4.0254988462
 30
0.0
 10
12.8839483134
 20
4.0249485756
 30
0.0
 10
12.8776182393
 20
4.0243936487
 30
0.0
 10
12.8729423257
 20
4.0240524081
 30
0.0
 10
12.8703807979
 20
4.0238778219
 30
0.0
 11
12.892923988
 21
4.0261544834
 31
0.0
 11
12.8893628234
 21
4.0255849229
 31
0.0
 11
12.8843992038
 21
4.0250156444
 31
0.0
 11
12.8780621788
 21
4.0244466199
 31
0.0
 11
12.8703807979
 21
4.0238778219
 31
0.0
  0
SPLINE
  5
3A2
100
AcDbEntity
  8
0
100
AcDbSpline
 62
7
  6
CONTINUOUS
 70
0
 71
3
 72
13
 73
9
 74
7
 42
0.0000001
 43
0.0000001
 44
0.0000000001
 12
-0.2531262796
 22
-0.0165320359
 32
0.0
 13
-0.2535687698
 23
-0.0070071845
 33
0.0
 40
0.0
 40
0.0
 40
0.0
 40
0.0
 40
0.0771460155
 40
0.1723842035
 40
0.283911514
 40
0.4094536962
 40
0.6927161139
 40
1.0
 40
1.0
 40
1.0
 40
1.0
 10
12.8680155393
 20
4.0237200566
 30
0.0
 10
12.8615063113
 20
4.0232949297
 30
0.0
 10
12.8469519501
 20
4.0224904023
 30
0.0
 10
12.8229704153
 20
4.0214001253
 30
0.0
 10
12.794893314
 20
4.0203036367
 30
0.0
 10
12.7509230381
 20
4.0187750114
 30
0.0
 10
12.690401712
 20
4.0169387727
 30
0.0
 10
12.6404886188
 20
4.0155027539
 30
0.0
 10
12.6145160865
 20
4.0147850223
 30
0.0
 11
12.8680155393
 21
4.0237200566
 31
0.0
 11
12.8484781372
 21
4.0226033866
 31
0.0
 11
12.8243453242
 21
4.0214863928
 31
0.0
 11
12.7960767661
 21
4.0203688646
 31
0.0
 11
12.764250601
 21
4.0192527609
 31
0.0
 11
12.6924314269
 21
4.0170183842
 31
0.0
 11
12.6145160865
 21
4.0147850223
 31
0.0
  0
LINE
  5
3A3
100
AcDbEntity
  8
0
100
AcDbLine
 62
7
  6
CONTINUOUS
 10
12.4790846129
 20
5.0382008352
 11
12.4771230647
 21
5.0363527983
  0
SPLINE
  5
3A4
100
AcDbEntity
  8
0
100
AcDbSpline
 62
7
  6
CONTINUOUS
 70
0
 71
3
 72
13
 73
9
 74
7
 42
0.0000001
 43
0.0000001
 44
0.0000000001
 12
-0.0121425314
 22
-0.0070192915
 32
0.0
 13
-0.0139682057
 23
-0.0012652083
 33
0.0
 40
0.0
 40
0.0
 40
0.0
 40
0.0
 40
0.0485227094
 40
0.1185257213
 40
0.2104755183
 40
0.3244810881
 40
0.6185185516
 40
1.0
 40
1.0
 40
1.0
 40
1.0
 10
12.8954284781
 20
4.0769010994
 30
0.0
 10
12.8952320819
 20
4.0767875677
 30
0.0
 10
12.8947110589
 20
4.0765866111
 30
0.0
 10
12.8937622664
 20
4.0763280567
 30
0.0
 10
12.892497767
 20
4.0760665756
 30
0.0
 10
12.8901921881
 20
4.0756811171
 30
0.0
 10
12.8865283757
 20
4.0752217659
 30
0.0
 10
12.8833854744
 20
4.0749116506
 30
0.0
 10
12.8816092706
 20
4.0747507661
 30
0.0
 11
12.8954284781
 21
4.0769010994
 31
0.0
 11
12.8948032588
 21
4.0766323077
 31
0.0
 11
12.8938589493
 21
4.0763635161
 31
0.0
 11
12.8925976402
 21
4.0760947244
 31
0.0
 11
12.891021422
 21
4.0758259327
 31
0.0
 11
12.8869326208
 21
4.0752883494
 31
0.0
 11
12.8816092706
 21
4.0747507661
 31
0.0
  0
LINE
  5
3A5
100
AcDbEntity
  8
0
100
AcDbLine
 62
7
  6
CONTINUOUS
 10
12.8816092706
 20
4.0747507661
 11
12.8701490005
 21
4.0738622422
  0
SPLINE
  5
3A6
100
AcDbEntity
  8
0
100
AcDbSpline
 62
7
  6
CONTINUOUS
 70
0
 71
3
 72
10
 73
6
 74
4
 42
0.0000001
 43
0.0000001
 44
0.0000000001
 12
-0.0717755553
 22
-0.0048694071
 32
0.0
 13
-0.0718903416
 23
-0.0026870517
 33
0.0
 40
0.0
 40
0.0
 40
0.0
 40
0.0
 40
0.1952433274
 40
0.4288883945
 40
1.0
 40
1.0
 40
1.0
 40
1.0
 10
12.8701490005
 20
4.0738622422
 30
0.0
 10
12.8654777678
 20
4.0735453358
 30
0.0
 10
12.8552107407
 20
4.072935034
 30
0.0
 10
12.8312603981
 20
4.0717362806
 30
0.0
 10
12.8119772077
 20
4.070963245
 30
0.0
 10
12.7982914049
 20
4.0704517095
 30
0.0
 11
12.8701490005
 21
4.0738622422
 31
0.0
 11
12.8561289926
 21
4.073009609
 31
0.0
 11
12.8393420793
 21
4.0721569758
 31
0.0
 11
12.7982914049
 21
4.0704517095
 31
0.0
  0
SPLINE
  5
3A7
100
AcDbEntity
  8
0
100
AcDbSpline
 62
7
  6
CONTINUOUS
 70
0
 71
3
 72
12
 73
8
 74
6
 42
0.0000001
 43
0.0000001
 44
0.0000000001
 12
-0.0072443771
 22
-0.0041934453
 32
0.0
 13
-0.008308779
 23
-0.0010149754
 33
0.0
 40
0.0
 40
0.0
 40
0.0
 40
0.0
 40
0.0579540484
 40
0.1345186091
 40
0.3451905215
 40
0.6336227672
 40
1.0
 40
1.0
 40
1.0
 40
1.0
 10
12.8683060032
 20
4.0612365799
 30
0.0
 10
12.8681660563
 20
4.0611555709
 30
0.0
 10
12.8678211651
 20
4.0610032194
 30
0.0
 10
12.8669054847
 20
4.0607033853
 30
0.0
 10
12.8653347859
 20
4.0603535304
 30
0.0
 10
12.862953356
 20
4.0599542956
 30
0.0
 10
12.8611415289
 20
4.0597149971
 30
0.0
 10
12.8601268131
 20
4.0595910425
 30
0.0
 11
12.8683060032
 21
4.0612365799
 31
0.0
 11
12.8678666636
 21
4.0610308878
 31
0.0
 11
12.8672596819
 21
4.0608251956
 31
0.0
 11
12.8655448999
 21
4.0604138112
 31
0.0
 11
12.863165872
 21
4.0600024268
 31
0.0
 11
12.8601268131
 21
4.0595910425
 31
0.0
  0
SPLINE
  5
3A8
100
AcDbEntity
  8
0
100
AcDbSpline
 62
7
  6
CONTINUOUS
 70
0
 71
3
 72
12
 73
8
 74
6
 42
0.0000001
 43
0.0000001
 44
0.0000000001
 12
-0.0790850559
 22
-0.0096607921
 32
0.0
 13
-0.0796048919
 23
-0.0032921371
 33
0.0
 40
0.0
 40
0.0
 40
0.0
 40
0.0
 40
0.0701570554
 40
0.157290485
 40
0.3802850791
 40
0.6632236556
 40
1.0
 40
1.0
 40
1.0
 40
1.0
 10
12.8601268131
 20
4.0595910425
 30
0.0
 10
12.8582773549
 20
4.0593651182
 30
0.0
 10
12.8541219114
 20
4.0589329604
 30
0.0
 10
12.8440578986
 20
4.0580841628
 30
0.0
 10
12.8283385121
 20
4.0570758988
 30
0.0
 10
12.8059880611
 20
4.0559176166
 30
0.0
 10
12.789545418
 20
4.055198153
 30
0.0
 10
12.7806090698
 20
4.0548285817
 30
0.0
 11
12.8601268131
 21
4.0595910425
 31
0.0
 11
12.8545689856
 21
4.0589957349
 31
0.0
 11
12.8476523809
 21
4.0584004273
 31
0.0
 11
12.8299256855
 21
4.0572098121
 31
0.0
 11
12.8074146019
 21
4.0560191969
 31
0.0
 11
12.7806090698
 21
4.0548285817
 31
0.0
  0
SPLINE
  5
3A9
100
AcDbEntity
  8
0
100
AcDbSpline
 62
7
  6
CONTINUOUS
 70
0
 71
3
 72
14
 73
10
 74
8
 42
0.0000001
 43
0.0000001
 44
0.0000000001
 12
-0.0165851178
 22
-0.0095868783
 32
0.0
 13
-0.0190986212
 23
-0.0014889714
 33
0.0
 40
0.0
 40
0.0
 40
0.0
 40
0.0
 40
0.0444487518
 40
0.1117516005
 40
0.2022775192
 40
0.3160197839
 40
0.4528514547
 40
0.612595772
 40
1.0
 40
1.0
 40
1.0
 40
1.0
 10
12.8954323162
 20
4.1268979429
 30
0.0
 10
12.895186587
 20
4.1267559013
 30
0.0
 10
12.8945069291
 20
4.1265160419
 30
0.0
 10
12.8932545106
 20
4.1262081716
 30
0.0
 10
12.8915465839
 20
4.1258970825
 30
0.0
 10
12.8893917101
 20
4.125581474
 30
0.0
 10
12.8867905132
 20
4.125264329
 30
0.0
 10
12.8824465851
 20
4.1248099324
 30
0.0
 10
12.8789647746
 20
4.1245157419
 30
0.0
 10
12.8764984791
 20
4.124323464
 30
0.0
 11
12.8954323162
 21
4.1268979429
 31
0.0
 11
12.8946439847
 21
4.126576133
 31
0.0
 11
12.8933955007
 21
4.1262543231
 31
0.0
 11
12.8916914549
 21
4.1259325133
 31
0.0
 11
12.8895364382
 21
4.1256107034
 31
0.0
 11
12.8869350414
 21
4.1252888936
 31
0.0
 11
12.8838918554
 21
4.1249670837
 31
0.0
 11
12.8764984791
 21
4.124323464
 31
0.0
  0
SPLINE
  5
3AA
100
AcDbEntity
  8
0
100
AcDbSpline
 62
7
  6
CONTINUOUS
 70
0
 71
3
 72
13
 73
9
 74
7
 42
0.0000001
 43
0.0000001
 44
0.0000000001
 12
-0.254307327
 22
-0.0169863625
 32
0.0
 13
-0.254772052
 23
-0.0072079514
 33
0.0
 40
0.0
 40
0.0
 40
0.0
 40
0.0
 40
0.0762117007
 40
0.1708911133
 40
0.2820341616
 40
0.4075936887
 40
0.6915355942
 40
1.0
 40
1.0
 40
1.0
 40
1.0
 10
12.8692213621
 20
4.1238000109
 30
0.0
 10
12.8627609641
 20
4.1233684911
 30
0.0
 10
12.8482644701
 20
4.122556104
 30
0.0
 10
12.8243284858
 20
4.1214579668
 30
0.0
 10
12.7961964995
 20
4.1203516969
 30
0.0
 10
12.751990436
 20
4.1188086603
 30
0.0
 10
12.6910216059
 20
4.1169500896
 30
0.0
 10
12.6407121264
 20
4.1155261163
 30
0.0
 10
12.6145160898
 20
4.1147849841
 30
0.0
 11
12.8692213621
 21
4.1238000109
 31
0.0
 11
12.8498296962
 21
4.1226731326
 31
0.0
 11
12.8257247018
 21
4.1215462542
 31
0.0
 11
12.7974196518
 21
4.1204193759
 31
0.0
 11
12.7654376401
 21
4.1192924975
 31
0.0
 11
12.6931033347
 21
4.1170387408
 31
0.0
 11
12.6145160898
 21
4.1147849841
 31
0.0
  0
SPLINE
  5
3AB
100
AcDbEntity
  8
0
100
AcDbSpline
 62
7
  6
CONTINUOUS
 70
0
 71
3
 72
10
 73
6
 74
4
 42
0.0000001
 43
0.0000001
 44
0.0000000001
 12
-0.0026076018
 22
-0.0015391188
 32
0.0
 13
-0.0029711992
 23
-0.00058348
 33
0.0
 40
0.0
 40
0.0
 40
0.0
 40
0.0
 40
0.1650852336
 40
0.3857581168
 40
1.0
 40
1.0
 40
1.0
 40
1.0
 10
12.8683037882
 20
4.1112340168
 30
0.0
 10
12.868160296
 20
4.1111493216
 30
0.0
 10
12.8678024889
 20
4.1109908331
 30
0.0
 10
12.86684234
 20
4.1106787185
 30
0.0
 10
12.8660166126
 20
4.1105000023
 30
0.0
 10
12.8654082677
 20
4.1103805363
 30
0.0
 11
12.8683037882
 21
4.1112340168
 31
0.0
 11
12.8678517453
 21
4.1110206467
 31
0.0
 11
12.8672185423
 21
4.1108072766
 31
0.0
 11
12.8654082677
 21
4.1103805363
 31
0.0
  0
SPLINE
  5
3AC
100
AcDbEntity
  8
0
100
AcDbSpline
 62
7
  6
CONTINUOUS
 70
0
 71
3
 72
38
 73
34
 74
32
 42
0.0000001
 43
0.0000001
 44
0.0000000001
 12
-0.4965510818
 22
-0.0975120181
 32
0.0
 13
0.0000062036
 23
-0.5060351475
 33
0.0
 40
0.0
 40
0.0
 40
0.0
 40
0.0
 40
0.0043339609
 40
0.009737968
 40
0.0237098534
 40
0.0417577491
 40
0.0637011293
 40
0.0893561103
 40
0.1185373346
 40
0.1865366592
 40
0.2652064124
 40
0.3518420174
 40
0.4435270502
 40
0.5370265022
 40
0.6290909798
 40
0.7166008639
 40
0.7576974349
 40
0.79651522
 40
0.8326995166
 40
0.8659739528
 40
0.8960775924
 40
0.9227498865
 40
0.9457309778
 40
0.9647767695
 40
0.9797587134
 40
0.9857040543
 40
0.9906089755
 40
0.9944688265
 40
0.996007187
 40
0.9972860481
 40
0.9983090595
 40
0.9990848136
 40
1.0
 40
1.0
 40
1.0
 40
1.0
 10
12.8654082677
 20
4.1103805363
 30
0.0
 10
12.8646909233
 20
4.1102396652
 30
0.0
 10
12.863070007
 20
4.1099700084
 30
0.0
 10
12.859105809
 20
4.1094388537
 30
0.0
 10
12.8528234816
 20
4.1088078612
 30
0.0
 10
12.8437496719
 20
4.1080853814
 30
0.0
 10
12.8327001351
 20
4.1073582435
 30
0.0
 10
12.8197696879
 20
4.1066263322
 30
0.0
 10
12.7990755446
 20
4.1055949545
 30
0.0
 10
12.769439402
 20
4.1043453464
 30
0.0
 10
12.7301125622
 20
4.1028964586
 30
0.0
 10
12.6867881701
 20
4.1014425858
 30
0.0
 10
12.6409611094
 20
4.0999868262
 30
0.0
 10
12.5942179099
 20
4.098529639
 30
0.0
 10
12.5481793182
 20
4.0970723252
 30
0.0
 10
12.5109773938
 20
4.0958361812
 30
0.0
 10
12.4827543751
 20
4.094832356
 30
0.0
 10
12.4631848785
 20
4.094095854
 30
0.0
 10
12.444935796
 20
4.0933593844
 30
0.0
 10
12.4281578487
 20
4.0926238957
 30
0.0
 10
12.4129859579
 20
4.0918900825
 30
0.0
 10
12.399552494
 20
4.0911584732
 30
0.0
 10
12.3879870048
 20
4.090431301
 30
0.0
 10
12.3783979832
 20
4.0897069613
 30
0.0
 10
12.3716842908
 20
4.0890726202
 30
0.0
 10
12.3673588084
 20
4.0885446623
 30
0.0
 10
12.3649037673
 20
4.088181343
 30
0.0
 10
12.3631947878
 20
4.0878641546
 30
0.0
 10
12.362098682
 20
4.0875991824
 30
0.0
 10
12.3614787046
 20
4.0874188813
 30
0.0
 10
12.3609858602
 20
4.0872335101
 30
0.0
 10
12.3605918358
 20
4.0870395729
 30
0.0
 10
12.3603313154
 20
4.0868104144
 30
0.0
 10
12.3603313173
 20
4.0866560422
 30
0.0
 11
12.8654082677
 21
4.1103805363
 31
0.0
 11
12.8632466865
 21
4.1100098411
 31
0.0
 11
12.8605373106
 21
4.1096391459
 31
0.0
 11
12.8535060242
 21
4.1088977554
 31
0.0
 11
12.8444032967
 21
4.108156365
 31
0.0
 11
12.833323953
 21
4.1074149746
 31
0.0
 11
12.8203628177
 21
4.1066735841
 31
0.0
 11
12.8056147158
 21
4.1059321937
 31
0.0
 11
12.77123663
 21
4.1044494128
 31
0.0
 11
12.7314545938
 21
4.1029666319
 31
0.0
 11
12.6876390152
 21
4.101483851
 31
0.0
 11
12.6412668665
 21
4.1000010701
 31
0.0
 11
12.5939760977
 21
4.0985182893
 31
0.0
 11
12.5474118389
 21
4.0970355084
 31
0.0
 11
12.5031535936
 21
4.0955527275
 31
0.0
 11
12.4823705038
 21
4.0948113371
 31
0.0
 11
12.4627413362
 21
4.0940699466
 31
0.0
 11
12.4444458259
 21
4.0933285562
 31
0.0
 11
12.4276241216
 21
4.0925871657
 31
0.0
 11
12.4124086737
 21
4.0918457753
 31
0.0
 11
12.3989319329
 21
4.0911043849
 31
0.0
 11
12.3873263498
 21
4.0903629944
 31
0.0
 11
12.3777170677
 21
4.089621604
 31
0.0
 11
12.3701720153
 21
4.0888802135
 31
0.0
 11
12.3671863885
 21
4.0885095183
 31
0.0
 11
12.3647321637
 21
4.0881388231
 31
0.0
 11
12.3628144425
 21
4.0877681279
 31
0.0
 11
12.362058365
 21
4.0875827803
 31
0.0
 11
12.3614383266
 21
4.0873974326
 31
0.0
 11
12.3609549649
 21
4.087212085
 31
0.0
 11
12.3606089176
 21
4.0870267374
 31
0.0
 11
12.3603313173
 21
4.0866560422
 31
0.0
  0
SPLINE
  5
3AD
100
AcDbEntity
  8
0
100
AcDbSpline
 62
7
  6
CONTINUOUS
 70
0
 71
3
 72
15
 73
11
 74
9
 42
0.0000001
 43
0.0000001
 44
0.0000000001
 12
-0.0147864027
 22
-0.0085075672
 32
0.0
 13
-0.0170341026
 23
-0.0009250681
 33
0.0
 40
0.0
 40
0.0
 40
0.0
 40
0.0
 40
0.0152199308
 40
0.0365952363
 40
0.0983655516
 40
0.185678897
 40
0.2984469668
 40
0.4364876325
 40
0.5995838569
 40
1.0
 40
1.0
 40
1.0
 40
1.0
 10
12.8726840641
 20
4.163747253
 30
0.0
 10
12.8726090481
 20
4.1637040915
 30
0.0
 10
12.8724147347
 20
4.163625866
 30
0.0
 10
12.871877033
 20
4.1634719596
 30
0.0
 10
12.8709218956
 20
4.1632960748
 30
0.0
 10
12.8694470035
 20
4.1630941492
 30
0.0
 10
12.8675346073
 20
4.1628911734
 30
0.0
 10
12.8651899494
 20
4.1626859827
 30
0.0
 10
12.8612114263
 20
4.162391106
 30
0.0
 10
12.8580124809
 20
4.1622022657
 30
0.0
 10
12.8557389043
 20
4.1620787949
 30
0.0
 11
12.8726840641
 21
4.163747253
 31
0.0
 11
12.8724464275
 21
4.1636426504
 31
0.0
 11
12.8720970941
 21
4.163538091
 31
0.0
 11
12.8710642737
 21
4.1633291027
 31
0.0
 11
12.8695894873
 21
4.163120288
 31
0.0
 11
12.8676771017
 21
4.1629116461
 31
0.0
 11
12.8653314838
 21
4.1627031764
 31
0.0
 11
12.8625570003
 21
4.1624948784
 31
0.0
 11
12.8557389043
 21
4.1620787949
 31
0.0
  0
LINE
  5
3AE
100
AcDbEntity
  8
0
100
AcDbLine
 62
7
  6
CONTINUOUS
 10
12.8557389043
 20
4.1620787949
 11
12.8177532614
 21
4.1605793847
  0
LINE
  5
3AF
100
AcDbEntity
  8
0
100
AcDbLine
 62
7
  6
CONTINUOUS
 10
12.8177532614
 20
4.1605793847
 11
12.8151585702
 21
4.1604988851
  0
LINE
  5
3B0
100
AcDbEntity
  8
0
100
AcDbLine
 62
7
  6
CONTINUOUS
 10
12.7980804027
 20
4.1600042422
 11
12.7960866892
 21
4.1599498228
  0
LINE
  5
3B1
100
AcDbEntity
  8
0
100
AcDbLine
 62
7
  6
CONTINUOUS
 10
12.7614865452
 20
4.1590821586
 11
12.7463454771
 21
4.1587362882
  0
LINE
  5
3B2
100
AcDbEntity
  8
0
100
AcDbLine
 62
7
  6
CONTINUOUS
 10
12.8683248544
 20
4.1612277897
 11
12.867513588
 21
4.160890828
  0
SPLINE
  5
3B3
100
AcDbEntity
  8
0
100
AcDbSpline
 62
7
  6
CONTINUOUS
 70
0
 71
3
 72
12
 73
8
 74
6
 42
0.0000001
 43
0.0000001
 44
0.0000000001
 12
-0.0178223738
 22
-0.0052114466
 32
0.0
 13
-0.0185081164
 23
-0.0014986029
 33
0.0
 40
0.0
 40
0.0
 40
0.0
 40
0.0
 40
0.0642378224
 40
0.1460881884
 40
0.3622786479
 40
0.6474260232
 40
1.0
 40
1.0
 40
1.0
 40
1.0
 10
12.8672522739
 20
4.1608105947
 30
0.0
 10
12.8668706504
 20
4.1606990041
 30
0.0
 10
12.8659905528
 20
4.160487694
 30
0.0
 10
12.8637869143
 20
4.1600711936
 30
0.0
 10
12.860209151
 20
4.1595789855
 30
0.0
 10
12.8549538093
 20
4.1590162248
 30
0.0
 10
12.8510210987
 20
4.1586743837
 30
0.0
 10
12.8488459386
 20
4.1584982609
 30
0.0
 11
12.8672522739
 21
4.1608105947
 31
0.0
 11
12.8660950118
 21
4.160521553
 31
0.0
 11
12.8646028956
 21
4.1602325113
 31
0.0
 11
12.8606303634
 21
4.1596544278
 31
0.0
 11
12.8553672026
 21
4.1590763443
 31
0.0
 11
12.8488459386
 21
4.1584982609
 31
0.0
  0
SPLINE
  5
3B4
100
AcDbEntity
  8
0
100
AcDbSpline
 62
7
  6
CONTINUOUS
 70
0
 71
3
 72
9
 73
5
 74
3
 42
0.0000001
 43
0.0000001
 44
0.0000000001
 12
-0.0395019946
 22
-0.0031984779
 32
0.0
 13
-0.0395844113
 23
-0.001926711
 33
0.0
 40
0.0
 40
0.0
 40
0.0
 40
0.0
 40
0.4380523655
 40
1.0
 40
1.0
 40
1.0
 40
1.0
 10
12.8488459386
 20
4.1584982609
 30
0.0
 10
12.8430779579
 20
4.1580312273
 30
0.0
 10
12.8298949992
 20
4.1571621698
 30
0.0
 10
12.8167026425
 20
4.1564703447
 30
0.0
 10
12.8092878537
 20
4.1561094411
 30
0.0
 11
12.8488459386
 21
4.1584982609
 31
0.0
 11
12.831526502
 21
4.157303851
 31
0.0
 11
12.8092878537
 21
4.1561094411
 31
0.0
  0
LINE
  5
3B5
100
AcDbEntity
  8
0
100
AcDbLine
 62
7
  6
CONTINUOUS
 10
12.7523655614
 20
4.1537235907
 11
12.7461431133
 21
4.1534936556
  0
SPLINE
  5
3B6
100
AcDbEntity
  8
0
100
AcDbSpline
 62
7
  6
CONTINUOUS
 70
0
 71
3
 72
17
 73
13
 74
11
 42
0.0000001
 43
0.0000001
 44
0.0000000001
 12
-0.3709633874
 22
-0.0135855979
 32
0.0
 13
-0.3696187651
 23
-0.0343565396
 33
0.0
 40
0.0
 40
0.0
 40
0.0
 40
0.0
 40
0.1374038398
 40
0.2854195827
 40
0.4367700534
 40
0.5841752865
 40
0.7203656568
 40
0.8386901115
 40
0.8893888521
 40
0.9335252865
 40
0.9705091197
 40
1.0
 40
1.0
 40
1.0
 40
1.0
 10
12.7461431133
 20
4.1534936556
 30
0.0
 10
12.7291525153
 20
4.1528714178
 30
0.0
 10
12.6938558656
 20
4.1516679365
 30
0.0
 10
12.639838402
 20
4.1499500976
 30
0.0
 10
12.5845828686
 20
4.1482295423
 30
0.0
 10
12.5307911444
 20
4.1465127827
 30
0.0
 10
12.4810880204
 20
4.144801796
 30
0.0
 10
12.4433503313
 20
4.1433215875
 30
0.0
 10
12.4170027575
 20
4.1420992
 30
0.0
 10
12.400714526
 20
4.1412345467
 30
0.0
 10
12.3870547726
 20
4.1403729964
 30
0.0
 10
12.3788534995
 20
4.1397336152
 30
0.0
 10
12.3752200386
 20
4.1393958803
 30
0.0
 11
12.7461431133
 21
4.1534936556
 31
0.0
 11
12.6951675999
 21
4.1517314336
 31
0.0
 11
12.6402506357
 21
4.1499692117
 31
0.0
 11
12.5840951571
 21
4.1482069898
 31
0.0
 11
12.5294049386
 21
4.1464447679
 31
0.0
 11
12.4788801513
 21
4.144682546
 31
0.0
 11
12.4349920498
 21
4.1429203241
 31
0.0
 11
12.4161927024
 21
4.1420392132
 31
0.0
 11
12.3998324348
 21
4.1411581022
 31
0.0
 11
12.3861318932
 21
4.1402769913
 31
0.0
 11
12.3752200386
 21
4.1393958803
 31
0.0
  0
SPLINE
  5
3B7
100
AcDbEntity
  8
0
100
AcDbSpline
 62
7
  6
CONTINUOUS
 70
0
 71
3
 72
15
 73
11
 74
9
 42
0.0000001
 43
0.0000001
 44
0.0000000001
 12
-0.0152422446
 22
-0.0014167862
 32
0.0
 13
0.0000003047
 23
-0.015307949
 33
0.0
 40
0.0
 40
0.0
 40
0.0
 40
0.0
 40
0.4240114158
 40
0.7319673795
 40
0.8416712836
 40
0.8853980782
 40
0.9217424012
 40
0.9508286207
 40
0.9729889541
 40
1.0
 40
1.0
 40
1.0
 40
1.0
 10
12.3752200386
 20
4.1393958803
 30
0.0
 10
12.3730657433
 20
4.1391956358
 30
0.0
 10
12.3693503125
 20
4.1388153272
 30
0.0
 10
12.3650915788
 20
4.1382385775
 30
0.0
 10
12.362781565
 20
4.1377803106
 30
0.0
 10
12.3618432408
 20
4.1375367512
 30
0.0
 10
12.3613129673
 20
4.1373708581
 30
0.0
 10
12.3608938501
 20
4.1372005097
 30
0.0
 10
12.3605531031
 20
4.1370190178
 30
0.0
 10
12.3603402986
 20
4.1368075297
 30
0.0
 10
12.3603403013
 20
4.1366697018
 30
0.0
 11
12.3752200386
 21
4.1393958803
 31
0.0
 11
12.3687651746
 21
4.1387143357
 31
0.0
 11
12.3641005272
 21
4.1380327911
 31
0.0
 11
12.3624561236
 21
4.1376920187
 31
0.0
 11
12.361808805
 21
4.1375216326
 31
0.0
 11
12.3612791808
 21
4.1373512464
 31
0.0
 11
12.3608678216
 21
4.1371808603
 31
0.0
 11
12.3605744872
 21
4.1370104741
 31
0.0
 11
12.3603403013
 21
4.1366697018
 31
0.0
  0
SPLINE
  5
3B8
100
AcDbEntity
  8
0
100
AcDbSpline
 62
7
  6
CONTINUOUS
 70
0
 71
3
 72
15
 73
11
 74
9
 42
0.0000001
 43
0.0000001
 44
0.0000000001
 12
0.0
 22
-0.0084008917
 32
0.0
 13
-0.0083346984
 23
-0.0010525135
 33
0.0
 40
0.0
 40
0.0
 40
0.0
 40
0.0
 40
0.0334600174
 40
0.0574349234
 40
0.0876123406
 40
0.1681531965
 40
0.2768465895
 40
0.4142402605
 40
0.5805376992
 40
1.0
 40
1.0
 40
1.0
 40
1.0
 10
12.8686806013
 20
4.0491697812
 30
0.0
 10
12.8686806013
 20
4.0490760833
 30
0.0
 10
12.8685802702
 20
4.0489242405
 30
0.0
 10
12.8683858865
 20
4.0487797814
 30
0.0
 10
12.8680542341
 20
4.0485949698
 30
0.0
 10
12.8674768667
 20
4.0483809059
 30
0.0
 10
12.8665950344
 20
4.0481359728
 30
0.0
 10
12.8654662357
 20
4.047890231
 30
0.0
 10
12.8634729641
 20
4.0475315308
 30
0.0
 10
12.8618474025
 20
4.047307156
 30
0.0
 10
12.8606820386
 20
4.0471599928
 30
0.0
 11
12.8686806013
 21
4.0491697812
 31
0.0
 11
12.868554504
 21
4.0489185577
 31
0.0
 11
12.8683970622
 21
4.0487929459
 31
0.0
 11
12.8681768517
 21
4.0486673341
 31
0.0
 11
12.8675486045
 21
4.0484161106
 31
0.0
 11
12.8666707221
 21
4.048164887
 31
0.0
 11
12.8655441645
 21
4.0479136635
 31
0.0
 11
12.8641698914
 21
4.0476624399
 31
0.0
 11
12.8606820386
 21
4.0471599928
 31
0.0
  0
SPLINE
  5
3B9
100
AcDbEntity
  8
0
100
AcDbSpline
 62
7
  6
CONTINUOUS
 70
0
 71
3
 72
12
 73
8
 74
6
 42
0.0000001
 43
0.0000001
 44
0.0000000001
 12
-0.0796001889
 22
-0.0100519861
 32
0.0
 13
-0.0801638422
 23
-0.003315253
 33
0.0
 40
0.0
 40
0.0
 40
0.0
 40
0.0
 40
0.0688096028
 40
0.1549905168
 40
0.3773281957
 40
0.6611080223
 40
1.0
 40
1.0
 40
1.0
 40
1.0
 10
12.8606820386
 20
4.0471599928
 30
0.0
 10
12.8588562861
 20
4.0469294351
 30
0.0
 10
12.854733874
 20
4.0464900768
 30
0.0
 10
12.8446792319
 20
4.0456272947
 30
0.0
 10
12.8288703569
 20
4.0446054956
 30
0.0
 10
12.8063017964
 20
4.0434314588
 30
0.0
 10
12.7896646975
 20
4.0427030859
 30
0.0
 10
12.7806090698
 20
4.0423285817
 30
0.0
 11
12.8606820386
 21
4.0471599928
 31
0.0
 11
12.8551944131
 21
4.0465560664
 31
0.0
 11
12.8483063391
 21
4.04595214
 31
0.0
 11
12.8305085998
 21
4.0447442872
 31
0.0
 11
12.8077723337
 21
4.0435364345
 31
0.0
 11
12.7806090698
 21
4.0423285817
 31
0.0
  0
LINE
  5
3BA
100
AcDbEntity
  8
0
100
AcDbLine
 62
7
  6
CONTINUOUS
 10
12.749946851
 20
4.3718761308
 11
12.7519091083
 21
4.3737248349
  0
SPLINE
  5
3BB
100
AcDbEntity
  8
0
100
AcDbSpline
 62
7
  6
CONTINUOUS
 70
0
 71
3
 72
12
 73
8
 74
6
 42
0.0000001
 43
0.0000001
 44
0.0000000001
 12
0.0
 22
-0.0031612098
 32
0.0
 13
-0.0030932467
 23
-0.000651976
 33
0.0
 40
0.0
 40
0.0
 40
0.0
 40
0.0
 40
0.1096030625
 40
0.1938663433
 40
0.302428972
 40
0.5973870854
 40
1.0
 40
1.0
 40
1.0
 40
1.0
 10
12.8686647836
 20
4.099160243
 30
0.0
 10
12.8686647836
 20
4.0990447503
 30
0.0
 10
12.8685139036
 20
4.0988612184
 30
0.0
 10
12.8682493845
 20
4.0986964619
 30
0.0
 10
12.8677804339
 20
4.0984754986
 30
0.0
 10
12.866969017
 20
4.0982232129
 30
0.0
 10
12.8662526161
 20
4.0980553045
 30
0.0
 10
12.865837489
 20
4.0979678065
 30
0.0
 11
12.8686647836
 21
4.099160243
 31
0.0
 11
12.8684882103
 21
4.0988621339
 31
0.0
 11
12.8682674439
 21
4.0987130793
 31
0.0
 11
12.8679583135
 21
4.0985640248
 31
0.0
 11
12.8670748281
 21
4.0982659157
 31
0.0
 11
12.865837489
 21
4.0979678065
 31
0.0
  0
SPLINE
  5
3BC
100
AcDbEntity
  8
0
100
AcDbSpline
 62
7
  6
CONTINUOUS
 70
0
 71
3
 72
32
 73
28
 74
26
 42
0.0000001
 43
0.0000001
 44
0.0000000001
 12
-0.4937362432
 22
-0.1040667677
 32
0.0
 13
-0.4859232081
 23
-0.1359558964
 33
0.0
 40
0.0
 40
0.0
 40
0.0
 40
0.0
 40
0.0039383669
 40
0.0088771719
 40
0.0217321394
 40
0.0384330285
 40
0.0588176171
 40
0.0827201082
 40
0.1099731539
 40
0.1737551066
 40
0.2480152371
 40
0.3303125531
 40
0.4180967972
 40
0.5084836674
 40
0.5985250816
 40
0.6853478674
 40
0.7661932581
 40
0.8383431584
 40
0.8704302999
 40
0.8995410803
 40
0.9254398974
 40
0.947891751
 40
0.9666723318
 40
0.9816563963
 40
0.9927801971
 40
0.9968793162
 40
1.0
 40
1.0
 40
1.0
 40
1.0
 10
12.865837489
 20
4.0979678065
 30
0.0
 10
12.8651893176
 20
4.0978311888
 30
0.0
 10
12.8637185206
 20
4.0975702651
 30
0.0
 10
12.860099344
 20
4.0970560061
 30
0.0
 10
12.8543281334
 20
4.0964467121
 30
0.0
 10
12.8459573351
 20
4.0957491289
 30
0.0
 10
12.8357231779
 20
4.0950469966
 30
0.0
 10
12.823711197
 20
4.094340076
 30
0.0
 10
12.8044049607
 20
4.0933418814
 30
0.0
 10
12.7766291321
 20
4.0921327794
 30
0.0
 10
12.7395955598
 20
4.0907331652
 30
0.0
 10
12.698522551
 20
4.0893272905
 30
0.0
 10
12.6547357272
 20
4.087919752
 30
0.0
 10
12.6096457944
 20
4.0865105099
 30
0.0
 10
12.564717664
 20
4.085100964
 30
0.0
 10
12.5213951105
 20
4.0836928137
 30
0.0
 10
12.4810833282
 20
4.0822897706
 30
0.0
 10
12.449976652
 20
4.0810829706
 30
0.0
 10
12.4275699071
 20
4.0800960911
 30
0.0
 10
12.4129378295
 20
4.0793866027
 30
0.0
 10
12.3999282955
 20
4.0786793619
 30
0.0
 10
12.3886590787
 20
4.077975143
 30
0.0
 10
12.3792290786
 20
4.0772757174
 30
0.0
 10
12.371711284
 20
4.0765798928
 30
0.0
 10
12.3666646826
 20
4.0759719085
 30
0.0
 10
12.3636230984
 20
4.0754526275
 30
0.0
 10
12.3624362706
 20
4.0751891935
 30
0.0
 10
12.3619307997
 20
4.0750477684
 30
0.0
 11
12.865837489
 21
4.0979678065
 31
0.0
 11
12.8638827865
 21
4.0976096809
 31
0.0
 11
12.8614166097
 21
4.0972515553
 31
0.0
 11
12.8549698609
 21
4.0965353041
 31
0.0
 11
12.8465733475
 21
4.0958190529
 31
0.0
 11
12.8363125715
 21
4.0951028018
 31
0.0
 11
12.8242730352
 21
4.0943865506
 31
0.0
 11
12.8105402405
 21
4.0936702994
 31
0.0
 11
12.7783887617
 21
4.092237797
 31
0.0
 11
12.7409456542
 21
4.0908052946
 31
0.0
 11
12.6994444318
 21
4.0893727922
 31
0.0
 11
12.6551730456
 21
4.0879402898
 31
0.0
 11
12.6095877475
 21
4.0865077875
 31
0.0
 11
12.5641768475
 21
4.0850752851
 31
0.0
 11
12.5203908548
 21
4.0836427827
 31
0.0
 11
12.4796226953
 21
4.0822102803
 31
0.0
 11
12.4432451787
 21
4.0807777779
 31
0.0
 11
12.4270703598
 21
4.0800615267
 31
0.0
 11
12.4123989887
 21
4.0793452755
 31
0.0
 11
12.3993504941
 21
4.0786290243
 31
0.0
 11
12.3880443047
 21
4.0779127731
 31
0.0
 11
12.3785950243
 21
4.077196522
 31
0.0
 11
12.3710683027
 21
4.0764802708
 31
0.0
 11
12.3655012942
 21
4.0757640196
 31
0.0
 11
12.3634641826
 21
4.075405894
 31
0.0
 11
12.3619307997
 21
4.0750477684
 31
0.0
  0
LINE
  5
3BD
100
AcDbEntity
  8
0
100
AcDbLine
 62
7
  6
CONTINUOUS
 10
12.3619307997
 20
4.0750477684
 11
12.360702967
 21
4.0745850627
  0
SPLINE
  5
3BE
100
AcDbEntity
  8
0
100
AcDbSpline
 62
7
  6
CONTINUOUS
 70
0
 71
3
 72
14
 73
10
 74
8
 42
0.0000001
 43
0.0000001
 44
0.0000000001
 12
-0.0133398201
 22
-0.0082107997
 32
0.0
 13
-0.015600579
 23
-0.0014106622
 33
0.0
 40
0.0
 40
0.0
 40
0.0
 40
0.0
 40
0.046984422
 40
0.1160467508
 40
0.2076602452
 40
0.3218124817
 40
0.4583501448
 40
0.6170598494
 40
1.0
 40
1.0
 40
1.0
 40
1.0
 10
12.8683652256
 20
4.1487519122
 30
0.0
 10
12.8681563044
 20
4.148623319
 30
0.0
 10
12.8675876808
 20
4.1483979249
 30
0.0
 10
12.8665434433
 20
4.1481098573
 30
0.0
 10
12.8651369108
 20
4.1478182101
 30
0.0
 10
12.8633741649
 20
4.1475232898
 30
0.0
 10
12.8612568733
 20
4.1472268514
 30
0.0
 10
12.85774113
 20
4.146803138
 30
0.0
 10
12.854926025
 20
4.146527601
 30
0.0
 10
12.8529346623
 20
4.1463475346
 30
0.0
 11
12.8683652256
 21
4.1487519122
 31
0.0
 11
12.8676934145
 21
4.148451365
 31
0.0
 11
12.8666541937
 21
4.1481508178
 31
0.0
 11
12.8652509641
 21
4.1478502706
 31
0.0
 11
12.8634882966
 21
4.1475497234
 31
0.0
 11
12.8613707619
 21
4.1472491762
 31
0.0
 11
12.8589029308
 21
4.146948629
 31
0.0
 11
12.8529346623
 21
4.1463475346
 31
0.0
  0
SPLINE
  5
3BF
100
AcDbEntity
  8
0
100
AcDbSpline
 62
7
  6
CONTINUOUS
 70
0
 71
3
 72
21
 73
17
 74
15
 42
0.0000001
 43
0.0000001
 44
0.0000000001
 12
-0.475113943
 22
-0.0429615632
 32
0.0
 13
-0.4751382888
 23
-0.0426914664
 33
0.0
 40
0.0
 40
0.0
 40
0.0
 40
0.0
 40
0.0337435675
 40
0.0782514671
 40
0.1325316502
 40
0.1952111496
 40
0.26489633
 40
0.3400584695
 40
0.4995844426
 40
0.6591675749
 40
0.7344021448
 40
0.8041868418
 40
0.8669868236
 40
0.9214099062
 40
0.9660824719
 40
1.0
 40
1.0
 40
1.0
 40
1.0
 10
12.8529346623
 20
4.1463475346
 30
0.0
 10
12.8475906492
 20
4.1458643092
 30
0.0
 10
12.8351770796
 20
4.1449803647
 30
0.0
 10
12.8141346146
 20
4.1438117358
 30
0.0
 10
12.788485065
 20
4.1426344329
 30
0.0
 10
12.7588290117
 20
4.1414464148
 30
0.0
 10
12.7258500752
 20
4.1402547481
 30
0.0
 10
12.6774765887
 20
4.1386321386
 30
0.0
 10
12.6148112316
 20
4.1366710498
 30
0.0
 10
12.5521343449
 20
4.1347102004
 30
0.0
 10
12.5037243964
 20
4.1330878829
 30
0.0
 10
12.4706989298
 20
4.1318962093
 30
0.0
 10
12.4409851265
 20
4.1307080857
 30
0.0
 10
12.4152674575
 20
4.1295305343
 30
0.0
 10
12.3941483026
 20
4.1283618305
 30
0.0
 10
12.3816807695
 20
4.1274780392
 30
0.0
 10
12.3763089307
 20
4.1269953762
 30
0.0
 11
12.8529346623
 21
4.1463475346
 31
0.0
 11
12.8368827174
 21
4.1451380247
 31
0.0
 11
12.8156845966
 21
4.1439285148
 31
0.0
 11
12.7898183701
 21
4.1427190049
 31
0.0
 11
12.7599414393
 21
4.141509495
 31
0.0
 11
12.7267199698
 21
4.1402999851
 31
0.0
 11
12.6908840992
 21
4.1390904752
 31
0.0
 11
12.6148203129
 21
4.1366714554
 31
0.0
 11
12.5387292449
 21
4.1342524356
 31
0.0
 11
12.5028588015
 21
4.1330429257
 31
0.0
 11
12.469589826
 21
4.1318334158
 31
0.0
 11
12.4396553718
 21
4.1306239059
 31
0.0
 11
12.4137209005
 21
4.129414396
 31
0.0
 11
12.392444098
 21
4.1282048861
 31
0.0
 11
12.3763089307
 21
4.1269953762
 31
0.0
  0
SPLINE
  5
3C0
100
AcDbEntity
  8
0
100
AcDbSpline
 62
7
  6
CONTINUOUS
 70
0
 71
3
 72
14
 73
10
 74
8
 42
0.0000001
 43
0.0000001
 44
0.0000000001
 12
-0.015763245
 22
-0.0014163372
 32
0.0
 13
-0.0137011982
 23
-0.0079223148
 33
0.0
 40
0.0
 40
0.0
 40
0.0
 40
0.0
 40
0.3807766853
 40
0.5389476514
 40
0.6753145406
 40
0.7896661766
 40
0.8818468684
 40
0.9518289188
 40
1.0
 40
1.0
 40
1.0
 40
1.0
 10
12.3763089307
 20
4.1269953762
 30
0.0
 10
12.374308172
 20
4.1268156068
 30
0.0
 10
12.3714778851
 20
4.1265404731
 30
0.0
 10
12.3679402304
 20
4.1261181743
 30
0.0
 10
12.365803196
 20
4.1258224341
 30
0.0
 10
12.3640183137
 20
4.1255281492
 30
0.0
 10
12.3625875977
 20
4.125236951
 30
0.0
 10
12.3615167262
 20
4.1249491802
 30
0.0
 10
12.3609298088
 20
4.1247248362
 30
0.0
 10
12.3607098083
 20
4.1245976273
 30
0.0
 11
12.3763089307
 21
4.1269953762
 31
0.0
 11
12.3703123611
 21
4.126395939
 31
0.0
 11
12.3678270364
 21
4.1260962204
 31
0.0
 11
12.3656897047
 21
4.1257965018
 31
0.0
 11
12.3639048807
 21
4.1254967832
 31
0.0
 11
12.362477079
 21
4.1251970646
 31
0.0
 11
12.3614108144
 21
4.1248973459
 31
0.0
 11
12.3607098083
 21
4.1245976273
 31
0.0
  0
LINE
  5
3C1
100
AcDbEntity
  8
0
100
AcDbLine
 62
7
  6
CONTINUOUS
 10
12.776738241
 20
5.043517368
 11
12.7737944909
 21
5.0461935665
  0
LINE
  5
3C2
100
AcDbEntity
  8
0
100
AcDbLine
 62
9
  6
CONTINUOUS
 10
11.4895160865
 20
3.5110388167
 11
11.9864949537
 21
3.5106578602
  0
LINE
  5
3C3
100
AcDbEntity
  8
0
100
AcDbLine
 62
9
  6
CONTINUOUS
 10
11.9864949537
 20
3.5106578602
 11
12.0118685912
 21
3.5106692099
  0
LINE
  5
3C4
100
AcDbEntity
  8
0
100
AcDbLine
 62
9
  6
CONTINUOUS
 10
13.2166233015
 20
3.5114081751
 11
13.2425494336
 21
3.5114197786
  0
LINE
  5
3C5
100
AcDbEntity
  8
0
100
AcDbLine
 62
9
  6
CONTINUOUS
 10
13.2425494336
 20
3.5114197786
 11
13.7395166862
 21
3.5110374437
  0
SPLINE
  5
3C6
100
AcDbEntity
  8
0
100
AcDbSpline
 62
9
  6
CONTINUOUS
 70
0
 71
3
 72
40
 73
36
 74
34
 42
0.0000001
 43
0.0000001
 44
0.0000000001
 12
0.4204849622
 22
1.4589151397
 32
0.0
 13
0.4204849622
 23
1.4589151397
 33
0.0
 40
0.0
 40
0.0
 40
0.0
 40
0.0
 40
0.0026574764
 40
0.0063442424
 40
0.0110584542
 40
0.0167937971
 40
0.0235422246
 40
0.0312948811
 40
0.0497753923
 40
0.072134006
 40
0.0981683185
 40
0.1276502669
 40
0.1603513273
 40
0.2148742053
 40
0.2749683713
 40
0.4071584653
 40
0.4766629547
 40
0.5466227295
 40
0.6156719355
 40
0.6824447543
 40
0.745610122
 40
0.8039757761
 40
0.8563868
 40
0.8800304527
 40
0.9018311986
 40
0.9216926443
 40
0.9395185384
 40
0.9552132484
 40
0.9687047477
 40
0.979957649
 40
0.9889409809
 40
0.9925728038
 40
0.9956274006
 40
0.9981029697
 40
1.0
 40
1.0
 40
1.0
 40
1.0
 10
8.4198419596
 20
8.2455673887
 30
0.0
 10
8.4202144358
 20
8.2468597329
 30
0.0
 10
8.4213202506
 20
8.2498798778
 30
0.0
 10
8.4235131642
 20
8.2550287652
 30
0.0
 10
8.4265310336
 20
8.2615171152
 30
0.0
 10
8.4303651522
 20
8.269331237
 30
0.0
 10
8.4350125519
 20
8.2784581651
 30
0.0
 10
8.4427496502
 20
8.2932489511
 30
0.0
 10
8.4544316719
 20
8.3148905237
 30
0.0
 10
8.4708138823
 20
8.3445064863
 30
0.0
 10
8.4901353693
 20
8.3788583182
 30
0.0
 10
8.5122202429
 20
8.4176605161
 30
0.0
 10
8.5416332162
 20
8.4688811741
 30
0.0
 10
8.579000616
 20
8.5333991423
 30
0.0
 10
8.6419128302
 20
8.6413083673
 30
0.0
 10
8.7089795435
 20
8.7555716399
 30
0.0
 10
8.7786807401
 20
8.874077804
 30
0.0
 10
8.8321969708
 20
8.9650302268
 30
0.0
 10
8.8849828245
 20
9.0548083288
 30
0.0
 10
8.935952721
 20
9.1416651355
 30
0.0
 10
8.9840650459
 20
9.2239295773
 30
0.0
 10
9.0283396125
 20
9.3000179663
 30
0.0
 10
9.0623623479
 20
9.3589297248
 30
0.0
 10
9.0869640183
 20
9.4019118067
 30
0.0
 10
9.1032934377
 20
9.4306475849
 30
0.0
 10
9.1180669656
 20
9.4568807189
 30
0.0
 10
9.1312079271
 20
9.4804863308
 30
0.0
 10
9.1426452296
 20
9.5013501064
 30
0.0
 10
9.1523249523
 20
9.5193831141
 30
0.0
 10
9.1602105687
 20
9.534522503
 30
0.0
 10
9.1655979674
 20
9.5453359724
 30
0.0
 10
9.1689565415
 20
9.5525205305
 30
0.0
 10
9.1708271665
 20
9.5567641523
 30
0.0
 10
9.1722321054
 20
9.5602510091
 30
0.0
 10
9.1729583833
 20
9.5623440049
 30
0.0
 10
9.1732242742
 20
9.5632665403
 30
0.0
 11
8.4198419596
 21
8.2455673887
 31
0.0
 11
8.4211675591
 21
8.2493782698
 31
0.0
 11
8.4233339821
 21
8.2545396657
 31
0.0
 11
8.4263331512
 21
8.2610386028
 31
0.0
 11
8.4301569891
 21
8.2688621075
 31
0.0
 11
8.4347974185
 21
8.2779972061
 31
0.0
 11
8.4402463619
 21
8.2884309249
 31
0.0
 11
8.4535374817
 21
8.3131423284
 31
0.0
 11
8.4699458298
 21
8.3428605656
 31
0.0
 11
8.4893072876
 21
8.3773220324
 31
0.0
 11
8.5114378366
 21
8.4162311616
 31
0.0
 11
8.5361534583
 21
8.4592923861
 31
0.0
 11
8.5776199574
 21
8.5309402841
 31
0.0
 11
8.6235593421
 21
8.6097724474
 31
0.0
 11
8.7250728822
 21
8.7829119621
 31
0.0
 11
8.7785665394
 21
8.8738776563
 31
0.0
 11
8.8324256644
 21
8.965430358
 31
0.0
 11
8.8855538537
 21
9.0558090446
 31
0.0
 11
8.9368547041
 21
9.1432526935
 31
0.0
 11
8.9852596316
 21
9.2260449653
 31
0.0
 11
9.0298113307
 21
9.3026482539
 31
0.0
 11
9.0695822193
 21
9.3715726941
 31
0.0
 11
9.0874105732
 21
9.4027308542
 31
0.0
 11
9.1037589462
 21
9.4315118966
 31
0.0
 11
9.1185497054
 21
9.4577911289
 31
0.0
 11
9.131705218
 21
9.4814438587
 31
0.0
 11
9.143148162
 21
9.502345893
 31
0.0
 11
9.1528198719
 21
9.5204030041
 31
0.0
 11
9.1606905991
 21
9.5355674106
 31
0.0
 11
9.1667330826
 21
9.5477953262
 31
0.0
 11
9.1690602138
 21
9.5527944168
 31
0.0
 11
9.1709200613
 21
9.5570429648
 31
0.0
 11
9.1723092173
 21
9.5605354971
 31
0.0
 11
9.1732242742
 21
9.5632665403
 31
0.0
  0
SPLINE
  5
3C7
100
AcDbEntity
  8
0
100
AcDbSpline
 62
7
  6
CONTINUOUS
 70
0
 71
3
 72
13
 73
9
 74
7
 42
0.0000001
 43
0.0000001
 44
0.0000000001
 12
-0.2538864876
 22
-0.0069633337
 32
0.0
 13
-0.2534362215
 23
-0.0166408612
 33
0.0
 40
0.0
 40
0.0
 40
0.0
 40
0.0
 40
0.3075934084
 40
0.5910285194
 40
0.7165698499
 40
0.828021551
 40
0.9231006938
 40
1.0
 40
1.0
 40
1.0
 40
1.0
 10
12.6145160865
 20
4.0647850188
 30
0.0
 10
12.5884848165
 20
4.0640710603
 30
0.0
 10
12.5384688631
 20
4.0626246818
 30
0.0
 10
12.4778312732
 20
4.0607865542
 30
0.0
 10
12.4337980512
 20
4.0592545282
 30
0.0
 10
12.4057059327
 20
4.0581553238
 30
0.0
 10
12.3817353385
 20
4.0570624292
 30
0.0
 10
12.3671972833
 20
4.0562556737
 30
0.0
 10
12.3607009267
 20
4.0558291168
 30
0.0
 11
12.6145160865
 21
4.0647850188
 31
0.0
 11
12.5364249818
 21
4.0625466788
 31
0.0
 11
12.4644724204
 21
4.0603071594
 31
0.0
 11
12.4326068101
 21
4.0591886878
 31
0.0
 11
12.4043222697
 21
4.0580683009
 31
0.0
 11
12.3801998632
 21
4.0569484332
 31
0.0
 11
12.3607009267
 21
4.0558291168
 31
0.0
  0
SPLINE
  5
3C8
100
AcDbEntity
  8
0
100
AcDbSpline
 62
7
  6
CONTINUOUS
 70
0
 71
3
 72
11
 73
7
 74
5
 42
0.0000001
 43
0.0000001
 44
0.0000000001
 12
-0.0225981546
 22
-0.0015403612
 32
0.0
 13
-0.0222130869
 23
-0.0044303586
 33
0.0
 40
0.0
 40
0.0
 40
0.0
 40
0.0
 40
0.3397547866
 40
0.6204288747
 40
0.8408545838
 40
1.0
 40
1.0
 40
1.0
 40
1.0
 10
12.3586375661
 20
4.0556911059
 30
0.0
 10
12.356078289
 20
4.0555166576
 30
0.0
 10
12.3514063146
 20
4.0551757109
 30
0.0
 10
12.3450812873
 20
4.0546214306
 30
0.0
 10
12.3401268287
 20
4.0540720092
 30
0.0
 10
12.3372893504
 20
4.0536528385
 30
0.0
 10
12.3361109801
 20
4.0534178148
 30
0.0
 11
12.3586375661
 21
4.0556911059
 31
0.0
 11
12.3509629287
 21
4.0551228427
 31
0.0
 11
12.3446309476
 21
4.0545545245
 31
0.0
 11
12.3396706293
 21
4.0539861743
 31
0.0
 11
12.3361109801
 21
4.0534178148
 31
0.0
  0
LINE
  5
3C9
100
AcDbEntity
  8
0
100
AcDbLine
 62
7
  6
CONTINUOUS
 10
12.3355711096
 20
4.0533044685
 11
12.3348934726
 21
4.0531412204
  0
SPLINE
  5
3CA
100
AcDbEntity
  8
0
100
AcDbSpline
 62
7
  6
CONTINUOUS
 70
0
 71
3
 72
12
 73
8
 74
6
 42
0.0000001
 43
0.0000001
 44
0.0000000001
 12
-0.0018388858
 22
-0.0004852298
 32
0.0
 13
0.0000000172
 23
-0.0019018278
 33
0.0
 40
0.0
 40
0.0
 40
0.0
 40
0.0
 40
0.3898554354
 40
0.6792494024
 40
0.7882193316
 40
0.8754527021
 40
1.0
 40
1.0
 40
1.0
 40
1.0
 10
12.3348934726
 20
4.0531412204
 30
0.0
 10
12.3346545061
 20
4.0530781639
 30
0.0
 10
12.3342409852
 20
4.0529570766
 30
0.0
 10
12.3337744599
 20
4.0527742276
 30
0.0
 10
12.3335076021
 20
4.0526170179
 30
0.0
 10
12.3333496219
 20
4.0524923303
 30
0.0
 10
12.3332709427
 20
4.0523639071
 30
0.0
 10
12.3332709434
 20
4.0522849512
 30
0.0
 11
12.3348934726
 21
4.0531412204
 31
0.0
 11
12.3341836108
 21
4.0529271495
 31
0.0
 11
12.3336765703
 21
4.0527130808
 31
0.0
 11
12.3334991073
 21
4.0526060475
 31
0.0
 11
12.3333723487
 21
4.0524990147
 31
0.0
 11
12.3332709434
 21
4.0522849512
 31
0.0
  0
SPLINE
  5
3CB
100
AcDbEntity
  8
0
100
AcDbSpline
 62
7
  6
CONTINUOUS
 70
0
 71
3
 72
13
 73
9
 74
7
 42
0.0000001
 43
0.0000001
 44
0.0000000001
 12
-0.2559461281
 22
-0.0072411681
 32
0.0
 13
-0.2554546938
 23
-0.0174285512
 33
0.0
 40
0.0
 40
0.0
 40
0.0
 40
0.0
 40
0.3096747483
 40
0.594275649
 40
0.719844645
 40
0.8306850325
 40
0.9247349124
 40
1.0
 40
1.0
 40
1.0
 40
1.0
 10
12.6145160898
 20
4.1147849841
 30
0.0
 10
12.5880960722
 20
4.1140375151
 30
0.0
 10
12.537395262
 20
4.112602671
 30
0.0
 10
12.4759852562
 20
4.1107280182
 30
0.0
 10
12.4315444719
 20
4.1091710888
 30
0.0
 10
12.4033618001
 20
4.1080557773
 30
0.0
 10
12.3794762174
 20
4.1069487321
 30
0.0
 10
12.3650478374
 20
4.106128313
 30
0.0
 10
12.3586388974
 20
4.1056910592
 30
0.0
 11
12.6145160898
 21
4.1147849841
 31
0.0
 11
12.5352569223
 21
4.1125115029
 31
0.0
 11
12.4624207503
 21
4.1102380217
 31
0.0
 11
12.4302890934
 21
4.1091012811
 31
0.0
 11
12.4019313484
 21
4.1079645404
 31
0.0
 11
12.3778768584
 21
4.1068277998
 31
0.0
 11
12.3586388974
 21
4.1056910592
 31
0.0
  0
SPLINE
  5
3CC
100
AcDbEntity
  8
0
100
AcDbSpline
 62
7
  6
CONTINUOUS
 70
0
 71
3
 72
11
 73
7
 74
5
 42
0.0000001
 43
0.0000001
 44
0.0000000001
 12
-0.0225772411
 22
-0.001540346
 32
0.0
 13
-0.0221963818
 23
-0.0044073939
 33
0.0
 40
0.0
 40
0.0
 40
0.0
 40
0.0
 40
0.3396509432
 40
0.6201177285
 40
0.8404924856
 40
1.0
 40
1.0
 40
1.0
 40
1.0
 10
12.3586388974
 20
4.1056910592
 30
0.0
 10
12.3560827703
 20
4.1055166659
 30
0.0
 10
12.3514174649
 20
4.105175792
 30
0.0
 10
12.3451010857
 20
4.1046212712
 30
0.0
 10
12.3401504546
 20
4.1040715849
 30
0.0
 10
12.3373133605
 20
4.1036522926
 30
0.0
 10
12.3361331972
 20
4.1034179551
 30
0.0
 11
12.3586388974
 21
4.1056910592
 31
0.0
 11
12.3509737261
 21
4.1051227832
 31
0.0
 11
12.3446523315
 21
4.1045545072
 31
0.0
 11
12.3396977948
 21
4.1039862311
 31
0.0
 11
12.3361331972
 21
4.1034179551
 31
0.0
  0
LINE
  5
3CD
100
AcDbEntity
  8
0
100
AcDbLine
 62
7
  6
CONTINUOUS
 10
12.3356344442
 20
4.1033142437
 11
12.3349079351
 21
4.1031413338
  0
SPLINE
  5
3CE
100
AcDbEntity
  8
0
100
AcDbSpline
 62
7
  6
CONTINUOUS
 70
0
 71
3
 72
12
 73
8
 74
6
 42
0.0000001
 43
0.0000001
 44
0.0000000001
 12
-0.0018561582
 22
-0.0004857788
 32
0.0
 13
0.0000033319
 23
-0.0019186697
 33
0.0
 40
0.0
 40
0.0
 40
0.0
 40
0.0
 40
0.3898659034
 40
0.679763412
 40
0.7889301685
 40
0.876190341
 40
1.0
 40
1.0
 40
1.0
 40
1.0
 10
12.3349079351
 20
4.1031413338
 30
0.0
 10
12.3346667175
 20
4.1030782042
 30
0.0
 10
12.3342489149
 20
4.1029569641
 30
0.0
 10
12.333777169
 20
4.1027743259
 30
0.0
 10
12.3335065303
 20
4.1026171291
 30
0.0
 10
12.3333465479
 20
4.1024929186
 30
0.0
 10
12.3332659703
 20
4.1023641855
 30
0.0
 10
12.3332661078
 20
4.1022850023
 30
0.0
 11
12.3349079351
 21
4.1031413338
 31
0.0
 11
12.3341911994
 21
4.1029272509
 31
0.0
 11
12.3336778307
 21
4.102713168
 31
0.0
 11
12.3334977929
 21
4.1026061266
 31
0.0
 11
12.3333690574
 21
4.1024990851
 31
0.0
 11
12.3332661078
 21
4.1022850023
 31
0.0
  0
SPLINE
  5
3CF
100
AcDbEntity
  8
0
100
AcDbSpline
 62
7
  6
CONTINUOUS
 70
0
 71
3
 72
10
 73
6
 74
4
 42
0.0000001
 43
0.0000001
 44
0.0000000001
 12
0.0714475849
 22
0.0026705028
 32
0.0
 13
0.0713365276
 23
0.0047946631
 33
0.0
 40
0.0
 40
0.0
 40
0.0
 40
0.0
 40
0.5701181397
 40
0.8039369098
 40
1.0
 40
1.0
 40
1.0
 40
1.0
 10
12.7982914049
 20
4.0267055116
 30
0.0
 10
12.8118692597
 20
4.0272130123
 30
0.0
 10
12.8310141504
 20
4.0279806251
 30
0.0
 10
12.8548171512
 20
4.029168696
 30
0.0
 10
12.8650447665
 20
4.0297732059
 30
0.0
 10
12.8697069199
 20
4.030086558
 30
0.0
 11
12.7982914049
 21
4.0267055116
 31
0.0
 11
12.8390183419
 21
4.0283960348
 31
0.0
 11
12.855714411
 21
4.0292412964
 31
0.0
 11
12.8697069199
 21
4.030086558
 31
0.0
  0
LINE
  5
3D0
100
AcDbEntity
  8
0
100
AcDbLine
 62
7
  6
CONTINUOUS
 10
12.8697069199
 20
4.030086558
 11
12.881623701
 21
4.0310051571
  0
SPLINE
  5
3D1
100
AcDbEntity
  8
0
100
AcDbSpline
 62
7
  6
CONTINUOUS
 70
0
 71
3
 72
13
 73
9
 74
7
 42
0.0000001
 43
0.0000001
 44
0.0000000001
 12
0.0139239476
 22
0.0012618267
 32
0.0
 13
0.0121065389
 23
0.0069928707
 33
0.0
 40
0.0
 40
0.0
 40
0.0
 40
0.0
 40
0.3819533312
 40
0.6758468446
 40
0.7896910718
 40
0.881495467
 40
0.9514253567
 40
1.0
 40
1.0
 40
1.0
 40
1.0
 10
12.881623701
 20
4.0310051571
 30
0.0
 10
12.883396467
 20
4.0311658101
 30
0.0
 10
12.8865309121
 20
4.0314754667
 30
0.0
 10
12.8901837415
 20
4.0319348305
 30
0.0
 10
12.8924797045
 20
4.0323202902
 30
0.0
 10
12.8937382143
 20
4.032581741
 30
0.0
 10
12.8946830252
 20
4.0328402912
 30
0.0
 10
12.89520199
 20
4.033041214
 30
0.0
 10
12.8953980136
 20
4.0331544394
 30
0.0
 11
12.881623701
 21
4.0310051571
 31
0.0
 11
12.8869366913
 21
4.0315424777
 31
0.0
 11
12.8910103343
 21
4.0320797983
 31
0.0
 11
12.8925791533
 21
4.0323484585
 31
0.0
 11
12.8938342388
 21
4.0326171188
 31
0.0
 11
12.8947742918
 21
4.0328857791
 31
0.0
 11
12.8953980136
 21
4.0331544394
 31
0.0
  0
SPLINE
  5
3D2
100
AcDbEntity
  8
0
100
AcDbSpline
 62
7
  6
CONTINUOUS
 70
0
 71
3
 72
11
 73
7
 74
5
 42
0.0000001
 43
0.0000001
 44
0.0000000001
 12
0.1837850234
 22
0.0053609535
 32
0.0
 13
0.1837348782
 23
0.0068679835
 33
0.0
 40
0.0
 40
0.0
 40
0.0
 40
0.0
 40
0.2709267524
 40
0.5334301339
 40
0.7790543923
 40
1.0
 40
1.0
 40
1.0
 40
1.0
 10
12.6145160865
 20
4.0210388222
 30
0.0
 10
12.631113513
 20
4.0215229641
 30
0.0
 10
12.6637934609
 20
4.0224369827
 30
0.0
 10
12.7115199155
 20
4.0238205213
 30
0.0
 10
12.7561813244
 20
4.0252182472
 30
0.0
 10
12.7847596
 20
4.0261996665
 30
0.0
 10
12.7982914048
 20
4.0267054834
 30
0.0
 11
12.6145160865
 21
4.0210388222
 31
0.0
 11
12.6643092675
 21
4.0224600088
 31
0.0
 11
12.7125533884
 21
4.0238696465
 31
0.0
 11
12.7576923192
 21
4.025289656
 31
0.0
 11
12.7982914048
 21
4.0267054834
 31
0.0
  0
SPLINE
  5
3D3
100
AcDbEntity
  8
0
100
AcDbSpline
 62
7
  6
CONTINUOUS
 70
0
 71
3
 72
13
 73
9
 74
7
 42
0.0000001
 43
0.0000001
 44
0.0000000001
 12
0.2527297122
 22
0.0071532252
 32
0.0
 13
0.2523053975
 23
0.0162930192
 33
0.0
 40
0.0
 40
0.0
 40
0.0
 40
0.0
 40
0.3065090272
 40
0.5893580994
 40
0.7148616897
 40
0.8266077806
 40
0.9223473075
 40
1.0
 40
1.0
 40
1.0
 40
1.0
 10
12.6145160865
 20
4.121038829
 30
0.0
 10
12.6403373992
 20
4.1217696717
 30
0.0
 10
12.6899868091
 20
4.1231749069
 30
0.0
 10
12.7502055516
 20
4.1250060891
 30
0.0
 10
12.7940115654
 20
4.1265273156
 30
0.0
 10
12.8220538614
 20
4.1276173132
 30
0.0
 10
12.8460602088
 20
4.1286992317
 30
0.0
 10
12.8606517966
 20
4.1295000763
 30
0.0
 10
12.8671825278
 20
4.1299218086
 30
0.0
 11
12.6145160865
 21
4.121038829
 31
0.0
 11
12.6919792209
 21
4.1232595739
 31
0.0
 11
12.7634577236
 21
4.1254803188
 31
0.0
 11
12.7951694787
 21
4.1265906912
 31
0.0
 11
12.8234005181
 21
4.1277010637
 31
0.0
 11
12.8475809503
 21
4.1288114361
 31
0.0
 11
12.8671825278
 21
4.1299218086
 31
0.0
  0
SPLINE
  5
3D4
100
AcDbEntity
  8
0
100
AcDbSpline
 62
7
  6
CONTINUOUS
 70
0
 71
3
 72
13
 73
9
 74
7
 42
0.0000001
 43
0.0000001
 44
0.0000000001
 12
0.0275416632
 22
0.0017785464
 32
0.0
 13
0.026351919
 23
0.0082026096
 33
0.0
 40
0.0
 40
0.0
 40
0.0
 40
0.0
 40
0.3686174797
 40
0.6596428839
 40
0.7753206005
 40
0.870740077
 40
0.9456733396
 40
1.0
 40
1.0
 40
1.0
 40
1.0
 10
12.8671825278
 20
4.1299218086
 30
0.0
 10
12.8705666406
 20
4.130140343
 30
0.0
 10
12.8766204646
 20
4.130563187
 30
0.0
 10
12.8837273228
 20
4.1311807806
 30
0.0
 10
12.888318031
 20
4.1316956852
 30
0.0
 10
12.8909262505
 20
4.1320487497
 30
0.0
 10
12.8929633182
 20
4.13239857
 30
0.0
 10
12.8941244111
 20
4.132665897
 30
0.0
 10
12.894601615
 20
4.1328144371
 30
0.0
 11
12.8671825278
 21
4.1299218086
 31
0.0
 11
12.8773302781
 21
4.1306449657
 31
0.0
 11
12.8853296761
 21
4.1313681228
 31
0.0
 11
12.8885017274
 21
4.1317297014
 31
0.0
 11
12.8911102718
 21
4.13209128
 31
0.0
 11
12.8931465031
 21
4.1324528585
 31
0.0
 11
12.894601615
 21
4.1328144371
 31
0.0
  0
SPLINE
  5
3D5
100
AcDbEntity
  8
0
100
AcDbSpline
 62
7
  6
CONTINUOUS
 70
0
 71
3
 72
10
 73
6
 74
4
 42
0.0000001
 43
0.0000001
 44
0.0000000001
 12
0.000928729
 22
0.0003561207
 32
0.0
 13
-0.0000341924
 23
0.0009940776
 33
0.0
 40
0.0
 40
0.0
 40
0.0
 40
0.0
 40
0.3687722555
 40
0.6503604251
 40
1.0
 40
1.0
 40
1.0
 40
1.0
 10
12.8949919162
 20
4.1329485548
 30
0.0
 10
12.8951060794
 20
4.1329923306
 30
0.0
 10
12.8953068314
 20
4.1330794153
 30
0.0
 10
12.8955867861
 20
4.1332372909
 30
0.0
 10
12.8957538201
 20
4.1334228888
 30
0.0
 10
12.8957498351
 20
4.1335387451
 30
0.0
 11
12.8949919162
 21
4.1329485548
 31
0.0
 11
12.895327737
 21
4.1330961024
 31
0.0
 11
12.8955658082
 21
4.1332436499
 31
0.0
 11
12.8957498351
 21
4.1335387451
 31
0.0
  0
SPLINE
  5
3D6
100
AcDbEntity
  8
0
100
AcDbSpline
 62
7
  6
CONTINUOUS
 70
0
 71
3
 72
10
 73
6
 74
4
 42
0.0000001
 43
0.0000001
 44
0.0000000001
 12
-0.1837347832
 22
-0.0068669618
 32
0.0
 13
-0.183793947
 23
-0.0050409086
 33
0.0
 40
0.0
 40
0.0
 40
0.0
 40
0.0
 40
0.4665703498
 40
0.7290734203
 40
1.0
 40
1.0
 40
1.0
 40
1.0
 10
12.7982914048
 20
4.07045168
 30
0.0
 10
12.7697163375
 20
4.0693837064
 30
0.0
 10
12.7250547602
 20
4.06797587
 30
0.0
 10
12.6637936502
 20
4.0661749617
 30
0.0
 10
12.6311143083
 20
4.0652402575
 30
0.0
 10
12.6145160865
 20
4.0647850188
 30
0.0
 11
12.7982914048
 21
4.07045168
 31
0.0
 11
12.7125530779
 21
4.0676206585
 31
0.0
 11
12.664309478
 21
4.0661964168
 31
0.0
 11
12.6145160865
 21
4.0647850188
 31
0.0
  0
SPLINE
  5
3D7
100
AcDbEntity
  8
0
100
AcDbSpline
 62
7
  6
CONTINUOUS
 70
0
 71
3
 72
13
 73
9
 74
7
 42
0.0000001
 43
0.0000001
 44
0.0000000001
 12
0.2559197522
 22
0.0072412847
 32
0.0
 13
0.2554305237
 23
0.0173954967
 33
0.0
 40
0.0
 40
0.0
 40
0.0
 40
0.0
 40
0.3097719958
 40
0.5943034451
 40
0.7199281433
 40
0.8309059134
 40
0.9248083812
 40
1.0
 40
1.0
 40
1.0
 40
1.0
 10
12.6145160527
 20
4.071038993
 30
0.0
 10
12.6409416435
 20
4.0717867088
 30
0.0
 10
12.6916396337
 20
4.0732204655
 30
0.0
 10
12.753050398
 20
4.0750965904
 30
0.0
 10
12.7974971365
 20
4.0766540144
 30
0.0
 10
12.8256809045
 20
4.0777667199
 30
0.0
 10
12.8495568329
 20
4.0788755272
 30
0.0
 10
12.8639647319
 20
4.0796974222
 30
0.0
 10
12.8703668101
 20
4.0801334208
 30
0.0
 11
12.6145160527
 21
4.071038993
 31
0.0
 11
12.6937919573
 21
4.0733126
 31
0.0
 11
12.7666028294
 21
4.0755862069
 31
0.0
 11
12.7987454416
 21
4.0767230104
 31
0.0
 11
12.827135461
 21
4.0778598138
 31
0.0
 11
12.851149683
 21
4.0789966173
 31
0.0
 11
12.8703668101
 21
4.0801334208
 31
0.0
  0
SPLINE
  5
3D8
100
AcDbEntity
  8
0
100
AcDbSpline
 62
7
  6
CONTINUOUS
 70
0
 71
3
 72
11
 73
7
 74
5
 42
0.0000001
 43
0.0000001
 44
0.0000000001
 12
0.0226071687
 22
0.0015396082
 32
0.0
 13
0.0222164315
 23
0.0044592195
 33
0.0
 40
0.0
 40
0.0
 40
0.0
 40
0.0
 40
0.3401317594
 40
0.6213612474
 40
0.8417254994
 40
1.0
 40
1.0
 40
1.0
 40
1.0
 10
12.8703668101
 20
4.0801334208
 30
0.0
 10
12.8729299488
 20
4.0803079773
 30
0.0
 10
12.877610839
 20
4.0806488624
 30
0.0
 10
12.8839450755
 20
4.0812020834
 30
0.0
 10
12.8888988206
 20
4.0817500249
 30
0.0
 10
12.891730256
 20
4.0821700913
 30
0.0
 10
12.8929023542
 20
4.0824053515
 30
0.0
 11
12.8703668101
 21
4.0801334208
 31
0.0
 11
12.87805308
 21
4.0807014035
 31
0.0
 11
12.8844002465
 21
4.0812693862
 31
0.0
 11
12.8893611891
 21
4.0818373688
 31
0.0
 11
12.8929023542
 21
4.0824053515
 31
0.0
  0
LINE
  5
3D9
100
AcDbEntity
  8
0
100
AcDbLine
 62
7
  6
CONTINUOUS
 10
12.8934331334
 20
4.0825174465
 11
12.894113418
 21
4.0826823764
  0
SPLINE
  5
3DA
100
AcDbEntity
  8
0
100
AcDbSpline
 62
7
  6
CONTINUOUS
 70
0
 71
3
 72
12
 73
8
 74
6
 42
0.0000001
 43
0.0000001
 44
0.0000000001
 12
0.0018256227
 22
0.0004853619
 32
0.0
 13
-0.0000155052
 23
0.001888977
 33
0.0
 40
0.0
 40
0.0
 40
0.0
 40
0.0
 40
0.3898052192
 40
0.6790112791
 40
0.7878920707
 40
0.8750898122
 40
1.0
 40
1.0
 40
1.0
 40
1.0
 10
12.894113418
 20
4.0826823764
 30
0.0
 10
12.8943506304
 20
4.082745442
 30
0.0
 10
12.8947609645
 20
4.0828665365
 30
0.0
 10
12.8952236742
 20
4.0830495029
 30
0.0
 10
12.8954878077
 20
4.0832068103
 30
0.0
 10
12.8956441562
 20
4.0833317481
 30
0.0
 10
12.8957210257
 20
4.0834603606
 30
0.0
 10
12.8957203801
 20
4.0835390114
 30
0.0
 11
12.894113418
 21
4.0826823764
 31
0.0
 11
12.8948179455
 21
4.0828965352
 31
0.0
 11
12.8953205425
 21
4.0831106939
 31
0.0
 11
12.895496151
 21
4.0832177733
 31
0.0
 11
12.8956213178
 21
4.0833248527
 31
0.0
 11
12.8957203801
 21
4.0835390114
 31
0.0
  0
SPLINE
  5
3DB
100
AcDbEntity
  8
0
100
AcDbSpline
 62
7
  6
CONTINUOUS
 70
0
 71
3
 72
21
 73
17
 74
15
 42
0.0000001
 43
0.0000001
 44
0.0000000001
 12
-0.4169920476
 22
-0.0172451084
 32
0.0
 13
-0.4097784676
 23
-0.0791288127
 33
0.0
 40
0.0
 40
0.0
 40
0.0
 40
0.0
 40
0.1349417244
 40
0.2880998914
 40
0.4489737915
 40
0.6063985957
 40
0.6802562304
 40
0.7491309538
 40
0.8119196886
 40
0.8675292417
 40
0.9148684317
 40
0.9530283218
 40
0.9685136788
 40
0.9815352699
 40
0.9920450541
 40
1.0
 40
1.0
 40
1.0
 40
1.0
 10
12.7806090698
 20
4.0423285817
 30
0.0
 10
12.7618525278
 20
4.0415528868
 30
0.0
 10
12.7217994547
 20
4.0400916831
 30
0.0
 10
12.6593730983
 20
4.0380574879
 30
0.0
 10
12.5938174913
 20
4.036019389
 30
0.0
 10
12.5392895485
 20
4.0342912174
 30
0.0
 10
12.4975570441
 20
4.0328687561
 30
0.0
 10
12.4689847463
 20
4.0318251788
 30
0.0
 10
12.442952773
 20
4.0307846985
 30
0.0
 10
12.4199190676
 20
4.0297497884
 30
0.0
 10
12.4003154037
 20
4.0287211255
 30
0.0
 10
12.3862949202
 20
4.0278207368
 30
0.0
 10
12.3770504553
 20
4.027073719
 30
0.0
 10
12.3716468721
 20
4.0265564796
 30
0.0
 10
12.3672966523
 20
4.0260433591
 30
0.0
 10
12.3647557845
 20
4.0256559453
 30
0.0
 10
12.363669196
 20
4.0254461235
 30
0.0
 11
12.7806090698
 21
4.0423285817
 31
0.0
 11
12.7243308971
 21
4.0402182744
 31
0.0
 11
12.6604454125
 21
4.0381079671
 31
0.0
 11
12.5933381062
 21
4.0359976599
 31
0.0
 11
12.5276710022
 21
4.0338873526
 31
0.0
 11
12.4968646948
 21
4.0328321989
 31
0.0
 11
12.4681393056
 21
4.0317770453
 31
0.0
 11
12.4419557739
 21
4.0307218917
 31
0.0
 11
12.4187712091
 21
4.029666738
 31
0.0
 11
12.399042466
 21
4.0286115844
 31
0.0
 11
12.3831514858
 21
4.0275564308
 31
0.0
 11
12.3767102653
 21
4.0270288539
 31
0.0
 11
12.3713013927
 21
4.0265012771
 31
0.0
 11
12.3669469942
 21
4.0259737003
 31
0.0
 11
12.363669196
 21
4.0254461235
 31
0.0
  0
SPLINE
  5
3DC
100
AcDbEntity
  8
0
100
AcDbSpline
 62
7
  6
CONTINUOUS
 70
0
 71
3
 72
10
 73
6
 74
4
 42
0.0000001
 43
0.0000001
 44
0.0000000001
 12
-0.0030515983
 22
-0.000589268
 32
0.0
 13
-0.0026906151
 23
-0.0015556605
 33
0.0
 40
0.0
 40
0.0
 40
0.0
 40
0.0
 40
0.6139940547
 40
0.835003133
 40
1.0
 40
1.0
 40
1.0
 40
1.0
 10
12.363669196
 20
4.0254461235
 30
0.0
 10
12.3630446416
 20
4.0253255211
 30
0.0
 10
12.3621964002
 20
4.0251453643
 30
0.0
 10
12.3612088328
 20
4.0248315521
 30
0.0
 10
12.3608399319
 20
4.0246720459
 30
0.0
 10
12.3606919508
 20
4.0245864862
 30
0.0
 11
12.363669196
 21
4.0254461235
 31
0.0
 11
12.3618099558
 21
4.0250163048
 31
0.0
 11
12.3611575511
 21
4.0248013955
 31
0.0
 11
12.3606919508
 21
4.0245864862
 31
0.0
  0
SPLINE
  5
3DD
100
AcDbEntity
  8
0
100
AcDbSpline
 62
7
  6
CONTINUOUS
 70
0
 71
3
 72
11
 73
7
 74
5
 42
0.0000001
 43
0.0000001
 44
0.0000000001
 12
-0.1164666654
 22
0.0651179839
 32
0.0
 13
-0.1242809602
 23
0.0485703502
 33
0.0
 40
0.0
 40
0.0
 40
0.0
 40
0.0
 40
0.2512974798
 40
0.5017507052
 40
0.7513235865
 40
1.0
 40
1.0
 40
1.0
 40
1.0
 10
12.599561538
 20
2.7085388167
 30
0.0
 10
12.5898056115
 20
2.7139934785
 30
0.0
 10
12.5701806855
 20
2.7246270039
 30
0.0
 10
12.5403079219
 20
2.7396189642
 30
0.0
 10
12.5100391565
 20
2.7535187572
 30
0.0
 10
12.4895629674
 20
2.7620127166
 30
0.0
 10
12.4792610529
 20
2.7660388167
 30
0.0
 11
12.599561538
 21
2.7085388167
 31
0.0
 11
12.5700661973
 21
2.724488983
 31
0.0
 11
12.5401891068
 21
2.7394622983
 31
0.0
 11
12.5099194091
 21
2.753345688
 31
0.0
 11
12.4792610529
 21
2.7660388167
 31
0.0
  0
SPLINE
  5
3DE
100
AcDbEntity
  8
0
100
AcDbSpline
 62
7
  6
CONTINUOUS
 70
0
 71
3
 72
11
 73
7
 74
5
 42
0.0000001
 43
0.0000001
 44
0.0000000001
 12
-0.1242796422
 22
-0.0485703716
 32
0.0
 13
-0.1164738353
 23
-0.0651026585
 33
0.0
 40
0.0
 40
0.0
 40
0.0
 40
0.0
 40
0.2486778868
 40
0.4982622281
 40
0.7487194548
 40
1.0
 40
1.0
 40
1.0
 40
1.0
 10
12.7497711201
 20
2.7660388167
 30
0.0
 10
12.7394692539
 20
2.762012691
 30
0.0
 10
12.7189903918
 20
2.7535237361
 30
0.0
 10
12.6887324209
 20
2.7395988681
 30
0.0
 10
12.6588626039
 20
2.7246031942
 30
0.0
 10
12.6392265046
 20
2.7139918272
 30
0.0
 10
12.629470635
 20
2.7085388167
 30
0.0
 11
12.7497711201
 21
2.7660388167
 31
0.0
 11
12.7191129887
 21
2.7533454243
 31
0.0
 11
12.6888494951
 21
2.7394455812
 31
0.0
 11
12.6589728704
 21
2.7244708267
 31
0.0
 11
12.629470635
 21
2.7085388167
 31
0.0
  0
ENDSEC
  0
SECTION
  2
OBJECTS
  0
DICTIONARY
  5
C
100
AcDbDictionary
280
0
281
1
  3
ACAD_GROUP
350
D
  3
ACAD_MLINESTYLE
350
17
  3
ACAD_LAYOUT
350
1A
  3
ACAD_PLOTSETTINGS
350
19
  3
ACAD_PLOTSTYLENAME
350
E
  0
DICTIONARY
  5
D
102
{ACAD_REACTORS
330
C
102
}
100
AcDbDictionary
280
0
281
1
  0
ACDBDICTIONARYWDFLT
  5
E
102
{ACAD_REACTORS
330
C
102
}
100
AcDbDictionary
281
1
  3
Normal
350
F
100
AcDbDictionaryWithDefault
340
F
  0
DICTIONARY
  5
17
102
{ACAD_REACTORS
330
C
102
}
100
AcDbDictionary
280
0
281
1
  3
Standard
350
18
  0
DICTIONARY
  5
19
102
{ACAD_REACTORS
330
C
102
}
100
AcDbDictionary
281
1
  0
DICTIONARY
  5
1A
102
{ACAD_REACTORS
330
C
102
}
100
AcDbDictionary
281
1
  3
Model
350
3DF
  3
Layout1
350
3E0
  0
ACDBPLACEHOLDER
  5
F
102
{ACAD_REACTORS
330
E
102
}
  0
MLINESTYLE
  5
18
102
{ACAD_REACTORS
330
17
102
}
100
AcDbMlineStyle
  2
STANDARD
 70
0
  3

 62
256
 51
90.0
 52
90.0
 71
2
 49
0.5
 62
256
  6
BYLAYER
 49
-0.5
 62
256
  6
BYLAYER
  0
LAYOUT
  5
3DF
102
{ACAD_REACTORS
330
1A
102
}
100
AcDbPlotSettings
  1

  2
none_device
  4
ISO_A3_(420.00_x_297.00_MM)
  6

 40
0.0
 41
0.0
 42
0.0
 43
0.0
 44
420.0
 45
297.0
 46
0.0
 47
0.0
 48
0.0
 49
0.0
140
0.0
141
0.0
142
1.0
143
1.0
 70
1024
 72
0
 73
0
 74
0
  7

 75
0
147
1.0
148
0.0
149
0.0
100
AcDbLayout
  1
Model
 70
0
 71
0
 10
0.0
 20
0.0
 11
16.5354330709
 21
11.6929133858
 12
0.0
 22
0.0
 32
0.0
 14
0.0
 24
0.0
 34
0.0
 15
0.0
 25
0.0
 35
0.0
146
0.0
 13
0.0
 23
0.0
 33
0.0
 16
1.0
 26
0.0
 36
0.0
 17
0.0
 27
1.0
 37
0.0
 76
0
330
244
345
0
346
0
  0
LAYOUT
  5
3E0
102
{ACAD_REACTORS
330
1A
102
}
100
AcDbPlotSettings
  1

  2
none_device
  4
ISO_A3_(420.00_x_297.00_MM)
  6

 40
0.0
 41
0.0
 42
0.0
 43
0.0
 44
420.0
 45
297.0
 46
0.0
 47
0.0
 48
0.0
 49
0.0
140
0.0
141
0.0
142
1.0
143
1.0
 70
0
 72
0
 73
0
 74
0
  7

 75
0
147
1.0
148
0.0
149
0.0
100
AcDbLayout
  1
Layout1
 70
0
 71
1
 10
0.0
 20
0.0
 11
16.5354330709
 21
11.6929133858
 12
0.0
 22
0.0
 32
0.0
 14
0.0
 24
0.0
 34
0.0
 15
0.0
 25
0.0
 35
0.0
146
0.0
 13
0.0
 23
0.0
 33
0.0
 16
1.0
 26
0.0
 36
0.0
 17
0.0
 27
1.0
 37
0.0
 76
0
330
245
345
0
346
0
  0
ENDSEC
  0
EOF
