  0
SECTION
  2
HEADER
  9
$ACADVER
  1
AC1015
  9
$DWGCODEPAGE
  3
ANSI_1252
  9
$EXTMAX
 10
23.3858267717
 20
16.5354330709
 30
0.0
  9
$EXTMIN
 10
0.0
 20
0.0
 30
0.0
  9
$LIMMIN
 10
0.0
 20
0.0
  9
$LIMMAX
 10
23.3858267717
 20
16.5354330709
  9
$VIEWCTR
 10
11.6929133858
 20
8.2677165354
  9
$VIEWSIZE
 40
16.5354330709
  9
$CLAYER
  8
0
  9
$LTSCALE
 40
1.2862204724
  9
$CELTYPE
  6
BYLAYER
  9
$DIMSCALE
 40
1.0
  9
$DIMASZ
 40
0.1875
  9
$DIMEXO
 40
0.1461614173
  9
$DIMDLI
 40
0.8886614173
  9
$DIMEXE
 40
0.4209448819
  9
$DIMCEN
 40
0.2104724409
  9
$DIMLFAC
 40
1.0
  9
$DIMBLK
  1
_CLOSED
  9
$DIMTXT
 40
0.15625
  9
$DIMTOL
 70
0
  9
$DIMLIM
 70
0
  9
$DIMTFAC
 40
1.0
  9
$PDMODE
 70
3
  9
$PDSIZE
 40
0.3125
  9
$HANDSEED
  5
438
  9
$TILEMODE
 70
1
  9
$MEASUREMENT
 70
0
  9
$INSUNITS
 70
1
  0
ENDSEC
  0
SECTION
  2
CLASSES
  0
CLASS
  1
ACDBDICTIONARYWDFLT
  2
AcDbDictionaryWithDefault
  3
AutoCAD 2000
 90
0
280
0
281
0
  0
CLASS
  1
ACDBPLACEHOLDER
  2
AcDbPlaceHolder
  3
AutoCAD 2000
 90
0
280
0
281
0
  0
CLASS
  1
LAYOUT
  2
AcDbLayout
  3
AutoCAD 2000
 90
0
280
0
281
0
  0
ENDSEC
  0
SECTION
  2
TABLES
  0
TABLE
  2
VPORT
  5
8
100
AcDbSymbolTable
 70
2
  0
VPORT
  5
1F4
100
AcDbSymbolTableRecord
100
AcDbViewportTableRecord
  2
*ACTIVE
 70
0
 10
0.0
 20
0.0
 11
1.0
 21
1.0
 12
11.6929133858
 22
8.2677165354
 13
0.0
 23
0.0
 14
1.0
 24
1.0
 15
0.0
 25
0.0
 16
0.0
 26
0.0
 36
1.0
 17
0.0
 27
0.0
 37
0.0
 40
16.5354330709
 41
1.4142857143
 42
50.0
 43
0.0
 44
0.0
 50
0.0
 51
0.0
 71
0
 72
100
 73
1
 74
1
 75
0
 76
0
 77
0
 78
0
  0
ENDTAB
  0
TABLE
  2
LTYPE
  5
5
100
AcDbSymbolTable
 70
6
  0
LTYPE
  5
14
100
AcDbSymbolTableRecord
100
AcDbLinetypeTableRecord
  2
BYBLOCK
 70
0
  3

 72
65
 73
0
 40
0.0
  0
LTYPE
  5
15
100
AcDbSymbolTableRecord
100
AcDbLinetypeTableRecord
  2
BYLAYER
 70
0
  3

 72
65
 73
0
 40
0.0
  0
LTYPE
  5
16
100
AcDbSymbolTableRecord
100
AcDbLinetypeTableRecord
  2
CONTINUOUS
 70
64
  3
Solid line
 72
65
 73
0
 40
0.0
  0
LTYPE
  5
1F5
100
AcDbSymbolTableRecord
100
AcDbLinetypeTableRecord
  2
CENTER
 70
64
  3
____ _ ____ _ ____ _ ____ _ ____ _ ____ _ ____
 72
65
 73
4
 40
0.6
 49
0.375
 74
0
 49
-0.075
 74
0
 49
0.075
 74
0
 49
-0.075
 74
0
  0
LTYPE
  5
1F6
100
AcDbSymbolTableRecord
100
AcDbLinetypeTableRecord
  2
HIDDEN
 70
64
  3
- - - - - - - - - - - - - - - - - - - -
 72
65
 73
2
 40
0.2
 49
0.1
 74
0
 49
-0.1
 74
0
  0
LTYPE
  5
1F7
100
AcDbSymbolTableRecord
100
AcDbLinetypeTableRecord
  2
PHANTOM
 70
64
  3
_____ _ _ _____ _ _ _____ _ _ _____
 72
65
 73
6
 40
0.8
 49
0.45
 74
0
 49
-0.05
 74
0
 49
0.1
 74
0
 49
-0.05
 74
0
 49
0.1
 74
0
 49
-0.05
 74
0
  0
LTYPE
  5
1F8
100
AcDbSymbolTableRecord
100
AcDbLinetypeTableRecord
  2
DOT
 70
64
  3
. . . . . . . . . . . . . . . . . . . .
 72
65
 73
2
 40
0.2
 49
0.1
 74
0
 49
-0.1
 74
0
  0
LTYPE
  5
1F9
100
AcDbSymbolTableRecord
100
AcDbLinetypeTableRecord
  2
DASHED
 70
64
  3
- - - - - - - - - - - - - - - - - - - -
 72
65
 73
2
 40
0.2
 49
0.1
 74
0
 49
-0.1
 74
0
  0
ENDTAB
  0
TABLE
  2
LAYER
  5
2
100
AcDbSymbolTable
 70
36
  0
LAYER
  5
10
100
AcDbSymbolTableRecord
100
AcDbLayerTableRecord
  2
0
 70
0
 62
7
  6
CONTINUOUS
370
-3
390
F
  0
LAYER
  5
1FA
100
AcDbSymbolTableRecord
100
AcDbLayerTableRecord
  2
DEFAULT_1
 70
0
 62
7
  6
CENTER
370
-3
390
F
  0
LAYER
  5
1FB
100
AcDbSymbolTableRecord
100
AcDbLayerTableRecord
  2
DEFAULT_2
 70
0
 62
8
  6
HIDDEN
370
-3
390
F
  0
LAYER
  5
1FC
100
AcDbSymbolTableRecord
100
AcDbLayerTableRecord
  2
DEFAULT_3
 70
0
 62
7
  6
PHANTOM
370
-3
390
F
  0
LAYER
  5
1FD
100
AcDbSymbolTableRecord
100
AcDbLayerTableRecord
  2
1-003
 70
0
 62
7
  6
CONTINUOUS
370
-3
390
F
  0
LAYER
  5
1FE
100
AcDbSymbolTableRecord
100
AcDbLayerTableRecord
  2
1-004
 70
0
 62
7
  6
CONTINUOUS
370
-3
390
F
  0
LAYER
  5
1FF
100
AcDbSymbolTableRecord
100
AcDbLayerTableRecord
  2
1-016
 70
0
 62
7
  6
CONTINUOUS
370
-3
390
F
  0
LAYER
  5
200
100
AcDbSymbolTableRecord
100
AcDbLayerTableRecord
  2
1-017
 70
0
 62
7
  6
CONTINUOUS
370
-3
390
F
  0
LAYER
  5
201
100
AcDbSymbolTableRecord
100
AcDbLayerTableRecord
  2
1-017_1
 70
0
 62
7
  6
CONTINUOUS
370
-3
390
F
  0
LAYER
  5
202
100
AcDbSymbolTableRecord
100
AcDbLayerTableRecord
  2
1-502
 70
0
 62
7
  6
CONTINUOUS
370
-3
390
F
  0
LAYER
  5
203
100
AcDbSymbolTableRecord
100
AcDbLayerTableRecord
  2
1-506
 70
0
 62
7
  6
CONTINUOUS
370
-3
390
F
  0
LAYER
  5
204
100
AcDbSymbolTableRecord
100
AcDbLayerTableRecord
  2
1-552
 70
0
 62
7
  6
CONTINUOUS
370
-3
390
F
  0
LAYER
  5
205
100
AcDbSymbolTableRecord
100
AcDbLayerTableRecord
  2
1-553
 70
0
 62
7
  6
CONTINUOUS
370
-3
390
F
  0
LAYER
  5
206
100
AcDbSymbolTableRecord
100
AcDbLayerTableRecord
  2
1-602
 70
0
 62
7
  6
CONTINUOUS
370
-3
390
F
  0
LAYER
  5
207
100
AcDbSymbolTableRecord
100
AcDbLayerTableRecord
  2
1-603
 70
0
 62
7
  6
CONTINUOUS
370
-3
390
F
  0
LAYER
  5
208
100
AcDbSymbolTableRecord
100
AcDbLayerTableRecord
  2
10016
 70
0
 62
7
  6
CONTINUOUS
370
-3
390
F
  0
LAYER
  5
209
100
AcDbSymbolTableRecord
100
AcDbLayerTableRecord
  2
10016_1
 70
0
 62
7
  6
CONTINUOUS
370
-3
390
F
  0
LAYER
  5
20A
100
AcDbSymbolTableRecord
100
AcDbLayerTableRecord
  2
10172
 70
0
 62
7
  6
CONTINUOUS
370
-3
390
F
  0
LAYER
  5
20B
100
AcDbSymbolTableRecord
100
AcDbLayerTableRecord
  2
10173
 70
0
 62
7
  6
CONTINUOUS
370
-3
390
F
  0
LAYER
  5
20C
100
AcDbSymbolTableRecord
100
AcDbLayerTableRecord
  2
10224
 70
0
 62
7
  6
CONTINUOUS
370
-3
390
F
  0
LAYER
  5
20D
100
AcDbSymbolTableRecord
100
AcDbLayerTableRecord
  2
10295
 70
0
 62
7
  6
CONTINUOUS
370
-3
390
F
  0
LAYER
  5
20E
100
AcDbSymbolTableRecord
100
AcDbLayerTableRecord
  2
10378
 70
0
 62
7
  6
CONTINUOUS
370
-3
390
F
  0
LAYER
  5
20F
100
AcDbSymbolTableRecord
100
AcDbLayerTableRecord
  2
10382
 70
0
 62
7
  6
CONTINUOUS
370
-3
390
F
  0
LAYER
  5
210
100
AcDbSymbolTableRecord
100
AcDbLayerTableRecord
  2
10529
 70
0
 62
7
  6
CONTINUOUS
370
-3
390
F
  0
LAYER
  5
211
100
AcDbSymbolTableRecord
100
AcDbLayerTableRecord
  2
10529_3
 70
0
 62
7
  6
CONTINUOUS
370
-3
390
F
  0
LAYER
  5
212
100
AcDbSymbolTableRecord
100
AcDbLayerTableRecord
  2
11003
 70
0
 62
7
  6
CONTINUOUS
370
-3
390
F
  0
LAYER
  5
213
100
AcDbSymbolTableRecord
100
AcDbLayerTableRecord
  2
2-240
 70
0
 62
7
  6
CONTINUOUS
370
-3
390
F
  0
LAYER
  5
214
100
AcDbSymbolTableRecord
100
AcDbLayerTableRecord
  2
3-252
 70
0
 62
7
  6
CONTINUOUS
370
-3
390
F
  0
LAYER
  5
215
100
AcDbSymbolTableRecord
100
AcDbLayerTableRecord
  2
3_ALL_SYMBOLS
 70
0
 62
7
  6
CONTINUOUS
370
-3
390
F
  0
LAYER
  5
216
100
AcDbSymbolTableRecord
100
AcDbLayerTableRecord
  2
91083
 70
0
 62
7
  6
CONTINUOUS
370
-3
390
F
  0
LAYER
  5
217
100
AcDbSymbolTableRecord
100
AcDbLayerTableRecord
  2
91083_1
 70
0
 62
7
  6
CONTINUOUS
370
-3
390
F
  0
LAYER
  5
218
100
AcDbSymbolTableRecord
100
AcDbLayerTableRecord
  2
92006
 70
0
 62
7
  6
CONTINUOUS
370
-3
390
F
  0
LAYER
  5
219
100
AcDbSymbolTableRecord
100
AcDbLayerTableRecord
  2
ALL_ASSEMBLY_MEMBERS
 70
0
 62
7
  6
CONTINUOUS
370
-3
390
F
  0
LAYER
  5
21A
100
AcDbSymbolTableRecord
100
AcDbLayerTableRecord
  2
ALL_ASSEMBLY_MEMBERS_1
 70
0
 62
7
  6
CONTINUOUS
370
-3
390
F
  0
LAYER
  5
21B
100
AcDbSymbolTableRecord
100
AcDbLayerTableRecord
  2
ALL_ASSEMBLY_MEMBERS_2
 70
0
 62
7
  6
CONTINUOUS
370
-3
390
F
  0
LAYER
  5
21C
100
AcDbSymbolTableRecord
100
AcDbLayerTableRecord
  2
ALL_ASSEMBLY_MEMBERS_3
 70
0
 62
7
  6
CONTINUOUS
370
-3
390
F
  0
LAYER
  5
21D
100
AcDbSymbolTableRecord
100
AcDbLayerTableRecord
  2
ALL_ASSEMBLY_MEMBERS_4
 70
0
 62
7
  6
CONTINUOUS
370
-3
390
F
  0
LAYER
  5
21E
100
AcDbSymbolTableRecord
100
AcDbLayerTableRecord
  2
ALL_ASSEMBLY_MEMBERS_5
 70
0
 62
7
  6
CONTINUOUS
370
-3
390
F
  0
LAYER
  5
21F
100
AcDbSymbolTableRecord
100
AcDbLayerTableRecord
  2
ALL_ASSEMBLY_MEMBERS_6
 70
0
 62
7
  6
CONTINUOUS
370
-3
390
F
  0
LAYER
  5
220
100
AcDbSymbolTableRecord
100
AcDbLayerTableRecord
  2
ALL_ASSEMBLY_MEMBERS_7
 70
0
 62
7
  6
CONTINUOUS
370
-3
390
F
  0
LAYER
  5
221
100
AcDbSymbolTableRecord
100
AcDbLayerTableRecord
  2
ALL_ASSEMBLY_MEMBERS_8
 70
0
 62
7
  6
CONTINUOUS
370
-3
390
F
  0
LAYER
  5
222
100
AcDbSymbolTableRecord
100
AcDbLayerTableRecord
  2
ALL_ASSEMBLY_MEMBERS_9
 70
0
 62
7
  6
CONTINUOUS
370
-3
390
F
  0
LAYER
  5
223
100
AcDbSymbolTableRecord
100
AcDbLayerTableRecord
  2
COLOR10
 70
0
 62
7
  6
CONTINUOUS
370
-3
390
F
  0
LAYER
  5
224
100
AcDbSymbolTableRecord
100
AcDbLayerTableRecord
  2
COLOR11
 70
0
 62
7
  6
CONTINUOUS
370
-3
390
F
  0
LAYER
  5
225
100
AcDbSymbolTableRecord
100
AcDbLayerTableRecord
  2
COLOR12
 70
0
 62
7
  6
CONTINUOUS
370
-3
390
F
  0
LAYER
  5
226
100
AcDbSymbolTableRecord
100
AcDbLayerTableRecord
  2
COLOR13
 70
0
 62
7
  6
CONTINUOUS
370
-3
390
F
  0
LAYER
  5
227
100
AcDbSymbolTableRecord
100
AcDbLayerTableRecord
  2
COLOR14
 70
0
 62
7
  6
CONTINUOUS
370
-3
390
F
  0
LAYER
  5
228
100
AcDbSymbolTableRecord
100
AcDbLayerTableRecord
  2
COLOR15
 70
0
 62
7
  6
CONTINUOUS
370
-3
390
F
  0
LAYER
  5
229
100
AcDbSymbolTableRecord
100
AcDbLayerTableRecord
  2
COLOR16
 70
0
 62
7
  6
CONTINUOUS
370
-3
390
F
  0
LAYER
  5
22A
100
AcDbSymbolTableRecord
100
AcDbLayerTableRecord
  2
COLOR2
 70
0
 62
7
  6
CONTINUOUS
370
-3
390
F
  0
LAYER
  5
22B
100
AcDbSymbolTableRecord
100
AcDbLayerTableRecord
  2
COLOR3
 70
0
 62
7
  6
CONTINUOUS
370
-3
390
F
  0
LAYER
  5
22C
100
AcDbSymbolTableRecord
100
AcDbLayerTableRecord
  2
COLOR4
 70
0
 62
7
  6
CONTINUOUS
370
-3
390
F
  0
LAYER
  5
22D
100
AcDbSymbolTableRecord
100
AcDbLayerTableRecord
  2
COLOR5
 70
0
 62
7
  6
CONTINUOUS
370
-3
390
F
  0
LAYER
  5
22E
100
AcDbSymbolTableRecord
100
AcDbLayerTableRecord
  2
COLOR6
 70
0
 62
7
  6
CONTINUOUS
370
-3
390
F
  0
LAYER
  5
22F
100
AcDbSymbolTableRecord
100
AcDbLayerTableRecord
  2
COLOR7
 70
0
 62
7
  6
CONTINUOUS
370
-3
390
F
  0
LAYER
  5
230
100
AcDbSymbolTableRecord
100
AcDbLayerTableRecord
  2
COLOR8
 70
0
 62
7
  6
CONTINUOUS
370
-3
390
F
  0
LAYER
  5
231
100
AcDbSymbolTableRecord
100
AcDbLayerTableRecord
  2
COLOR9
 70
0
 62
7
  6
CONTINUOUS
370
-3
390
F
  0
LAYER
  5
232
100
AcDbSymbolTableRecord
100
AcDbLayerTableRecord
  2
DEFAULT_COORDINATE_SYSTEM
 70
0
 62
7
  6
CONTINUOUS
370
-3
390
F
  0
LAYER
  5
233
100
AcDbSymbolTableRecord
100
AcDbLayerTableRecord
  2
DEFAULT_DATUM_AXES
 70
0
 62
7
  6
CONTINUOUS
370
-3
390
F
  0
LAYER
  5
234
100
AcDbSymbolTableRecord
100
AcDbLayerTableRecord
  2
DEFAULT_DATUM_CURVES
 70
0
 62
7
  6
CONTINUOUS
370
-3
390
F
  0
LAYER
  5
235
100
AcDbSymbolTableRecord
100
AcDbLayerTableRecord
  2
DEFAULT_DATUM_PLANES
 70
0
 62
7
  6
CONTINUOUS
370
-3
390
F
  0
LAYER
  5
236
100
AcDbSymbolTableRecord
100
AcDbLayerTableRecord
  2
INTF_10016
 70
0
 62
7
  6
CONTINUOUS
370
-3
390
F
  0
LAYER
  5
237
100
AcDbSymbolTableRecord
100
AcDbLayerTableRecord
  2
INTF_10172
 70
0
 62
7
  6
CONTINUOUS
370
-3
390
F
  0
LAYER
  5
238
100
AcDbSymbolTableRecord
100
AcDbLayerTableRecord
  2
INTF_10173
 70
0
 62
7
  6
CONTINUOUS
370
-3
390
F
  0
LAYER
  5
239
100
AcDbSymbolTableRecord
100
AcDbLayerTableRecord
  2
INTF_10224
 70
0
 62
7
  6
CONTINUOUS
370
-3
390
F
  0
LAYER
  5
23A
100
AcDbSymbolTableRecord
100
AcDbLayerTableRecord
  2
INTF_10295
 70
0
 62
7
  6
CONTINUOUS
370
-3
390
F
  0
LAYER
  5
23B
100
AcDbSymbolTableRecord
100
AcDbLayerTableRecord
  2
INTF_10378
 70
0
 62
7
  6
CONTINUOUS
370
-3
390
F
  0
LAYER
  5
23C
100
AcDbSymbolTableRecord
100
AcDbLayerTableRecord
  2
INTF_10382
 70
0
 62
7
  6
CONTINUOUS
370
-3
390
F
  0
LAYER
  5
23D
100
AcDbSymbolTableRecord
100
AcDbLayerTableRecord
  2
INTF_10529
 70
0
 62
7
  6
CONTINUOUS
370
-3
390
F
  0
LAYER
  5
23E
100
AcDbSymbolTableRecord
100
AcDbLayerTableRecord
  2
INTF_11003
 70
0
 62
7
  6
CONTINUOUS
370
-3
390
F
  0
LAYER
  5
23F
100
AcDbSymbolTableRecord
100
AcDbLayerTableRecord
  2
INTF_91083
 70
0
 62
7
  6
CONTINUOUS
370
-3
390
F
  0
LAYER
  5
240
100
AcDbSymbolTableRecord
100
AcDbLayerTableRecord
  2
INTF_92006
 70
0
 62
7
  6
CONTINUOUS
370
-3
390
F
  0
LAYER
  5
241
100
AcDbSymbolTableRecord
100
AcDbLayerTableRecord
  2
SOLID_GEOMETRY
 70
0
 62
7
  6
CONTINUOUS
370
-3
390
F
  0
ENDTAB
  0
TABLE
  2
STYLE
  5
3
100
AcDbSymbolTable
 70
1
  0
STYLE
  5
11
100
AcDbSymbolTableRecord
100
AcDbTextStyleTableRecord
  2
STANDARD
 70
0
 40
0.0
 41
0.8
 50
0.0
 71
0
 42
0.2
  3
txt
  4

  0
STYLE
  5
242
100
AcDbSymbolTableRecord
100
AcDbTextStyleTableRecord
  2
TEXTSTYLE_1
 70
0
 40
0.0
 41
0.8
 50
0.0
 71
0
 42
0.2
  3
gdt
  4

  0
ENDTAB
  0
TABLE
  2
VIEW
  5
6
100
AcDbSymbolTable
 70
0
  0
ENDTAB
  0
TABLE
  2
UCS
  5
7
100
AcDbSymbolTable
 70
0
  0
ENDTAB
  0
TABLE
  2
APPID
  5
9
100
AcDbSymbolTable
 70
1
  0
APPID
  5
243
100
AcDbSymbolTableRecord
100
AcDbRegAppTableRecord
  2
ACAD
 70
0
  0
ENDTAB
  0
TABLE
  2
BLOCK_RECORD
  5
1
100
AcDbSymbolTable
 70
0
  0
BLOCK_RECORD
  5
244
100
AcDbSymbolTableRecord
100
AcDbBlockTableRecord
  2
*Model_Space
  0
BLOCK_RECORD
  5
245
100
AcDbSymbolTableRecord
100
AcDbBlockTableRecord
  2
*Paper_Space
  0
ENDTAB
  0
TABLE
  2
DIMSTYLE
  5
A
100
AcDbSymbolTable
 70
1
100
AcDbDimStyleTable
 71
0
  0
DIMSTYLE
105
246
100
AcDbSymbolTableRecord
100
AcDbDimStyleTableRecord
  2
STANDARD
 70
0
  3

  4

 40
1.0
 41
0.1875
 42
0.0625
 43
0.38
 44
0.18
 45
0.0
 46
0.0
 47
0.01
 48
0.01
140
0.15625
141
0.09
142
0.0
143
25.4
144
1.0
145
0.0
146
1.0
147
0.09
 71
0.0
 72
0.0
 73
1
 74
1
 75
0
 76
0
 77
0
 78
4
170
0
171
2
172
0
173
0
174
0
175
0
176
0
177
0
178
0
270
2
271
2
272
2
273
2
274
2
275
0
280
0
281
0
282
0
283
1
284
4
285
0
286
0
287
3
288
0
340
11
  0
ENDTAB
  0
ENDSEC
  0
SECTION
  2
BLOCKS
  0
BLOCK
  5
20
100
AcDbEntity
  8
0
100
AcDbBlockBegin
  2
*Model_Space
 70
0
 10
0.0
 20
0.0
 30
0.0
  3
*Model_Space
  1

  0
ENDBLK
  5
21
100
AcDbEntity
  8
0
100
AcDbBlockEnd
  0
BLOCK
  5
1C
100
AcDbEntity
  8
0
100
AcDbBlockBegin
  2
*Paper_Space
 70
0
 10
0.0
 20
0.0
 30
0.0
  3
*Paper_Space
  1

  0
ENDBLK
  5
1D
100
AcDbEntity
  8
0
100
AcDbBlockEnd
  0
ENDSEC
  0
SECTION
  2
ENTITIES
  0
LINE
  5
247
100
AcDbEntity
  8
0
100
AcDbLine
 62
7
  6
CONTINUOUS
 10
7.394110175
 20
12.3934028548
 11
7.4059646355
 21
12.4139353828
  0
LINE
  5
248
100
AcDbEntity
  8
0
100
AcDbLine
 62
7
  6
CONTINUOUS
 10
7.2069853243
 20
12.048858964
 11
7.2306579737
 21
12.0811018806
  0
LINE
  5
249
100
AcDbEntity
  8
0
100
AcDbLine
 62
7
  6
CONTINUOUS
 10
7.2392282409
 20
12.0251863146
 11
7.2629008903
 21
12.0574292312
  0
LINE
  5
24A
100
AcDbEntity
  8
0
100
AcDbLine
 62
7
  6
CONTINUOUS
 10
7.2229445158
 20
12.1400264169
 11
7.2373775926
 21
12.1588359687
  0
LINE
  5
24B
100
AcDbEntity
  8
0
100
AcDbLine
 62
7
  6
CONTINUOUS
 10
7.5460309033
 20
12.3203460947
 11
7.5315978266
 21
12.3015365429
  0
LINE
  5
24C
100
AcDbEntity
  8
0
100
AcDbLine
 62
9
  6
CONTINUOUS
 10
7.1715828502
 20
12.046411711
 11
7.1878042323
 21
12.0604136324
  0
LINE
  5
24D
100
AcDbEntity
  8
0
100
AcDbLine
 62
7
  6
CONTINUOUS
 10
7.4558379967
 20
12.3772963729
 11
7.4746475485
 21
12.3917294496
  0
LINE
  5
24E
100
AcDbEntity
  8
0
100
AcDbLine
 62
7
  6
CONTINUOUS
 10
7.3131374225
 20
12.0830761388
 11
7.2943278707
 21
12.0686430621
  0
LINE
  5
24F
100
AcDbEntity
  8
0
100
AcDbLine
 62
7
  6
CONTINUOUS
 10
7.5619900949
 20
12.048858964
 11
7.5297471783
 21
12.0251863146
  0
LINE
  5
250
100
AcDbEntity
  8
0
100
AcDbLine
 62
7
  6
CONTINUOUS
 10
7.3748652442
 20
12.0669696569
 11
7.3630107836
 21
12.0464371289
  0
LINE
  5
251
100
AcDbEntity
  8
0
100
AcDbLine
 62
7
  6
CONTINUOUS
 10
7.3309174201
 20
12.384661089
 11
7.3340120553
 21
12.4081671771
  0
LINE
  5
252
100
AcDbEntity
  8
0
100
AcDbLine
 62
7
  6
CONTINUOUS
 10
7.5433467162
 20
12.3307032933
 11
7.542354733
 21
12.3266383316
  0
LINE
  5
253
100
AcDbEntity
  8
0
100
AcDbLine
 62
7
  6
CONTINUOUS
 10
7.5822063651
 20
12.321220272
 11
7.567148177
 21
12.259514632
  0
LINE
  5
254
100
AcDbEntity
  8
0
100
AcDbLine
 62
7
  6
CONTINUOUS
 10
7.2697439359
 20
12.0850695222
 11
7.2758802562
 21
12.1079705814
  0
LINE
  5
255
100
AcDbEntity
  8
0
100
AcDbLine
 62
7
  6
CONTINUOUS
 10
7.4992314833
 20
12.3753029895
 11
7.493095163
 21
12.3524019303
  0
LINE
  5
256
100
AcDbEntity
  8
0
100
AcDbLine
 62
7
  6
CONTINUOUS
 10
7.4380579991
 20
12.0757114227
 11
7.4349633639
 21
12.0522053346
  0
LINE
  5
257
100
AcDbEntity
  8
0
100
AcDbLine
 62
7
  6
CONTINUOUS
 10
7.3340120553
 20
12.0522053346
 11
7.3309174201
 21
12.0757114227
  0
LINE
  5
258
100
AcDbEntity
  8
0
100
AcDbLine
 62
7
  6
CONTINUOUS
 10
7.4349633639
 20
12.4081671771
 11
7.4380579991
 21
12.384661089
  0
LINE
  5
259
100
AcDbEntity
  8
0
100
AcDbLine
 62
7
  6
CONTINUOUS
 10
7.2758802562
 20
12.3524019303
 11
7.2697439359
 21
12.3753029895
  0
LINE
  5
25A
100
AcDbEntity
  8
0
100
AcDbLine
 62
7
  6
CONTINUOUS
 10
7.493095163
 20
12.1079705814
 11
7.4992314833
 21
12.0850695222
  0
LINE
  5
25B
100
AcDbEntity
  8
0
100
AcDbLine
 62
7
  6
CONTINUOUS
 10
7.2018272422
 20
12.259514632
 11
7.1867690541
 21
12.321220272
  0
LINE
  5
25C
100
AcDbEntity
  8
0
100
AcDbLine
 62
7
  6
CONTINUOUS
 10
7.2266206862
 20
12.3266383316
 11
7.225628703
 21
12.3307032933
  0
LINE
  5
25D
100
AcDbEntity
  8
0
100
AcDbLine
 62
7
  6
CONTINUOUS
 10
11.5094877096
 20
13.348939544
 11
11.5092149509
 21
13.3484186942
  0
LINE
  5
25E
100
AcDbEntity
  8
0
100
AcDbLine
 62
7
  6
CONTINUOUS
 10
15.4558379967
 20
12.3772963729
 11
15.4746475485
 21
12.3917294496
  0
LINE
  5
25F
100
AcDbEntity
  8
0
100
AcDbLine
 62
7
  6
CONTINUOUS
 10
15.3131374225
 20
12.0830761388
 11
15.2943278707
 21
12.0686430621
  0
LINE
  5
260
100
AcDbEntity
  8
0
100
AcDbLine
 62
7
  6
CONTINUOUS
 10
15.2069853243
 20
12.4115135477
 11
15.2392282409
 21
12.4351861971
  0
LINE
  5
261
100
AcDbEntity
  8
0
100
AcDbLine
 62
7
  6
CONTINUOUS
 10
7.4059646355
 20
12.0464371289
 11
7.394110175
 21
12.0669696569
  0
LINE
  5
262
100
AcDbEntity
  8
0
100
AcDbLine
 62
7
  6
CONTINUOUS
 10
7.3630107836
 20
12.4139353828
 11
7.3748652442
 21
12.3934028548
  0
LWPOLYLINE
  5
263
100
AcDbEntity
  8
0
100
AcDbPolyline
 62
7
  6
CONTINUOUS
 90
12
 70
0
 10
10.4882671337
 20
10.6708429162
 10
10.5196650287
 20
10.3800255433
 10
10.5358451691
 20
10.2216061542
 10
10.552283401
 20
10.0542666978
 10
10.5689251836
 20
9.8778212388
 10
10.5857094966
 20
9.6920916248
 10
10.6025672401
 20
9.4969354183
 10
10.6194200949
 20
9.2922279433
 10
10.6361794612
 20
9.0778627824
 10
10.6527451806
 20
8.8537726106
 10
10.6690036533
 20
8.6199437498
 10
10.683326448
 20
8.4002680528
  0
LWPOLYLINE
  5
264
100
AcDbEntity
  8
0
100
AcDbPolyline
 62
7
  6
CONTINUOUS
 90
11
 70
0
 10
10.6833260597
 20
8.4002742078
 10
10.7174874163
 20
7.8005096793
 10
10.7462112976
 20
7.1523547238
 10
10.7662544337
 20
6.4969799544
 10
10.7761497024
 20
5.8498998385
 10
10.7746433548
 20
5.2264355163
 10
10.7608206253
 20
4.6427125452
 10
10.7344309559
 20
4.1156138885
 10
10.6962952254
 20
3.6598798735
 10
10.6485621172
 20
3.2856072909
 10
10.5978379783
 20
3.0105177389
  0
LINE
  5
265
100
AcDbEntity
  8
0
100
AcDbLine
 62
7
  6
CONTINUOUS
 10
12.444236921
 20
11.8537120335
 11
12.4564248584
 21
11.8809033897
  0
LINE
  5
266
100
AcDbEntity
  8
0
100
AcDbLine
 62
9
  6
CONTINUOUS
 10
15.597392569
 20
12.4139608007
 11
15.5811711869
 21
12.3999588793
  0
LINE
  5
267
100
AcDbEntity
  8
0
100
AcDbLine
 62
7
  6
CONTINUOUS
 10
7.2373775926
 20
12.3015365429
 11
7.2229445158
 21
12.3203460947
  0
LINE
  5
268
100
AcDbEntity
  8
0
100
AcDbLine
 62
7
  6
CONTINUOUS
 10
7.5297471783
 20
12.0251863146
 11
7.5060745289
 21
12.0574292312
  0
LINE
  5
269
100
AcDbEntity
  8
0
100
AcDbLine
 62
7
  6
CONTINUOUS
 10
7.5383174455
 20
12.0811018806
 11
7.5619900949
 21
12.048858964
  0
LINE
  5
26A
100
AcDbEntity
  8
0
100
AcDbLine
 62
7
  6
CONTINUOUS
 10
10.4171102233
 20
11.2554458123
 11
10.4441463215
 21
11.0451174848
  0
LWPOLYLINE
  5
26B
100
AcDbEntity
  8
0
100
AcDbPolyline
 62
7
  6
CONTINUOUS
 90
3
 70
0
 10
10.4441463215
 20
11.0451174848
 10
10.4731285129
 20
10.8036568448
 10
10.4882671337
 20
10.6708429162
  0
LINE
  5
26C
100
AcDbEntity
  8
0
100
AcDbLine
 62
7
  6
CONTINUOUS
 10
11.2865528568
 20
13.3551862558
 11
11.2865528568
 21
13.3511774039
  0
LINE
  5
26D
100
AcDbEntity
  8
0
100
AcDbLine
 62
7
  6
CONTINUOUS
 10
11.3844877096
 20
13.3551862558
 11
11.3844877096
 21
2.0496799141
  0
LINE
  5
26E
100
AcDbEntity
  8
0
100
AcDbLine
 62
7
  6
CONTINUOUS
 10
7.5315978266
 20
12.1588359687
 11
7.5460309033
 21
12.1400264169
  0
LWPOLYLINE
  5
26F
100
AcDbEntity
  8
0
100
AcDbPolyline
 62
7
  6
CONTINUOUS
 90
15
 70
0
 10
10.3147119499
 20
11.9018929568
 10
10.3146000888
 20
11.902344485
 10
10.3157126303
 20
11.8975283004
 10
10.3186475525
 20
11.8840036957
 10
10.3229976296
 20
11.8627129998
 10
10.328531289
 20
11.8341243062
 10
10.3351023351
 20
11.7984647753
 10
10.3426144626
 20
11.7558020734
 10
10.3510073767
 20
11.7060718163
 10
10.3602237145
 20
11.6492368823
 10
10.3702145358
 20
11.5852312454
 10
10.380936457
 20
11.5139641736
 10
10.3923512665
 20
11.4353148285
 10
10.4044236295
 20
11.3491614835
 10
10.4171102233
 20
11.2554458123
  0
LINE
  5
270
100
AcDbEntity
  8
0
100
AcDbLine
 62
7
  6
CONTINUOUS
 10
10.2626039608
 20
12.117586194
 11
10.3104161075
 21
11.8875171086
  0
LWPOLYLINE
  5
271
100
AcDbEntity
  8
0
100
AcDbPolyline
 62
7
  6
CONTINUOUS
 90
11
 70
0
 10
12.1711374409
 20
3.0105177389
 10
12.120413302
 20
3.2856072911
 10
12.0726801937
 20
3.6598798737
 10
12.0345444632
 20
4.1156138888
 10
12.0081547939
 20
4.6427125454
 10
11.9943320644
 20
5.2264355165
 10
11.9928257168
 20
5.8498998386
 10
12.0027209854
 20
6.4969799546
 10
12.0227641216
 20
7.1523547239
 10
12.0514880029
 20
7.8005096794
 10
12.0856493595
 20
8.4002742078
  0
LINE
  5
272
100
AcDbEntity
  8
0
100
AcDbLine
 62
7
  6
CONTINUOUS
 10
11.5094877096
 20
13.355186255
 11
11.5094877096
 21
13.3489417254
  0
LINE
  5
273
100
AcDbEntity
  8
0
100
AcDbLine
 62
7
  6
CONTINUOUS
 10
12.2597948524
 20
10.4795107366
 11
12.2897795394
 21
10.7509873483
  0
LINE
  5
274
100
AcDbEntity
  8
0
100
AcDbLine
 62
7
  6
CONTINUOUS
 10
12.2897795394
 20
10.7509873483
 11
12.3182370056
 21
10.9916544805
  0
LWPOLYLINE
  5
275
100
AcDbEntity
  8
0
100
AcDbPolyline
 62
7
  6
CONTINUOUS
 90
16
 70
0
 10
12.3182370056
 20
10.9916544805
 10
12.3449268376
 20
11.2028402447
 10
12.3575237356
 20
11.2976424773
 10
12.3695673575
 20
11.3853179452
 10
12.3810177599
 20
11.4659175869
 10
12.3918374526
 20
11.5395077285
 10
12.4019957958
 20
11.6062165937
 10
12.4114558403
 20
11.6661406673
 10
12.4201770083
 20
11.7193567804
 10
12.4281127391
 20
11.765916149
 10
12.4352099411
 20
11.8058536422
 10
12.4414093369
 20
11.839214302
 10
12.4466150706
 20
11.8659054021
 10
12.4506855419
 20
11.8856955768
 10
12.4533998037
 20
11.8981352445
 10
12.4539304608
 20
11.9004550147
  0
LWPOLYLINE
  5
276
100
AcDbEntity
  8
0
100
AcDbPolyline
 62
7
  6
CONTINUOUS
 90
9
 70
0
 10
12.4564248584
 20
11.8809033897
 10
12.505803922
 20
12.1121073102
 10
12.5057999666
 20
12.3483024909
 10
12.456409583
 20
12.5795159541
 10
12.3595152081
 20
12.7956572667
 10
12.2193575233
 20
12.9869866028
 10
12.0421822259
 20
13.1445689842
 10
11.8362628367
 20
13.2615069998
 10
11.6110240833
 20
13.332521243
  0
LINE
  5
277
100
AcDbEntity
  8
0
100
AcDbLine
 62
7
  6
CONTINUOUS
 10
15.2229445158
 20
12.1400264169
 11
15.2373775926
 21
12.1588359687
  0
LINE
  5
278
100
AcDbEntity
  8
0
100
AcDbLine
 62
7
  6
CONTINUOUS
 10
15.5460309033
 20
12.3203460947
 11
15.5315978266
 21
12.3015365429
  0
LWPOLYLINE
  5
279
100
AcDbEntity
  8
0
100
AcDbPolyline
 62
7
  6
CONTINUOUS
 90
10
 70
0
 10
12.0856489742
 20
8.4002680996
 10
12.0994720648
 20
8.612510669
 10
12.1152082892
 20
8.8395059257
 10
12.131240166
 20
9.057362147
 10
12.1474633542
 20
9.2660877441
 10
12.1637854862
 20
9.4657377985
 10
12.1801245534
 20
9.6564054537
 10
12.1964077609
 20
9.8382011364
 10
12.2125705672
 20
10.0112490762
 10
12.2285559017
 20
10.1757043006
  0
LINE
  5
27A
100
AcDbEntity
  8
0
100
AcDbLine
 62
7
  6
CONTINUOUS
 10
12.2285559017
 20
10.1757043006
 11
12.2597948524
 21
10.4795107366
  0
LINE
  5
27B
100
AcDbEntity
  8
0
100
AcDbLine
 62
7
  6
CONTINUOUS
 10
15.5297471783
 20
12.4351861971
 11
15.5060745289
 21
12.4029432805
  0
LINE
  5
27C
100
AcDbEntity
  8
0
100
AcDbLine
 62
7
  6
CONTINUOUS
 10
15.5619900949
 20
12.4115135476
 11
15.5383174455
 21
12.3792706311
  0
LINE
  5
27D
100
AcDbEntity
  8
0
100
AcDbLine
 62
7
  6
CONTINUOUS
 10
7.2392282409
 20
12.0251863146
 11
7.2069853243
 21
12.048858964
  0
LINE
  5
27E
100
AcDbEntity
  8
0
100
AcDbLine
 62
7
  6
CONTINUOUS
 10
7.4746475485
 20
12.0686430621
 11
7.4558379967
 21
12.0830761388
  0
LINE
  5
27F
100
AcDbEntity
  8
0
100
AcDbLine
 62
7
  6
CONTINUOUS
 10
10.3104161075
 20
11.8875171086
 11
10.3243070437
 21
11.8559481386
  0
LINE
  5
280
100
AcDbEntity
  8
0
100
AcDbLine
 62
7
  6
CONTINUOUS
 10
15.394110175
 20
12.3934028548
 11
15.4059646355
 21
12.4139353828
  0
LINE
  5
281
100
AcDbEntity
  8
0
100
AcDbLine
 62
7
  6
CONTINUOUS
 10
15.3748652442
 20
12.0669696569
 11
15.3630107836
 21
12.0464371289
  0
LINE
  5
282
100
AcDbEntity
  8
0
100
AcDbLine
 62
7
  6
CONTINUOUS
 10
7.2943278707
 20
12.3917294496
 11
7.3131374225
 21
12.3772963729
  0
LINE
  5
283
100
AcDbEntity
  8
0
100
AcDbLine
 62
7
  6
CONTINUOUS
 10
7.2212711107
 20
12.2398087212
 11
7.2145155995
 21
12.2437090174
  0
LINE
  5
284
100
AcDbEntity
  8
0
100
AcDbLine
 62
7
  6
CONTINUOUS
 10
7.5477043085
 20
12.2205637905
 11
7.5544598197
 21
12.2166634943
  0
LINE
  5
285
100
AcDbEntity
  8
0
100
AcDbLine
 62
7
  6
CONTINUOUS
 10
15.1867690541
 20
12.1391522397
 11
15.2018272422
 21
12.2008578797
  0
LINE
  5
286
100
AcDbEntity
  8
0
100
AcDbLine
 62
7
  6
CONTINUOUS
 10
15.2697439359
 20
12.0850695222
 11
15.2758802562
 21
12.1079705814
  0
LINE
  5
287
100
AcDbEntity
  8
0
100
AcDbLine
 62
7
  6
CONTINUOUS
 10
15.225628703
 20
12.1296692184
 11
15.2266206862
 21
12.1337341801
  0
LINE
  5
288
100
AcDbEntity
  8
0
100
AcDbLine
 62
7
  6
CONTINUOUS
 10
15.4992314833
 20
12.3753029895
 11
15.493095163
 21
12.3524019303
  0
LINE
  5
289
100
AcDbEntity
  8
0
100
AcDbLine
 62
7
  6
CONTINUOUS
 10
15.2622720352
 20
12.1215788025
 11
15.2393709759
 21
12.1154424821
  0
LINE
  5
28A
100
AcDbEntity
  8
0
100
AcDbLine
 62
7
  6
CONTINUOUS
 10
15.3216540648
 20
12.0519796031
 11
15.2838217809
 21
12.0425574748
  0
LINE
  5
28B
100
AcDbEntity
  8
0
100
AcDbLine
 62
7
  6
CONTINUOUS
 10
7.5296044433
 20
12.1154424821
 11
7.506703384
 21
12.1215788025
  0
LINE
  5
28C
100
AcDbEntity
  8
0
100
AcDbLine
 62
7
  6
CONTINUOUS
 10
15.3309174201
 20
12.384661089
 11
15.3340120553
 21
12.4081671771
  0
LINE
  5
28D
100
AcDbEntity
  8
0
100
AcDbLine
 62
7
  6
CONTINUOUS
 10
15.4380579991
 20
12.0757114227
 11
15.4349633639
 21
12.0522053346
  0
LINE
  5
28E
100
AcDbEntity
  8
0
100
AcDbLine
 62
7
  6
CONTINUOUS
 10
15.506703384
 20
12.3387937092
 11
15.5296044433
 21
12.3449300296
  0
LINE
  5
28F
100
AcDbEntity
  8
0
100
AcDbLine
 62
7
  6
CONTINUOUS
 10
7.2838217809
 20
12.4178150369
 11
7.3216540648
 21
12.4083929086
  0
LINE
  5
290
100
AcDbEntity
  8
0
100
AcDbLine
 62
7
  6
CONTINUOUS
 10
7.2393709759
 20
12.3449300296
 11
7.2622720352
 21
12.3387937092
  0
LINE
  5
291
100
AcDbEntity
  8
0
100
AcDbLine
 62
7
  6
CONTINUOUS
 10
15.5624686308
 20
12.1797106016
 11
15.5389625428
 21
12.1766159664
  0
LINE
  5
292
100
AcDbEntity
  8
0
100
AcDbLine
 62
7
  6
CONTINUOUS
 10
15.2065067884
 20
12.2806619101
 11
15.2300128764
 21
12.2837565453
  0
LINE
  5
293
100
AcDbEntity
  8
0
100
AcDbLine
 62
7
  6
CONTINUOUS
 10
7.2300128764
 20
12.1766159664
 11
7.2065067884
 21
12.1797106016
  0
LINE
  5
294
100
AcDbEntity
  8
0
100
AcDbLine
 62
7
  6
CONTINUOUS
 10
7.5389625428
 20
12.2837565453
 11
7.5624686308
 21
12.2806619101
  0
LINE
  5
295
100
AcDbEntity
  8
0
100
AcDbLine
 62
7
  6
CONTINUOUS
 10
15.3340120553
 20
12.0522053346
 11
15.3309174201
 21
12.0757114227
  0
LINE
  5
296
100
AcDbEntity
  8
0
100
AcDbLine
 62
7
  6
CONTINUOUS
 10
15.4349633639
 20
12.4081671771
 11
15.4380579991
 21
12.384661089
  0
LINE
  5
297
100
AcDbEntity
  8
0
100
AcDbLine
 62
7
  6
CONTINUOUS
 10
7.2622720352
 20
12.1215788025
 11
7.2393709759
 21
12.1154424821
  0
LINE
  5
298
100
AcDbEntity
  8
0
100
AcDbLine
 62
7
  6
CONTINUOUS
 10
7.5624686308
 20
12.1797106016
 11
7.5389625428
 21
12.1766159664
  0
LINE
  5
299
100
AcDbEntity
  8
0
100
AcDbLine
 62
7
  6
CONTINUOUS
 10
7.2065067884
 20
12.2806619101
 11
7.2300128764
 21
12.2837565453
  0
LINE
  5
29A
100
AcDbEntity
  8
0
100
AcDbLine
 62
7
  6
CONTINUOUS
 10
15.2300128764
 20
12.1766159664
 11
15.2065067884
 21
12.1797106016
  0
LINE
  5
29B
100
AcDbEntity
  8
0
100
AcDbLine
 62
7
  6
CONTINUOUS
 10
15.5389625428
 20
12.2837565453
 11
15.5624686308
 21
12.2806619101
  0
LINE
  5
29C
100
AcDbEntity
  8
0
100
AcDbLine
 62
7
  6
CONTINUOUS
 10
15.4851536383
 20
12.0425574748
 11
15.4473213544
 21
12.0519796031
  0
LINE
  5
29D
100
AcDbEntity
  8
0
100
AcDbLine
 62
7
  6
CONTINUOUS
 10
15.5296044433
 20
12.1154424821
 11
15.506703384
 21
12.1215788025
  0
LINE
  5
29E
100
AcDbEntity
  8
0
100
AcDbLine
 62
7
  6
CONTINUOUS
 10
15.2758802562
 20
12.3524019303
 11
15.2697439359
 21
12.3753029895
  0
LINE
  5
29F
100
AcDbEntity
  8
0
100
AcDbLine
 62
7
  6
CONTINUOUS
 10
15.493095163
 20
12.1079705814
 11
15.4992314833
 21
12.0850695222
  0
LINE
  5
2A0
100
AcDbEntity
  8
0
100
AcDbLine
 62
7
  6
CONTINUOUS
 10
15.542354733
 20
12.1337341801
 11
15.5433467162
 21
12.1296692184
  0
LINE
  5
2A1
100
AcDbEntity
  8
0
100
AcDbLine
 62
7
  6
CONTINUOUS
 10
15.567148177
 20
12.2008578797
 11
15.5822063651
 21
12.1391522397
  0
LINE
  5
2A2
100
AcDbEntity
  8
0
100
AcDbLine
 62
7
  6
CONTINUOUS
 10
7.506703384
 20
12.3387937092
 11
7.5296044433
 21
12.3449300296
  0
LINE
  5
2A3
100
AcDbEntity
  8
0
100
AcDbLine
 62
7
  6
CONTINUOUS
 10
7.4473213544
 20
12.4083929086
 11
7.4851536383
 21
12.4178150369
  0
LWPOLYLINE
  5
2A4
100
AcDbEntity
  8
0
100
AcDbPolyline
 62
7
  6
CONTINUOUS
 90
9
 70
0
 10
11.3844877096
 20
13.3551862558
 10
11.1537004336
 20
13.331648423
 10
10.9299595736
 20
13.2603026925
 10
10.7254775569
 20
13.1436255783
 10
10.5494842479
 20
12.9868395069
 10
10.4100829114
 20
12.7967256068
 10
10.3133962093
 20
12.5820513692
 10
10.2636139685
 20
12.3523657092
 10
10.2626039608
 20
12.117586194
  0
LINE
  5
2A5
100
AcDbEntity
  8
0
100
AcDbLine
 62
7
  6
CONTINUOUS
 10
11.2865623094
 20
13.3551862558
 11
11.3209296335
 21
13.3551862558
  0
LINE
  5
2A6
100
AcDbEntity
  8
0
100
AcDbLine
 62
7
  6
CONTINUOUS
 10
11.4477710034
 20
13.3551862558
 11
11.5094877096
 21
13.3551862558
  0
LINE
  5
2A7
100
AcDbEntity
  8
0
100
AcDbLine
 62
7
  6
CONTINUOUS
 10
11.6110240833
 20
13.332521243
 11
11.3844877096
 21
13.3551862558
  0
LINE
  5
2A8
100
AcDbEntity
  8
0
100
AcDbLine
 62
7
  6
CONTINUOUS
 10
15.2393709759
 20
12.3449300296
 11
15.2622720352
 21
12.3387937092
  0
LINE
  5
2A9
100
AcDbEntity
  8
0
100
AcDbLine
 62
7
  6
CONTINUOUS
 10
15.2212711107
 20
12.2398087212
 11
15.2145155995
 21
12.2437090174
  0
LINE
  5
2AA
100
AcDbEntity
  8
0
100
AcDbLine
 62
7
  6
CONTINUOUS
 10
15.2373775926
 20
12.3015365429
 11
15.2229445158
 21
12.3203460947
  0
LINE
  5
2AB
100
AcDbEntity
  8
0
100
AcDbLine
 62
7
  6
CONTINUOUS
 10
15.4059646355
 20
12.0464371289
 11
15.394110175
 21
12.0669696569
  0
LINE
  5
2AC
100
AcDbEntity
  8
0
100
AcDbLine
 62
7
  6
CONTINUOUS
 10
15.3630107836
 20
12.4139353828
 11
15.3748652442
 21
12.3934028548
  0
LINE
  5
2AD
100
AcDbEntity
  8
0
100
AcDbLine
 62
7
  6
CONTINUOUS
 10
15.5477043085
 20
12.2205637905
 11
15.5544598197
 21
12.2166634943
  0
LINE
  5
2AE
100
AcDbEntity
  8
0
100
AcDbLine
 62
7
  6
CONTINUOUS
 10
15.5297471783
 20
12.4351861971
 11
15.5619900949
 21
12.4115135476
  0
LINE
  5
2AF
100
AcDbEntity
  8
0
100
AcDbLine
 62
7
  6
CONTINUOUS
 10
15.4746475485
 20
12.0686430621
 11
15.4558379967
 21
12.0830761388
  0
LINE
  5
2B0
100
AcDbEntity
  8
0
100
AcDbLine
 62
7
  6
CONTINUOUS
 10
15.2943278707
 20
12.3917294496
 11
15.3131374225
 21
12.3772963729
  0
LINE
  5
2B1
100
AcDbEntity
  8
0
100
AcDbLine
 62
7
  6
CONTINUOUS
 10
15.5315978266
 20
12.1588359687
 11
15.5460309033
 21
12.1400264169
  0
LINE
  5
2B2
100
AcDbEntity
  8
0
100
AcDbLine
 62
7
  6
CONTINUOUS
 10
15.2306579737
 20
12.3792706311
 11
15.2069853243
 21
12.4115135477
  0
LINE
  5
2B3
100
AcDbEntity
  8
0
100
AcDbLine
 62
7
  6
CONTINUOUS
 10
15.2392282409
 20
12.4351861971
 11
15.2629008903
 21
12.4029432805
  0
ARC
  5
2B4
100
AcDbEntity
  8
0
100
AcDbCircle
 62
7
  6
CONTINUOUS
 10
11.367974514
 20
2.8163790591
 40
0.8361063486
100
AcDbArc
 50
151.6546114647
 51
165.5974877651
  0
ARC
  5
2B5
100
AcDbEntity
  8
0
100
AcDbCircle
 62
7
  6
CONTINUOUS
 10
11.3664255229
 20
2.8170554322
 40
0.8344378465
100
AcDbArc
 50
165.6160154941
 51
179.9838406495
  0
ARC
  5
2B6
100
AcDbEntity
  8
0
100
AcDbCircle
 62
7
  6
CONTINUOUS
 10
7.1984150571
 20
12.10477453
 40
0.08
100
AcDbArc
 50
323.7140000004
 51
342.8401284536
  0
ARC
  5
2B7
100
AcDbEntity
  8
0
100
AcDbCircle
 62
7
  6
CONTINUOUS
 10
7.1984150571
 20
12.10477453
 40
0.04
100
AcDbArc
 50
323.714000002
 51
13.7139999976
  0
ARC
  5
2B8
100
AcDbEntity
  8
0
100
AcDbCircle
 62
7
  6
CONTINUOUS
 10
7.3828810858
 20
12.2350259807
 40
0.2646246585
100
AcDbArc
 50
181.5803578615
 51
215.0077515504
  0
ARC
  5
2B9
100
AcDbEntity
  8
0
100
AcDbCircle
 62
7
  6
CONTINUOUS
 10
7.3815136122
 20
12.2342931774
 40
0.263075846
100
AcDbArc
 50
216.1647383433
 51
226.6625024689
  0
ARC
  5
2BA
100
AcDbEntity
  8
0
100
AcDbCircle
 62
7
  6
CONTINUOUS
 10
7.3802790107
 20
12.2351020155
 40
0.2620329226
100
AcDbArc
 50
181.0749366989
 51
181.6126686989
  0
ARC
  5
2BB
100
AcDbEntity
  8
0
100
AcDbCircle
 62
7
  6
CONTINUOUS
 10
7.3804881963
 20
12.2335874312
 40
0.2618366918
100
AcDbArc
 50
215.0503105777
 51
216.1580813834
  0
ARC
  5
2BC
100
AcDbEntity
  8
0
100
AcDbCircle
 62
7
  6
CONTINUOUS
 10
7.380452018
 20
12.2331430142
 40
0.2615107393
100
AcDbArc
 50
226.6587279124
 51
232.0429593339
  0
ARC
  5
2BD
100
AcDbEntity
  8
0
100
AcDbCircle
 62
7
  6
CONTINUOUS
 10
7.3803612932
 20
12.2331837968
 40
0.2614886409
100
AcDbArc
 50
235.9892122898
 51
237.0405382927
  0
ARC
  5
2BE
100
AcDbEntity
  8
0
100
AcDbCircle
 62
7
  6
CONTINUOUS
 10
7.3798770754
 20
12.2324787738
 40
0.2606333778
100
AcDbArc
 50
232.052801592
 51
235.9907576715
  0
ARC
  5
2BF
100
AcDbEntity
  8
0
100
AcDbCircle
 62
7
  6
CONTINUOUS
 10
7.3840380679
 20
12.2330374277
 40
0.2570339654
100
AcDbArc
 50
274.3853656815
 51
282.9841811181
  0
ARC
  5
2C0
100
AcDbEntity
  8
0
100
AcDbCircle
 62
7
  6
CONTINUOUS
 10
7.3821574825
 20
12.2287166444
 40
0.2569046204
100
AcDbArc
 50
29.0880689777
 51
34.9469135027
  0
ARC
  5
2C1
100
AcDbEntity
  8
0
100
AcDbCircle
 62
7
  6
CONTINUOUS
 10
7.3828380465
 20
12.2323489354
 40
0.2568680505
100
AcDbArc
 50
305.5624962787
 51
308.8859538115
  0
ARC
  5
2C2
100
AcDbEntity
  8
0
100
AcDbCircle
 62
7
  6
CONTINUOUS
 10
7.3794849785
 20
12.2283626586
 40
0.2566053783
100
AcDbArc
 50
304.4724492531
 51
310.2503881535
  0
ARC
  5
2C3
100
AcDbEntity
  8
0
100
AcDbCircle
 62
7
  6
CONTINUOUS
 10
7.3832261079
 20
12.2317921633
 40
0.2561894339
100
AcDbArc
 50
300.5094289825
 51
305.5643151152
  0
ARC
  5
2C4
100
AcDbEntity
  8
0
100
AcDbCircle
 62
7
  6
CONTINUOUS
 10
7.3832779174
 20
12.23182242
 40
0.2561821466
100
AcDbArc
 50
308.8839641861
 51
314.3457099884
  0
ARC
  5
2C5
100
AcDbEntity
  8
0
100
AcDbCircle
 62
7
  6
CONTINUOUS
 10
7.3829721266
 20
12.2291765468
 40
0.2559691415
100
AcDbArc
 50
26.1968644875
 51
29.0867585106
  0
ARC
  5
2C6
100
AcDbEntity
  8
0
100
AcDbCircle
 62
7
  6
CONTINUOUS
 10
7.3799156161
 20
12.2277359033
 40
0.255844937
100
AcDbArc
 50
302.8662142883
 51
304.4723894098
  0
ARC
  5
2C7
100
AcDbEntity
  8
0
100
AcDbCircle
 62
7
  6
CONTINUOUS
 10
7.3799945583
 20
12.2277906203
 40
0.2558401933
100
AcDbArc
 50
310.2503155799
 51
312.8770174815
  0
ARC
  5
2C8
100
AcDbEntity
  8
0
100
AcDbCircle
 62
7
  6
CONTINUOUS
 10
7.3831462377
 20
12.2301026295
 40
0.2554948349
100
AcDbArc
 50
359.9895080762
 51
17.3303707314
  0
ARC
  5
2C9
100
AcDbEntity
  8
0
100
AcDbCircle
 62
7
  6
CONTINUOUS
 10
7.3837450029
 20
12.2298580463
 40
0.2549495434
100
AcDbArc
 50
34.9410189781
 51
43.4637178329
  0
ARC
  5
2CA
100
AcDbEntity
  8
0
100
AcDbCircle
 62
7
  6
CONTINUOUS
 10
7.3838627079
 20
12.2303030638
 40
0.2548248308
100
AcDbArc
 50
346.9624871637
 51
351.943865567
  0
ARC
  5
2CB
100
AcDbEntity
  8
0
100
AcDbCircle
 62
7
  6
CONTINUOUS
 10
7.3839866671
 20
12.2303940923
 40
0.2547304153
100
AcDbArc
 50
334.2251288034
 51
340.1689492563
  0
ARC
  5
2CC
100
AcDbEntity
  8
0
100
AcDbCircle
 62
7
  6
CONTINUOUS
 10
7.3840856308
 20
12.2303676936
 40
0.2545258261
100
AcDbArc
 50
299.0627495367
 51
300.5055248984
  0
ARC
  5
2CD
100
AcDbEntity
  8
0
100
AcDbCircle
 62
7
  6
CONTINUOUS
 10
7.3842701168
 20
12.2298144476
 40
0.254522872
100
AcDbArc
 50
23.3222778606
 51
26.1970061386
  0
ARC
  5
2CE
100
AcDbEntity
  8
0
100
AcDbCircle
 62
7
  6
CONTINUOUS
 10
7.3806935451
 20
12.2265570245
 40
0.2544334045
100
AcDbArc
 50
296.8896192661
 51
302.867216692
  0
ARC
  5
2CF
100
AcDbEntity
  8
0
100
AcDbCircle
 62
7
  6
CONTINUOUS
 10
7.3842854658
 20
12.2302607385
 40
0.2544003067
100
AcDbArc
 50
323.1865021495
 51
330.8203087972
  0
ARC
  5
2D0
100
AcDbEntity
  8
0
100
AcDbCircle
 62
7
  6
CONTINUOUS
 10
7.3829733476
 20
12.2247407
 40
0.2515759609
100
AcDbArc
 50
315.5201661804
 51
317.4810537592
  0
ARC
  5
2D1
100
AcDbEntity
  8
0
100
AcDbCircle
 62
7
  6
CONTINUOUS
 10
7.3831516605
 20
12.2293832841
 40
0.1535629262
100
AcDbArc
 50
19.4425429376
 51
38.6391766062
  0
ARC
  5
2D2
100
AcDbEntity
  8
0
100
AcDbCircle
 62
7
  6
CONTINUOUS
 10
7.3832494064
 20
12.2303992499
 40
0.153298451
100
AcDbArc
 50
349.5102263388
 51
359.9203927599
  0
ARC
  5
2D3
100
AcDbEntity
  8
0
100
AcDbCircle
 62
7
  6
CONTINUOUS
 10
7.3836013201
 20
12.2308697674
 40
0.1531683543
100
AcDbArc
 50
318.0101613432
 51
328.7523801837
  0
ARC
  5
2D4
100
AcDbEntity
  8
0
100
AcDbCircle
 62
7
  6
CONTINUOUS
 10
7.3842005143
 20
12.2308849292
 40
0.1527645654
100
AcDbArc
 50
292.4427898452
 51
308.6944538185
  0
ARC
  5
2D5
100
AcDbEntity
  8
0
100
AcDbCircle
 62
7
  6
CONTINUOUS
 10
7.3840163057
 20
12.230428341
 40
0.1525682552
100
AcDbArc
 50
316.4019379202
 51
318.0090085111
  0
ARC
  5
2D6
100
AcDbEntity
  8
0
100
AcDbCircle
 62
7
  6
CONTINUOUS
 10
7.3842149186
 20
12.2299409047
 40
0.1524201075
100
AcDbArc
 50
33.3347408934
 51
41.8549356793
  0
ARC
  5
2D7
100
AcDbEntity
  8
0
100
AcDbCircle
 62
7
  6
CONTINUOUS
 10
7.384237504
 20
12.2301098658
 40
0.1522832488
100
AcDbArc
 50
346.497303692
 51
349.5070372084
  0
ARC
  5
2D8
100
AcDbEntity
  8
0
100
AcDbCircle
 62
7
  6
CONTINUOUS
 10
7.3842945936
 20
12.2301135573
 40
0.1522650112
100
AcDbArc
 50
16.8437604864
 51
21.0040323044
  0
ARC
  5
2D9
100
AcDbEntity
  8
0
100
AcDbCircle
 62
7
  6
CONTINUOUS
 10
7.3842922646
 20
12.2301283539
 40
0.1522631435
100
AcDbArc
 50
3.0371467537
 51
15.4417016077
  0
ARC
  5
2DA
100
AcDbEntity
  8
0
100
AcDbCircle
 62
7
  6
CONTINUOUS
 10
7.3843997939
 20
12.2298326477
 40
0.1517464538
100
AcDbArc
 50
289.4303311489
 51
292.4411454733
  0
ARC
  5
2DB
100
AcDbEntity
  8
0
100
AcDbCircle
 62
7
  6
CONTINUOUS
 10
7.3737724216
 20
12.2455703557
 40
0.1494596445
100
AcDbArc
 50
32.8761896505
 51
39.2845192798
  0
ARC
  5
2DC
100
AcDbEntity
  8
0
100
AcDbCircle
 62
7
  6
CONTINUOUS
 10
7.3765334927
 20
12.2471110693
 40
0.1463049991
100
AcDbArc
 50
19.9565387702
 51
32.9498921792
  0
ARC
  5
2DD
100
AcDbEntity
  8
0
100
AcDbCircle
 62
7
  6
CONTINUOUS
 10
7.3790606165
 20
12.248072483
 40
0.143601493
100
AcDbArc
 50
12.2710895993
 51
19.9401175079
  0
ARC
  5
2DE
100
AcDbEntity
  8
0
100
AcDbCircle
 62
7
  6
CONTINUOUS
 10
7.3816741525
 20
12.2486541891
 40
0.1409240349
100
AcDbArc
 50
6.2558814079
 51
12.2658278479
  0
ARC
  5
2DF
100
AcDbEntity
  8
0
100
AcDbCircle
 62
7
  6
CONTINUOUS
 10
7.3844811795
 20
12.2250145004
 40
0.1401443541
100
AcDbArc
 50
159.2078051307
 51
176.6752577253
  0
ARC
  5
2E0
100
AcDbEntity
  8
0
100
AcDbCircle
 62
7
  6
CONTINUOUS
 10
7.3827857293
 20
12.225138338
 40
0.1384445779
100
AcDbArc
 50
176.6857287262
 51
177.9104381153
  0
ARC
  5
2E1
100
AcDbEntity
  8
0
100
AcDbCircle
 62
7
  6
CONTINUOUS
 10
7.3813141444
 20
12.2251941766
 40
0.1369719355
100
AcDbArc
 50
177.911335409
 51
178.7546667198
  0
ARC
  5
2E2
100
AcDbEntity
  8
0
100
AcDbCircle
 62
7
  6
CONTINUOUS
 10
7.3812999104
 20
12.2261784344
 40
0.1367603964
100
AcDbArc
 50
129.6584569342
 51
159.1516908191
  0
ARC
  5
2E3
100
AcDbEntity
  8
0
100
AcDbCircle
 62
7
  6
CONTINUOUS
 10
7.3804573965
 20
12.2272113494
 40
0.1354274937
100
AcDbArc
 50
121.3715681469
 51
129.6629400566
  0
ARC
  5
2E4
100
AcDbEntity
  8
0
100
AcDbCircle
 62
7
  6
CONTINUOUS
 10
7.3798874914
 20
12.2280416157
 40
0.134421931
100
AcDbArc
 50
102.4173988037
 51
121.3483956254
  0
ARC
  5
2E5
100
AcDbEntity
  8
0
100
AcDbCircle
 62
7
  6
CONTINUOUS
 10
7.3820667046
 20
12.234701494
 40
0.1267864214
100
AcDbArc
 50
14.5045135868
 51
45.2925630891
  0
ARC
  5
2E6
100
AcDbEntity
  8
0
100
AcDbCircle
 62
7
  6
CONTINUOUS
 10
7.3831453267
 20
12.2349793121
 40
0.1256689213
100
AcDbArc
 50
6.7726915541
 51
14.5102774255
  0
ARC
  5
2E7
100
AcDbEntity
  8
0
100
AcDbCircle
 62
7
  6
CONTINUOUS
 10
7.2644883518
 20
12.3401863146
 40
0.08
100
AcDbArc
 50
76.0149999997
 51
193.7140000001
  0
ARC
  5
2E8
100
AcDbEntity
  8
0
100
AcDbCircle
 62
7
  6
CONTINUOUS
 10
7.2644883518
 20
12.3401863146
 40
0.04
100
AcDbArc
 50
75.4343483309
 51
193.7140000002
  0
CIRCLE
  5
2E9
100
AcDbEntity
  8
0
100
AcDbCircle
 62
6
  6
CONTINUOUS
 10
7.1946377096
 20
12.2301862558
 40
0.02165
  0
ARC
  5
2EA
100
AcDbEntity
  8
0
100
AcDbCircle
 62
7
  6
CONTINUOUS
 10
7.3860199143
 20
12.2113759708
 40
0.2685397923
100
AcDbArc
 50
0.6941350901
 51
13.078185051
  0
ARC
  5
2EB
100
AcDbEntity
  8
0
100
AcDbCircle
 62
7
  6
CONTINUOUS
 10
7.3896878737
 20
12.2122086151
 40
0.2647815815
100
AcDbArc
 50
13.0875803435
 51
17.2158985141
  0
ARC
  5
2EC
100
AcDbEntity
  8
0
100
AcDbCircle
 62
7
  6
CONTINUOUS
 10
7.3926259536
 20
12.2131934161
 40
0.2616836735
100
AcDbArc
 50
17.2003342875
 51
33.8350178011
  0
ARC
  5
2ED
100
AcDbEntity
  8
0
100
AcDbCircle
 62
7
  6
CONTINUOUS
 10
7.3955095685
 20
12.214857842
 40
0.2583617535
100
AcDbArc
 50
33.8844850082
 51
44.2176701164
  0
ARC
  5
2EE
100
AcDbEntity
  8
0
100
AcDbCircle
 62
7
  6
CONTINUOUS
 10
7.3970632161
 20
12.2163460488
 40
0.256210407
100
AcDbArc
 50
44.2214496857
 51
45.9785396889
  0
ARC
  5
2EF
100
AcDbEntity
  8
0
100
AcDbCircle
 62
7
  6
CONTINUOUS
 10
7.399035145
 20
12.2184052735
 40
0.2533593128
100
AcDbArc
 50
45.97559107
 51
50.5687403269
  0
ARC
  5
2F0
100
AcDbEntity
  8
0
100
AcDbCircle
 62
7
  6
CONTINUOUS
 10
7.570560362
 20
12.10477453
 40
0.08
100
AcDbArc
 50
197.1598715463
 51
216.2859999995
  0
ARC
  5
2F1
100
AcDbEntity
  8
0
100
AcDbCircle
 62
7
  6
CONTINUOUS
 10
7.570560362
 20
12.10477453
 40
0.04
100
AcDbArc
 50
166.2860000024
 51
216.2859999981
  0
CIRCLE
  5
2F2
100
AcDbEntity
  8
0
100
AcDbCircle
 62
6
  6
CONTINUOUS
 10
7.3844877096
 20
12.2301862558
 40
1.17
  0
CIRCLE
  5
2F3
100
AcDbEntity
  8
0
100
AcDbCircle
 62
9
  6
CONTINUOUS
 10
7.3844877096
 20
12.2301862558
 40
1.1043717104
  0
CIRCLE
  5
2F4
100
AcDbEntity
  8
0
100
AcDbCircle
 62
9
  6
CONTINUOUS
 10
7.3844877096
 20
12.2301862558
 40
1.0719223696
  0
CIRCLE
  5
2F5
100
AcDbEntity
  8
0
100
AcDbCircle
 62
9
  6
CONTINUOUS
 10
7.3844877096
 20
12.2301862558
 40
1.0407459276
  0
CIRCLE
  5
2F6
100
AcDbEntity
  8
0
100
AcDbCircle
 62
9
  6
CONTINUOUS
 10
7.3844877096
 20
12.2301862558
 40
1.0164705063
  0
CIRCLE
  5
2F7
100
AcDbEntity
  8
0
100
AcDbCircle
 62
9
  6
CONTINUOUS
 10
7.3844877096
 20
12.2301862558
 40
0.9793435571
  0
CIRCLE
  5
2F8
100
AcDbEntity
  8
0
100
AcDbCircle
 62
9
  6
CONTINUOUS
 10
7.3844877096
 20
12.2301862558
 40
0.9519481536
  0
CIRCLE
  5
2F9
100
AcDbEntity
  8
0
100
AcDbCircle
 62
9
  6
CONTINUOUS
 10
7.3844877096
 20
12.2301862558
 40
0.9418237702
  0
CIRCLE
  5
2FA
100
AcDbEntity
  8
0
100
AcDbCircle
 62
7
  6
CONTINUOUS
 10
7.3844877096
 20
12.2301862558
 40
0.9375
  0
ARC
  5
2FB
100
AcDbEntity
  8
0
100
AcDbCircle
 62
7
  6
CONTINUOUS
 10
7.3844877096
 20
12.2301862558
 40
0.8200135725
100
AcDbArc
 50
118.9547827747
 51
121.0444922032
  0
ARC
  5
2FC
100
AcDbEntity
  8
0
100
AcDbCircle
 62
7
  6
CONTINUOUS
 10
7.3844877096
 20
12.2301862558
 40
0.8200135722
100
AcDbArc
 50
178.9555077969
 51
181.0452172253
  0
ARC
  5
2FD
100
AcDbEntity
  8
0
100
AcDbCircle
 62
7
  6
CONTINUOUS
 10
7.3844877096
 20
12.2301862558
 40
0.8199998001
100
AcDbArc
 50
358.9550243718
 51
1.0458106345
  0
ARC
  5
2FE
100
AcDbEntity
  8
0
100
AcDbCircle
 62
7
  6
CONTINUOUS
 10
7.3844877096
 20
12.2301862558
 40
0.8199998001
100
AcDbArc
 50
298.9541893654
 51
301.0449756281
  0
ARC
  5
2FF
100
AcDbEntity
  8
0
100
AcDbCircle
 62
7
  6
CONTINUOUS
 10
7.3844877096
 20
12.2301862558
 40
0.8199975124
100
AcDbArc
 50
58.9552412492
 51
61.0451284583
  0
ARC
  5
300
100
AcDbEntity
  8
0
100
AcDbCircle
 62
7
  6
CONTINUOUS
 10
7.3844877096
 20
12.2301862558
 40
0.8199975124
100
AcDbArc
 50
238.9548715417
 51
241.0447587509
  0
CIRCLE
  5
301
100
AcDbEntity
  8
0
100
AcDbCircle
 62
6
  6
CONTINUOUS
 10
7.3844877096
 20
12.2301862558
 40
0.8187389754
  0
CIRCLE
  5
302
100
AcDbEntity
  8
0
100
AcDbCircle
 62
9
  6
CONTINUOUS
 10
7.3844877096
 20
12.2301862558
 40
0.7877475635
  0
CIRCLE
  5
303
100
AcDbEntity
  8
0
100
AcDbCircle
 62
9
  6
CONTINUOUS
 10
7.3844877096
 20
12.2301862558
 40
0.5244951005
  0
CIRCLE
  5
304
100
AcDbEntity
  8
0
100
AcDbCircle
 62
9
  6
CONTINUOUS
 10
7.3844877096
 20
12.2301862558
 40
0.4346655436
  0
CIRCLE
  5
305
100
AcDbEntity
  8
0
100
AcDbCircle
 62
9
  6
CONTINUOUS
 10
7.3844877096
 20
12.2301862558
 40
0.4098651671
  0
CIRCLE
  5
306
100
AcDbEntity
  8
0
100
AcDbCircle
 62
9
  6
CONTINUOUS
 10
7.3844877096
 20
12.2301862558
 40
0.3330477656
  0
CIRCLE
  5
307
100
AcDbEntity
  8
0
100
AcDbCircle
 62
6
  6
CONTINUOUS
 10
7.3844877096
 20
12.2301862558
 40
0.3041988751
  0
ARC
  5
308
100
AcDbEntity
  8
0
100
AcDbCircle
 62
7
  6
CONTINUOUS
 10
7.384660312
 20
12.224897448
 40
0.2819600653
100
AcDbArc
 50
13.2331672361
 51
23.8398605011
  0
ARC
  5
309
100
AcDbEntity
  8
0
100
AcDbCircle
 62
7
  6
CONTINUOUS
 10
7.3844877096
 20
12.2301862558
 40
0.281247435
100
AcDbArc
 50
23.5947831397
 51
9.0273869001
  0
ARC
  5
30A
100
AcDbEntity
  8
0
100
AcDbCircle
 62
7
  6
CONTINUOUS
 10
7.3863008003
 20
12.225599892
 40
0.2801756314
100
AcDbArc
 50
23.8440619072
 51
24.5950786412
  0
ARC
  5
30B
100
AcDbEntity
  8
0
100
AcDbCircle
 62
7
  6
CONTINUOUS
 10
7.3873599484
 20
12.2260210043
 40
0.2790404308
100
AcDbArc
 50
28.3503402147
 51
44.0654163522
  0
ARC
  5
30C
100
AcDbEntity
  8
0
100
AcDbCircle
 62
7
  6
CONTINUOUS
 10
7.3876100262
 20
12.2262073241
 40
0.2787323743
100
AcDbArc
 50
24.5935539001
 51
27.0421526775
  0
ARC
  5
30D
100
AcDbEntity
  8
0
100
AcDbCircle
 62
7
  6
CONTINUOUS
 10
7.3880332202
 20
12.2257118667
 40
0.2784902881
100
AcDbArc
 50
10.0512408284
 51
13.2289114018
  0
ARC
  5
30E
100
AcDbEntity
  8
0
100
AcDbCircle
 62
7
  6
CONTINUOUS
 10
7.3884994302
 20
12.2266493029
 40
0.2777392631
100
AcDbArc
 50
27.0443611721
 51
28.3478967421
  0
ARC
  5
30F
100
AcDbEntity
  8
0
100
AcDbCircle
 62
7
  6
CONTINUOUS
 10
7.3885014845
 20
12.2269877366
 40
0.2775478598
100
AcDbArc
 50
44.0859098019
 51
47.9016245197
  0
ARC
  5
310
100
AcDbEntity
  8
0
100
AcDbCircle
 62
7
  6
CONTINUOUS
 10
7.3895220318
 20
12.2309229902
 40
0.273432052
100
AcDbArc
 50
95.2385745403
 51
112.3298807633
  0
ARC
  5
311
100
AcDbEntity
  8
0
100
AcDbCircle
 62
7
  6
CONTINUOUS
 10
7.3891421776
 20
12.2322561966
 40
0.2720545435
100
AcDbArc
 50
112.3625595641
 51
127.6408667431
  0
ARC
  5
312
100
AcDbEntity
  8
0
100
AcDbCircle
 62
7
  6
CONTINUOUS
 10
7.387434469
 20
12.2345702059
 40
0.2691792774
100
AcDbArc
 50
127.6538364681
 51
129.5016612924
  0
ARC
  5
313
100
AcDbEntity
  8
0
100
AcDbCircle
 62
7
  6
CONTINUOUS
 10
7.3845069765
 20
12.230989056
 40
0.2549326108
100
AcDbArc
 50
282.9849256472
 51
288.8750250501
  0
ARC
  5
314
100
AcDbEntity
  8
0
100
AcDbCircle
 62
7
  6
CONTINUOUS
 10
7.3846396683
 20
12.2304011522
 40
0.2542139037
100
AcDbArc
 50
314.3501297979
 51
316.2882146526
  0
ARC
  5
315
100
AcDbEntity
  8
0
100
AcDbCircle
 62
7
  6
CONTINUOUS
 10
7.3844877096
 20
12.2301862558
 40
0.2541888916
100
AcDbArc
 50
0.0008203523
 51
46.3455600411
  0
ARC
  5
316
100
AcDbEntity
  8
0
100
AcDbCircle
 62
7
  6
CONTINUOUS
 10
7.3845555606
 20
12.2302250862
 40
0.2541280228
100
AcDbArc
 50
351.9412822342
 51
356.578508295
  0
ARC
  5
317
100
AcDbEntity
  8
0
100
AcDbCircle
 62
7
  6
CONTINUOUS
 10
7.3845931275
 20
12.2301095404
 40
0.2540605586
100
AcDbArc
 50
330.8267503863
 51
334.223444339
  0
ARC
  5
318
100
AcDbEntity
  8
0
100
AcDbCircle
 62
7
  6
CONTINUOUS
 10
7.3849832681
 20
12.2300489782
 40
0.2536758369
100
AcDbArc
 50
340.1659121293
 51
346.9613013732
  0
ARC
  5
319
100
AcDbEntity
  8
0
100
AcDbCircle
 62
7
  6
CONTINUOUS
 10
7.3845984863
 20
12.2294433874
 40
0.2534687726
100
AcDbArc
 50
297.4127662317
 51
299.0629115199
  0
ARC
  5
31A
100
AcDbEntity
  8
0
100
AcDbCircle
 62
7
  6
CONTINUOUS
 10
7.3855243065
 20
12.2293178155
 40
0.2528434922
100
AcDbArc
 50
318.0159337552
 51
323.1893497757
  0
ARC
  5
31B
100
AcDbEntity
  8
0
100
AcDbCircle
 62
7
  6
CONTINUOUS
 10
7.3851872987
 20
12.228308541
 40
0.2521902671
100
AcDbArc
 50
295.8370239192
 51
297.4127172208
  0
ARC
  5
31C
100
AcDbEntity
  8
0
100
AcDbCircle
 62
7
  6
CONTINUOUS
 10
7.3854873765
 20
12.2280275653
 40
0.2518132076
100
AcDbArc
 50
288.8819367356
 51
291.3733665375
  0
ARC
  5
31D
100
AcDbEntity
  8
0
100
AcDbCircle
 62
7
  6
CONTINUOUS
 10
7.3872217014
 20
12.2310595465
 40
0.2513195173
100
AcDbArc
 50
17.3988848436
 51
23.3280172491
  0
ARC
  5
31E
100
AcDbEntity
  8
0
100
AcDbCircle
 62
7
  6
CONTINUOUS
 10
7.3844877096
 20
12.2301862558
 40
0.2512500119
100
AcDbArc
 50
234.6792532673
 51
305.3207467327
  0
ARC
  5
31F
100
AcDbEntity
  8
0
100
AcDbCircle
 62
7
  6
CONTINUOUS
 10
7.3844877096
 20
12.2301862558
 40
0.2512493449
100
AcDbArc
 50
314.4703125157
 51
225.5296874843
  0
ARC
  5
320
100
AcDbEntity
  8
0
100
AcDbCircle
 62
7
  6
CONTINUOUS
 10
7.3876954797
 20
12.2300336603
 40
0.2509822762
100
AcDbArc
 50
356.5793510688
 51
0.03483545
  0
ARC
  5
321
100
AcDbEntity
  8
0
100
AcDbCircle
 62
7
  6
CONTINUOUS
 10
7.3870312951
 20
12.2328697108
 40
0.2504926211
100
AcDbArc
 50
43.4808104795
 51
46.342834982
  0
ARC
  5
322
100
AcDbEntity
  8
0
100
AcDbCircle
 62
7
  6
CONTINUOUS
 10
7.3860708587
 20
12.2264804914
 40
0.2501598874
100
AcDbArc
 50
291.3780545326
 51
295.8373561145
  0
ARC
  5
323
100
AcDbEntity
  8
0
100
AcDbCircle
 62
7
  6
CONTINUOUS
 10
7.3883399097
 20
12.2268428143
 40
0.2490949837
100
AcDbArc
 50
316.2903427104
 51
318.0058867893
  0
ARC
  5
324
100
AcDbEntity
  8
0
100
AcDbCircle
 62
7
  6
CONTINUOUS
 10
7.3844877096
 20
12.2301862558
 40
0.185
100
AcDbArc
 50
321.6574168679
 51
330.8190819646
  0
ARC
  5
325
100
AcDbEntity
  8
0
100
AcDbCircle
 62
7
  6
CONTINUOUS
 10
7.3844877096
 20
12.2301862558
 40
0.185
100
AcDbArc
 50
6.6665846093
 51
28.866820277
  0
ARC
  5
326
100
AcDbEntity
  8
0
100
AcDbCircle
 62
7
  6
CONTINUOUS
 10
7.3844877096
 20
12.2301862558
 40
0.185
100
AcDbArc
 50
29.1809180354
 51
60.8349035332
  0
ARC
  5
327
100
AcDbEntity
  8
0
100
AcDbCircle
 62
7
  6
CONTINUOUS
 10
7.3844877096
 20
12.2301862558
 40
0.185
100
AcDbArc
 50
61.1297178775
 51
83.333434758
  0
ARC
  5
328
100
AcDbEntity
  8
0
100
AcDbCircle
 62
7
  6
CONTINUOUS
 10
7.3844877096
 20
12.2301862558
 40
0.185
100
AcDbArc
 50
83.6164833423
 51
96.3837756086
  0
ARC
  5
329
100
AcDbEntity
  8
0
100
AcDbCircle
 62
7
  6
CONTINUOUS
 10
7.3844877096
 20
12.2301862558
 40
0.185
100
AcDbArc
 50
96.6662283411
 51
118.8701079191
  0
ARC
  5
32A
100
AcDbEntity
  8
0
100
AcDbCircle
 62
7
  6
CONTINUOUS
 10
7.3844877096
 20
12.2301862558
 40
0.185
100
AcDbArc
 50
119.1665988874
 51
150.8326273455
  0
ARC
  5
32B
100
AcDbEntity
  8
0
100
AcDbCircle
 62
7
  6
CONTINUOUS
 10
7.3844877096
 20
12.2301862558
 40
0.185
100
AcDbArc
 50
151.1334984949
 51
173.334942153
  0
ARC
  5
32C
100
AcDbEntity
  8
0
100
AcDbCircle
 62
7
  6
CONTINUOUS
 10
7.3844877096
 20
12.2301862558
 40
0.185
100
AcDbArc
 50
186.665057847
 51
208.8797354811
  0
ARC
  5
32D
100
AcDbEntity
  8
0
100
AcDbCircle
 62
7
  6
CONTINUOUS
 10
7.3844877096
 20
12.2301862558
 40
0.185
100
AcDbArc
 50
209.1673726545
 51
240.8334011125
  0
ARC
  5
32E
100
AcDbEntity
  8
0
100
AcDbCircle
 62
7
  6
CONTINUOUS
 10
7.3844877096
 20
12.2301862558
 40
0.185
100
AcDbArc
 50
241.1297178775
 51
263.333771659
  0
ARC
  5
32F
100
AcDbEntity
  8
0
100
AcDbCircle
 62
7
  6
CONTINUOUS
 10
7.3844877096
 20
12.2301862558
 40
0.185
100
AcDbArc
 50
263.6164833423
 51
276.3837756086
  0
ARC
  5
330
100
AcDbEntity
  8
0
100
AcDbCircle
 62
7
  6
CONTINUOUS
 10
7.3844877096
 20
12.2301862558
 40
0.185
100
AcDbArc
 50
276.6665652421
 51
298.8701079191
  0
ARC
  5
331
100
AcDbEntity
  8
0
100
AcDbCircle
 62
7
  6
CONTINUOUS
 10
7.3844877096
 20
12.2301862558
 40
0.185
100
AcDbArc
 50
299.1650964668
 51
321.1289458562
  0
ARC
  5
332
100
AcDbEntity
  8
0
100
AcDbCircle
 62
7
  6
CONTINUOUS
 10
7.3844877096
 20
12.2301862558
 40
0.185
100
AcDbArc
 50
331.1334984949
 51
353.3334153907
  0
ARC
  5
333
100
AcDbEntity
  8
0
100
AcDbCircle
 62
7
  6
CONTINUOUS
 10
7.3844877096
 20
12.2301862558
 40
0.1635
100
AcDbArc
 50
334.1260218922
 51
340.8739781078
  0
ARC
  5
334
100
AcDbEntity
  8
0
100
AcDbCircle
 62
7
  6
CONTINUOUS
 10
7.3844877096
 20
12.2301862558
 40
0.1635
100
AcDbArc
 50
199.1260218922
 51
205.8739781078
  0
ARC
  5
335
100
AcDbEntity
  8
0
100
AcDbCircle
 62
7
  6
CONTINUOUS
 10
7.3844877096
 20
12.2301862558
 40
0.1635
100
AcDbArc
 50
221.6260218921
 51
228.3739781079
  0
ARC
  5
336
100
AcDbEntity
  8
0
100
AcDbCircle
 62
7
  6
CONTINUOUS
 10
7.3844877096
 20
12.2301862558
 40
0.1635
100
AcDbArc
 50
244.1260218922
 51
250.8739781077
  0
ARC
  5
337
100
AcDbEntity
  8
0
100
AcDbCircle
 62
7
  6
CONTINUOUS
 10
7.3844877096
 20
12.2301862558
 40
0.1635
100
AcDbArc
 50
266.6260218921
 51
273.3739781078
  0
ARC
  5
338
100
AcDbEntity
  8
0
100
AcDbCircle
 62
7
  6
CONTINUOUS
 10
7.3844877096
 20
12.2301862558
 40
0.1635
100
AcDbArc
 50
289.1260218923
 51
295.8739781078
  0
ARC
  5
339
100
AcDbEntity
  8
0
100
AcDbCircle
 62
7
  6
CONTINUOUS
 10
7.3844877096
 20
12.2301862558
 40
0.1635
100
AcDbArc
 50
311.6260218921
 51
318.3739781078
  0
ARC
  5
33A
100
AcDbEntity
  8
0
100
AcDbCircle
 62
7
  6
CONTINUOUS
 10
7.3844877096
 20
12.2301862558
 40
0.1635
100
AcDbArc
 50
176.6260218922
 51
183.3739781078
  0
ARC
  5
33B
100
AcDbEntity
  8
0
100
AcDbCircle
 62
7
  6
CONTINUOUS
 10
7.3844877096
 20
12.2301862558
 40
0.1635
100
AcDbArc
 50
356.6260218922
 51
3.3739781078
  0
ARC
  5
33C
100
AcDbEntity
  8
0
100
AcDbCircle
 62
7
  6
CONTINUOUS
 10
7.3844877096
 20
12.2301862558
 40
0.1635
100
AcDbArc
 50
19.1260218922
 51
25.8739781078
  0
ARC
  5
33D
100
AcDbEntity
  8
0
100
AcDbCircle
 62
7
  6
CONTINUOUS
 10
7.3844877096
 20
12.2301862558
 40
0.1635
100
AcDbArc
 50
41.6260218922
 51
48.3739781079
  0
ARC
  5
33E
100
AcDbEntity
  8
0
100
AcDbCircle
 62
7
  6
CONTINUOUS
 10
7.3844877096
 20
12.2301862558
 40
0.1635
100
AcDbArc
 50
64.1260218922
 51
70.8739781077
  0
ARC
  5
33F
100
AcDbEntity
  8
0
100
AcDbCircle
 62
7
  6
CONTINUOUS
 10
7.3844877096
 20
12.2301862558
 40
0.1635
100
AcDbArc
 50
86.6260218922
 51
93.3739781078
  0
ARC
  5
340
100
AcDbEntity
  8
0
100
AcDbCircle
 62
7
  6
CONTINUOUS
 10
7.3844877096
 20
12.2301862558
 40
0.1635
100
AcDbArc
 50
109.1260218923
 51
115.8739781078
  0
ARC
  5
341
100
AcDbEntity
  8
0
100
AcDbCircle
 62
7
  6
CONTINUOUS
 10
7.3844877096
 20
12.2301862558
 40
0.1635
100
AcDbArc
 50
131.6260218921
 51
138.3739781079
  0
ARC
  5
342
100
AcDbEntity
  8
0
100
AcDbCircle
 62
7
  6
CONTINUOUS
 10
7.3844877096
 20
12.2301862558
 40
0.1635
100
AcDbArc
 50
154.1260218922
 51
160.8739781078
  0
ARC
  5
343
100
AcDbEntity
  8
0
100
AcDbCircle
 62
7
  6
CONTINUOUS
 10
7.3844877096
 20
12.2301862558
 40
0.1549989873
100
AcDbArc
 50
180.0
 51
178.9949702111
  0
ARC
  5
344
100
AcDbEntity
  8
0
100
AcDbCircle
 62
7
  6
CONTINUOUS
 10
7.3846003365
 20
12.2302094082
 40
0.1519446111
100
AcDbArc
 50
15.4431715041
 51
16.8425742498
  0
ARC
  5
345
100
AcDbEntity
  8
0
100
AcDbCircle
 62
7
  6
CONTINUOUS
 10
7.3848835452
 20
12.2300393819
 40
0.151677615
100
AcDbArc
 50
308.6927573467
 51
312.0133643163
  0
ARC
  5
346
100
AcDbEntity
  8
0
100
AcDbCircle
 62
7
  6
CONTINUOUS
 10
7.3884126242
 20
12.2335070748
 40
0.1516008684
100
AcDbArc
 50
296.9567620783
 51
310.6863753185
  0
ARC
  5
347
100
AcDbEntity
  8
0
100
AcDbCircle
 62
7
  6
CONTINUOUS
 10
7.3849146337
 20
12.2303987386
 40
0.1515839202
100
AcDbArc
 50
20.9943243737
 51
33.3354989494
  0
ARC
  5
348
100
AcDbEntity
  8
0
100
AcDbCircle
 62
7
  6
CONTINUOUS
 10
7.3848625086
 20
12.2308495994
 40
0.151327441
100
AcDbArc
 50
38.6562552159
 51
46.3390568458
  0
ARC
  5
349
100
AcDbEntity
  8
0
100
AcDbCircle
 62
7
  6
CONTINUOUS
 10
7.3854847902
 20
12.2298173888
 40
0.1510021484
100
AcDbArc
 50
328.756114746
 51
346.4947092232
  0
ARC
  5
34A
100
AcDbEntity
  8
0
100
AcDbCircle
 62
7
  6
CONTINUOUS
 10
7.3849015597
 20
12.2290162659
 40
0.1508254044
100
AcDbArc
 50
278.3621016404
 51
282.2633793861
  0
ARC
  5
34B
100
AcDbEntity
  8
0
100
AcDbCircle
 62
7
  6
CONTINUOUS
 10
7.3847512089
 20
12.2288542845
 40
0.1507069099
100
AcDbArc
 50
288.3681165207
 51
289.4280736358
  0
ARC
  5
34C
100
AcDbEntity
  8
0
100
AcDbCircle
 62
7
  6
CONTINUOUS
 10
7.3892314409
 20
12.2325699049
 40
0.1503564214
100
AcDbArc
 50
310.6825867747
 51
314.4401138132
  0
ARC
  5
34D
100
AcDbEntity
  8
0
100
AcDbCircle
 62
7
  6
CONTINUOUS
 10
7.386746613
 20
12.2306412589
 40
0.1497542422
100
AcDbArc
 50
10.3723289815
 51
19.4465147665
  0
ARC
  5
34E
100
AcDbEntity
  8
0
100
AcDbCircle
 62
7
  6
CONTINUOUS
 10
7.3862575622
 20
12.2285230109
 40
0.1496313336
100
AcDbArc
 50
312.0110798164
 51
316.3384783419
  0
ARC
  5
34F
100
AcDbEntity
  8
0
100
AcDbCircle
 62
7
  6
CONTINUOUS
 10
7.3893199275
 20
12.2315922266
 40
0.1494974617
100
AcDbArc
 50
295.9575778159
 51
296.9452301168
  0
ARC
  5
350
100
AcDbEntity
  8
0
100
AcDbCircle
 62
7
  6
CONTINUOUS
 10
7.3893932677
 20
12.2314104652
 40
0.1492976557
100
AcDbArc
 50
275.7346499675
 51
294.1101521105
  0
ARC
  5
351
100
AcDbEntity
  8
0
100
AcDbCircle
 62
7
  6
CONTINUOUS
 10
7.3852080837
 20
12.2274651812
 40
0.1492446086
100
AcDbArc
 50
282.2748696263
 51
288.3697050368
  0
ARC
  5
352
100
AcDbEntity
  8
0
100
AcDbCircle
 62
7
  6
CONTINUOUS
 10
7.3865477828
 20
12.2323745694
 40
0.1490546372
100
AcDbArc
 50
41.9705833423
 51
46.3378147924
  0
ARC
  5
353
100
AcDbEntity
  8
0
100
AcDbCircle
 62
7
  6
CONTINUOUS
 10
7.3876889334
 20
12.2308982864
 40
0.1487810676
100
AcDbArc
 50
9.3230476365
 51
10.3403008533
  0
ARC
  5
354
100
AcDbEntity
  8
0
100
AcDbCircle
 62
7
  6
CONTINUOUS
 10
7.3896617915
 20
12.2308881274
 40
0.1487147581
100
AcDbArc
 50
294.1161785573
 51
295.9574785411
  0
ARC
  5
355
100
AcDbEntity
  8
0
100
AcDbCircle
 62
7
  6
CONTINUOUS
 10
7.3878353661
 20
12.2303830511
 40
0.1487115389
100
AcDbArc
 50
359.925017235
 51
3.0114816257
  0
ARC
  5
356
100
AcDbEntity
  8
0
100
AcDbCircle
 62
7
  6
CONTINUOUS
 10
7.3895724563
 20
12.2306954177
 40
0.1485683204
100
AcDbArc
 50
264.7263487258
 51
275.6934455718
  0
ARC
  5
357
100
AcDbEntity
  8
0
100
AcDbCircle
 62
7
  6
CONTINUOUS
 10
7.3892824734
 20
12.2285341799
 40
0.1463896056
100
AcDbArc
 50
241.8169515495
 51
264.7616172313
  0
ARC
  5
358
100
AcDbEntity
  8
0
100
AcDbCircle
 62
7
  6
CONTINUOUS
 10
7.3888355839
 20
12.2274545176
 40
0.145241172
100
AcDbArc
 50
226.5474016106
 51
230.9927194825
  0
ARC
  5
359
100
AcDbEntity
  8
0
100
AcDbCircle
 62
7
  6
CONTINUOUS
 10
7.3884117899
 20
12.2269221047
 40
0.1445607081
100
AcDbArc
 50
230.990422679
 51
241.8119801662
  0
ARC
  5
35A
100
AcDbEntity
  8
0
100
AcDbCircle
 62
7
  6
CONTINUOUS
 10
7.3882585031
 20
12.2268620168
 40
0.1444141605
100
AcDbArc
 50
218.8649846533
 51
226.5519376974
  0
ARC
  5
35B
100
AcDbEntity
  8
0
100
AcDbCircle
 62
7
  6
CONTINUOUS
 10
7.3868588995
 20
12.2256915274
 40
0.1425899283
100
AcDbArc
 50
203.5761072999
 51
218.8516679177
  0
ARC
  5
35C
100
AcDbEntity
  8
0
100
AcDbCircle
 62
7
  6
CONTINUOUS
 10
7.3857416088
 20
12.2252681315
 40
0.1414017096
100
AcDbArc
 50
178.8249565394
 51
203.5763054597
  0
ARC
  5
35D
100
AcDbEntity
  8
0
100
AcDbCircle
 62
7
  6
CONTINUOUS
 10
7.3846476098
 20
12.2489173017
 40
0.1379396272
100
AcDbArc
 50
349.5794680955
 51
6.2818289036
  0
ARC
  5
35E
100
AcDbEntity
  8
0
100
AcDbCircle
 62
7
  6
CONTINUOUS
 10
7.3844877096
 20
12.2301862558
 40
0.12499886
100
AcDbArc
 50
21.5999999993
 51
9.0273203816
  0
CIRCLE
  5
35F
100
AcDbEntity
  8
0
100
AcDbCircle
 62
7
  6
CONTINUOUS
 10
7.3844877096
 20
12.2301862558
 40
0.1005
  0
ARC
  5
360
100
AcDbEntity
  8
0
100
AcDbCircle
 62
7
  6
CONTINUOUS
 10
7.5044870674
 20
12.3401863146
 40
0.08
100
AcDbArc
 50
346.2859999999
 51
103.9850000001
  0
ARC
  5
361
100
AcDbEntity
  8
0
100
AcDbCircle
 62
7
  6
CONTINUOUS
 10
7.5044870674
 20
12.3401863146
 40
0.04
100
AcDbArc
 50
346.286
 51
104.565374163
  0
CIRCLE
  5
362
100
AcDbEntity
  8
0
100
AcDbCircle
 62
6
  6
CONTINUOUS
 10
7.5743377096
 20
12.2301862558
 40
0.02165
  0
ARC
  5
363
100
AcDbEntity
  8
0
100
AcDbCircle
 62
7
  6
CONTINUOUS
 10
7.3844877096
 20
12.6606862558
 40
0.26
100
AcDbArc
 50
283.4298012508
 51
283.985
  0
ARC
  5
364
100
AcDbEntity
  8
0
100
AcDbCircle
 62
7
  6
CONTINUOUS
 10
7.3844877096
 20
12.6606862558
 40
0.26
100
AcDbArc
 50
256.015
 51
257.6805849352
  0
ARC
  5
365
100
AcDbEntity
  8
0
100
AcDbCircle
 62
7
  6
CONTINUOUS
 10
11.3830837165
 20
12.2267856024
 40
1.1284157392
100
AcDbArc
 50
92.2031043223
 51
94.2094288075
  0
ARC
  5
366
100
AcDbEntity
  8
0
100
AcDbCircle
 62
9
  6
CONTINUOUS
 10
11.3823668881
 20
12.2297627396
 40
1.1254762034
100
AcDbArc
 50
342.0366805322
 51
342.9295412454
  0
ARC
  5
367
100
AcDbEntity
  8
0
100
AcDbCircle
 62
9
  6
CONTINUOUS
 10
11.3830452473
 20
12.2302405269
 40
1.1249500708
100
AcDbArc
 50
342.8961371756
 51
89.9265324935
  0
ARC
  5
368
100
AcDbEntity
  8
0
100
AcDbCircle
 62
9
  6
CONTINUOUS
 10
11.3841475048
 20
12.2291866238
 40
1.1236047056
100
AcDbArc
 50
341.3593789086
 51
342.0366232122
  0
ARC
  5
369
100
AcDbEntity
  8
0
100
AcDbCircle
 62
7
  6
CONTINUOUS
 10
11.3815571923
 20
12.2475417949
 40
1.1076034879
100
AcDbArc
 50
94.2094881089
 51
95.6831086397
  0
ARC
  5
36A
100
AcDbEntity
  8
0
100
AcDbCircle
 62
7
  6
CONTINUOUS
 10
11.4009980558
 20
2.8163780418
 40
0.8361093583
100
AcDbArc
 50
14.4029839887
 51
28.3471911471
  0
ARC
  5
36B
100
AcDbEntity
  8
0
100
AcDbCircle
 62
7
  6
CONTINUOUS
 10
11.4025494228
 20
2.8170553512
 40
0.83443832
100
AcDbArc
 50
0.0161649048
 51
14.3844355216
  0
ARC
  5
36C
100
AcDbEntity
  8
0
100
AcDbCircle
 62
7
  6
CONTINUOUS
 10
11.3844877096
 20
12.2301862558
 40
1.4245538829
100
AcDbArc
 50
312.4192199345
 51
227.5802155277
  0
ARC
  5
36D
100
AcDbEntity
  8
0
100
AcDbCircle
 62
7
  6
CONTINUOUS
 10
11.3844877096
 20
12.2301862558
 40
1.3264272236
100
AcDbArc
 50
317.8153015567
 51
222.1876181489
  0
ARC
  5
36E
100
AcDbEntity
  8
0
100
AcDbCircle
 62
7
  6
CONTINUOUS
 10
11.3844877096
 20
12.2301862558
 40
1.2263140426
100
AcDbArc
 50
325.2691298792
 51
214.7289635434
  0
ARC
  5
36F
100
AcDbEntity
  8
0
100
AcDbCircle
 62
9
  6
CONTINUOUS
 10
11.3844877096
 20
12.2301862558
 40
1.1431802725
100
AcDbArc
 50
336.8127590826
 51
203.1855237502
  0
ARC
  5
370
100
AcDbEntity
  8
0
100
AcDbCircle
 62
9
  6
CONTINUOUS
 10
11.386689653
 20
12.2297885404
 40
1.1255613281
100
AcDbArc
 50
196.9955535666
 51
197.963295263
  0
ARC
  5
371
100
AcDbEntity
  8
0
100
AcDbCircle
 62
9
  6
CONTINUOUS
 10
11.3859299312
 20
12.2302407507
 40
1.124949728
100
AcDbArc
 50
90.0734552631
 51
197.0288892701
  0
ARC
  5
372
100
AcDbEntity
  8
0
100
AcDbCircle
 62
9
  6
CONTINUOUS
 10
11.3848303052
 20
12.2291874092
 40
1.1236072221
100
AcDbArc
 50
197.9633772818
 51
198.6385975049
  0
ARC
  5
373
100
AcDbEntity
  8
0
100
AcDbCircle
 62
7
  6
CONTINUOUS
 10
11.3863853696
 20
12.2352576621
 40
1.1199301838
100
AcDbArc
 50
85.5889425874
 51
90.0965490364
  0
ARC
  5
374
100
AcDbEntity
  8
0
100
AcDbCircle
 62
7
  6
CONTINUOUS
 10
11.3873885702
 20
12.2485779375
 40
1.106572171
100
AcDbArc
 50
85.0052527428
 51
85.2756106016
  0
ARC
  5
375
100
AcDbEntity
  8
0
100
AcDbCircle
 62
7
  6
CONTINUOUS
 10
11.3878739224
 20
12.2547340705
 40
1.1003969792
100
AcDbArc
 50
85.2743956962
 51
85.5882232521
  0
ARC
  5
376
100
AcDbEntity
  8
0
100
AcDbCircle
 62
7
  6
CONTINUOUS
 10
15.3844877096
 20
11.7996862558
 40
0.26
100
AcDbArc
 50
76.015
 51
77.6805849352
  0
ARC
  5
377
100
AcDbEntity
  8
0
100
AcDbCircle
 62
7
  6
CONTINUOUS
 10
15.3844877096
 20
11.7996862558
 40
0.26
100
AcDbArc
 50
103.4298012508
 51
103.985
  0
ARC
  5
378
100
AcDbEntity
  8
0
100
AcDbCircle
 62
7
  6
CONTINUOUS
 10
15.3843151072
 20
12.2354750637
 40
0.2819600653
100
AcDbArc
 50
193.2331672361
 51
203.8398605011
  0
ARC
  5
379
100
AcDbEntity
  8
0
100
AcDbCircle
 62
7
  6
CONTINUOUS
 10
15.3826746188
 20
12.2347726196
 40
0.2801756312
100
AcDbArc
 50
203.8440619071
 51
204.5950786414
  0
ARC
  5
37A
100
AcDbEntity
  8
0
100
AcDbCircle
 62
7
  6
CONTINUOUS
 10
15.3816154708
 20
12.2343515074
 40
0.2790404308
100
AcDbArc
 50
208.3503402147
 51
224.0654163522
  0
ARC
  5
37B
100
AcDbEntity
  8
0
100
AcDbCircle
 62
7
  6
CONTINUOUS
 10
15.381365393
 20
12.2341651876
 40
0.2787323743
100
AcDbArc
 50
204.5935539001
 51
207.0421526775
  0
ARC
  5
37C
100
AcDbEntity
  8
0
100
AcDbCircle
 62
7
  6
CONTINUOUS
 10
15.380942199
 20
12.234660645
 40
0.278490288
100
AcDbArc
 50
190.0512408283
 51
193.2289114018
  0
ARC
  5
37D
100
AcDbEntity
  8
0
100
AcDbCircle
 62
7
  6
CONTINUOUS
 10
15.3804759889
 20
12.2337232087
 40
0.2777392631
100
AcDbArc
 50
207.044361172
 51
208.3478967422
  0
ARC
  5
37E
100
AcDbEntity
  8
0
100
AcDbCircle
 62
7
  6
CONTINUOUS
 10
15.3804739291
 20
12.2333847694
 40
0.2775478518
100
AcDbArc
 50
224.0859097603
 51
227.9015930531
  0
ARC
  5
37F
100
AcDbEntity
  8
0
100
AcDbCircle
 62
7
  6
CONTINUOUS
 10
15.3794533874
 20
12.2294495215
 40
0.273432052
100
AcDbArc
 50
275.2385745403
 51
292.3298807633
  0
ARC
  5
380
100
AcDbEntity
  8
0
100
AcDbCircle
 62
7
  6
CONTINUOUS
 10
15.3798332416
 20
12.2281163151
 40
0.2720545435
100
AcDbArc
 50
292.3625595641
 51
307.6408667431
  0
ARC
  5
381
100
AcDbEntity
  8
0
100
AcDbCircle
 62
7
  6
CONTINUOUS
 10
15.3815409502
 20
12.2258023058
 40
0.2691792774
100
AcDbArc
 50
307.653836468
 51
309.5016612925
  0
ARC
  5
382
100
AcDbEntity
  8
0
100
AcDbCircle
 62
7
  6
CONTINUOUS
 10
15.3844684426
 20
12.2293834557
 40
0.2549326108
100
AcDbArc
 50
102.9849256471
 51
108.8750250501
  0
ARC
  5
383
100
AcDbEntity
  8
0
100
AcDbCircle
 62
7
  6
CONTINUOUS
 10
15.384282871
 20
12.2300230538
 40
0.2541399584
100
AcDbArc
 50
134.5673941911
 51
136.2884005046
  0
ARC
  5
384
100
AcDbEntity
  8
0
100
AcDbCircle
 62
7
  6
CONTINUOUS
 10
15.3844198586
 20
12.2301474255
 40
0.2541280228
100
AcDbArc
 50
171.9412822341
 51
176.578508295
  0
ARC
  5
385
100
AcDbEntity
  8
0
100
AcDbCircle
 62
7
  6
CONTINUOUS
 10
15.3843822917
 20
12.2302629713
 40
0.2540605586
100
AcDbArc
 50
150.8267503863
 51
154.223444339
  0
ARC
  5
386
100
AcDbEntity
  8
0
100
AcDbCircle
 62
7
  6
CONTINUOUS
 10
15.3839921511
 20
12.2303235335
 40
0.2536758369
100
AcDbArc
 50
160.1659121293
 51
166.9613013732
  0
ARC
  5
387
100
AcDbEntity
  8
0
100
AcDbCircle
 62
7
  6
CONTINUOUS
 10
15.3843769328
 20
12.2309291243
 40
0.2534687726
100
AcDbArc
 50
117.4127662317
 51
119.0629115199
  0
ARC
  5
388
100
AcDbEntity
  8
0
100
AcDbCircle
 62
7
  6
CONTINUOUS
 10
15.3834511127
 20
12.2310546962
 40
0.2528434922
100
AcDbArc
 50
138.0159337552
 51
143.1893497757
  0
ARC
  5
389
100
AcDbEntity
  8
0
100
AcDbCircle
 62
7
  6
CONTINUOUS
 10
15.3837881205
 20
12.2320639707
 40
0.2521902671
100
AcDbArc
 50
115.8370239192
 51
117.4127172208
  0
ARC
  5
38A
100
AcDbEntity
  8
0
100
AcDbCircle
 62
7
  6
CONTINUOUS
 10
15.3834880427
 20
12.2323449464
 40
0.2518132076
100
AcDbArc
 50
108.8819367356
 51
111.3733665374
  0
ARC
  5
38B
100
AcDbEntity
  8
0
100
AcDbCircle
 62
7
  6
CONTINUOUS
 10
15.3817537178
 20
12.2293129652
 40
0.2513195173
100
AcDbArc
 50
197.3988848436
 51
203.3280172491
  0
ARC
  5
38C
100
AcDbEntity
  8
0
100
AcDbCircle
 62
7
  6
CONTINUOUS
 10
15.3812799395
 20
12.2303388514
 40
0.2509822761
100
AcDbArc
 50
176.5793510688
 51
180.03483545
  0
ARC
  5
38D
100
AcDbEntity
  8
0
100
AcDbCircle
 62
7
  6
CONTINUOUS
 10
15.3820042123
 20
12.2275635269
 40
0.2505780368
100
AcDbArc
 50
223.3025848281
 51
226.3424803144
  0
ARC
  5
38E
100
AcDbEntity
  8
0
100
AcDbCircle
 62
7
  6
CONTINUOUS
 10
15.3829045605
 20
12.2338920203
 40
0.2501598874
100
AcDbArc
 50
111.3780545326
 51
115.8373561145
  0
ARC
  5
38F
100
AcDbEntity
  8
0
100
AcDbCircle
 62
7
  6
CONTINUOUS
 10
15.3806355095
 20
12.2335296974
 40
0.2490949837
100
AcDbArc
 50
136.2903427104
 51
138.0058867893
  0
ARC
  5
390
100
AcDbEntity
  8
0
100
AcDbCircle
 62
7
  6
CONTINUOUS
 10
15.3843750827
 20
12.2301631035
 40
0.1519446111
100
AcDbArc
 50
195.4431715043
 51
196.8425742497
  0
ARC
  5
391
100
AcDbEntity
  8
0
100
AcDbCircle
 62
7
  6
CONTINUOUS
 10
15.3806887259
 20
12.22681503
 40
0.1517175702
100
AcDbArc
 50
116.956761022
 51
130.2691737888
  0
ARC
  5
392
100
AcDbEntity
  8
0
100
AcDbCircle
 62
7
  6
CONTINUOUS
 10
15.3840940222
 20
12.2303305481
 40
0.1516809731
100
AcDbArc
 50
128.6921168933
 51
131.9992907331
  0
ARC
  5
393
100
AcDbEntity
  8
0
100
AcDbCircle
 62
7
  6
CONTINUOUS
 10
15.3840607855
 20
12.2299737731
 40
0.1515839202
100
AcDbArc
 50
200.9943243738
 51
213.3354989494
  0
ARC
  5
394
100
AcDbEntity
  8
0
100
AcDbCircle
 62
7
  6
CONTINUOUS
 10
15.3841152652
 20
12.2295249442
 40
0.1513305505
100
AcDbArc
 50
218.6449495834
 51
226.3390568457
  0
ARC
  5
395
100
AcDbEntity
  8
0
100
AcDbCircle
 62
7
  6
CONTINUOUS
 10
15.383490629
 20
12.2305551229
 40
0.1510021483
100
AcDbArc
 50
148.7561147461
 51
166.4947092233
  0
ARC
  5
396
100
AcDbEntity
  8
0
100
AcDbCircle
 62
7
  6
CONTINUOUS
 10
15.3840738595
 20
12.2313562457
 40
0.1508254044
100
AcDbArc
 50
98.3621016404
 51
102.2633793862
  0
ARC
  5
397
100
AcDbEntity
  8
0
100
AcDbCircle
 62
7
  6
CONTINUOUS
 10
15.3842242103
 20
12.2315182272
 40
0.15070691
100
AcDbArc
 50
108.3681165208
 51
109.4280736358
  0
ARC
  5
398
100
AcDbEntity
  8
0
100
AcDbCircle
 62
7
  6
CONTINUOUS
 10
15.3798263839
 20
12.2277143919
 40
0.1504771026
100
AcDbArc
 50
130.2660588403
 51
134.4389986713
  0
ARC
  5
399
100
AcDbEntity
  8
0
100
AcDbCircle
 62
7
  6
CONTINUOUS
 10
15.3822288062
 20
12.2297312528
 40
0.1497542422
100
AcDbArc
 50
190.3723289815
 51
199.4465147665
  0
ARC
  5
39A
100
AcDbEntity
  8
0
100
AcDbCircle
 62
7
  6
CONTINUOUS
 10
15.3827209747
 20
12.2318463593
 40
0.1496357579
100
AcDbArc
 50
131.9969462883
 51
136.338432292
  0
ARC
  5
39B
100
AcDbEntity
  8
0
100
AcDbCircle
 62
7
  6
CONTINUOUS
 10
15.3796552217
 20
12.2287808237
 40
0.1494968591
100
AcDbArc
 50
115.9557599448
 51
116.9452314283
  0
ARC
  5
39C
100
AcDbEntity
  8
0
100
AcDbCircle
 62
7
  6
CONTINUOUS
 10
15.3795821515
 20
12.2289620465
 40
0.1492976557
100
AcDbArc
 50
95.7346499675
 51
114.1101521105
  0
ARC
  5
39D
100
AcDbEntity
  8
0
100
AcDbCircle
 62
7
  6
CONTINUOUS
 10
15.3837673354
 20
12.2329073305
 40
0.1492446086
100
AcDbArc
 50
102.2748696263
 51
108.3697050367
  0
ARC
  5
39E
100
AcDbEntity
  8
0
100
AcDbCircle
 62
7
  6
CONTINUOUS
 10
15.3824276364
 20
12.2279979423
 40
0.1490546372
100
AcDbArc
 50
221.9705833423
 51
226.3378147924
  0
ARC
  5
39F
100
AcDbEntity
  8
0
100
AcDbCircle
 62
7
  6
CONTINUOUS
 10
15.3812864857
 20
12.2294742253
 40
0.1487810676
100
AcDbArc
 50
189.3230476365
 51
190.3403008534
  0
ARC
  5
3A0
100
AcDbEntity
  8
0
100
AcDbCircle
 62
7
  6
CONTINUOUS
 10
15.3793136277
 20
12.2294843844
 40
0.1487147581
100
AcDbArc
 50
114.1161785571
 51
115.9556581035
  0
ARC
  5
3A1
100
AcDbEntity
  8
0
100
AcDbCircle
 62
7
  6
CONTINUOUS
 10
15.3811400531
 20
12.2299894606
 40
0.1487115389
100
AcDbArc
 50
179.9250172349
 51
183.0114816258
  0
ARC
  5
3A2
100
AcDbEntity
  8
0
100
AcDbCircle
 62
7
  6
CONTINUOUS
 10
15.3794029629
 20
12.229677094
 40
0.1485683204
100
AcDbArc
 50
84.7263487258
 51
95.6934455718
  0
ARC
  5
3A3
100
AcDbEntity
  8
0
100
AcDbCircle
 62
7
  6
CONTINUOUS
 10
15.3796929458
 20
12.2318383318
 40
0.1463896056
100
AcDbArc
 50
61.8169515495
 51
84.7616172313
  0
ARC
  5
3A4
100
AcDbEntity
  8
0
100
AcDbCircle
 62
7
  6
CONTINUOUS
 10
15.3801398352
 20
12.2329179941
 40
0.145241172
100
AcDbArc
 50
46.5474016106
 51
50.9927194825
  0
ARC
  5
3A5
100
AcDbEntity
  8
0
100
AcDbCircle
 62
7
  6
CONTINUOUS
 10
15.3805636293
 20
12.233450407
 40
0.1445607081
100
AcDbArc
 50
50.990422679
 51
61.8119801662
  0
ARC
  5
3A6
100
AcDbEntity
  8
0
100
AcDbCircle
 62
7
  6
CONTINUOUS
 10
15.3807169161
 20
12.2335104949
 40
0.1444141605
100
AcDbArc
 50
38.8649846533
 51
46.5519376973
  0
ARC
  5
3A7
100
AcDbEntity
  8
0
100
AcDbCircle
 62
7
  6
CONTINUOUS
 10
15.3821165197
 20
12.2346809843
 40
0.1425899283
100
AcDbArc
 50
23.5761072998
 51
38.8516679176
  0
ARC
  5
3A8
100
AcDbEntity
  8
0
100
AcDbCircle
 62
7
  6
CONTINUOUS
 10
15.3832338104
 20
12.2351043802
 40
0.1414017096
100
AcDbArc
 50
358.8249565395
 51
23.5763054598
  0
ARC
  5
3A9
100
AcDbEntity
  8
0
100
AcDbCircle
 62
7
  6
CONTINUOUS
 10
15.3843278094
 20
12.21145521
 40
0.1379396272
100
AcDbArc
 50
169.5794680955
 51
186.2818289035
  0
ARC
  5
3AA
100
AcDbEntity
  8
0
100
AcDbCircle
 62
7
  6
CONTINUOUS
 10
15.2644883518
 20
12.1201861971
 40
0.08
100
AcDbArc
 50
166.2859999999
 51
283.9850000001
  0
ARC
  5
3AB
100
AcDbEntity
  8
0
100
AcDbCircle
 62
7
  6
CONTINUOUS
 10
15.2644883518
 20
12.1201861971
 40
0.04
100
AcDbArc
 50
166.286
 51
284.565374163
  0
CIRCLE
  5
3AC
100
AcDbEntity
  8
0
100
AcDbCircle
 62
6
  6
CONTINUOUS
 10
15.1946377096
 20
12.2301862558
 40
0.02165
  0
ARC
  5
3AD
100
AcDbEntity
  8
0
100
AcDbCircle
 62
7
  6
CONTINUOUS
 10
15.3829555049
 20
12.2489965409
 40
0.2685397923
100
AcDbArc
 50
180.6941350901
 51
193.078185051
  0
ARC
  5
3AE
100
AcDbEntity
  8
0
100
AcDbCircle
 62
7
  6
CONTINUOUS
 10
15.3792875455
 20
12.2481638966
 40
0.2647815815
100
AcDbArc
 50
193.0875803435
 51
197.2158985141
  0
ARC
  5
3AF
100
AcDbEntity
  8
0
100
AcDbCircle
 62
7
  6
CONTINUOUS
 10
15.3763494656
 20
12.2471790956
 40
0.2616836735
100
AcDbArc
 50
197.2003342875
 51
213.8350178011
  0
ARC
  5
3B0
100
AcDbEntity
  8
0
100
AcDbCircle
 62
7
  6
CONTINUOUS
 10
15.3734682071
 20
12.2455159684
 40
0.2583644338
100
AcDbArc
 50
213.8844327584
 51
223.9430225783
  0
ARC
  5
3B1
100
AcDbEntity
  8
0
100
AcDbCircle
 62
7
  6
CONTINUOUS
 10
15.3721003454
 20
12.2442137919
 40
0.2564758964
100
AcDbArc
 50
223.945616475
 51
225.5990425027
  0
ARC
  5
3B2
100
AcDbEntity
  8
0
100
AcDbCircle
 62
7
  6
CONTINUOUS
 10
15.3701037765
 20
12.2421521344
 40
0.2536059731
100
AcDbArc
 50
225.5954231405
 51
230.5667409216
  0
ARC
  5
3B3
100
AcDbEntity
  8
0
100
AcDbCircle
 62
7
  6
CONTINUOUS
 10
15.1984150571
 20
12.3555979817
 40
0.08
100
AcDbArc
 50
17.1598715463
 51
36.2859999995
  0
ARC
  5
3B4
100
AcDbEntity
  8
0
100
AcDbCircle
 62
7
  6
CONTINUOUS
 10
15.1984150571
 20
12.3555979816
 40
0.04
100
AcDbArc
 50
346.2860000024
 51
36.2859999981
  0
CIRCLE
  5
3B5
100
AcDbEntity
  8
0
100
AcDbCircle
 62
6
  6
CONTINUOUS
 10
15.3844877096
 20
12.2301862558
 40
1.17
  0
CIRCLE
  5
3B6
100
AcDbEntity
  8
0
100
AcDbCircle
 62
9
  6
CONTINUOUS
 10
15.3844877096
 20
12.2301862558
 40
1.1043717104
  0
CIRCLE
  5
3B7
100
AcDbEntity
  8
0
100
AcDbCircle
 62
9
  6
CONTINUOUS
 10
15.3844877096
 20
12.2301862558
 40
1.0719223696
  0
CIRCLE
  5
3B8
100
AcDbEntity
  8
0
100
AcDbCircle
 62
9
  6
CONTINUOUS
 10
15.3844877096
 20
12.2301862558
 40
1.0407459276
  0
CIRCLE
  5
3B9
100
AcDbEntity
  8
0
100
AcDbCircle
 62
9
  6
CONTINUOUS
 10
15.3844877096
 20
12.2301862558
 40
1.0164705063
  0
CIRCLE
  5
3BA
100
AcDbEntity
  8
0
100
AcDbCircle
 62
9
  6
CONTINUOUS
 10
15.3844877096
 20
12.2301862558
 40
0.9793435571
  0
CIRCLE
  5
3BB
100
AcDbEntity
  8
0
100
AcDbCircle
 62
9
  6
CONTINUOUS
 10
15.3844877096
 20
12.2301862558
 40
0.9519481536
  0
CIRCLE
  5
3BC
100
AcDbEntity
  8
0
100
AcDbCircle
 62
9
  6
CONTINUOUS
 10
15.3844877096
 20
12.2301862558
 40
0.9418237702
  0
CIRCLE
  5
3BD
100
AcDbEntity
  8
0
100
AcDbCircle
 62
7
  6
CONTINUOUS
 10
15.3844877096
 20
12.2301862558
 40
0.9375
  0
ARC
  5
3BE
100
AcDbEntity
  8
0
100
AcDbCircle
 62
7
  6
CONTINUOUS
 10
15.3844877096
 20
12.2301862558
 40
0.8200135725
100
AcDbArc
 50
298.9547827747
 51
301.0444922032
  0
ARC
  5
3BF
100
AcDbEntity
  8
0
100
AcDbCircle
 62
7
  6
CONTINUOUS
 10
15.3844877096
 20
12.2301862558
 40
0.8200135722
100
AcDbArc
 50
358.9555077969
 51
1.0452172253
  0
ARC
  5
3C0
100
AcDbEntity
  8
0
100
AcDbCircle
 62
7
  6
CONTINUOUS
 10
15.3844877096
 20
12.2301862558
 40
0.8199998001
100
AcDbArc
 50
178.9550243718
 51
181.0458106345
  0
ARC
  5
3C1
100
AcDbEntity
  8
0
100
AcDbCircle
 62
7
  6
CONTINUOUS
 10
15.3844877096
 20
12.2301862558
 40
0.8199998001
100
AcDbArc
 50
118.9541893654
 51
121.0449756281
  0
ARC
  5
3C2
100
AcDbEntity
  8
0
100
AcDbCircle
 62
7
  6
CONTINUOUS
 10
15.3844877096
 20
12.2301862558
 40
0.8199975124
100
AcDbArc
 50
238.9552412492
 51
241.0451284583
  0
ARC
  5
3C3
100
AcDbEntity
  8
0
100
AcDbCircle
 62
7
  6
CONTINUOUS
 10
15.3844877096
 20
12.2301862558
 40
0.8199975124
100
AcDbArc
 50
58.9548715417
 51
61.0447587509
  0
CIRCLE
  5
3C4
100
AcDbEntity
  8
0
100
AcDbCircle
 62
6
  6
CONTINUOUS
 10
15.3844877096
 20
12.2301862558
 40
0.8187389754
  0
CIRCLE
  5
3C5
100
AcDbEntity
  8
0
100
AcDbCircle
 62
9
  6
CONTINUOUS
 10
15.3844877096
 20
12.2301862558
 40
0.7877475635
  0
CIRCLE
  5
3C6
100
AcDbEntity
  8
0
100
AcDbCircle
 62
9
  6
CONTINUOUS
 10
15.3844877096
 20
12.2301862558
 40
0.5244951005
  0
CIRCLE
  5
3C7
100
AcDbEntity
  8
0
100
AcDbCircle
 62
9
  6
CONTINUOUS
 10
15.3844877096
 20
12.2301862558
 40
0.4346655436
  0
CIRCLE
  5
3C8
100
AcDbEntity
  8
0
100
AcDbCircle
 62
9
  6
CONTINUOUS
 10
15.3844877096
 20
12.2301862558
 40
0.4098651671
  0
CIRCLE
  5
3C9
100
AcDbEntity
  8
0
100
AcDbCircle
 62
9
  6
CONTINUOUS
 10
15.3844877096
 20
12.2301862558
 40
0.3330477656
  0
CIRCLE
  5
3CA
100
AcDbEntity
  8
0
100
AcDbCircle
 62
6
  6
CONTINUOUS
 10
15.3844877096
 20
12.2301862558
 40
0.3041988751
  0
ARC
  5
3CB
100
AcDbEntity
  8
0
100
AcDbCircle
 62
7
  6
CONTINUOUS
 10
15.3844877096
 20
12.2301862558
 40
0.281247435
100
AcDbArc
 50
203.582541421
 51
189.0273869001
  0
ARC
  5
3CC
100
AcDbEntity
  8
0
100
AcDbCircle
 62
7
  6
CONTINUOUS
 10
15.3860943286
 20
12.2253465304
 40
0.2646246585
100
AcDbArc
 50
1.5803579534
 51
35.0077510526
  0
ARC
  5
3CD
100
AcDbEntity
  8
0
100
AcDbCircle
 62
7
  6
CONTINUOUS
 10
15.3874618069
 20
12.2260793343
 40
0.263075846
100
AcDbArc
 50
36.1647383433
 51
46.6625024689
  0
ARC
  5
3CE
100
AcDbEntity
  8
0
100
AcDbCircle
 62
7
  6
CONTINUOUS
 10
15.3886964085
 20
12.2252704962
 40
0.2620329226
100
AcDbArc
 50
1.074936699
 51
1.612668699
  0
ARC
  5
3CF
100
AcDbEntity
  8
0
100
AcDbCircle
 62
7
  6
CONTINUOUS
 10
15.3884872229
 20
12.2267850805
 40
0.2618366918
100
AcDbArc
 50
35.0503105776
 51
36.1580813834
  0
ARC
  5
3D0
100
AcDbEntity
  8
0
100
AcDbCircle
 62
7
  6
CONTINUOUS
 10
15.3885234012
 20
12.2272294975
 40
0.2615107393
100
AcDbArc
 50
46.6587279124
 51
52.0429593339
  0
ARC
  5
3D1
100
AcDbEntity
  8
0
100
AcDbCircle
 62
7
  6
CONTINUOUS
 10
15.388614126
 20
12.2271887148
 40
0.2614886409
100
AcDbArc
 50
55.9892122901
 51
57.0405382927
  0
ARC
  5
3D2
100
AcDbEntity
  8
0
100
AcDbCircle
 62
7
  6
CONTINUOUS
 10
15.3890983438
 20
12.2278937379
 40
0.2606333778
100
AcDbArc
 50
52.052801592
 51
55.9907576716
  0
ARC
  5
3D3
100
AcDbEntity
  8
0
100
AcDbCircle
 62
7
  6
CONTINUOUS
 10
15.3849373512
 20
12.227335084
 40
0.2570339654
100
AcDbArc
 50
94.3853656815
 51
102.9841811181
  0
ARC
  5
3D4
100
AcDbEntity
  8
0
100
AcDbCircle
 62
7
  6
CONTINUOUS
 10
15.3868179367
 20
12.2316558673
 40
0.2569046204
100
AcDbArc
 50
209.0880689776
 51
214.9469135028
  0
ARC
  5
3D5
100
AcDbEntity
  8
0
100
AcDbCircle
 62
7
  6
CONTINUOUS
 10
15.3861294738
 20
12.2280344358
 40
0.2568546223
100
AcDbArc
 50
125.3444233761
 51
128.8859538115
  0
ARC
  5
3D6
100
AcDbEntity
  8
0
100
AcDbCircle
 62
7
  6
CONTINUOUS
 10
15.3894904407
 20
12.2320098531
 40
0.2566053783
100
AcDbArc
 50
124.4724492532
 51
130.2503881535
  0
ARC
  5
3D7
100
AcDbEntity
  8
0
100
AcDbCircle
 62
7
  6
CONTINUOUS
 10
15.3857258087
 20
12.228617227
 40
0.2561457295
100
AcDbArc
 50
120.5090876311
 51
125.3461845948
  0
ARC
  5
3D8
100
AcDbEntity
  8
0
100
AcDbCircle
 62
7
  6
CONTINUOUS
 10
15.3856733722
 20
12.2285786258
 40
0.2561447878
100
AcDbArc
 50
128.883769405
 51
134.5622504246
  0
ARC
  5
3D9
100
AcDbEntity
  8
0
100
AcDbCircle
 62
7
  6
CONTINUOUS
 10
15.3860032926
 20
12.2311959649
 40
0.2559691415
100
AcDbArc
 50
206.1968644876
 51
209.0867585106
  0
ARC
  5
3DA
100
AcDbEntity
  8
0
100
AcDbCircle
 62
7
  6
CONTINUOUS
 10
15.3890598031
 20
12.2326366084
 40
0.255844937
100
AcDbArc
 50
122.8662142882
 51
124.4723894099
  0
ARC
  5
3DB
100
AcDbEntity
  8
0
100
AcDbCircle
 62
7
  6
CONTINUOUS
 10
15.3889808609
 20
12.2325818914
 40
0.2558401933
100
AcDbArc
 50
130.2503155799
 51
132.8770174815
  0
ARC
  5
3DC
100
AcDbEntity
  8
0
100
AcDbCircle
 62
7
  6
CONTINUOUS
 10
15.3858291815
 20
12.2302698822
 40
0.2554948349
100
AcDbArc
 50
179.9895080762
 51
197.3303707314
  0
ARC
  5
3DD
100
AcDbEntity
  8
0
100
AcDbCircle
 62
7
  6
CONTINUOUS
 10
15.3852660472
 20
12.2305412229
 40
0.2549940764
100
AcDbArc
 50
214.9413621611
 51
223.2868248953
  0
ARC
  5
3DE
100
AcDbEntity
  8
0
100
AcDbCircle
 62
7
  6
CONTINUOUS
 10
15.3851127113
 20
12.2300694479
 40
0.2548248308
100
AcDbArc
 50
166.9624871637
 51
171.943865567
  0
ARC
  5
3DF
100
AcDbEntity
  8
0
100
AcDbCircle
 62
7
  6
CONTINUOUS
 10
15.3849887521
 20
12.2299784194
 40
0.2547304153
100
AcDbArc
 50
154.2251288033
 51
160.1689492564
  0
ARC
  5
3E0
100
AcDbEntity
  8
0
100
AcDbCircle
 62
7
  6
CONTINUOUS
 10
15.3848897884
 20
12.2300048181
 40
0.2545258261
100
AcDbArc
 50
119.0627495367
 51
120.5055248984
  0
ARC
  5
3E1
100
AcDbEntity
  8
0
100
AcDbCircle
 62
7
  6
CONTINUOUS
 10
15.388281874
 20
12.2338154872
 40
0.2544334045
100
AcDbArc
 50
116.8896192661
 51
122.8672166921
  0
ARC
  5
3E2
100
AcDbEntity
  8
0
100
AcDbCircle
 62
7
  6
CONTINUOUS
 10
15.3846899534
 20
12.2301117732
 40
0.2544003066
100
AcDbArc
 50
143.1865021495
 51
150.8203087972
  0
ARC
  5
3E3
100
AcDbEntity
  8
0
100
AcDbCircle
 62
7
  6
CONTINUOUS
 10
15.3844877096
 20
12.2301862558
 40
0.2541888916
100
AcDbArc
 50
180.0008203523
 51
226.3455600411
  0
ARC
  5
3E4
100
AcDbEntity
  8
0
100
AcDbCircle
 62
7
  6
CONTINUOUS
 10
15.3858246619
 20
12.2357979148
 40
0.2513329423
100
AcDbArc
 50
135.9341289398
 51
137.4816299165
  0
ARC
  5
3E5
100
AcDbEntity
  8
0
100
AcDbCircle
 62
7
  6
CONTINUOUS
 10
15.3844877096
 20
12.2301862558
 40
0.2512500119
100
AcDbArc
 50
54.6792532673
 51
125.3207467327
  0
ARC
  5
3E6
100
AcDbEntity
  8
0
100
AcDbCircle
 62
7
  6
CONTINUOUS
 10
15.3844877096
 20
12.2301862558
 40
0.2512493449
100
AcDbArc
 50
134.4703125157
 51
45.5296874843
  0
ARC
  5
3E7
100
AcDbEntity
  8
0
100
AcDbCircle
 62
7
  6
CONTINUOUS
 10
15.3844877096
 20
12.2301862558
 40
0.185
100
AcDbArc
 50
83.6164833423
 51
96.3837756086
  0
ARC
  5
3E8
100
AcDbEntity
  8
0
100
AcDbCircle
 62
7
  6
CONTINUOUS
 10
15.3844877096
 20
12.2301862558
 40
0.185
100
AcDbArc
 50
263.6164833423
 51
276.3837756086
  0
ARC
  5
3E9
100
AcDbEntity
  8
0
100
AcDbCircle
 62
7
  6
CONTINUOUS
 10
15.3844877096
 20
12.2301862558
 40
0.185
100
AcDbArc
 50
331.1334984949
 51
353.334942153
  0
ARC
  5
3EA
100
AcDbEntity
  8
0
100
AcDbCircle
 62
7
  6
CONTINUOUS
 10
15.3844877096
 20
12.2301862558
 40
0.185
100
AcDbArc
 50
299.1665988874
 51
330.8326273455
  0
ARC
  5
3EB
100
AcDbEntity
  8
0
100
AcDbCircle
 62
7
  6
CONTINUOUS
 10
15.3844877096
 20
12.2301862558
 40
0.185
100
AcDbArc
 50
276.6662283411
 51
298.8701079191
  0
ARC
  5
3EC
100
AcDbEntity
  8
0
100
AcDbCircle
 62
7
  6
CONTINUOUS
 10
15.3844877096
 20
12.2301862558
 40
0.185
100
AcDbArc
 50
241.1297178775
 51
263.333434758
  0
ARC
  5
3ED
100
AcDbEntity
  8
0
100
AcDbCircle
 62
7
  6
CONTINUOUS
 10
15.3844877096
 20
12.2301862558
 40
0.185
100
AcDbArc
 50
209.1809180354
 51
240.8349035332
  0
ARC
  5
3EE
100
AcDbEntity
  8
0
100
AcDbCircle
 62
7
  6
CONTINUOUS
 10
15.3844877096
 20
12.2301862558
 40
0.185
100
AcDbArc
 50
186.6665846093
 51
208.866820277
  0
ARC
  5
3EF
100
AcDbEntity
  8
0
100
AcDbCircle
 62
7
  6
CONTINUOUS
 10
15.3844877096
 20
12.2301862558
 40
0.185
100
AcDbArc
 50
119.1650964668
 51
150.8190819646
  0
ARC
  5
3F0
100
AcDbEntity
  8
0
100
AcDbCircle
 62
7
  6
CONTINUOUS
 10
15.3844877096
 20
12.2301862558
 40
0.185
100
AcDbArc
 50
96.6665652421
 51
118.8701079191
  0
ARC
  5
3F1
100
AcDbEntity
  8
0
100
AcDbCircle
 62
7
  6
CONTINUOUS
 10
15.3844877096
 20
12.2301862558
 40
0.185
100
AcDbArc
 50
61.1297178775
 51
83.333771659
  0
ARC
  5
3F2
100
AcDbEntity
  8
0
100
AcDbCircle
 62
7
  6
CONTINUOUS
 10
15.3844877096
 20
12.2301862558
 40
0.185
100
AcDbArc
 50
29.1673726545
 51
60.8334011125
  0
ARC
  5
3F3
100
AcDbEntity
  8
0
100
AcDbCircle
 62
7
  6
CONTINUOUS
 10
15.3844877096
 20
12.2301862558
 40
0.185
100
AcDbArc
 50
6.665057847
 51
28.866820277
  0
ARC
  5
3F4
100
AcDbEntity
  8
0
100
AcDbCircle
 62
7
  6
CONTINUOUS
 10
15.3844877096
 20
12.2301862558
 40
0.185
100
AcDbArc
 50
151.1334984949
 51
173.3334153907
  0
ARC
  5
3F5
100
AcDbEntity
  8
0
100
AcDbCircle
 62
7
  6
CONTINUOUS
 10
15.3844877096
 20
12.2301862558
 40
0.1635
100
AcDbArc
 50
334.1260218922
 51
340.8739781078
  0
ARC
  5
3F6
100
AcDbEntity
  8
0
100
AcDbCircle
 62
7
  6
CONTINUOUS
 10
15.3844877096
 20
12.2301862558
 40
0.1635
100
AcDbArc
 50
311.6260218921
 51
318.3739781079
  0
ARC
  5
3F7
100
AcDbEntity
  8
0
100
AcDbCircle
 62
7
  6
CONTINUOUS
 10
15.3844877096
 20
12.2301862558
 40
0.1635
100
AcDbArc
 50
289.1260218923
 51
295.8739781078
  0
ARC
  5
3F8
100
AcDbEntity
  8
0
100
AcDbCircle
 62
7
  6
CONTINUOUS
 10
15.3844877096
 20
12.2301862558
 40
0.1635
100
AcDbArc
 50
266.6260218922
 51
273.3739781078
  0
ARC
  5
3F9
100
AcDbEntity
  8
0
100
AcDbCircle
 62
7
  6
CONTINUOUS
 10
15.3844877096
 20
12.2301862558
 40
0.1635
100
AcDbArc
 50
244.1260218922
 51
250.8739781077
  0
ARC
  5
3FA
100
AcDbEntity
  8
0
100
AcDbCircle
 62
7
  6
CONTINUOUS
 10
15.3844877096
 20
12.2301862558
 40
0.1635
100
AcDbArc
 50
221.6260218922
 51
228.3739781079
  0
ARC
  5
3FB
100
AcDbEntity
  8
0
100
AcDbCircle
 62
7
  6
CONTINUOUS
 10
15.3844877096
 20
12.2301862558
 40
0.1635
100
AcDbArc
 50
199.1260218922
 51
205.8739781078
  0
ARC
  5
3FC
100
AcDbEntity
  8
0
100
AcDbCircle
 62
7
  6
CONTINUOUS
 10
15.3844877096
 20
12.2301862558
 40
0.1635
100
AcDbArc
 50
131.6260218921
 51
138.3739781078
  0
ARC
  5
3FD
100
AcDbEntity
  8
0
100
AcDbCircle
 62
7
  6
CONTINUOUS
 10
15.3844877096
 20
12.2301862558
 40
0.1635
100
AcDbArc
 50
109.1260218923
 51
115.8739781078
  0
ARC
  5
3FE
100
AcDbEntity
  8
0
100
AcDbCircle
 62
7
  6
CONTINUOUS
 10
15.3844877096
 20
12.2301862558
 40
0.1635
100
AcDbArc
 50
86.6260218921
 51
93.3739781078
  0
ARC
  5
3FF
100
AcDbEntity
  8
0
100
AcDbCircle
 62
7
  6
CONTINUOUS
 10
15.3844877096
 20
12.2301862558
 40
0.1635
100
AcDbArc
 50
64.1260218922
 51
70.8739781077
  0
ARC
  5
400
100
AcDbEntity
  8
0
100
AcDbCircle
 62
7
  6
CONTINUOUS
 10
15.3844877096
 20
12.2301862558
 40
0.1635
100
AcDbArc
 50
41.6260218921
 51
48.3739781079
  0
ARC
  5
401
100
AcDbEntity
  8
0
100
AcDbCircle
 62
7
  6
CONTINUOUS
 10
15.3844877096
 20
12.2301862558
 40
0.1635
100
AcDbArc
 50
19.1260218922
 51
25.8739781078
  0
ARC
  5
402
100
AcDbEntity
  8
0
100
AcDbCircle
 62
7
  6
CONTINUOUS
 10
15.3844877096
 20
12.2301862558
 40
0.1635
100
AcDbArc
 50
356.6260218922
 51
3.3739781078
  0
ARC
  5
403
100
AcDbEntity
  8
0
100
AcDbCircle
 62
7
  6
CONTINUOUS
 10
15.3844877096
 20
12.2301862558
 40
0.1635
100
AcDbArc
 50
176.6260218922
 51
183.3739781078
  0
ARC
  5
404
100
AcDbEntity
  8
0
100
AcDbCircle
 62
7
  6
CONTINUOUS
 10
15.3844877096
 20
12.2301862558
 40
0.1635
100
AcDbArc
 50
154.1260218922
 51
160.8739781078
  0
ARC
  5
405
100
AcDbEntity
  8
0
100
AcDbCircle
 62
7
  6
CONTINUOUS
 10
15.3844877096
 20
12.2301862558
 40
0.1549989873
100
AcDbArc
 50
0.0
 51
358.9949702111
  0
ARC
  5
406
100
AcDbEntity
  8
0
100
AcDbCircle
 62
7
  6
CONTINUOUS
 10
15.3857801531
 20
12.2309712397
 40
0.1535158197
100
AcDbArc
 50
199.4416294536
 51
218.6279587053
  0
ARC
  5
407
100
AcDbEntity
  8
0
100
AcDbCircle
 62
7
  6
CONTINUOUS
 10
15.3857260128
 20
12.2299732618
 40
0.153298451
100
AcDbArc
 50
169.5102263388
 51
179.9203927599
  0
ARC
  5
408
100
AcDbEntity
  8
0
100
AcDbCircle
 62
7
  6
CONTINUOUS
 10
15.3847749755
 20
12.2294874901
 40
0.1527646817
100
AcDbArc
 50
112.4427898452
 51
128.6937933722
  0
ARC
  5
409
100
AcDbEntity
  8
0
100
AcDbCircle
 62
7
  6
CONTINUOUS
 10
15.3849591135
 20
12.2299441707
 40
0.1525682552
100
AcDbArc
 50
136.4019379203
 51
148.7530755953
  0
ARC
  5
40A
100
AcDbEntity
  8
0
100
AcDbCircle
 62
7
  6
CONTINUOUS
 10
15.3847605005
 20
12.230431607
 40
0.1524201075
100
AcDbArc
 50
213.3347408934
 51
221.8549356791
  0
ARC
  5
40B
100
AcDbEntity
  8
0
100
AcDbCircle
 62
7
  6
CONTINUOUS
 10
15.3847379152
 20
12.2302626459
 40
0.1522832488
100
AcDbArc
 50
166.497303692
 51
169.5070372084
  0
ARC
  5
40C
100
AcDbEntity
  8
0
100
AcDbCircle
 62
7
  6
CONTINUOUS
 10
15.3846808256
 20
12.2302589544
 40
0.1522650112
100
AcDbArc
 50
196.8437604864
 51
201.0040323043
  0
ARC
  5
40D
100
AcDbEntity
  8
0
100
AcDbCircle
 62
7
  6
CONTINUOUS
 10
15.3846831546
 20
12.2302441578
 40
0.1522631435
100
AcDbArc
 50
183.0371467537
 51
195.4417016076
  0
ARC
  5
40E
100
AcDbEntity
  8
0
100
AcDbCircle
 62
7
  6
CONTINUOUS
 10
15.3845756253
 20
12.230539864
 40
0.1517464538
100
AcDbArc
 50
109.4303311489
 51
112.4411454732
  0
ARC
  5
40F
100
AcDbEntity
  8
0
100
AcDbCircle
 62
7
  6
CONTINUOUS
 10
15.3952029976
 20
12.214802156
 40
0.1494596445
100
AcDbArc
 50
212.8761896507
 51
219.2845192798
  0
ARC
  5
410
100
AcDbEntity
  8
0
100
AcDbCircle
 62
7
  6
CONTINUOUS
 10
15.3924419265
 20
12.2132614424
 40
0.1463049991
100
AcDbArc
 50
199.9565387702
 51
212.9498921791
  0
ARC
  5
411
100
AcDbEntity
  8
0
100
AcDbCircle
 62
7
  6
CONTINUOUS
 10
15.3899148027
 20
12.2123000286
 40
0.143601493
100
AcDbArc
 50
192.2710895992
 51
199.9401175079
  0
ARC
  5
412
100
AcDbEntity
  8
0
100
AcDbCircle
 62
7
  6
CONTINUOUS
 10
15.3873012666
 20
12.2117183226
 40
0.1409240349
100
AcDbArc
 50
186.2558814079
 51
192.2658278479
  0
ARC
  5
413
100
AcDbEntity
  8
0
100
AcDbCircle
 62
7
  6
CONTINUOUS
 10
15.3844942397
 20
12.2353580113
 40
0.1401443541
100
AcDbArc
 50
339.2078051307
 51
356.6752577252
  0
ARC
  5
414
100
AcDbEntity
  8
0
100
AcDbCircle
 62
7
  6
CONTINUOUS
 10
15.3861896899
 20
12.2352341737
 40
0.1384445779
100
AcDbArc
 50
356.6857287263
 51
357.9104381153
  0
ARC
  5
415
100
AcDbEntity
  8
0
100
AcDbCircle
 62
7
  6
CONTINUOUS
 10
15.3876612747
 20
12.2351783351
 40
0.1369719356
100
AcDbArc
 50
357.9113354092
 51
358.7546667194
  0
ARC
  5
416
100
AcDbEntity
  8
0
100
AcDbCircle
 62
7
  6
CONTINUOUS
 10
15.3876755087
 20
12.2341940773
 40
0.1367603964
100
AcDbArc
 50
309.6584569342
 51
339.1516908191
  0
ARC
  5
417
100
AcDbEntity
  8
0
100
AcDbCircle
 62
7
  6
CONTINUOUS
 10
15.3885180227
 20
12.2331611623
 40
0.1354274937
100
AcDbArc
 50
301.3715681469
 51
309.6629400566
  0
ARC
  5
418
100
AcDbEntity
  8
0
100
AcDbCircle
 62
7
  6
CONTINUOUS
 10
15.3890879278
 20
12.232330896
 40
0.134421931
100
AcDbArc
 50
282.4173988037
 51
301.3483956254
  0
ARC
  5
419
100
AcDbEntity
  8
0
100
AcDbCircle
 62
7
  6
CONTINUOUS
 10
15.3869087147
 20
12.2256710177
 40
0.1267864215
100
AcDbArc
 50
194.5045135869
 51
225.2925630758
  0
ARC
  5
41A
100
AcDbEntity
  8
0
100
AcDbCircle
 62
7
  6
CONTINUOUS
 10
15.3858300925
 20
12.2253931996
 40
0.1256689213
100
AcDbArc
 50
186.7726915542
 51
194.5102774255
  0
ARC
  5
41B
100
AcDbEntity
  8
0
100
AcDbCircle
 62
7
  6
CONTINUOUS
 10
15.3844877096
 20
12.2301862558
 40
0.12499886
100
AcDbArc
 50
201.5278196491
 51
189.0273203816
  0
CIRCLE
  5
41C
100
AcDbEntity
  8
0
100
AcDbCircle
 62
7
  6
CONTINUOUS
 10
15.3844877096
 20
12.2301862558
 40
0.1005
  0
ARC
  5
41D
100
AcDbEntity
  8
0
100
AcDbCircle
 62
7
  6
CONTINUOUS
 10
15.5044870674
 20
12.1201861971
 40
0.08
100
AcDbArc
 50
256.0149999997
 51
13.7140000001
  0
ARC
  5
41E
100
AcDbEntity
  8
0
100
AcDbCircle
 62
7
  6
CONTINUOUS
 10
15.5044870674
 20
12.1201861971
 40
0.04
100
AcDbArc
 50
255.4343483309
 51
13.7140000002
  0
CIRCLE
  5
41F
100
AcDbEntity
  8
0
100
AcDbCircle
 62
6
  6
CONTINUOUS
 10
15.5743377096
 20
12.2301862558
 40
0.02165
  0
ARC
  5
420
100
AcDbEntity
  8
0
100
AcDbCircle
 62
7
  6
CONTINUOUS
 10
15.570560362
 20
12.3555979817
 40
0.08
100
AcDbArc
 50
143.7140000004
 51
162.8401284536
  0
ARC
  5
421
100
AcDbEntity
  8
0
100
AcDbCircle
 62
7
  6
CONTINUOUS
 10
15.570560362
 20
12.3555979816
 40
0.04
100
AcDbArc
 50
143.714000002
 51
193.7139999976
  0
LINE
  5
422
100
AcDbEntity
  8
0
100
AcDbLine
 62
7
  6
CONTINUOUS
 10
11.5028102825
 20
13.3491153185
 11
11.5090398833
 21
13.3484388173
  0
SPLINE
  5
423
100
AcDbEntity
  8
0
100
AcDbSpline
 62
7
  6
CONTINUOUS
 70
0
 71
3
 72
26
 73
22
 74
20
 42
0.0000001
 43
0.0000001
 44
0.0000000001
 12
-1.423622399
 22
-0.0000000077
 32
0.0
 13
0.3061080926
 23
1.3903231893
 33
0.0
 40
0.0
 40
0.0
 40
0.0
 40
0.0
 40
0.0630274241
 40
0.1260343295
 40
0.1575324204
 40
0.1890141012
 40
0.2204772029
 40
0.2519217792
 40
0.3147309382
 40
0.3774497885
 40
0.4400575585
 40
0.5025569761
 40
0.5649603188
 40
0.6272645659
 40
0.6583928653
 40
0.6895013864
 40
0.7516513611
 40
0.8137577001
 40
0.8758307242
 40
0.9379002315
 40
1.0
 40
1.0
 40
1.0
 40
1.0
 10
11.3844877139
 20
2.0496799139
 30
0.0
 10
11.3545786297
 20
2.0496799137
 30
0.0
 10
11.2947226034
 20
2.0530072556
 30
0.0
 10
11.2208306364
 20
2.065313665
 30
0.0
 10
11.1628334956
 20
2.0799332287
 30
0.0
 10
11.1200197571
 20
2.0932608518
 30
0.0
 10
11.0780305127
 20
2.1089241969
 30
0.0
 10
11.0233627267
 20
2.1328725896
 30
0.0
 10
10.9577025903
 20
2.1683985103
 30
0.0
 10
10.8841743482
 20
2.2193449196
 30
0.0
 10
10.816819558
 20
2.2780060186
 30
0.0
 10
10.7565998971
 20
2.3437700495
 30
0.0
 10
10.7041632289
 20
2.4157022506
 30
0.0
 10
10.6674330885
 20
2.4800800075
 30
0.0
 10
10.6425762665
 20
2.5337288734
 30
0.0
 10
10.6208453847
 20
2.5886394967
 30
0.0
 10
10.5995821828
 20
2.6594113575
 30
0.0
 10
10.5837580424
 20
2.7465878939
 30
0.0
 10
10.5778335585
 20
2.8349669633
 30
0.0
 10
10.5820528013
 20
2.9234287368
 30
0.0
 10
10.5915015643
 20
2.9817381555
 30
0.0
 10
10.5978379782
 20
3.0105177382
 30
0.0
 11
11.3844877139
 21
2.0496799139
 31
0.0
 11
11.2948975477
 21
2.0546379383
 31
0.0
 11
11.2064172555
 21
2.0693680633
 31
0.0
 11
11.1629364334
 21
2.0803301873
 31
0.0
 11
11.1201448251
 21
2.0936543651
 31
0.0
 11
11.0781796791
 21
2.109313606
 31
0.0
 11
11.0371752719
 21
2.1272736171
 31
0.0
 11
10.9585279643
 21
2.1698167257
 31
0.0
 11
10.8851423387
 21
2.220678202
 31
0.0
 11
10.8179540014
 21
2.2792431471
 31
0.0
 11
10.7578529411
 21
2.344851948
 31
0.0
 11
10.7055220007
 21
2.4166419503
 31
0.0
 11
10.6615852558
 21
2.4936928963
 31
0.0
 11
10.6429597289
 21
2.5339036415
 31
0.0
 11
10.6266611623
 21
2.5750822316
 31
0.0
 11
10.6011906309
 21
2.6598149024
 31
0.0
 11
10.5854050804
 21
2.7468103108
 31
0.0
 11
10.57952387
 21
2.8349829345
 31
0.0
 11
10.583710247
 21
2.9232472511
 31
0.0
 11
10.5978379782
 21
3.0105177382
 31
0.0
  0
SPLINE
  5
424
100
AcDbEntity
  8
0
100
AcDbSpline
 62
7
  6
CONTINUOUS
 70
0
 71
3
 72
37
 73
33
 74
31
 42
0.0000001
 43
0.0000001
 44
0.0000000001
 12
-0.0
 22
-2.6607195274
 32
0.0
 13
-0.0
 23
2.6607195274
 33
0.0
 40
0.0
 40
0.0
 40
0.0
 40
0.0
 40
0.0310840883
 40
0.0622157195
 40
0.0933513408
 40
0.1244891264
 40
0.1556456411
 40
0.1868308061
 40
0.2180434103
 40
0.2492835928
 40
0.280552333
 40
0.3118494252
 40
0.3431738833
 40
0.3745220196
 40
0.405891213
 40
0.4372761192
 40
0.5000008924
 40
0.5627255925
 40
0.5941104116
 40
0.6254794959
 40
0.6568275006
 40
0.6881518019
 40
0.7194487367
 40
0.7507172982
 40
0.7819573072
 40
0.8131697403
 40
0.8443547614
 40
0.8755111508
 40
0.9066488092
 40
0.9377843304
 40
0.9689159206
 40
1.0
 40
1.0
 40
1.0
 40
1.0
 10
10.5319877096
 20
2.817290772
 30
0.0
 10
10.5319877096
 20
2.7897220917
 30
0.0
 10
10.5347542438
 20
2.7345045015
 30
0.0
 10
10.5470614547
 20
2.6524997139
 30
0.0
 10
10.5674783044
 20
2.5720701728
 30
0.0
 10
10.595776702
 20
2.4940442964
 30
0.0
 10
10.631678042
 20
2.419162215
 30
0.0
 10
10.6748342217
 20
2.3481373357
 30
0.0
 10
10.7248040084
 20
2.2816359517
 30
0.0
 10
10.7811387412
 20
2.2203335113
 30
0.0
 10
10.843246904
 20
2.1647768392
 30
0.0
 10
10.9105644694
 20
2.115535389
 30
0.0
 10
10.9824117053
 20
2.0730386058
 30
0.0
 10
11.0581136758
 20
2.0377164596
 30
0.0
 10
11.1369439727
 20
2.0098924615
 30
0.0
 10
11.2451203847
 20
1.9831452542
 30
0.0
 10
11.3844900615
 20
1.9695833909
 30
0.0
 10
11.5238594848
 20
1.9831462578
 30
0.0
 10
11.632035662
 20
2.0098934939
 30
0.0
 10
11.710865395
 20
2.0377182007
 30
0.0
 10
11.7865670637
 20
2.0730401433
 30
0.0
 10
11.8584136384
 20
2.1155372868
 30
0.0
 10
11.9257307448
 20
2.1647785987
 30
0.0
 10
11.9878384027
 20
2.220335171
 30
0.0
 10
12.0441725815
 20
2.2816374762
 30
0.0
 10
12.0941421149
 20
2.3481385097
 30
0.0
 10
12.1372978337
 20
2.4191632128
 30
0.0
 10
12.1731990222
 20
2.4940449695
 30
0.0
 10
12.2014972314
 20
2.5720705838
 30
0.0
 10
12.221914008
 20
2.6524998948
 30
0.0
 10
12.2342211817
 20
2.734504554
 30
0.0
 10
12.2369877096
 20
2.7897220996
 30
0.0
 10
12.2369877096
 20
2.817290772
 30
0.0
 11
10.5319877096
 21
2.817290772
 31
0.0
 11
10.5361090119
 21
2.7346874787
 31
0.0
 11
10.548411122
 21
2.6527735752
 31
0.0
 11
10.5687901465
 21
2.5724761046
 31
0.0
 11
10.597034411
 21
2.4945902643
 31
0.0
 11
10.6328697456
 21
2.4198371304
 31
0.0
 11
10.6759492423
 21
2.3489216603
 31
0.0
 11
10.7258412767
 21
2.2825307513
 31
0.0
 11
10.7820740455
 21
2.221317707
 31
0.0
 11
10.8440859084
 21
2.1658530562
 31
0.0
 11
10.9112893586
 21
2.1166793547
 31
0.0
 11
10.9830261696
 21
2.074249194
 31
0.0
 11
11.0586095153
 21
2.0389766532
 31
0.0
 11
11.1373134105
 21
2.0111910348
 31
0.0
 11
11.2183797365
 21
1.9911516964
 31
0.0
 11
11.3844900912
 21
1.9750075589
 31
0.0
 11
11.5506001569
 21
1.9911526592
 31
0.0
 11
11.6316661962
 21
2.0111921923
 31
0.0
 11
11.7103696271
 21
2.0389782538
 31
0.0
 11
11.7859525656
 21
2.0742508392
 31
0.0
 11
11.8576887892
 21
2.1166811737
 31
0.0
 11
11.9248917493
 21
2.1658548356
 31
0.0
 11
11.9869030884
 21
2.2213193589
 31
0.0
 11
12.0431353587
 21
2.2825322343
 31
0.0
 11
12.0930270422
 21
2.3489228375
 31
0.0
 11
12.1361061704
 21
2.4198380834
 31
0.0
 11
12.1719413052
 21
2.4945909433
 31
0.0
 11
12.2001853982
 21
2.5724764859
 31
0.0
 11
12.2205643329
 21
2.6527737046
 31
0.0
 11
12.2328664138
 21
2.7346875021
 31
0.0
 11
12.2369877096
 21
2.817290772
 31
0.0
  0
SPLINE
  5
425
100
AcDbEntity
  8
0
100
AcDbSpline
 62
7
  6
CONTINUOUS
 70
0
 71
3
 72
26
 73
22
 74
20
 42
0.0000001
 43
0.0000001
 44
0.0000000001
 12
0.3061080907
 22
-1.3903231808
 32
0.0
 13
-1.4236223903
 23
-0.0000000077
 33
0.0
 40
0.0
 40
0.0
 40
0.0
 40
0.0
 40
0.0620997685
 40
0.1241692758
 40
0.1862423
 40
0.2483486389
 40
0.3104986136
 40
0.3416071348
 40
0.3727354341
 40
0.4350396812
 40
0.4974430239
 40
0.5599424415
 40
0.6225502115
 40
0.6852690618
 40
0.7480782208
 40
0.7795227971
 40
0.8109858988
 40
0.8424675796
 40
0.8739656705
 40
0.9369725759
 40
1.0
 40
1.0
 40
1.0
 40
1.0
 10
12.171137441
 20
3.0105177382
 30
0.0
 10
12.1774738549
 20
2.9817381557
 30
0.0
 10
12.1869226178
 20
2.9234287373
 30
0.0
 10
12.1911418607
 20
2.8349669644
 30
0.0
 10
12.1852173769
 20
2.7465878955
 30
0.0
 10
12.1693932369
 20
2.6594113597
 30
0.0
 10
12.1481300353
 20
2.5886394992
 30
0.0
 10
12.1263991538
 20
2.5337288761
 30
0.0
 10
12.1015423322
 20
2.4800800105
 30
0.0
 10
12.0648121923
 20
2.4157022538
 30
0.0
 10
12.0123755248
 20
2.3437700529
 30
0.0
 10
11.9521558647
 20
2.278006022
 30
0.0
 10
11.8848010752
 20
2.219344923
 30
0.0
 10
11.8112728339
 20
2.1683985135
 30
0.0
 10
11.7456126982
 20
2.1328725925
 30
0.0
 10
11.6909449128
 20
2.1089241995
 30
0.0
 10
11.6489556687
 20
2.0932608541
 30
0.0
 10
11.6061419306
 20
2.0799332307
 30
0.0
 10
11.5481447903
 20
2.0653136666
 30
0.0
 10
11.4742528239
 20
2.0530072566
 30
0.0
 10
11.414396798
 20
2.0496799141
 30
0.0
 10
11.3844877139
 20
2.0496799139
 30
0.0
 11
12.171137441
 21
3.0105177382
 31
0.0
 11
12.1852651721
 21
2.9232472516
 31
0.0
 11
12.1894515492
 21
2.8349829355
 31
0.0
 11
12.183570339
 21
2.7468103124
 31
0.0
 11
12.1677847887
 21
2.6598149045
 31
0.0
 11
12.1423142578
 21
2.5750822341
 31
0.0
 11
12.1260156914
 21
2.5339036443
 31
0.0
 11
12.1073901648
 21
2.4936928992
 31
0.0
 11
12.0634534205
 21
2.4166419535
 31
0.0
 11
12.0111224808
 21
2.3448519514
 31
0.0
 11
11.9510214213
 21
2.2792431505
 31
0.0
 11
11.8838330847
 21
2.2206782053
 31
0.0
 11
11.8104474599
 21
2.1698167288
 31
0.0
 11
11.7318001532
 21
2.1272736199
 31
0.0
 11
11.6907957463
 21
2.1093136086
 31
0.0
 11
11.6488306008
 21
2.0936543674
 31
0.0
 11
11.6060389929
 21
2.0803301894
 31
0.0
 11
11.562558171
 21
2.069368065
 31
0.0
 11
11.4740778795
 21
2.0546379392
 31
0.0
 11
11.3844877139
 21
2.0496799139
 31
0.0
  0
SPLINE
  5
426
100
AcDbEntity
  8
0
100
AcDbSpline
 62
7
  6
CONTINUOUS
 70
0
 71
3
 72
11
 73
7
 74
5
 42
0.0000001
 43
0.0000001
 44
0.0000000001
 12
0.1271051936
 22
0.0278919948
 32
0.0
 13
0.0924052099
 23
-0.0916240732
 33
0.0
 40
0.0
 40
0.0
 40
0.0
 40
0.0
 40
0.2500292105
 40
0.5000222281
 40
0.7500154433
 40
1.0
 40
1.0
 40
1.0
 40
1.0
 10
7.3509824882
 20
12.3593190179
 30
0.0
 10
7.3615758253
 20
12.3616436224
 30
0.0
 10
7.3834263617
 20
12.3637011142
 30
0.0
 10
7.4158973352
 20
12.3586762164
 30
0.0
 10
7.4461343849
 20
12.3458105729
 30
0.0
 10
7.4635596652
 20
12.3324448357
 30
0.0
 10
7.4712596237
 20
12.3248099679
 30
0.0
 11
7.3509824882
 21
12.3593190179
 31
0.0
 11
7.3833772599
 21
12.3623491915
 31
0.0
 11
7.4155253242
 21
12.3573693631
 31
0.0
 11
7.4454515499
 21
12.3446132107
 31
0.0
 11
7.4712596237
 21
12.3248099679
 31
0.0
  0
SPLINE
  5
427
100
AcDbEntity
  8
0
100
AcDbSpline
 62
7
  6
CONTINUOUS
 70
0
 71
3
 72
13
 73
9
 74
7
 42
0.0000001
 43
0.0000001
 44
0.0000000001
 12
0.0045273969
 22
-0.2413133295
 32
0.0
 13
-0.1862294351
 23
-0.1535292083
 33
0.0
 40
0.0
 40
0.0
 40
0.0
 40
0.0
 40
0.2496984062
 40
0.3749244154
 40
0.5000404749
 40
0.625107469
 40
0.7501811379
 40
1.0
 40
1.0
 40
1.0
 40
1.0
 10
15.650683217
 20
12.2301862558
 30
0.0
 10
15.651060045
 20
12.2101010713
 30
0.0
 10
15.6481613005
 20
12.179737513
 30
0.0
 10
15.6376644372
 20
12.1408417283
 30
0.0
 10
15.6265171565
 20
12.1126980782
 30
0.0
 10
15.6122944687
 20
12.0859916235
 30
0.0
 10
15.5894876234
 20
12.0527897334
 30
0.0
 10
15.5682739234
 20
12.0308867533
 30
0.0
 10
15.5527660482
 20
12.0181019226
 30
0.0
 11
15.650683217
 21
12.2301862558
 31
0.0
 11
15.6449937408
 21
12.1701892592
 31
0.0
 11
15.6371170525
 21
12.141009654
 31
0.0
 11
15.626002152
 21
12.1129321335
 31
0.0
 11
15.6118122159
 21
12.0862897085
 31
0.0
 11
15.5947204735
 21
12.0614071302
 31
0.0
 11
15.5527660482
 21
12.0181019226
 31
0.0
  0
SPLINE
  5
428
100
AcDbEntity
  8
0
100
AcDbSpline
 62
7
  6
CONTINUOUS
 70
0
 71
3
 72
12
 73
8
 74
6
 42
0.0000001
 43
0.0000001
 44
0.0000000001
 12
-0.2266156256
 22
-0.0207401646
 32
0.0
 13
-0.1688460973
 23
0.1525640575
 33
0.0
 40
0.0
 40
0.0
 40
0.0
 40
0.0
 40
0.2499177547
 40
0.3750400405
 40
0.5001564447
 40
0.7500658329
 40
1.0
 40
1.0
 40
1.0
 40
1.0
 10
15.4044185654
 20
11.957159553
 30
0.0
 10
15.3855401426
 20
11.9554317745
 30
0.0
 10
15.3568254808
 20
11.9558114062
 30
0.0
 10
15.31937418
 20
11.9621693838
 30
0.0
 10
15.2827698549
 20
11.9723780358
 30
0.0
 10
15.2392857503
 20
11.9921177457
 30
0.0
 10
15.2084709899
 20
12.0147354716
 30
0.0
 10
15.194404187
 20
12.0274457951
 30
0.0
 11
15.4044185654
 21
11.957159553
 31
0.0
 11
15.3475512411
 21
11.9578861945
 31
0.0
 11
15.3194796079
 21
11.9626511457
 31
0.0
 11
15.292053677
 21
11.9702972852
 31
0.0
 11
15.2402783429
 21
11.9938242657
 31
0.0
 11
15.194404187
 21
12.0274457951
 31
0.0
  0
SPLINE
  5
429
100
AcDbEntity
  8
0
100
AcDbSpline
 62
7
  6
CONTINUOUS
 70
0
 71
3
 72
15
 73
11
 74
9
 42
0.0000001
 43
0.0000001
 44
0.0000000001
 12
0.2407894613
 22
0.1221140146
 32
0.0
 13
0.2265314712
 23
-0.1468839331
 33
0.0
 40
0.0
 40
0.0
 40
0.0
 40
0.0
 40
0.1250027616
 40
0.2499720178
 40
0.3749714113
 40
0.4999843816
 40
0.6249886801
 40
0.7499948289
 40
0.874993484
 40
1.0
 40
1.0
 40
1.0
 40
1.0
 10
15.2732084824
 20
12.4607394213
 30
0.0
 10
15.2832415982
 20
12.4658276176
 30
0.0
 10
15.3040031762
 20
12.4746874947
 30
0.0
 10
15.3365988558
 20
12.4837744164
 30
0.0
 10
15.3701107195
 20
12.4885023806
 30
0.0
 10
15.4039545796
 20
12.4888455321
 30
0.0
 10
15.4375519032
 20
12.4847487691
 30
0.0
 10
15.4703359999
 20
12.4763421466
 30
0.0
 10
15.501746141
 20
12.4637504464
 30
0.0
 10
15.5214365455
 20
12.4527127336
 30
0.0
 10
15.5308758488
 20
12.4465922507
 30
0.0
 11
15.2732084824
 21
12.4607394213
 31
0.0
 11
15.3042480487
 21
12.473987958
 31
0.0
 11
15.336748737
 21
12.4830473826
 31
0.0
 11
15.3701643112
 21
12.4877714094
 31
0.0
 11
15.403914168
 21
12.488105497
 31
0.0
 11
15.437416413
 21
12.4840304514
 31
0.0
 11
15.4701076189
 21
12.4756444398
 31
0.0
 11
15.5014331296
 21
12.4630899205
 31
0.0
 11
15.5308758488
 21
12.4465922507
 31
0.0
  0
SPLINE
  5
42A
100
AcDbEntity
  8
0
100
AcDbSpline
 62
7
  6
CONTINUOUS
 70
0
 71
3
 72
15
 73
11
 74
9
 42
0.0000001
 43
0.0000001
 44
0.0000000001
 12
-0.2407894613
 22
-0.1221140146
 32
0.0
 13
-0.2265314712
 23
0.1468839331
 33
0.0
 40
0.0
 40
0.0
 40
0.0
 40
0.0
 40
0.1250027616
 40
0.2499720178
 40
0.3749714113
 40
0.4999843816
 40
0.6249886801
 40
0.7499948289
 40
0.874993484
 40
1.0
 40
1.0
 40
1.0
 40
1.0
 10
7.4957669368
 20
11.9996330904
 30
0.0
 10
7.4857338209
 20
11.9945448941
 30
0.0
 10
7.464972243
 20
11.985685017
 30
0.0
 10
7.4323765634
 20
11.9765980953
 30
0.0
 10
7.3988646997
 20
11.9718701311
 30
0.0
 10
7.3650208396
 20
11.9715269796
 30
0.0
 10
7.331423516
 20
11.9756237426
 30
0.0
 10
7.2986394193
 20
11.9840303651
 30
0.0
 10
7.2672292782
 20
11.9966220653
 30
0.0
 10
7.2475388737
 20
12.0076597781
 30
0.0
 10
7.2380995704
 20
12.013780261
 30
0.0
 11
7.4957669368
 21
11.9996330904
 31
0.0
 11
7.4647273705
 21
11.9863845537
 31
0.0
 11
7.4322266822
 21
11.9773251291
 31
0.0
 11
7.3988111079
 21
11.9726011023
 31
0.0
 11
7.3650612511
 21
11.9722670147
 31
0.0
 11
7.3315590062
 21
11.9763420603
 31
0.0
 11
7.2988678003
 21
11.9847280719
 31
0.0
 11
7.2675422896
 21
11.9972825912
 31
0.0
 11
7.2380995704
 21
12.013780261
 31
0.0
  0
SPLINE
  5
42B
100
AcDbEntity
  8
0
100
AcDbSpline
 62
7
  6
CONTINUOUS
 70
0
 71
3
 72
13
 73
9
 74
7
 42
0.0000001
 43
0.0000001
 44
0.0000000001
 12
-0.0045273969
 22
0.2413133295
 32
0.0
 13
0.1862294351
 23
0.1535292083
 33
0.0
 40
0.0
 40
0.0
 40
0.0
 40
0.0
 40
0.2496984062
 40
0.3749244154
 40
0.5000404749
 40
0.625107469
 40
0.7501811379
 40
1.0
 40
1.0
 40
1.0
 40
1.0
 10
7.1182922022
 20
12.2301862558
 30
0.0
 10
7.1179153742
 20
12.2502714404
 30
0.0
 10
7.1208141187
 20
12.2806349986
 30
0.0
 10
7.131310982
 20
12.3195307834
 30
0.0
 10
7.1424582627
 20
12.3476744335
 30
0.0
 10
7.1566809505
 20
12.3743808882
 30
0.0
 10
7.1794877958
 20
12.4075827783
 30
0.0
 10
7.2007014958
 20
12.4294857584
 30
0.0
 10
7.2162093709
 20
12.4422705891
 30
0.0
 11
7.1182922022
 21
12.2301862558
 31
0.0
 11
7.1239816784
 21
12.2901832525
 31
0.0
 11
7.1318583667
 21
12.3193628577
 31
0.0
 11
7.1429732672
 21
12.3474403782
 31
0.0
 11
7.1571632033
 21
12.3740828032
 31
0.0
 11
7.1742549457
 21
12.3989653815
 31
0.0
 11
7.2162093709
 21
12.4422705891
 31
0.0
  0
SPLINE
  5
42C
100
AcDbEntity
  8
0
100
AcDbSpline
 62
7
  6
CONTINUOUS
 70
0
 71
3
 72
12
 73
8
 74
6
 42
0.0000001
 43
0.0000001
 44
0.0000000001
 12
0.2266154742
 22
0.0207401508
 32
0.0
 13
0.1688460682
 23
-0.1525638628
 33
0.0
 40
0.0
 40
0.0
 40
0.0
 40
0.0
 40
0.2499177548
 40
0.3750400404
 40
0.5001564445
 40
0.7500658328
 40
1.0
 40
1.0
 40
1.0
 40
1.0
 10
7.3645568538
 20
12.5032129587
 30
0.0
 10
7.3834352639
 20
12.504940736
 30
0.0
 10
7.4121499062
 20
12.5045611065
 30
0.0
 10
7.449601183
 20
12.4982031398
 30
0.0
 10
7.4862054861
 20
12.4879945035
 30
0.0
 10
7.529689568
 20
12.468254822
 30
0.0
 10
7.5605043183
 20
12.4456371263
 30
0.0
 10
7.5745711188
 20
12.432926819
 30
0.0
 11
7.3645568538
 21
12.5032129587
 31
0.0
 11
7.4214241402
 21
12.5024863216
 31
0.0
 11
7.4494957554
 21
12.4977213785
 31
0.0
 11
7.4769216698
 21
12.4900752508
 31
0.0
 11
7.5286969775
 21
12.4665483039
 31
0.0
 11
7.5745711188
 21
12.432926819
 31
0.0
  0
SPLINE
  5
42D
100
AcDbEntity
  8
0
100
AcDbSpline
 62
7
  6
CONTINUOUS
 70
0
 71
3
 72
11
 73
7
 74
5
 42
0.0000001
 43
0.0000001
 44
0.0000000001
 12
-0.1271051936
 22
-0.0278919948
 32
0.0
 13
-0.0924052099
 23
0.0916240732
 33
0.0
 40
0.0
 40
0.0
 40
0.0
 40
0.0
 40
0.2500292105
 40
0.5000222281
 40
0.7500154433
 40
1.0
 40
1.0
 40
1.0
 40
1.0
 10
15.417992931
 20
12.1010534938
 30
0.0
 10
15.4073995939
 20
12.0987288893
 30
0.0
 10
15.3855490575
 20
12.0966713975
 30
0.0
 10
15.353078084
 20
12.1016962952
 30
0.0
 10
15.3228410342
 20
12.1145619387
 30
0.0
 10
15.305415754
 20
12.127927676
 30
0.0
 10
15.2977157955
 20
12.1355625438
 30
0.0
 11
15.417992931
 21
12.1010534938
 31
0.0
 11
15.3855981593
 21
12.0980233202
 31
0.0
 11
15.3534500949
 21
12.1030031486
 31
0.0
 11
15.3235238693
 21
12.115759301
 31
0.0
 11
15.2977157955
 21
12.1355625438
 31
0.0
  0
SPLINE
  5
42E
100
AcDbEntity
  8
0
100
AcDbSpline
 62
9
  6
CONTINUOUS
 70
0
 71
3
 72
24
 73
20
 74
18
 42
0.0000001
 43
0.0000001
 44
0.0000000001
 12
-0.0549867305
 22
0.8718166079
 32
0.0
 13
0.8732490988
 23
0.0228855817
 33
0.0
 40
0.0
 40
0.0
 40
0.0
 40
0.0
 40
0.0210015186
 40
0.0420544934
 40
0.0848327927
 40
0.1294139906
 40
0.1766473159
 40
0.2271901881
 40
0.2814288196
 40
0.3395131659
 40
0.4014521135
 40
0.4671460793
 40
0.53632452
 40
0.6086081567
 40
0.6835712947
 40
0.7607505521
 40
0.839605053
 40
0.9195529115
 40
1.0
 40
1.0
 40
1.0
 40
1.0
 10
10.6833260597
 20
8.4002742078
 30
0.0
 10
10.6829411247
 20
8.4063773653
 30
0.0
 10
10.6827616851
 20
8.4186452043
 30
0.0
 10
10.6847990783
 20
8.4432942943
 30
0.0
 10
10.6919319849
 20
8.4742505778
 30
0.0
 10
10.7074461365
 20
8.5104380562
 30
0.0
 10
10.7297442441
 20
8.5455720852
 30
0.0
 10
10.7586278589
 20
8.5792842003
 30
0.0
 10
10.7937222508
 20
8.6113302864
 30
0.0
 10
10.8346412741
 20
8.6414735884
 30
0.0
 10
10.8810036386
 20
8.6694433242
 30
0.0
 10
10.9323940384
 20
8.6949345356
 30
0.0
 10
10.9882767178
 20
8.717767616
 30
0.0
 10
11.0480836922
 20
8.7377607132
 30
0.0
 10
11.1112328131
 20
8.754718993
 30
0.0
 10
11.177115984
 20
8.7684381847
 30
0.0
 10
11.2450680104
 20
8.778849371
 30
0.0
 10
11.3144050427
 20
8.7858863989
 30
0.0
 10
11.3610709271
 20
8.7882807508
 30
0.0
 10
11.3844877096
 20
8.7888944436
 30
0.0
 11
10.6833260597
 21
8.4002742078
 31
0.0
 11
10.6830585386
 21
8.4186181113
 31
0.0
 11
10.684567403
 21
8.4369469134
 31
0.0
 11
10.6928497148
 21
8.4733864636
 31
0.0
 11
10.7080359013
 21
8.5092473588
 31
0.0
 11
10.7299872794
 21
8.5441840993
 31
0.0
 11
10.7585467307
 21
8.5778549753
 31
0.0
 11
10.7933999209
 21
8.6099505962
 31
0.0
 11
10.8341529182
 21
8.6401779345
 31
0.0
 11
10.8804111725
 21
8.6682440896
 31
0.0
 11
10.9317608561
 21
8.6938656737
 31
0.0
 11
10.9876616188
 21
8.7168217327
 31
0.0
 11
11.0475220931
 21
8.7369164869
 31
0.0
 11
11.1107507705
 21
8.7539542268
 31
0.0
 11
11.1767428751
 21
8.7677556534
 31
0.0
 11
11.2448258414
 21
8.7782253202
 31
0.0
 11
11.3143055093
 21
8.7852944917
 31
0.0
 11
11.3844877096
 21
8.7888944436
 31
0.0
  0
SPLINE
  5
42F
100
AcDbEntity
  8
0
100
AcDbSpline
 62
9
  6
CONTINUOUS
 70
0
 71
3
 72
24
 73
20
 74
18
 42
0.0000001
 43
0.0000001
 44
0.0000000001
 12
0.0549867305
 22
0.8718166079
 32
0.0
 13
-0.8732490988
 23
0.0228855817
 33
0.0
 40
0.0
 40
0.0
 40
0.0
 40
0.0
 40
0.0210015186
 40
0.0420544934
 40
0.0848327927
 40
0.1294139906
 40
0.1766473159
 40
0.2271901881
 40
0.2814288196
 40
0.3395131659
 40
0.4014521135
 40
0.4671460793
 40
0.53632452
 40
0.6086081567
 40
0.6835712947
 40
0.7607505521
 40
0.839605053
 40
0.9195529115
 40
1.0
 40
1.0
 40
1.0
 40
1.0
 10
12.0856493595
 20
8.4002742078
 30
0.0
 10
12.0860342944
 20
8.4063773653
 30
0.0
 10
12.0862137341
 20
8.4186452043
 30
0.0
 10
12.0841763409
 20
8.4432942943
 30
0.0
 10
12.0770434342
 20
8.4742505778
 30
0.0
 10
12.0615292827
 20
8.5104380562
 30
0.0
 10
12.0392311751
 20
8.5455720852
 30
0.0
 10
12.0103475603
 20
8.5792842003
 30
0.0
 10
11.9752531684
 20
8.6113302864
 30
0.0
 10
11.9343341451
 20
8.6414735884
 30
0.0
 10
11.8879717806
 20
8.6694433242
 30
0.0
 10
11.8365813808
 20
8.6949345356
 30
0.0
 10
11.7806987013
 20
8.717767616
 30
0.0
 10
11.7208917269
 20
8.7377607132
 30
0.0
 10
11.6577426061
 20
8.754718993
 30
0.0
 10
11.5918594352
 20
8.7684381847
 30
0.0
 10
11.5239074088
 20
8.778849371
 30
0.0
 10
11.4545703765
 20
8.7858863989
 30
0.0
 10
11.4079044921
 20
8.7882807508
 30
0.0
 10
11.3844877096
 20
8.7888944436
 30
0.0
 11
12.0856493595
 21
8.4002742078
 31
0.0
 11
12.0859168806
 21
8.4186181113
 31
0.0
 11
12.0844080162
 21
8.4369469134
 31
0.0
 11
12.0761257044
 21
8.4733864636
 31
0.0
 11
12.0609395179
 21
8.5092473588
 31
0.0
 11
12.0389881398
 21
8.5441840993
 31
0.0
 11
12.0104286885
 21
8.5778549753
 31
0.0
 11
11.9755754983
 21
8.6099505962
 31
0.0
 11
11.934822501
 21
8.6401779345
 31
0.0
 11
11.8885642467
 21
8.6682440896
 31
0.0
 11
11.8372145631
 21
8.6938656737
 31
0.0
 11
11.7813138004
 21
8.7168217327
 31
0.0
 11
11.7214533261
 21
8.7369164869
 31
0.0
 11
11.6582246486
 21
8.7539542268
 31
0.0
 11
11.592232544
 21
8.7677556534
 31
0.0
 11
11.5241495778
 21
8.7782253202
 31
0.0
 11
11.4546699099
 21
8.7852944917
 31
0.0
 11
11.3844877096
 21
8.7888944436
 31
0.0
  0
SPLINE
  5
430
100
AcDbEntity
  8
0
100
AcDbSpline
 62
7
  6
CONTINUOUS
 70
0
 71
3
 72
12
 73
8
 74
6
 42
0.0000001
 43
0.0000001
 44
0.0000000001
 12
0.0197490834
 22
0.0022708761
 32
0.0
 13
0.0182697152
 23
0.0078358586
 33
0.0
 40
0.0
 40
0.0
 40
0.0
 40
0.0
 40
0.3517953092
 40
0.6375385029
 40
0.8540450818
 40
0.9357932581
 40
1.0
 40
1.0
 40
1.0
 40
1.0
 10
11.4885682724
 20
13.3505156544
 30
0.0
 10
11.4908841507
 20
13.3507819489
 30
0.0
 10
11.495077734
 20
13.3512983778
 30
0.0
 10
11.5006733953
 20
13.3521444957
 30
0.0
 10
11.5044756362
 20
13.3528853376
 30
0.0
 10
11.506794423
 20
13.3535141322
 30
0.0
 10
11.5077095142
 20
13.3538331587
 30
0.0
 10
11.5081005272
 20
13.3540008637
 30
0.0
 11
11.4885682724
 21
13.3505156544
 31
0.0
 11
11.4955071972
 21
13.3513869567
 31
0.0
 11
11.5011203257
 21
13.3522582591
 31
0.0
 11
11.5053351902
 21
13.3531295614
 31
0.0
 11
11.5069007968
 21
13.3535652125
 31
0.0
 11
11.5081005272
 21
13.3540008637
 31
0.0
  0
SPLINE
  5
431
100
AcDbEntity
  8
0
100
AcDbSpline
 62
7
  6
CONTINUOUS
 70
0
 71
3
 72
10
 73
6
 74
4
 42
0.0000001
 43
0.0000001
 44
0.0000000001
 12
0.001297901
 22
0.0006583603
 32
0.0
 13
0.0
 23
0.0014553299
 33
0.0
 40
0.0
 40
0.0
 40
0.0
 40
0.0
 40
0.3429819791
 40
0.616298233
 40
1.0
 40
1.0
 40
1.0
 40
1.0
 10
11.508498331
 20
13.3541857518
 30
0.0
 10
11.5086467165
 20
13.3542610204
 30
0.0
 10
11.508908852
 20
13.3544102297
 30
0.0
 10
11.5092912714
 20
13.3546983421
 30
0.0
 10
11.5094877103
 20
13.3550001179
 30
0.0
 10
11.5094877103
 20
13.3551862554
 30
0.0
 11
11.508498331
 21
13.3541857518
 31
0.0
 11
11.5089302913
 21
13.3544358777
 31
0.0
 11
11.5092395715
 21
13.3546860036
 31
0.0
 11
11.5094877103
 21
13.3551862554
 31
0.0
  0
SPLINE
  5
432
100
AcDbEntity
  8
0
100
AcDbSpline
 62
7
  6
CONTINUOUS
 70
0
 71
3
 72
9
 73
5
 74
3
 42
0.0000001
 43
0.0000001
 44
0.0000000001
 12
-0.0536220952
 22
-0.0545901763
 32
0.0
 13
-0.0139337645
 23
-0.0752413892
 33
0.0
 40
0.0
 40
0.0
 40
0.0
 40
0.0
 40
0.4997407095
 40
1.0
 40
1.0
 40
1.0
 40
1.0
 10
15.2833608181
 20
12.3036597328
 30
0.0
 10
15.2744284368
 20
12.2945660883
 30
0.0
 10
15.2592588427
 20
12.273509657
 30
0.0
 10
15.2509867577
 20
12.2489513051
 30
0.0
 10
15.2486632593
 20
12.2364045705
 30
0.0
 11
15.2833608181
 21
12.3036597328
 31
0.0
 11
15.2609892986
 21
12.2726460041
 31
0.0
 11
15.2486632593
 21
12.2364045705
 31
0.0
  0
SPLINE
  5
433
100
AcDbEntity
  8
0
100
AcDbSpline
 62
7
  6
CONTINUOUS
 70
0
 71
3
 72
9
 73
5
 74
3
 42
0.0000001
 43
0.0000001
 44
0.0000000001
 12
0.0536220952
 22
0.0545901763
 32
0.0
 13
0.0139337645
 23
0.0752413892
 33
0.0
 40
0.0
 40
0.0
 40
0.0
 40
0.0
 40
0.4997407095
 40
1.0
 40
1.0
 40
1.0
 40
1.0
 10
7.4856146011
 20
12.1567127789
 30
0.0
 10
7.4945469824
 20
12.1658064234
 30
0.0
 10
7.5097165765
 20
12.1868628547
 30
0.0
 10
7.5179886615
 20
12.2114212066
 30
0.0
 10
7.5203121599
 20
12.2239679412
 30
0.0
 11
7.4856146011
 21
12.1567127789
 31
0.0
 11
7.5079861206
 21
12.1877265076
 31
0.0
 11
7.5203121599
 21
12.2239679412
 31
0.0
  0
SPLINE
  5
434
100
AcDbEntity
  8
0
100
AcDbSpline
 62
7
  6
CONTINUOUS
 70
0
 71
3
 72
11
 73
7
 74
5
 42
0.0000001
 43
0.0000001
 44
0.0000000001
 12
-0.0840840007
 22
-0.1334066571
 32
0.0
 13
0.0019075371
 23
-0.1576826453
 33
0.0
 40
0.0
 40
0.0
 40
0.0
 40
0.0
 40
0.249754568
 40
0.5000216866
 40
0.7500926998
 40
1.0
 40
1.0
 40
1.0
 40
1.0
 10
15.1569519931
 20
12.3955012891
 30
0.0
 10
15.149951872
 20
12.3843949818
 30
0.0
 10
15.1375182408
 20
12.3611205294
 30
0.0
 10
15.1239764017
 20
12.323953527
 30
0.0
 10
15.1158943173
 20
12.2852195779
 30
0.0
 10
15.1142765169
 20
12.2588786243
 30
0.0
 10
15.1144354194
 20
12.2457432762
 30
0.0
 11
15.1569519931
 21
12.3955012891
 31
0.0
 11
15.1383808566
 21
12.3607697658
 31
0.0
 11
15.1248843117
 21
12.323683619
 31
0.0
 11
15.1168352356
 21
12.2850790672
 31
0.0
 11
15.1144354194
 21
12.2457432762
 31
0.0
  0
SPLINE
  5
435
100
AcDbEntity
  8
0
100
AcDbSpline
 62
7
  6
CONTINUOUS
 70
0
 71
3
 72
11
 73
7
 74
5
 42
0.0000001
 43
0.0000001
 44
0.0000000001
 12
0.0840840007
 22
0.1334066571
 32
0.0
 13
-0.0019075371
 23
0.1576826453
 33
0.0
 40
0.0
 40
0.0
 40
0.0
 40
0.0
 40
0.249754568
 40
0.5000216866
 40
0.7500926998
 40
1.0
 40
1.0
 40
1.0
 40
1.0
 10
7.6120234261
 20
12.0648712226
 30
0.0
 10
7.6190235472
 20
12.0759775299
 30
0.0
 10
7.6314571784
 20
12.0992519823
 30
0.0
 10
7.6449990175
 20
12.1364189847
 30
0.0
 10
7.6530811019
 20
12.1751529338
 30
0.0
 10
7.6546989023
 20
12.2014938874
 30
0.0
 10
7.6545399998
 20
12.2146292355
 30
0.0
 11
7.6120234261
 21
12.0648712226
 31
0.0
 11
7.6305945626
 21
12.0996027459
 31
0.0
 11
7.6440911075
 21
12.1366888927
 31
0.0
 11
7.6521401836
 21
12.1752934445
 31
0.0
 11
7.6545399998
 21
12.2146292355
 31
0.0
  0
ENDSEC
  0
SECTION
  2
OBJECTS
  0
DICTIONARY
  5
C
100
AcDbDictionary
280
0
281
1
  3
ACAD_GROUP
350
D
  3
ACAD_MLINESTYLE
350
17
  3
ACAD_LAYOUT
350
1A
  3
ACAD_PLOTSETTINGS
350
19
  3
ACAD_PLOTSTYLENAME
350
E
  0
DICTIONARY
  5
D
102
{ACAD_REACTORS
330
C
102
}
100
AcDbDictionary
280
0
281
1
  0
ACDBDICTIONARYWDFLT
  5
E
102
{ACAD_REACTORS
330
C
102
}
100
AcDbDictionary
281
1
  3
Normal
350
F
100
AcDbDictionaryWithDefault
340
F
  0
DICTIONARY
  5
17
102
{ACAD_REACTORS
330
C
102
}
100
AcDbDictionary
280
0
281
1
  3
Standard
350
18
  0
DICTIONARY
  5
19
102
{ACAD_REACTORS
330
C
102
}
100
AcDbDictionary
281
1
  0
DICTIONARY
  5
1A
102
{ACAD_REACTORS
330
C
102
}
100
AcDbDictionary
281
1
  3
Model
350
436
  3
Layout1
350
437
  0
ACDBPLACEHOLDER
  5
F
102
{ACAD_REACTORS
330
E
102
}
  0
MLINESTYLE
  5
18
102
{ACAD_REACTORS
330
17
102
}
100
AcDbMlineStyle
  2
STANDARD
 70
0
  3

 62
256
 51
90.0
 52
90.0
 71
2
 49
0.5
 62
256
  6
BYLAYER
 49
-0.5
 62
256
  6
BYLAYER
  0
LAYOUT
  5
436
102
{ACAD_REACTORS
330
1A
102
}
100
AcDbPlotSettings
  1

  2
none_device
  4
ISO_A2_(594.00_x_420.00_MM)
  6

 40
0.0
 41
0.0
 42
0.0
 43
0.0
 44
594.0
 45
420.0
 46
0.0
 47
0.0
 48
0.0
 49
0.0
140
0.0
141
0.0
142
1.0
143
1.0
 70
1024
 72
0
 73
0
 74
0
  7

 75
0
147
1.0
148
0.0
149
0.0
100
AcDbLayout
  1
Model
 70
0
 71
0
 10
0.0
 20
0.0
 11
23.3858267717
 21
16.5354330709
 12
0.0
 22
0.0
 32
0.0
 14
0.0
 24
0.0
 34
0.0
 15
0.0
 25
0.0
 35
0.0
146
0.0
 13
0.0
 23
0.0
 33
0.0
 16
1.0
 26
0.0
 36
0.0
 17
0.0
 27
1.0
 37
0.0
 76
0
330
244
345
0
346
0
  0
LAYOUT
  5
437
102
{ACAD_REACTORS
330
1A
102
}
100
AcDbPlotSettings
  1

  2
none_device
  4
ISO_A2_(594.00_x_420.00_MM)
  6

 40
0.0
 41
0.0
 42
0.0
 43
0.0
 44
594.0
 45
420.0
 46
0.0
 47
0.0
 48
0.0
 49
0.0
140
0.0
141
0.0
142
1.0
143
1.0
 70
0
 72
0
 73
0
 74
0
  7

 75
0
147
1.0
148
0.0
149
0.0
100
AcDbLayout
  1
Layout1
 70
0
 71
1
 10
0.0
 20
0.0
 11
23.3858267717
 21
16.5354330709
 12
0.0
 22
0.0
 32
0.0
 14
0.0
 24
0.0
 34
0.0
 15
0.0
 25
0.0
 35
0.0
146
0.0
 13
0.0
 23
0.0
 33
0.0
 16
1.0
 26
0.0
 36
0.0
 17
0.0
 27
1.0
 37
0.0
 76
0
330
245
345
0
346
0
  0
ENDSEC
  0
EOF
