999
DXF file: E:\BT Custom\CADOUTPUT\_FRONT.dxf
999
Pro/ENGINEER 2018400 by Parametric Technology Corporation
  0
SECTION
  2
HEADER
  9
$ACADVER
  1
AC1018
  9
$DWGCODEPAGE
  3
ANSI_1252
  9
$EXTMAX
 10
22.0
 20
17.0
 30
0.0
  9
$EXTMIN
 10
0.0
 20
0.0
 30
0.0
  9
$LIMMIN
 10
0.0
 20
0.0
  9
$LIMMAX
 10
22.0
 20
17.0
  9
$VIEWCTR
 10
11.0
 20
8.5
  9
$VIEWSIZE
 40
17.0
  9
$CLAYER
  8
0
  9
$LTSCALE
 40
1.21
  9
$CELTYPE
  6
BYLAYER
  9
$DIMSCALE
 40
1.0
  9
$DIMASZ
 40
0.1
  9
$DIMEXO
 40
0.0625
  9
$DIMDLI
 40
0.836
  9
$DIMEXE
 40
0.125
  9
$DIMCEN
 40
0.198
  9
$DIMLFAC
 40
1.0
  9
$DIMBLK
  1
_FILLED
  9
$DIMALT
 70
1
  9
$DIMALTD
 70
2
  9
$DIMALTTD
 70
2
  9
$DIMALTF
 40
25.4
  9
$DIMTXT
 40
0.08
  9
$DIMTOL
 70
1
  9
$DIMLIM
 70
0
  9
$DIMTFAC
 40
1.0
  9
$DIMTP
 40
0.001
  9
$DIMTM
 40
0.001
  9
$DIMGAP
 40
0.09
  9
$DIMDSEP
 70
46
  9
$AUNITS
 70
0
  9
$PDMODE
 70
3
  9
$PDSIZE
 40
0.06
  9
$HANDSEED
  5
2D0
  9
$TILEMODE
 70
1
  9
$MEASUREMENT
 70
0
  9
$INSUNITS
 70
1
  0
ENDSEC
  0
SECTION
  2
CLASSES
  0
CLASS
  1
ACDBDICTIONARYWDFLT
  2
AcDbDictionaryWithDefault
  3
AutoCAD 2000
 90
0
 91
1
280
0
281
0
  0
CLASS
  1
ACDBPLACEHOLDER
  2
AcDbPlaceHolder
  3
AutoCAD 2000
 90
0
 91
1
280
0
281
0
  0
CLASS
  1
LAYOUT
  2
AcDbLayout
  3
AutoCAD 2000
 90
0
 91
0
280
0
281
0
  0
ENDSEC
  0
SECTION
  2
TABLES
  0
TABLE
  2
VPORT
  5
8
100
AcDbSymbolTable
 70
2
  0
VPORT
  5
1F4
100
AcDbSymbolTableRecord
100
AcDbViewportTableRecord
  2
*ACTIVE
 70
0
 10
0.0
 20
0.0
 11
1.0
 21
1.0
 12
11.0
 22
8.5
 13
0.0
 23
0.0
 14
1.0
 24
1.0
 15
0.0
 25
0.0
 16
0.0
 26
0.0
 36
1.0
 17
0.0
 27
0.0
 37
0.0
 40
17.0
 41
1.2941176471
 42
50.0
 43
0.0
 44
0.0
 50
0.0
 51
0.0
 71
0
 72
100
 73
1
 74
1
 75
0
 76
0
 77
0
 78
0
  0
ENDTAB
  0
TABLE
  2
LTYPE
  5
5
100
AcDbSymbolTable
 70
6
  0
LTYPE
  5
14
100
AcDbSymbolTableRecord
100
AcDbLinetypeTableRecord
  2
BYBLOCK
 70
0
  3

 72
65
 73
0
 40
0.0
  0
LTYPE
  5
15
100
AcDbSymbolTableRecord
100
AcDbLinetypeTableRecord
  2
BYLAYER
 70
0
  3

 72
65
 73
0
 40
0.0
  0
LTYPE
  5
16
100
AcDbSymbolTableRecord
100
AcDbLinetypeTableRecord
  2
CONTINUOUS
 70
64
  3
Solid line
 72
65
 73
0
 40
0.0
  0
LTYPE
  5
1F5
100
AcDbSymbolTableRecord
100
AcDbLinetypeTableRecord
  2
CENTER
 70
64
  3
____ _ ____ _ ____ _ ____ _ ____ _ ____ _ ____
 72
65
 73
4
 40
0.6
 49
0.375
 74
0
 49
-0.075
 74
0
 49
0.075
 74
0
 49
-0.075
 74
0
  0
LTYPE
  5
1F6
100
AcDbSymbolTableRecord
100
AcDbLinetypeTableRecord
  2
HIDDEN
 70
64
  3
- - - - - - - - - - - - - - - - - - - -
 72
65
 73
2
 40
0.2
 49
0.1
 74
0
 49
-0.1
 74
0
  0
LTYPE
  5
1F7
100
AcDbSymbolTableRecord
100
AcDbLinetypeTableRecord
  2
PHANTOM
 70
64
  3
_____ _ _ _____ _ _ _____ _ _ _____
 72
65
 73
6
 40
0.8
 49
0.45
 74
0
 49
-0.05
 74
0
 49
0.1
 74
0
 49
-0.05
 74
0
 49
0.1
 74
0
 49
-0.05
 74
0
  0
LTYPE
  5
1F8
100
AcDbSymbolTableRecord
100
AcDbLinetypeTableRecord
  2
DOT
 70
64
  3
. . . . . . . . . . . . . . . . . . . .
 72
65
 73
2
 40
0.2
 49
0.1
 74
0
 49
-0.1
 74
0
  0
LTYPE
  5
1F9
100
AcDbSymbolTableRecord
100
AcDbLinetypeTableRecord
  2
DASHED
 70
64
  3
- - - - - - - - - - - - - - - - - - - -
 72
65
 73
2
 40
0.2
 49
0.1
 74
0
 49
-0.1
 74
0
  0
ENDTAB
  0
TABLE
  2
LAYER
  5
2
100
AcDbSymbolTable
 70
36
  0
LAYER
  5
10
100
AcDbSymbolTableRecord
100
AcDbLayerTableRecord
  2
0
 70
0
 62
7
  6
CONTINUOUS
370
-3
390
F
  0
LAYER
  5
1FA
100
AcDbSymbolTableRecord
100
AcDbLayerTableRecord
  2
DEFAULT_1
 70
0
 62
7
  6
CENTER
370
-3
390
F
  0
LAYER
  5
1FB
100
AcDbSymbolTableRecord
100
AcDbLayerTableRecord
  2
DEFAULT_2
 70
0
 62
8
  6
HIDDEN
370
-3
390
F
  0
LAYER
  5
1FC
100
AcDbSymbolTableRecord
100
AcDbLayerTableRecord
  2
DEFAULT_3
 70
0
 62
7
  6
PHANTOM
370
-3
390
F
  0
LAYER
  5
1FD
100
AcDbSymbolTableRecord
100
AcDbLayerTableRecord
  2
ALL_FEATURES
 70
0
 62
7
  6
CONTINUOUS
370
-3
390
F
  0
LAYER
  5
1FE
100
AcDbSymbolTableRecord
100
AcDbLayerTableRecord
  2
AXES_FEATURES
 70
0
 62
7
  6
CONTINUOUS
370
-3
390
F
  0
LAYER
  5
1FF
100
AcDbSymbolTableRecord
100
AcDbLayerTableRecord
  2
DIMENSIONS
 70
0
 62
7
  6
CONTINUOUS
370
-3
390
F
  0
ENDTAB
  0
TABLE
  2
STYLE
  5
3
100
AcDbSymbolTable
 70
1
  0
STYLE
  5
11
100
AcDbSymbolTableRecord
100
AcDbTextStyleTableRecord
  2
STANDARD
 70
0
 40
0.0
 41
0.8
 50
0.0
 71
0
 42
0.2
  3
txt
  4

  0
STYLE
  5
200
100
AcDbSymbolTableRecord
100
AcDbTextStyleTableRecord
  2
TEXTSTYLE_1
 70
0
 40
0.0
 41
0.8
 50
0.0
 71
0
 42
0.2
  3
gdt
  4

  0
ENDTAB
  0
TABLE
  2
VIEW
  5
6
100
AcDbSymbolTable
 70
0
  0
ENDTAB
  0
TABLE
  2
UCS
  5
7
100
AcDbSymbolTable
 70
0
  0
ENDTAB
  0
TABLE
  2
APPID
  5
9
100
AcDbSymbolTable
 70
1
  0
APPID
  5
201
100
AcDbSymbolTableRecord
100
AcDbRegAppTableRecord
  2
ACAD
 70
0
  0
ENDTAB
  0
TABLE
  2
BLOCK_RECORD
  5
1
100
AcDbSymbolTable
 70
0
  0
BLOCK_RECORD
  5
202
100
AcDbSymbolTableRecord
100
AcDbBlockTableRecord
  2
*Model_Space
  0
BLOCK_RECORD
  5
203
100
AcDbSymbolTableRecord
100
AcDbBlockTableRecord
  2
*Paper_Space
  0
BLOCK_RECORD
  5
204
100
AcDbSymbolTableRecord
100
AcDbBlockTableRecord
  2
_FILLED
  0
ENDTAB
  0
TABLE
  2
DIMSTYLE
  5
A
100
AcDbSymbolTable
 70
1
100
AcDbDimStyleTable
 71
0
  0
DIMSTYLE
105
205
100
AcDbSymbolTableRecord
100
AcDbDimStyleTableRecord
  2
STANDARD
 70
0
  3

  4

 40
1.0
 41
0.1
 42
0.0625
 43
0.38
 44
0.125
 45
0.0
 46
0.0
 47
0.001
 48
0.001
140
0.08
141
0.09
142
0.0
143
25.4
144
1.0
145
0.0
146
1.0
147
0.09
 71
1.0
 72
0.0
 73
1
 74
1
 75
0
 76
0
 77
0
 78
4
 79
1
170
1
171
2
172
0
173
0
174
0
175
0
176
0
177
0
178
0
270
2
179
3
271
3
272
3
273
2
274
2
275
0
280
0
281
0
282
0
283
1
284
4
285
0
286
0
287
3
288
0
340
11
278
46
341
204
342
204
343
204
344
204
  0
ENDTAB
  0
ENDSEC
  0
SECTION
  2
BLOCKS
  0
BLOCK
  5
20
100
AcDbEntity
  8
0
100
AcDbBlockBegin
  2
*Model_Space
 70
0
 10
0.0
 20
0.0
 30
0.0
  3
*Model_Space
  1

  0
ENDBLK
  5
21
100
AcDbEntity
  8
0
100
AcDbBlockEnd
  0
BLOCK
  5
1C
100
AcDbEntity
  8
0
100
AcDbBlockBegin
  2
*Paper_Space
 70
0
 10
0.0
 20
0.0
 30
0.0
  3
*Paper_Space
  1

  0
ENDBLK
  5
1D
100
AcDbEntity
  8
0
100
AcDbBlockEnd
  0
BLOCK
  5
206
100
AcDbEntity
  8
0
100
AcDbBlockBegin
  2
_FILLED
 70
64
 10
0.0
 20
0.0
  3
_FILLED
  1

  0
SOLID
  5
207
100
AcDbEntity
  8
0
  6
BYBLOCK
 62
0
100
AcDbTrace
 10
0.0
 20
0.0
 11
-1.0
 21
0.2
 12
-1.0
 22
-0.2
 13
-1.0
 23
-0.2
  0
ENDBLK
  5
208
100
AcDbEntity
  8
0
  6
BYBLOCK
 62
0
100
AcDbBlockEnd
  0
ENDSEC
  0
SECTION
  2
ENTITIES
  0
LINE
  5
209
100
AcDbEntity
  8
0
100
AcDbLine
 62
7
  6
CONTINUOUS
 10
5.7676923427
 20
5.9924189453
 11
5.7676923427
 21
5.9784189453
  0
LINE
  5
20A
100
AcDbEntity
  8
0
100
AcDbLine
 62
7
  6
CONTINUOUS
 10
6.5275356938
 20
7.9203108041
 11
6.5030267991
 21
7.7813139554
  0
LINE
  5
20B
100
AcDbEntity
  8
0
100
AcDbLine
 62
7
  6
CONTINUOUS
 10
7.3478489917
 20
7.9203108041
 11
7.3723578863
 21
7.7813139554
  0
LINE
  5
20C
100
AcDbEntity
  8
0
100
AcDbLine
 62
7
  6
CONTINUOUS
 10
5.7676923427
 20
5.9784189453
 11
8.1076923427
 21
5.9784189453
  0
LINE
  5
20D
100
AcDbEntity
  8
0
100
AcDbLine
 62
7
  6
CONTINUOUS
 10
9.6376923427
 20
5.9784189453
 11
12.2376923427
 21
5.9784189453
  0
LINE
  5
20E
100
AcDbEntity
  8
0
100
AcDbLine
 62
7
  6
CONTINUOUS
 10
13.7676923427
 20
5.9784189453
 11
16.1076923427
 21
5.9784189453
  0
LINE
  5
20F
100
AcDbEntity
  8
0
100
AcDbLine
 62
9
  6
CONTINUOUS
 10
16.1076923427
 20
5.9924189453
 11
13.7676923427
 21
5.9924189453
  0
LINE
  5
210
100
AcDbEntity
  8
0
100
AcDbLine
 62
9
  6
CONTINUOUS
 10
12.2376923427
 20
5.9924189453
 11
9.6376923427
 21
5.9924189453
  0
LINE
  5
211
100
AcDbEntity
  8
0
100
AcDbLine
 62
9
  6
CONTINUOUS
 10
8.1076923427
 20
5.9924189453
 11
5.7676923427
 21
5.9924189453
  0
LINE
  5
212
100
AcDbEntity
  8
0
100
AcDbLine
 62
7
  6
CONTINUOUS
 10
8.1076923427
 20
5.9924189453
 11
8.1076923427
 21
5.9784189453
  0
LINE
  5
213
100
AcDbEntity
  8
0
100
AcDbLine
 62
9
  6
CONTINUOUS
 10
5.8333206323
 20
6.1024189453
 11
8.0420640532
 21
6.1024189453
  0
LINE
  5
214
100
AcDbEntity
  8
0
100
AcDbLine
 62
9
  6
CONTINUOUS
 10
9.7033206323
 20
6.1024189453
 11
12.1720640532
 21
6.1024189453
  0
LINE
  5
215
100
AcDbEntity
  8
0
100
AcDbLine
 62
9
  6
CONTINUOUS
 10
13.8333206323
 20
6.1024189453
 11
16.0420640532
 21
6.1024189453
  0
LINE
  5
216
100
AcDbEntity
  8
0
100
AcDbLine
 62
9
  6
CONTINUOUS
 10
5.8657699731
 20
6.1534189453
 11
8.0096147124
 21
6.1534189453
  0
LINE
  5
217
100
AcDbEntity
  8
0
100
AcDbLine
 62
9
  6
CONTINUOUS
 10
9.7357699731
 20
6.1534189453
 11
12.1396147124
 21
6.1534189453
  0
LINE
  5
218
100
AcDbEntity
  8
0
100
AcDbLine
 62
9
  6
CONTINUOUS
 10
13.8657699731
 20
6.1534189453
 11
16.0096147124
 21
6.1534189453
  0
LINE
  5
219
100
AcDbEntity
  8
0
100
AcDbLine
 62
9
  6
CONTINUOUS
 10
5.8969464151
 20
6.2114189453
 11
7.9784382703
 21
6.2114189453
  0
LINE
  5
21A
100
AcDbEntity
  8
0
100
AcDbLine
 62
9
  6
CONTINUOUS
 10
9.7669464151
 20
6.2114189453
 11
12.1084382703
 21
6.2114189453
  0
LINE
  5
21B
100
AcDbEntity
  8
0
100
AcDbLine
 62
9
  6
CONTINUOUS
 10
13.8969464151
 20
6.2114189453
 11
15.9784382703
 21
6.2114189453
  0
LINE
  5
21C
100
AcDbEntity
  8
0
100
AcDbLine
 62
9
  6
CONTINUOUS
 10
5.9212218364
 20
6.2524189453
 11
7.9541628491
 21
6.2524189453
  0
LINE
  5
21D
100
AcDbEntity
  8
0
100
AcDbLine
 62
9
  6
CONTINUOUS
 10
9.7912218364
 20
6.2524189453
 11
12.0841628491
 21
6.2524189453
  0
LINE
  5
21E
100
AcDbEntity
  8
0
100
AcDbLine
 62
9
  6
CONTINUOUS
 10
13.9212218364
 20
6.2524189453
 11
15.9541628491
 21
6.2524189453
  0
LINE
  5
21F
100
AcDbEntity
  8
0
100
AcDbLine
 62
9
  6
CONTINUOUS
 10
5.9583487857
 20
6.3084189453
 11
7.9170358998
 21
6.3084189453
  0
LINE
  5
220
100
AcDbEntity
  8
0
100
AcDbLine
 62
9
  6
CONTINUOUS
 10
9.8283487857
 20
6.3084189453
 11
12.0470358998
 21
6.3084189453
  0
LINE
  5
221
100
AcDbEntity
  8
0
100
AcDbLine
 62
9
  6
CONTINUOUS
 10
13.9583487857
 20
6.3084189453
 11
15.9170358998
 21
6.3084189453
  0
LINE
  5
222
100
AcDbEntity
  8
0
100
AcDbLine
 62
9
  6
CONTINUOUS
 10
5.9857441891
 20
6.3434189453
 11
7.8896404964
 21
6.3434189453
  0
LINE
  5
223
100
AcDbEntity
  8
0
100
AcDbLine
 62
9
  6
CONTINUOUS
 10
13.9857441891
 20
6.3434189453
 11
15.8896404964
 21
6.3434189453
  0
LINE
  5
224
100
AcDbEntity
  8
0
100
AcDbLine
 62
9
  6
CONTINUOUS
 10
9.8560859185
 20
6.3445733118
 11
12.019298767
 21
6.3445733118
  0
LINE
  5
225
100
AcDbEntity
  8
0
100
AcDbLine
 62
9
  6
CONTINUOUS
 10
5.9958685725
 20
6.3584189453
 11
7.879516113
 21
6.3584189453
  0
LINE
  5
226
100
AcDbEntity
  8
0
100
AcDbLine
 62
9
  6
CONTINUOUS
 10
13.9958685725
 20
6.3584189453
 11
15.879516113
 21
6.3584189453
  0
LINE
  5
227
100
AcDbEntity
  8
0
100
AcDbLine
 62
7
  6
CONTINUOUS
 10
11.9876923427
 20
6.3684189453
 11
9.8876923427
 21
6.3684189453
  0
LINE
  5
228
100
AcDbEntity
  8
0
100
AcDbLine
 62
9
  6
CONTINUOUS
 10
15.7531629052
 20
6.6474189453
 11
14.1222217802
 21
6.6474189453
  0
LINE
  5
229
100
AcDbEntity
  8
0
100
AcDbLine
 62
9
  6
CONTINUOUS
 10
7.7531629052
 20
6.6474189453
 11
6.1222217802
 21
6.6474189453
  0
LINE
  5
22A
100
AcDbEntity
  8
0
100
AcDbLine
 62
9
  6
CONTINUOUS
 10
10.0502051191
 20
7.029775113
 11
11.8251795664
 21
7.029775113
  0
LINE
  5
22B
100
AcDbEntity
  8
0
100
AcDbLine
 62
9
  6
CONTINUOUS
 10
6.1499447793
 20
7.0524189453
 11
7.7254399062
 21
7.0524189453
  0
LINE
  5
22C
100
AcDbEntity
  8
0
100
AcDbLine
 62
9
  6
CONTINUOUS
 10
14.1499447793
 20
7.0524189453
 11
15.7254399062
 21
7.0524189453
  0
LINE
  5
22D
100
AcDbEntity
  8
0
100
AcDbLine
 62
9
  6
CONTINUOUS
 10
10.3237350741
 20
7.506198626
 11
11.5516496114
 21
7.506198626
  0
LINE
  5
22E
100
AcDbEntity
  8
0
100
AcDbLine
 62
9
  6
CONTINUOUS
 10
6.4131972422
 20
7.5909134252
 11
7.4621874432
 21
7.5909134252
  0
LINE
  5
22F
100
AcDbEntity
  8
0
100
AcDbLine
 62
9
  6
CONTINUOUS
 10
14.4131972422
 20
7.5909134252
 11
15.4621874432
 21
7.5909134252
  0
LINE
  5
230
100
AcDbEntity
  8
0
100
AcDbLine
 62
7
  6
CONTINUOUS
 10
9.6376923427
 20
5.9924189453
 11
9.6376923427
 21
5.9784189453
  0
LINE
  5
231
100
AcDbEntity
  8
0
100
AcDbLine
 62
9
  6
CONTINUOUS
 10
6.5030267991
 20
7.7813139554
 11
7.3723578863
 21
7.7813139554
  0
LINE
  5
232
100
AcDbEntity
  8
0
100
AcDbLine
 62
9
  6
CONTINUOUS
 10
14.5030267991
 20
7.7813139554
 11
15.3723578863
 21
7.7813139554
  0
LINE
  5
233
100
AcDbEntity
  8
0
100
AcDbLine
 62
9
  6
CONTINUOUS
 10
15.3478489917
 20
7.9203108041
 11
14.5275356938
 21
7.9203108041
  0
LINE
  5
234
100
AcDbEntity
  8
0
100
AcDbLine
 62
9
  6
CONTINUOUS
 10
7.3478489917
 20
7.9203108041
 11
6.5275356938
 21
7.9203108041
  0
LINE
  5
235
100
AcDbEntity
  8
0
100
AcDbLine
 62
7
  6
CONTINUOUS
 10
15.2690643566
 20
7.9864189453
 11
14.6063203289
 21
7.9864189453
  0
LINE
  5
236
100
AcDbEntity
  8
0
100
AcDbLine
 62
7
  6
CONTINUOUS
 10
7.2690643566
 20
7.9864189453
 11
6.6063203289
 21
7.9864189453
  0
LINE
  5
237
100
AcDbEntity
  8
0
100
AcDbLine
 62
7
  6
CONTINUOUS
 10
11.3726923427
 20
7.9924189453
 11
10.5026923427
 21
7.9924189453
  0
LINE
  5
238
100
AcDbEntity
  8
0
100
AcDbLine
 62
7
  6
CONTINUOUS
 10
11.3726923427
 20
8.1224189453
 11
10.5026923427
 21
8.1224189453
  0
LINE
  5
239
100
AcDbEntity
  8
0
100
AcDbLine
 62
9
  6
CONTINUOUS
 10
10.5466955178
 20
8.8183095406
 11
11.3286891677
 21
8.8183095406
  0
LINE
  5
23A
100
AcDbEntity
  8
0
100
AcDbLine
 62
7
  6
CONTINUOUS
 10
10.5897052797
 20
9.8517001608
 11
10.5207078448
 21
10.5490903206
  0
LINE
  5
23B
100
AcDbEntity
  8
0
100
AcDbLine
 62
7
  6
CONTINUOUS
 10
10.6251923427
 20
11.739261923
 11
10.6251923427
 21
10.6953126655
  0
LINE
  5
23C
100
AcDbEntity
  8
0
100
AcDbLine
 62
7
  6
CONTINUOUS
 10
10.6876923427
 20
12.169920059
 11
10.6876923427
 21
12.106920059
  0
LINE
  5
23D
100
AcDbEntity
  8
0
100
AcDbLine
 62
7
  6
CONTINUOUS
 10
11.1876923427
 20
12.169920059
 11
11.1876923427
 21
12.106920059
  0
LINE
  5
23E
100
AcDbEntity
  8
0
100
AcDbLine
 62
7
  6
CONTINUOUS
 10
11.2501923427
 20
11.7392594372
 11
11.2501923427
 21
10.6953151599
  0
LINE
  5
23F
100
AcDbEntity
  8
0
100
AcDbLine
 62
7
  6
CONTINUOUS
 10
11.2856794058
 20
9.8517001608
 11
11.3546768407
 21
10.5490903206
  0
LINE
  5
240
100
AcDbEntity
  8
0
100
AcDbLine
 62
9
  6
CONTINUOUS
 10
10.5466955178
 20
9.66652835
 11
11.3286891677
 21
9.66652835
  0
LINE
  5
241
100
AcDbEntity
  8
0
100
AcDbLine
 62
7
  6
CONTINUOUS
 10
11.3726923427
 20
10.3624189453
 11
11.3362082032
 21
10.3624189453
  0
LINE
  5
242
100
AcDbEntity
  8
0
100
AcDbLine
 62
7
  6
CONTINUOUS
 10
10.5391764823
 20
10.3624189453
 11
10.5026923427
 21
10.3624189453
  0
LINE
  5
243
100
AcDbEntity
  8
0
100
AcDbLine
 62
7
  6
CONTINUOUS
 10
11.374192924
 20
10.4924189453
 11
11.3490699656
 21
10.4924189453
  0
LINE
  5
244
100
AcDbEntity
  8
0
100
AcDbLine
 62
7
  6
CONTINUOUS
 10
10.5263147199
 20
10.4924189453
 11
10.5011886572
 21
10.4924189453
  0
LINE
  5
245
100
AcDbEntity
  8
0
100
AcDbLine
 62
7
  6
CONTINUOUS
 10
12.2376923427
 20
5.9924189453
 11
12.2376923427
 21
5.9784189453
  0
LINE
  5
246
100
AcDbEntity
  8
0
100
AcDbLine
 62
7
  6
CONTINUOUS
 10
13.7676923427
 20
5.9924189453
 11
13.7676923427
 21
5.9784189453
  0
LINE
  5
247
100
AcDbEntity
  8
0
100
AcDbLine
 62
7
  6
CONTINUOUS
 10
10.6876923427
 20
12.106920059
 11
11.1876923427
 21
12.106920059
  0
LINE
  5
248
100
AcDbEntity
  8
0
100
AcDbLine
 62
7
  6
CONTINUOUS
 10
10.5916923427
 20
12.169920059
 11
11.2836923427
 21
12.169920059
  0
LINE
  5
249
100
AcDbEntity
  8
0
100
AcDbLine
 62
7
  6
CONTINUOUS
 10
11.2836923427
 20
12.404920059
 11
10.5916923427
 21
12.404920059
  0
LINE
  5
24A
100
AcDbEntity
  8
0
100
AcDbLine
 62
7
  6
CONTINUOUS
 10
11.0656713412
 20
12.556920059
 11
10.8097133443
 21
12.556920059
  0
LINE
  5
24B
100
AcDbEntity
  8
0
100
AcDbLine
 62
7
  6
CONTINUOUS
 10
14.5275356938
 20
7.9203108041
 11
14.5030267991
 21
7.7813139554
  0
LINE
  5
24C
100
AcDbEntity
  8
0
100
AcDbLine
 62
7
  6
CONTINUOUS
 10
15.3478489917
 20
7.9203108041
 11
15.3723578863
 21
7.7813139554
  0
LINE
  5
24D
100
AcDbEntity
  8
0
100
AcDbLine
 62
7
  6
CONTINUOUS
 10
16.1076923427
 20
5.9924189453
 11
16.1076923427
 21
5.9784189453
  0
ARC
  5
24E
100
AcDbEntity
  8
0
100
AcDbCircle
 62
7
  6
CONTINUOUS
 10
0.5506934011
 20
9.1010491437
 40
10.0
100
AcDbArc
 50
354.3838731126
 51
358.3798054864
  0
ARC
  5
24F
100
AcDbEntity
  8
0
100
AcDbCircle
 62
7
  6
CONTINUOUS
 10
9.9376923427
 20
6.3684189453
 40
2.0
100
AcDbArc
 50
0.0
 51
19.3099375771
  0
ARC
  5
250
100
AcDbEntity
  8
0
100
AcDbCircle
 62
7
  6
CONTINUOUS
 10
7.6389533674
 20
6.7470447084
 40
1.52
100
AcDbArc
 50
168.4101664982
 51
183.7580464624
  0
ARC
  5
251
100
AcDbEntity
  8
0
100
AcDbCircle
 62
7
  6
CONTINUOUS
 10
6.2364313181
 20
6.7470447084
 40
1.52
100
AcDbArc
 50
356.2419535376
 51
11.5898335018
  0
ARC
  5
252
100
AcDbEntity
  8
0
100
AcDbCircle
 62
7
  6
CONTINUOUS
 10
10.4095641486
 20
6.5337579872
 40
1.5
100
AcDbArc
 50
19.3099375771
 51
40.4130818139
  0
ARC
  5
253
100
AcDbEntity
  8
0
100
AcDbCircle
 62
7
  6
CONTINUOUS
 10
6.5499068104
 20
6.8113340214
 40
1.2
100
AcDbArc
 50
11.5898335018
 51
40.5151811264
  0
ARC
  5
254
100
AcDbEntity
  8
0
100
AcDbCircle
 62
7
  6
CONTINUOUS
 10
7.3254778751
 20
6.8113340214
 40
1.2
100
AcDbArc
 50
139.4848188736
 51
168.4101664982
  0
ARC
  5
255
100
AcDbEntity
  8
0
100
AcDbCircle
 62
7
  6
CONTINUOUS
 10
9.7526923427
 20
7.9924189453
 40
0.75
100
AcDbArc
 50
319.5869181861
 51
360.0
  0
ARC
  5
256
100
AcDbEntity
  8
0
100
AcDbCircle
 62
7
  6
CONTINUOUS
 10
6.1091036979
 20
7.8507732265
 40
0.4
100
AcDbArc
 50
319.4848188736
 51
350.0
  0
ARC
  5
257
100
AcDbEntity
  8
0
100
AcDbCircle
 62
7
  6
CONTINUOUS
 10
7.7662809875
 20
7.8507732265
 40
0.4
100
AcDbArc
 50
190.0
 51
220.5151811264
  0
ARC
  5
258
100
AcDbEntity
  8
0
100
AcDbCircle
 62
7
  6
CONTINUOUS
 10
8.0954253621
 20
6.6249376054
 40
0.343
100
AcDbArc
 50
176.2419535375
 51
230.9887457036
  0
ARC
  5
259
100
AcDbEntity
  8
0
100
AcDbCircle
 62
7
  6
CONTINUOUS
 10
5.7799593234
 20
6.6249376054
 40
0.343
100
AcDbArc
 50
309.0112542964
 51
3.7580464625
  0
ARC
  5
25A
100
AcDbEntity
  8
0
100
AcDbCircle
 62
7
  6
CONTINUOUS
 10
5.8926923427
 20
5.9924189453
 40
0.125
100
AcDbArc
 50
118.3576365763
 51
180.0
  0
ARC
  5
25B
100
AcDbEntity
  8
0
100
AcDbCircle
 62
7
  6
CONTINUOUS
 10
7.9826923427
 20
5.9924189453
 40
0.125
100
AcDbArc
 50
0.0
 51
61.6423634237
  0
ARC
  5
25C
100
AcDbEntity
  8
0
100
AcDbCircle
 62
7
  6
CONTINUOUS
 10
9.7626923427
 20
5.9924189453
 40
0.125
100
AcDbArc
 50
118.3576365763
 51
180.0
  0
ARC
  5
25D
100
AcDbEntity
  8
0
100
AcDbCircle
 62
7
  6
CONTINUOUS
 10
7.2690643722
 20
7.9064189453
 40
0.08
100
AcDbArc
 50
10.0000032985
 51
90.0000112242
  0
ARC
  5
25E
100
AcDbEntity
  8
0
100
AcDbCircle
 62
7
  6
CONTINUOUS
 10
6.6063203132
 20
7.9064189453
 40
0.08
100
AcDbArc
 50
89.9999887758
 51
169.9999967015
  0
ARC
  5
25F
100
AcDbEntity
  8
0
100
AcDbCircle
 62
7
  6
CONTINUOUS
 10
5.998456752
 20
6.2415208808
 40
0.078
100
AcDbArc
 50
120.9443106101
 51
171.96842665
  0
ARC
  5
260
100
AcDbEntity
  8
0
100
AcDbCircle
 62
7
  6
CONTINUOUS
 10
7.8769279335
 20
6.2415208808
 40
0.078
100
AcDbArc
 50
8.03157335
 51
59.0556893899
  0
ARC
  5
261
100
AcDbEntity
  8
0
100
AcDbCircle
 62
7
  6
CONTINUOUS
 10
5.9436412846
 20
6.1489402356
 40
0.078
100
AcDbArc
 50
126.7734275124
 51
176.708302835
  0
ARC
  5
262
100
AcDbEntity
  8
0
100
AcDbCircle
 62
7
  6
CONTINUOUS
 10
7.9317434009
 20
6.1489402356
 40
0.078
100
AcDbArc
 50
3.291697165
 51
53.2265724876
  0
ARC
  5
263
100
AcDbEntity
  8
0
100
AcDbCircle
 62
7
  6
CONTINUOUS
 10
9.8136412846
 20
6.1489402356
 40
0.078
100
AcDbArc
 50
126.7734275122
 51
176.708302835
  0
ARC
  5
264
100
AcDbEntity
  8
0
100
AcDbCircle
 62
7
  6
CONTINUOUS
 10
9.868456752
 20
6.2415208808
 40
0.078
100
AcDbArc
 50
120.9443106096
 51
171.96842665
  0
ARC
  5
265
100
AcDbEntity
  8
0
100
AcDbCircle
 62
7
  6
CONTINUOUS
 10
10.5026923427
 20
8.0574189453
 40
0.065
100
AcDbArc
 50
90.0000000031
 51
270.0
  0
ARC
  5
266
100
AcDbEntity
  8
0
100
AcDbCircle
 62
7
  6
CONTINUOUS
 10
7.948916591
 20
6.3615943299
 40
0.062
100
AcDbArc
 50
197.0467181652
 51
239.0556893902
  0
ARC
  5
267
100
AcDbEntity
  8
0
100
AcDbCircle
 62
7
  6
CONTINUOUS
 10
5.9264680945
 20
6.3615943299
 40
0.062
100
AcDbArc
 50
300.9443106098
 51
342.9532818348
  0
ARC
  5
268
100
AcDbEntity
  8
0
100
AcDbCircle
 62
7
  6
CONTINUOUS
 10
8.0155547051
 20
6.2610815094
 40
0.062
100
AcDbArc
 50
188.0315733501
 51
233.2265724873
  0
ARC
  5
269
100
AcDbEntity
  8
0
100
AcDbCircle
 62
7
  6
CONTINUOUS
 10
5.8598299804
 20
6.2610815094
 40
0.062
100
AcDbArc
 50
306.7734275127
 51
351.9684266499
  0
ARC
  5
26A
100
AcDbEntity
  8
0
100
AcDbCircle
 62
7
  6
CONTINUOUS
 10
8.0715124215
 20
6.1569789453
 40
0.062
100
AcDbArc
 50
183.291697165
 51
241.6423634236
  0
ARC
  5
26B
100
AcDbEntity
  8
0
100
AcDbCircle
 62
7
  6
CONTINUOUS
 10
5.8038722639
 20
6.1569789453
 40
0.062
100
AcDbArc
 50
298.3576365764
 51
356.708302835
  0
ARC
  5
26C
100
AcDbEntity
  8
0
100
AcDbCircle
 62
7
  6
CONTINUOUS
 10
9.6738722639
 20
6.1569789453
 40
0.062
100
AcDbArc
 50
298.3576365764
 51
356.708302835
  0
ARC
  5
26D
100
AcDbEntity
  8
0
100
AcDbCircle
 62
7
  6
CONTINUOUS
 10
9.7298299804
 20
6.2610815094
 40
0.062
100
AcDbArc
 50
306.7734275127
 51
351.9684266499
  0
ARC
  5
26E
100
AcDbEntity
  8
0
100
AcDbCircle
 62
7
  6
CONTINUOUS
 10
9.7964680945
 20
6.3615943299
 40
0.062
100
AcDbArc
 50
300.9443106101
 51
344.0658408373
  0
ARC
  5
26F
100
AcDbEntity
  8
0
100
AcDbCircle
 62
7
  6
CONTINUOUS
 10
9.8876923427
 20
6.3355496091
 40
0.0328693362
100
AcDbArc
 50
90.0
 51
164.0658408376
  0
ARC
  5
270
100
AcDbEntity
  8
0
100
AcDbCircle
 62
7
  6
CONTINUOUS
 10
6.0153822364
 20
6.334331253
 40
0.031
100
AcDbArc
 50
129.0112542963
 51
162.9532818349
  0
ARC
  5
271
100
AcDbEntity
  8
0
100
AcDbCircle
 62
7
  6
CONTINUOUS
 10
7.8600024491
 20
6.334331253
 40
0.031
100
AcDbArc
 50
17.0467181651
 51
50.9887457037
  0
ARC
  5
272
100
AcDbEntity
  8
0
100
AcDbCircle
 62
7
  6
CONTINUOUS
 10
-4.4473076573
 20
9.2424189453
 40
15.0
100
AcDbArc
 50
358.3798054864
 51
1.6201945136
  0
ARC
  5
273
100
AcDbEntity
  8
0
100
AcDbCircle
 62
7
  6
CONTINUOUS
 10
0.5506934011
 20
9.3837887469
 40
10.0
100
AcDbArc
 50
1.6201945136
 51
5.6161268874
  0
ARC
  5
274
100
AcDbEntity
  8
0
100
AcDbCircle
 62
7
  6
CONTINUOUS
 10
10.937691945
 20
11.0523900128
 40
0.7099998256
100
AcDbArc
 50
307.936602714
 51
63.877735201
  0
ARC
  5
275
100
AcDbEntity
  8
0
100
AcDbCircle
 62
7
  6
CONTINUOUS
 10
10.4775944406
 20
11.919420059
 40
0.2815979021
100
AcDbArc
 50
14.3526341955
 51
41.7470327955
  0
ARC
  5
276
100
AcDbEntity
  8
0
100
AcDbCircle
 62
7
  6
CONTINUOUS
 10
10.8097133443
 20
12.368920059
 40
0.188
100
AcDbArc
 50
90.0
 51
168.960285586
  0
ARC
  5
277
100
AcDbEntity
  8
0
100
AcDbCircle
 62
7
  6
CONTINUOUS
 10
10.5916923427
 20
12.287420059
 40
0.1175
100
AcDbArc
 50
90.0
 51
270.0
  0
ARC
  5
278
100
AcDbEntity
  8
0
100
AcDbCircle
 62
7
  6
CONTINUOUS
 10
10.5654202208
 20
10.6512870221
 40
0.1154008696
100
AcDbArc
 50
246.4855553092
 51
247.4618724754
  0
ARC
  5
279
100
AcDbEntity
  8
0
100
AcDbCircle
 62
7
  6
CONTINUOUS
 10
10.5026923427
 20
10.4274189453
 40
0.065
100
AcDbArc
 50
91.3178798785
 51
269.9999999969
  0
ARC
  5
27A
100
AcDbEntity
  8
0
100
AcDbCircle
 62
7
  6
CONTINUOUS
 10
21.3246912844
 20
9.1010491437
 40
10.0
100
AcDbArc
 50
181.6201945136
 51
185.6161268874
  0
ARC
  5
27B
100
AcDbEntity
  8
0
100
AcDbCircle
 62
7
  6
CONTINUOUS
 10
11.9376923428
 20
6.3684189453
 40
2.0
100
AcDbArc
 50
160.6900624229
 51
180.0
  0
ARC
  5
27C
100
AcDbEntity
  8
0
100
AcDbCircle
 62
7
  6
CONTINUOUS
 10
11.0982818591
 20
9.030889477
 40
1.5500402044
100
AcDbArc
 50
84.4184641699
 51
85.0648875536
  0
ARC
  5
27D
100
AcDbEntity
  8
0
100
AcDbCircle
 62
7
  6
CONTINUOUS
 10
15.6389533674
 20
6.7470447084
 40
1.52
100
AcDbArc
 50
168.4101664982
 51
183.7580464624
  0
ARC
  5
27E
100
AcDbEntity
  8
0
100
AcDbCircle
 62
7
  6
CONTINUOUS
 10
14.2364313181
 20
6.7470447084
 40
1.52
100
AcDbArc
 50
356.2419535376
 51
11.5898335018
  0
ARC
  5
27F
100
AcDbEntity
  8
0
100
AcDbCircle
 62
7
  6
CONTINUOUS
 10
11.4658205368
 20
6.5337579872
 40
1.5
100
AcDbArc
 50
139.5869181861
 51
160.6900624229
  0
ARC
  5
280
100
AcDbEntity
  8
0
100
AcDbCircle
 62
7
  6
CONTINUOUS
 10
14.5499068104
 20
6.8113340214
 40
1.2
100
AcDbArc
 50
11.5898335018
 51
40.5151811264
  0
ARC
  5
281
100
AcDbEntity
  8
0
100
AcDbCircle
 62
7
  6
CONTINUOUS
 10
15.3254778751
 20
6.8113340214
 40
1.2
100
AcDbArc
 50
139.4848188736
 51
168.4101664982
  0
ARC
  5
282
100
AcDbEntity
  8
0
100
AcDbCircle
 62
7
  6
CONTINUOUS
 10
12.1226923427
 20
7.9924189453
 40
0.75
100
AcDbArc
 50
180.0
 51
220.4130818139
  0
ARC
  5
283
100
AcDbEntity
  8
0
100
AcDbCircle
 62
7
  6
CONTINUOUS
 10
14.1091036979
 20
7.8507732265
 40
0.4
100
AcDbArc
 50
319.4848188736
 51
350.0
  0
ARC
  5
284
100
AcDbEntity
  8
0
100
AcDbCircle
 62
7
  6
CONTINUOUS
 10
15.7662809875
 20
7.8507732265
 40
0.4
100
AcDbArc
 50
190.0
 51
220.5151811264
  0
ARC
  5
285
100
AcDbEntity
  8
0
100
AcDbCircle
 62
7
  6
CONTINUOUS
 10
16.0954253621
 20
6.6249376054
 40
0.343
100
AcDbArc
 50
176.2419535375
 51
230.9887457036
  0
ARC
  5
286
100
AcDbEntity
  8
0
100
AcDbCircle
 62
7
  6
CONTINUOUS
 10
13.7799593234
 20
6.6249376054
 40
0.343
100
AcDbArc
 50
309.0112542964
 51
3.7580464625
  0
ARC
  5
287
100
AcDbEntity
  8
0
100
AcDbCircle
 62
7
  6
CONTINUOUS
 10
13.8926923427
 20
5.9924189453
 40
0.125
100
AcDbArc
 50
118.3576365763
 51
180.0
  0
ARC
  5
288
100
AcDbEntity
  8
0
100
AcDbCircle
 62
7
  6
CONTINUOUS
 10
15.9826923427
 20
5.9924189453
 40
0.125
100
AcDbArc
 50
0.0
 51
61.6423634237
  0
ARC
  5
289
100
AcDbEntity
  8
0
100
AcDbCircle
 62
7
  6
CONTINUOUS
 10
12.1126923427
 20
5.9924189453
 40
0.125
100
AcDbArc
 50
0.0
 51
61.6423634237
  0
ARC
  5
28A
100
AcDbEntity
  8
0
100
AcDbCircle
 62
7
  6
CONTINUOUS
 10
15.2690643722
 20
7.9064189453
 40
0.08
100
AcDbArc
 50
10.0000032985
 51
90.0000112242
  0
ARC
  5
28B
100
AcDbEntity
  8
0
100
AcDbCircle
 62
7
  6
CONTINUOUS
 10
14.6063203132
 20
7.9064189453
 40
0.08
100
AcDbArc
 50
89.9999887758
 51
169.9999967015
  0
ARC
  5
28C
100
AcDbEntity
  8
0
100
AcDbCircle
 62
7
  6
CONTINUOUS
 10
13.998456752
 20
6.2415208808
 40
0.078
100
AcDbArc
 50
120.9443106101
 51
171.96842665
  0
ARC
  5
28D
100
AcDbEntity
  8
0
100
AcDbCircle
 62
7
  6
CONTINUOUS
 10
15.8769279335
 20
6.2415208808
 40
0.078
100
AcDbArc
 50
8.03157335
 51
59.0556893899
  0
ARC
  5
28E
100
AcDbEntity
  8
0
100
AcDbCircle
 62
7
  6
CONTINUOUS
 10
13.9436412846
 20
6.1489402356
 40
0.078
100
AcDbArc
 50
126.7734275124
 51
176.708302835
  0
ARC
  5
28F
100
AcDbEntity
  8
0
100
AcDbCircle
 62
7
  6
CONTINUOUS
 10
15.9317434009
 20
6.1489402356
 40
0.078
100
AcDbArc
 50
3.291697165
 51
53.2265724876
  0
ARC
  5
290
100
AcDbEntity
  8
0
100
AcDbCircle
 62
7
  6
CONTINUOUS
 10
12.0617434009
 20
6.1489402356
 40
0.078
100
AcDbArc
 50
3.291697165
 51
53.2265724878
  0
ARC
  5
291
100
AcDbEntity
  8
0
100
AcDbCircle
 62
7
  6
CONTINUOUS
 10
12.0069279335
 20
6.2415208808
 40
0.078
100
AcDbArc
 50
8.03157335
 51
59.0556893904
  0
ARC
  5
292
100
AcDbEntity
  8
0
100
AcDbCircle
 62
7
  6
CONTINUOUS
 10
11.3726923427
 20
8.0574189453
 40
0.065
100
AcDbArc
 50
270.0
 51
89.9999999969
  0
ARC
  5
293
100
AcDbEntity
  8
0
100
AcDbCircle
 62
7
  6
CONTINUOUS
 10
15.948916591
 20
6.3615943299
 40
0.062
100
AcDbArc
 50
197.0467181652
 51
239.0556893902
  0
ARC
  5
294
100
AcDbEntity
  8
0
100
AcDbCircle
 62
7
  6
CONTINUOUS
 10
13.9264680945
 20
6.3615943299
 40
0.062
100
AcDbArc
 50
300.9443106098
 51
342.9532818348
  0
ARC
  5
295
100
AcDbEntity
  8
0
100
AcDbCircle
 62
7
  6
CONTINUOUS
 10
16.0155547051
 20
6.2610815094
 40
0.062
100
AcDbArc
 50
188.0315733501
 51
233.2265724873
  0
ARC
  5
296
100
AcDbEntity
  8
0
100
AcDbCircle
 62
7
  6
CONTINUOUS
 10
13.8598299804
 20
6.2610815094
 40
0.062
100
AcDbArc
 50
306.7734275127
 51
351.9684266499
  0
ARC
  5
297
100
AcDbEntity
  8
0
100
AcDbCircle
 62
7
  6
CONTINUOUS
 10
16.0715124215
 20
6.1569789453
 40
0.062
100
AcDbArc
 50
183.291697165
 51
241.6423634236
  0
ARC
  5
298
100
AcDbEntity
  8
0
100
AcDbCircle
 62
7
  6
CONTINUOUS
 10
13.8038722639
 20
6.1569789453
 40
0.062
100
AcDbArc
 50
298.3576365764
 51
356.708302835
  0
ARC
  5
299
100
AcDbEntity
  8
0
100
AcDbCircle
 62
7
  6
CONTINUOUS
 10
12.2015124215
 20
6.1569789453
 40
0.062
100
AcDbArc
 50
183.291697165
 51
241.6423634236
  0
ARC
  5
29A
100
AcDbEntity
  8
0
100
AcDbCircle
 62
7
  6
CONTINUOUS
 10
12.1455547051
 20
6.2610815094
 40
0.062
100
AcDbArc
 50
188.0315733501
 51
233.2265724873
  0
ARC
  5
29B
100
AcDbEntity
  8
0
100
AcDbCircle
 62
7
  6
CONTINUOUS
 10
12.078916591
 20
6.3615943299
 40
0.062
100
AcDbArc
 50
195.9341591627
 51
239.0556893899
  0
ARC
  5
29C
100
AcDbEntity
  8
0
100
AcDbCircle
 62
7
  6
CONTINUOUS
 10
11.9876923427
 20
6.3355496091
 40
0.0328693362
100
AcDbArc
 50
15.9341591624
 51
90.0
  0
ARC
  5
29D
100
AcDbEntity
  8
0
100
AcDbCircle
 62
7
  6
CONTINUOUS
 10
14.0153822364
 20
6.334331253
 40
0.031
100
AcDbArc
 50
129.0112542963
 51
162.9532818349
  0
ARC
  5
29E
100
AcDbEntity
  8
0
100
AcDbCircle
 62
7
  6
CONTINUOUS
 10
15.8600024491
 20
6.334331253
 40
0.031
100
AcDbArc
 50
17.0467181651
 51
50.9887457037
  0
ARC
  5
29F
100
AcDbEntity
  8
0
100
AcDbCircle
 62
7
  6
CONTINUOUS
 10
26.3226923427
 20
9.2424189453
 40
15.0
100
AcDbArc
 50
178.3798054864
 51
181.6201945136
  0
ARC
  5
2A0
100
AcDbEntity
  8
0
100
AcDbCircle
 62
7
  6
CONTINUOUS
 10
21.3246912844
 20
9.3837887469
 40
10.0
100
AcDbArc
 50
174.3838731126
 51
178.3798054864
  0
ARC
  5
2A1
100
AcDbEntity
  8
0
100
AcDbCircle
 62
7
  6
CONTINUOUS
 10
11.1138335032
 20
9.191123122
 40
1.3890536773
100
AcDbArc
 50
84.2566406278
 51
84.4140604542
  0
ARC
  5
2A2
100
AcDbEntity
  8
0
100
AcDbCircle
 62
7
  6
CONTINUOUS
 10
10.937692512
 20
11.0523901054
 40
0.7099996978
100
AcDbArc
 50
116.12021164
 51
232.0634162102
  0
ARC
  5
2A3
100
AcDbEntity
  8
0
100
AcDbCircle
 62
7
  6
CONTINUOUS
 10
10.9376923427
 20
11.0523901499
 40
0.4695
100
AcDbArc
 50
311.9013064677
 51
48.0986935323
  0
ARC
  5
2A4
100
AcDbEntity
  8
0
100
AcDbCircle
 62
7
  6
CONTINUOUS
 10
10.9376923427
 20
11.0523901499
 40
0.4695
100
AcDbArc
 50
131.9013064677
 51
228.0986935323
  0
ARC
  5
2A5
100
AcDbEntity
  8
0
100
AcDbCircle
 62
9
  6
CONTINUOUS
 10
10.9376923427
 20
11.0523901499
 40
0.407
100
AcDbArc
 50
140.3631082105
 51
219.6360890738
  0
ARC
  5
2A6
100
AcDbEntity
  8
0
100
AcDbCircle
 62
9
  6
CONTINUOUS
 10
10.9376923427
 20
11.0523901499
 40
0.407
100
AcDbArc
 50
320.3631082105
 51
39.6360890738
  0
ARC
  5
2A7
100
AcDbEntity
  8
0
100
AcDbCircle
 62
7
  6
CONTINUOUS
 10
10.9376923427
 20
11.0523901499
 40
0.34
100
AcDbArc
 50
337.2247497853
 51
22.7898993662
  0
ARC
  5
2A8
100
AcDbEntity
  8
0
100
AcDbCircle
 62
7
  6
CONTINUOUS
 10
10.9376923427
 20
11.0523901499
 40
0.34
100
AcDbArc
 50
157.2247497853
 51
202.7898993662
  0
ARC
  5
2A9
100
AcDbEntity
  8
0
100
AcDbCircle
 62
7
  6
CONTINUOUS
 10
10.9376923427
 20
11.0523901499
 40
0.325
100
AcDbArc
 50
164.8422424305
 51
195.1577575695
  0
ARC
  5
2AA
100
AcDbEntity
  8
0
100
AcDbCircle
 62
7
  6
CONTINUOUS
 10
10.9376923427
 20
11.0523901499
 40
0.325
100
AcDbArc
 50
344.8422424305
 51
15.1577575695
  0
ARC
  5
2AB
100
AcDbEntity
  8
0
100
AcDbCircle
 62
7
  6
CONTINUOUS
 10
10.9376923427
 20
11.0523901499
 40
0.317
100
AcDbArc
 50
170.5669688473
 51
189.3152186646
  0
ARC
  5
2AC
100
AcDbEntity
  8
0
100
AcDbCircle
 62
7
  6
CONTINUOUS
 10
10.9376923427
 20
11.0523901499
 40
0.317
100
AcDbArc
 50
350.5669688473
 51
9.3152186646
  0
ARC
  5
2AD
100
AcDbEntity
  8
0
100
AcDbCircle
 62
7
  6
CONTINUOUS
 10
10.9376923427
 20
11.7403901499
 40
0.3125
100
AcDbArc
 50
0.0
 51
180.0
  0
ARC
  5
2AE
100
AcDbEntity
  8
0
100
AcDbCircle
 62
7
  6
CONTINUOUS
 10
11.3977902448
 20
11.919420059
 40
0.2815979021
100
AcDbArc
 50
138.2529672045
 51
165.6473658045
  0
ARC
  5
2AF
100
AcDbEntity
  8
0
100
AcDbCircle
 62
7
  6
CONTINUOUS
 10
11.0656713412
 20
12.368920059
 40
0.188
100
AcDbArc
 50
11.039714414
 51
90.0
  0
ARC
  5
2B0
100
AcDbEntity
  8
0
100
AcDbCircle
 62
7
  6
CONTINUOUS
 10
11.2836923427
 20
12.287420059
 40
0.1175
100
AcDbArc
 50
270.0
 51
90.0
  0
ARC
  5
2B1
100
AcDbEntity
  8
0
100
AcDbCircle
 62
7
  6
CONTINUOUS
 10
11.3094975773
 20
10.6526827999
 40
0.1168681222
100
AcDbArc
 50
292.5085867461
 51
293.5890509557
  0
ARC
  5
2B2
100
AcDbEntity
  8
0
100
AcDbCircle
 62
7
  6
CONTINUOUS
 10
11.3726923427
 20
10.4274189453
 40
0.065
100
AcDbArc
 50
270.0000000031
 51
88.6848408374
  0
SPLINE
  5
2B3
100
AcDbEntity
  8
0
100
AcDbSpline
 62
7
  6
CONTINUOUS
 70
0
 71
3
 72
22
 73
18
 74
0
 42
0.0000001
 43
0.0000001
 44
0.0000000001
 40
0.0
 40
0.0
 40
0.0
 40
0.0
 40
0.1564025136
 40
0.3096154195
 40
0.3840444997
 40
0.4565179136
 40
0.5266607859
 40
0.594119297
 40
0.658550284
 40
0.7196302291
 40
0.777048109
 40
0.8305195445
 40
0.8797759521
 40
0.9245799791
 40
0.9647140892
 40
0.9829735912
 40
1.0
 40
1.0
 40
1.0
 40
1.0
 10
10.9376923427
 20
9.8231465003
 30
0.0
 10
10.9251808324
 20
9.8231465003
 30
0.0
 10
10.9004127076
 20
9.8233001239
 30
0.0
 10
10.8696953714
 20
9.8238789434
 30
0.0
 10
10.8456974348
 20
9.8245766489
 30
0.0
 10
10.8283459575
 20
9.8252044071
 30
0.0
 10
10.8115567799
 20
9.8259386381
 30
0.0
 10
10.7954165548
 20
9.8267751623
 30
0.0
 10
10.7800079593
 20
9.8277098965
 30
0.0
 10
10.7654103323
 20
9.8287375127
 30
0.0
 10
10.7516985359
 20
9.8298529257
 30
0.0
 10
10.738943234
 20
9.8310496986
 30
0.0
 10
10.7272095826
 20
9.8323216979
 30
0.0
 10
10.7165579713
 20
9.833661504
 30
0.0
 10
10.7083896251
 20
9.8348631174
 30
0.0
 10
10.7024397619
 20
9.8358639205
 30
0.0
 10
10.6996635251
 20
9.836374931
 30
0.0
 10
10.698326322
 20
9.8366338407
 30
0.0
  0
SPLINE
  5
2B4
100
AcDbEntity
  8
0
100
AcDbSpline
 62
7
  6
CONTINUOUS
 70
0
 71
3
 72
22
 73
18
 74
0
 42
0.0000001
 43
0.0000001
 44
0.0000000001
 40
0.0
 40
0.0
 40
0.0
 40
0.0
 40
0.0170250017
 40
0.0352831689
 40
0.0754149289
 40
0.1202170077
 40
0.1694718273
 40
0.2229420377
 40
0.2803590678
 40
0.3414385784
 40
0.405869539
 40
0.4733284905
 40
0.5434722107
 40
0.6159468155
 40
0.6903772841
 40
0.8435938112
 40
1.0
 40
1.0
 40
1.0
 40
1.0
 10
11.177063999
 20
9.8366349322
 30
0.0
 10
11.1757268811
 20
9.8363760035
 30
0.0
 10
11.1729508055
 20
9.835864956
 30
0.0
 10
11.1670012217
 20
9.8348640765
 30
0.0
 10
11.1588331441
 20
9.8336623751
 30
0.0
 10
11.1481817606
 20
9.8323224726
 30
0.0
 10
11.1364482184
 20
9.8310503789
 30
0.0
 10
11.1236929116
 20
9.8298535147
 30
0.0
 10
11.1099809936
 20
9.8287380139
 30
0.0
 10
11.0953831267
 20
9.8277103139
 30
0.0
 10
11.0799741678
 20
9.8267754996
 30
0.0
 10
11.0638334583
 20
9.825938902
 30
0.0
 10
11.0470436828
 20
9.8252046032
 30
0.0
 10
11.0296915177
 20
9.8245767872
 30
0.0
 10
11.0056925124
 20
9.8238790122
 30
0.0
 10
10.9749737473
 20
9.8233001393
 30
0.0
 10
10.9502044463
 20
9.8231465003
 30
0.0
 10
10.9376923427
 20
9.8231465003
 30
0.0
  0
SPLINE
  5
2B5
100
AcDbEntity
  8
0
100
AcDbSpline
 62
7
  6
CONTINUOUS
 70
0
 71
3
 72
39
 73
35
 74
0
 42
0.0000001
 43
0.0000001
 44
0.0000000001
 40
0.0
 40
0.0
 40
0.0
 40
0.0
 40
0.007721827
 40
0.0161196311
 40
0.0251853939
 40
0.0349081493
 40
0.056274039
 40
0.0801107559
 40
0.0929159925
 40
0.1062897095
 40
0.1346704656
 40
0.165095487
 40
0.1973981451
 40
0.2313972127
 40
0.2669043784
 40
0.3416377059
 40
0.4199252096
 40
0.5000104719
 40
0.580095357
 40
0.658381766
 40
0.7331133207
 40
0.7686193294
 40
0.8026170578
 40
0.834918179
 40
0.865341511
 40
0.893720427
 40
0.9070931917
 40
0.9198974795
 40
0.9437322036
 40
0.9650960771
 40
0.9748178122
 40
0.9838825049
 40
0.9922792371
 40
1.0
 40
1.0
 40
1.0
 40
1.0
 10
10.710562469
 20
9.8384308834
 30
0.0
 10
10.7117061297
 20
9.8381710567
 30
0.0
 10
10.7141004389
 20
9.83765868
 30
0.0
 10
10.7178565413
 20
9.8369338499
 30
0.0
 10
10.7219239298
 20
9.8362215432
 30
0.0
 10
10.7279464543
 20
9.8352593478
 30
0.0
 10
10.7362096398
 20
9.8341080681
 30
0.0
 10
10.7449590691
 20
9.8330699179
 30
0.0
 10
10.7525130844
 20
9.8322673706
 30
0.0
 10
10.760759923
 20
9.8314555869
 30
0.0
 10
10.7716812619
 20
9.8304996445
 30
0.0
 10
10.7854801424
 20
9.8294600462
 30
0.0
 10
10.8001408732
 20
9.8285131805
 30
0.0
 10
10.8155806696
 20
9.827664088
 30
0.0
 10
10.8374648753
 20
9.8266523613
 30
0.0
 10
10.8660835137
 20
9.8256794571
 30
0.0
 10
10.9014821825
 20
9.8249788226
 30
0.0
 10
10.9376998181
 20
9.824743527
 30
0.0
 10
10.9739172861
 20
9.8249790159
 30
0.0
 10
11.0093154583
 20
9.8256798394
 30
0.0
 10
11.03793348
 20
9.8266528982
 30
0.0
 10
11.059817031
 20
9.8276647464
 30
0.0
 10
11.0752562094
 20
9.8285139203
 30
0.0
 10
11.0899162404
 20
9.8294608641
 30
0.0
 10
11.103714344
 20
9.8305005316
 30
0.0
 10
11.1146349947
 20
9.8314565317
 30
0.0
 10
11.1228812578
 20
9.8322683607
 30
0.0
 10
11.1304346748
 20
9.8330709414
 30
0.0
 10
11.1391833408
 20
9.8341091358
 30
0.0
 10
11.1474457487
 20
9.8352604626
 30
0.0
 10
11.153467636
 20
9.8362226927
 30
0.0
 10
11.1575345324
 20
9.8369350265
 30
0.0
 10
11.1612901343
 20
9.8376598799
 30
0.0
 10
11.1636841083
 20
9.8381722732
 30
0.0
 10
11.1648276013
 20
9.8384321088
 30
0.0
  0
SPLINE
  5
2B6
100
AcDbEntity
  8
0
100
AcDbSpline
 62
7
  6
CONTINUOUS
 70
0
 71
3
 72
17
 73
13
 74
0
 42
0.0000001
 43
0.0000001
 44
0.0000000001
 40
0.0
 40
0.0
 40
0.0
 40
0.0
 40
0.0559507872
 40
0.1144799228
 40
0.2379011753
 40
0.3674068674
 40
0.4999922419
 40
0.6325786049
 40
0.7620872866
 40
0.8855134738
 40
0.9440457113
 40
1.0
 40
1.0
 40
1.0
 40
1.0
 10
11.0686607911
 20
9.8456236601
 30
0.0
 10
11.0637825409
 20
9.8453249023
 30
0.0
 10
11.053798093
 20
9.8447641095
 30
0.0
 10
11.0330399099
 20
9.843785092
 30
0.0
 10
11.0058488021
 20
9.8428436697
 30
0.0
 10
10.9721794858
 20
9.8421655668
 30
0.0
 10
10.937703511
 20
9.8419376168
 30
0.0
 10
10.903227273
 20
9.8421652734
 30
0.0
 10
10.8695571724
 20
9.8428430906
 30
0.0
 10
10.8423650929
 20
9.8437842787
 30
0.0
 10
10.8216058923
 20
9.8447631154
 30
0.0
 10
10.8116208617
 20
9.8453238194
 30
0.0
 10
10.8067423024
 20
9.8456225331
 30
0.0
  0
SPLINE
  5
2B7
100
AcDbEntity
  8
0
100
AcDbSpline
 62
7
  6
CONTINUOUS
 70
0
 71
3
 72
35
 73
31
 74
0
 42
0.0000001
 43
0.0000001
 44
0.0000000001
 40
0.0
 40
0.0
 40
0.0
 40
0.0
 40
0.0967747775
 40
0.1926711662
 40
0.286695896
 40
0.3779826579
 40
0.4656660085
 40
0.5489018166
 40
0.626903442
 40
0.6989360206
 40
0.7643178283
 40
0.7943249599
 40
0.8224470035
 40
0.8486225989
 40
0.8727958093
 40
0.8949127497
 40
0.9149301075
 40
0.9328149059
 40
0.9485396952
 40
0.9620921184
 40
0.9680574728
 40
0.9734864437
 40
0.9783853864
 40
0.9827643151
 40
0.9866394606
 40
0.9900366583
 40
0.9929951181
 40
0.9955748959
 40
0.9978668781
 40
1.0
 40
1.0
 40
1.0
 40
1.0
 10
10.9376923427
 20
9.8485122074
 30
0.0
 10
10.9285459679
 20
9.8485122074
 30
0.0
 10
10.9103361397
 20
9.8484344717
 30
0.0
 10
10.8832418595
 20
9.8480861087
 30
0.0
 10
10.856670249
 20
9.8475089106
 30
0.0
 10
10.8308809826
 20
9.8467088519
 30
0.0
 10
10.8061197182
 20
9.8456941997
 30
0.0
 10
10.7826248403
 20
9.8444746858
 30
0.0
 10
10.7606226411
 20
9.8430628237
 30
0.0
 10
10.7403246818
 20
9.8414730896
 30
0.0
 10
10.7245714479
 20
9.8399741053
 30
0.0
 10
10.7129696026
 20
9.8386827738
 30
0.0
 10
10.7050614902
 20
9.837707493
 30
0.0
 10
10.6977135153
 20
9.8367002134
 30
0.0
 10
10.6909431992
 20
9.8356636494
 30
0.0
 10
10.6847667814
 20
9.8346002812
 30
0.0
 10
10.6791988854
 20
9.8335129314
 30
0.0
 10
10.6742521988
 20
9.8324050487
 30
0.0
 10
10.669938262
 20
9.8312794379
 30
0.0
 10
10.6667550985
 20
9.8302921618
 30
0.0
 10
10.6645398929
 20
9.8294833989
 30
0.0
 10
10.6631142948
 20
9.8288999696
 30
0.0
 10
10.6618531922
 20
9.8283140187
 30
0.0
 10
10.6607571221
 20
9.8277257182
 30
0.0
 10
10.659826269
 20
9.827135116
 30
0.0
 10
10.6590603328
 20
9.8265419801
 30
0.0
 10
10.6584588963
 20
9.8259452681
 30
0.0
 10
10.6580223594
 20
9.8253423294
 30
0.0
 10
10.6577542124
 20
9.8247303786
 30
0.0
 10
10.6576925796
 20
9.824310205
 30
0.0
 10
10.6576925688
 20
9.8241085994
 30
0.0
  0
SPLINE
  5
2B8
100
AcDbEntity
  8
0
100
AcDbSpline
 62
7
  6
CONTINUOUS
 70
0
 71
3
 72
35
 73
31
 74
0
 42
0.0000001
 43
0.0000001
 44
0.0000000001
 40
0.0
 40
0.0
 40
0.0
 40
0.0
 40
0.0021331139
 40
0.0044251101
 40
0.0070049511
 40
0.0099634974
 40
0.0133607513
 40
0.0172358579
 40
0.0216146494
 40
0.0265135603
 40
0.0319425847
 40
0.0379080251
 40
0.051460493
 40
0.0671850093
 40
0.0850697659
 40
0.105087065
 40
0.1272036542
 40
0.1513766036
 40
0.1775519721
 40
0.2056736195
 40
0.235680333
 40
0.3010613602
 40
0.373093097
 40
0.4510940658
 40
0.5343294405
 40
0.6220127547
 40
0.7132996694
 40
0.8073253607
 40
0.9032238791
 40
1.0
 40
1.0
 40
1.0
 40
1.0
 10
11.2176921167
 20
9.8241085994
 30
0.0
 10
11.2176921274
 20
9.8243102042
 30
0.0
 10
11.2176305196
 20
9.8247303862
 30
0.0
 10
11.2173623596
 20
9.8253423412
 30
0.0
 10
11.2169257925
 20
9.8259452773
 30
0.0
 10
11.2163243256
 20
9.8265419858
 30
0.0
 10
11.2155583757
 20
9.8271351189
 30
0.0
 10
11.2146275382
 20
9.8277257235
 30
0.0
 10
11.2135314998
 20
9.8283140418
 30
0.0
 10
11.2122704058
 20
9.8288999869
 30
0.0
 10
11.210844795
 20
9.8294834124
 30
0.0
 10
11.2086295671
 20
9.8302921654
 30
0.0
 10
11.2054464147
 20
9.8312794304
 30
0.0
 10
11.2011325102
 20
9.832405065
 30
0.0
 10
11.1961858537
 20
9.8335129243
 30
0.0
 10
11.1906179981
 20
9.8346002586
 30
0.0
 10
11.1844416455
 20
9.8356636343
 30
0.0
 10
11.177671407
 20
9.836700185
 30
0.0
 10
11.170323514
 20
9.8377074499
 30
0.0
 10
11.1624155001
 20
9.8386827285
 30
0.0
 10
11.1508138046
 20
9.8399740512
 30
0.0
 10
11.1350607622
 20
9.8414730219
 30
0.0
 10
11.1147630176
 20
9.8430627566
 30
0.0
 10
11.0927609998
 20
9.8444746166
 30
0.0
 10
11.0692662276
 20
9.8456941421
 30
0.0
 10
11.0445049919
 20
9.8467088043
 30
0.0
 10
11.0187156224
 20
9.8475088788
 30
0.0
 10
10.9921437039
 20
9.8480860973
 30
0.0
 10
10.9650490028
 20
9.8484344631
 30
0.0
 10
10.9468388452
 20
9.8485122074
 30
0.0
 10
10.9376923427
 20
9.8485122074
 30
0.0
  0
SPLINE
  5
2B9
100
AcDbEntity
  8
0
100
AcDbSpline
 62
7
  6
CONTINUOUS
 70
0
 71
3
 72
45
 73
41
 74
0
 42
0.0000001
 43
0.0000001
 44
0.0000000001
 40
0.0
 40
0.0
 40
0.0
 40
0.0
 40
0.0085623629
 40
0.01684751
 40
0.0249041026
 40
0.0327668878
 40
0.0404184962
 40
0.0478012924
 40
0.0548438838
 40
0.0614878207
 40
0.0677537253
 40
0.0736725461
 40
0.0792643343
 40
0.0845431168
 40
0.0895442574
 40
0.0943120829
 40
0.1033104081
 40
0.1118247144
 40
0.1200596758
 40
0.128197026
 40
0.1363736845
 40
0.1446750475
 40
0.153180147
 40
0.1710095112
 40
0.1901544896
 40
0.2107848265
 40
0.2329941993
 40
0.2568224112
 40
0.282282746
 40
0.3093600731
 40
0.3380261197
 40
0.3682385232
 40
0.4330811795
 40
0.5033669297
 40
0.5784718428
 40
0.6576944252
 40
0.7402731081
 40
0.8254058593
 40
0.9122865563
 40
1.0
 40
1.0
 40
1.0
 40
1.0
 10
10.5897052797
 20
9.8517001608
 30
0.0
 10
10.5898082831
 20
9.8506590556
 30
0.0
 10
10.5901046036
 20
9.8486184516
 30
0.0
 10
10.5908190109
 20
9.8456564493
 30
0.0
 10
10.5917711148
 20
9.8428522109
 30
0.0
 10
10.5929358325
 20
9.840214376
 30
0.0
 10
10.5942732929
 20
9.8377538027
 30
0.0
 10
10.595738564
 20
9.8354861293
 30
0.0
 10
10.5972882227
 20
9.8334277441
 30
0.0
 10
10.5988887446
 20
9.8315862802
 30
0.0
 10
10.6005113682
 20
9.8299532055
 30
0.0
 10
10.6021341409
 20
9.8285076871
 30
0.0
 10
10.603737883
 20
9.8272272298
 30
0.0
 10
10.6053058241
 20
9.8260850508
 30
0.0
 10
10.6068365258
 20
9.8250655606
 30
0.0
 10
10.6087950682
 20
9.8238719048
 30
0.0
 10
10.6111952897
 20
9.8225831974
 30
0.0
 10
10.6140427144
 20
9.8212428317
 30
0.0
 10
10.6168541944
 20
9.8200817681
 30
0.0
 10
10.6196698667
 20
9.8190461883
 30
0.0
 10
10.6225239392
 20
9.8180961093
 30
0.0
 10
10.625446777
 20
9.8172144988
 30
0.0
 10
10.629526464
 20
9.8160883361
 30
0.0
 10
10.6349274993
 20
9.8147756941
 30
0.0
 10
10.6418169431
 20
9.8133312092
 30
0.0
 10
10.6492667569
 20
9.8119639897
 30
0.0
 10
10.6573078923
 20
9.8106594827
 30
0.0
 10
10.6659543996
 20
9.8094100818
 30
0.0
 10
10.6752081887
 20
9.8082120458
 30
0.0
 10
10.6850636309
 20
9.8070641044
 30
0.0
 10
10.695508764
 20
9.8059663099
 30
0.0
 10
10.7105580162
 20
9.8045366042
 30
0.0
 10
10.7306948724
 20
9.8029018468
 30
0.0
 10
10.7563265636
 20
9.8012018752
 30
0.0
 10
10.7837322973
 20
9.7997355443
 30
0.0
 10
10.8126534154
 20
9.798515973
 30
0.0
 10
10.8428101065
 20
9.797554734
 30
0.0
 10
10.8739100479
 20
9.7968612253
 30
0.0
 10
10.9056422959
 20
9.7964425977
 30
0.0
 10
10.9269751173
 20
9.7963492375
 30
0.0
 10
10.9376923427
 20
9.7963492375
 30
0.0
  0
SPLINE
  5
2BA
100
AcDbEntity
  8
0
100
AcDbSpline
 62
7
  6
CONTINUOUS
 70
0
 71
3
 72
44
 73
40
 74
0
 42
0.0000001
 43
0.0000001
 44
0.0000000001
 40
0.0
 40
0.0
 40
0.0
 40
0.0
 40
0.0877192247
 40
0.1746045078
 40
0.2597420461
 40
0.3423253278
 40
0.4215520501
 40
0.4966596069
 40
0.5669441303
 40
0.6317841841
 40
0.6619962606
 40
0.6906613747
 40
0.7177390956
 40
0.7431981328
 40
0.7670273686
 40
0.7892350972
 40
0.8098671564
 40
0.8290111857
 40
0.8380768386
 40
0.846839882
 40
0.8636506279
 40
0.8718214047
 40
0.8799642307
 40
0.8840635242
 40
0.8882031697
 40
0.8967073424
 40
0.9057163693
 40
0.9104915424
 40
0.9154930082
 40
0.9263342565
 40
0.9385317353
 40
0.9451695145
 40
0.9521855787
 40
0.9595620347
 40
0.9672279278
 40
0.975120164
 40
0.9832035298
 40
0.9914884176
 40
1.0
 40
1.0
 40
1.0
 40
1.0
 10
10.9376923427
 20
9.7963492375
 30
0.0
 10
10.9484101774
 20
9.7963492375
 30
0.0
 10
10.9697440724
 20
9.796442602
 30
0.0
 10
11.0014778841
 20
9.7968612801
 30
0.0
 10
11.0325792497
 20
9.7975548595
 30
0.0
 10
11.0627373184
 20
9.7985161791
 30
0.0
 10
11.0916595604
 20
9.7997358907
 30
0.0
 10
11.1190657191
 20
9.80120233
 30
0.0
 10
11.144697029
 20
9.8029023517
 30
0.0
 10
11.1648331857
 20
9.8045371903
 30
0.0
 10
11.1798818257
 20
9.8059668987
 30
0.0
 10
11.1903267547
 20
9.80706472
 30
0.0
 10
11.2001818685
 20
9.8082127517
 30
0.0
 10
11.2094355988
 20
9.8094107241
 30
0.0
 10
11.2180817445
 20
9.8106603823
 30
0.0
 10
11.2261229955
 20
9.81196469
 30
0.0
 10
11.2335724856
 20
9.8133323437
 30
0.0
 10
11.2394140588
 20
9.8145569151
 30
0.0
 10
11.2438117131
 20
9.8155914018
 30
0.0
 10
11.2479138988
 20
9.8166334897
 30
0.0
 10
11.2518786539
 20
9.8177716942
 30
0.0
 10
11.2557205525
 20
9.8190461252
 30
0.0
 10
11.2580609364
 20
9.8199100032
 30
0.0
 10
11.2599179388
 20
9.8206572268
 30
0.0
 10
11.2618003308
 20
9.8214585187
 30
0.0
 10
11.2641972339
 20
9.8225814493
 30
0.0
 10
11.2665924718
 20
9.8238812006
 30
0.0
 10
11.2685554528
 20
9.8250716153
 30
0.0
 10
11.2706562149
 20
9.8264632027
 30
0.0
 10
11.2733777236
 20
9.8285528297
 30
0.0
 10
11.2760204137
 20
9.8310484506
 30
0.0
 10
11.2781007134
 20
9.833428241
 30
0.0
 10
11.2796513027
 20
9.8354801472
 30
0.0
 10
11.2811137396
 20
9.8377470512
 30
0.0
 10
11.2824498981
 20
9.840213504
 30
0.0
 10
11.283615094
 20
9.8428604993
 30
0.0
 10
11.284567167
 20
9.8456719048
 30
0.0
 10
11.2852806903
 20
9.8486309642
 30
0.0
 10
11.2855770142
 20
9.8506652394
 30
0.0
 10
11.2856794058
 20
9.8517001608
 30
0.0
  0
SPLINE
  5
2BB
100
AcDbEntity
  8
0
100
AcDbSpline
 62
7
  6
CONTINUOUS
 70
0
 71
3
 72
65
 73
61
 74
0
 42
0.0000001
 43
0.0000001
 44
0.0000000001
 40
0.0
 40
0.0
 40
0.0
 40
0.0
 40
0.0845908554
 40
0.1679618934
 40
0.2488869924
 40
0.3262261402
 40
0.3988980374
 40
0.4331776483
 40
0.4659404604
 40
0.4970888907
 40
0.5265468073
 40
0.5542510672
 40
0.580167634
 40
0.6042913369
 40
0.6266659496
 40
0.6474104083
 40
0.6667577513
 40
0.6760313355
 40
0.6851464897
 40
0.6896786757
 40
0.69421339
 40
0.7033846876
 40
0.7080751975
 40
0.7128724133
 40
0.7178113705
 40
0.7229342319
 40
0.7282853199
 40
0.7339093637
 40
0.7398418036
 40
0.7461173934
 40
0.7527755654
 40
0.759829606
 40
0.7672639378
 40
0.7750700227
 40
0.7832191597
 40
0.7916612989
 40
0.8092421066
 40
0.8183059675
 40
0.8274968353
 40
0.8367795511
 40
0.8461222799
 40
0.8554977343
 40
0.8648787506
 40
0.8742386097
 40
0.8835509975
 40
0.8927857402
 40
0.9019100677
 40
0.9108890539
 40
0.9196797576
 40
0.9282324984
 40
0.9365068679
 40
0.9444660986
 40
0.9520620719
 40
0.9592596979
 40
0.9660729022
 40
0.9725155069
 40
0.9785938744
 40
0.9843341247
 40
0.9897848942
 40
1.0
 40
1.0
 40
1.0
 40
1.0
 10
10.9376923427
 20
10.708055669
 30
0.0
 10
10.9210843558
 20
10.708055669
 30
0.0
 10
10.8881075928
 20
10.7078800974
 30
0.0
 10
10.8392482473
 20
10.7070923677
 30
0.0
 10
10.791823956
 20
10.7057918187
 30
0.0
 10
10.7465179106
 20
10.703997139
 30
0.0
 10
10.7103851822
 20
10.702074961
 30
0.0
 10
10.683012653
 20
10.7002874492
 30
0.0
 10
10.6637868644
 20
10.6988643095
 30
0.0
 10
10.6455189441
 20
10.6973356162
 30
0.0
 10
10.6282572147
 20
10.6957039439
 30
0.0
 10
10.6120380132
 20
10.693970476
 30
0.0
 10
10.5968844721
 20
10.6921339694
 30
0.0
 10
10.5827999743
 20
10.6901886592
 30
0.0
 10
10.5697597447
 20
10.6881213266
 30
0.0
 10
10.5576964942
 20
10.685902334
 30
0.0
 10
10.5482219038
 20
10.6838493026
 30
0.0
 10
10.5410332691
 20
10.6820540986
 30
0.0
 10
10.5366949174
 20
10.680856019
 30
0.0
 10
10.5332753802
 20
10.679830965
 30
0.0
 10
10.5298612762
 20
10.6787509733
 30
0.0
 10
10.5264464521
 20
10.6775710073
 30
0.0
 10
10.5230236348
 20
10.6762646788
 30
0.0
 10
10.5204000984
 20
10.6751963888
 30
0.0
 10
10.5177266338
 20
10.6740278522
 30
0.0
 10
10.5149906432
 20
10.6727338399
 30
0.0
 10
10.5121786106
 20
10.6712897924
 30
0.0
 10
10.5092781028
 20
10.6696739268
 30
0.0
 10
10.5062885069
 20
10.6678499339
 30
0.0
 10
10.5032158679
 20
10.6657789186
 30
0.0
 10
10.5000709367
 20
10.6634289698
 30
0.0
 10
10.4968784771
 20
10.6607713685
 30
0.0
 10
10.4936810133
 20
10.6577781179
 30
0.0
 10
10.4905320426
 20
10.6544312941
 30
0.0
 10
10.4874875899
 20
10.6507280649
 30
0.0
 10
10.4835968029
 20
10.6452570864
 30
0.0
 10
10.4802508644
 20
10.6391983647
 30
0.0
 10
10.4775863189
 20
10.6326804919
 30
0.0
 10
10.4759527305
 20
10.6275200193
 30
0.0
 10
10.4747302436
 20
10.622191184
 30
0.0
 10
10.4739493846
 20
10.6167428416
 30
0.0
 10
10.473626934
 20
10.6112290941
 30
0.0
 10
10.4737617393
 20
10.6057041596
 30
0.0
 10
10.4743594805
 20
10.6002223466
 30
0.0
 10
10.4754054269
 20
10.5948377744
 30
0.0
 10
10.4768739555
 20
10.5896008539
 30
0.0
 10
10.478745695
 20
10.5845640479
 30
0.0
 10
10.480975826
 20
10.5797720598
 30
0.0
 10
10.4835102518
 20
10.575262496
 30
0.0
 10
10.4863026569
 20
10.5710735262
 30
0.0
 10
10.4892935891
 20
10.5672296574
 30
0.0
 10
10.4924118267
 20
10.5637373292
 30
0.0
 10
10.4955945993
 20
10.5605987146
 30
0.0
 10
10.4987913763
 20
10.5578064301
 30
0.0
 10
10.5019612968
 20
10.555338017
 30
0.0
 10
10.5050730613
 20
10.5531615423
 30
0.0
 10
10.5081001133
 20
10.551238379
 30
0.0
 10
10.5110335526
 20
10.5495363389
 30
0.0
 10
10.5147480543
 20
10.5475685172
 30
0.0
 10
10.5175385317
 20
10.5462692762
 30
0.0
 10
10.5193775525
 20
10.5454690964
 30
0.0
  0
SPLINE
  5
2BC
100
AcDbEntity
  8
0
100
AcDbSpline
 62
7
  6
CONTINUOUS
 70
0
 71
3
 72
65
 73
61
 74
0
 42
0.0000001
 43
0.0000001
 44
0.0000000001
 40
0.0
 40
0.0
 40
0.0
 40
0.0
 40
0.0050221453
 40
0.0102495937
 40
0.0157274359
 40
0.0215013028
 40
0.0276025203
 40
0.0340581074
 40
0.0409013829
 40
0.0481455961
 40
0.055764181
 40
0.0637359456
 40
0.072031145
 40
0.0805992951
 40
0.0893971343
 40
0.0983817479
 40
0.1075098212
 40
0.116745199
 40
0.135398805
 40
0.144777819
 40
0.1541508806
 40
0.1634899422
 40
0.1727675855
 40
0.1819529323
 40
0.1910097214
 40
0.1999001219
 40
0.208584225
 40
0.2170123405
 40
0.2251308095
 40
0.2403260924
 40
0.2473528323
 40
0.2539740774
 40
0.2602254578
 40
0.2661410937
 40
0.2717490332
 40
0.2770838386
 40
0.2821912387
 40
0.287115952
 40
0.2919008114
 40
0.2965840807
 40
0.3011926693
 40
0.3057506501
 40
0.3148086927
 40
0.333203884
 40
0.3427272186
 40
0.3525630856
 40
0.3733203983
 40
0.3957137119
 40
0.4198522383
 40
0.4457837101
 40
0.473501264
 40
0.50297084
 40
0.5341284226
 40
0.5668981904
 40
0.6011803966
 40
0.6738496785
 40
0.751177618
 40
0.8320844035
 40
0.915434513
 40
1.0
 40
1.0
 40
1.0
 40
1.0
 10
11.3562651508
 20
10.5455802693
 30
0.0
 10
11.3571682073
 20
10.545974941
 30
0.0
 10
11.3590003136
 20
10.5468057568
 30
0.0
 10
11.3617703837
 20
10.5481679072
 30
0.0
 10
11.3646218844
 20
10.5496946325
 30
0.0
 10
11.3675651751
 20
10.5514088737
 30
0.0
 10
11.3705971567
 20
10.5533467229
 30
0.0
 10
11.3737054281
 20
10.5555476385
 30
0.0
 10
11.3768727955
 20
10.5580445494
 30
0.0
 10
11.3800700583
 20
10.5608625359
 30
0.0
 10
11.3832502523
 20
10.5640235576
 30
0.0
 10
11.3863543717
 20
10.5675404087
 30
0.0
 10
11.3893215362
 20
10.571411686
 30
0.0
 10
11.3920941643
 20
10.5756208257
 30
0.0
 10
11.3946039457
 20
10.5801478643
 30
0.0
 10
11.3968000652
 20
10.5849561788
 30
0.0
 10
11.3986402385
 20
10.590004219
 30
0.0
 10
11.4005608793
 20
10.5970161365
 30
0.0
 10
11.4016167402
 20
10.6042937878
 30
0.0
 10
11.4017489652
 20
10.6116395264
 30
0.0
 10
11.401391902
 20
10.6171471886
 30
0.0
 10
11.4005808618
 20
10.6225860566
 30
0.0
 10
11.3993259485
 20
10.6279019859
 30
0.0
 10
11.3976623275
 20
10.6330458388
 30
0.0
 10
11.3956208711
 20
10.637969638
 30
0.0
 10
11.3932355999
 20
10.6426256647
 30
0.0
 10
11.3905696425
 20
10.6469818782
 30
0.0
 10
11.3876831313
 20
10.6510101884
 30
0.0
 10
11.3836995995
 20
10.6558042494
 30
0.0
 10
11.3794484489
 20
10.6599989501
 30
0.0
 10
11.3750871696
 20
10.6636096366
 30
0.0
 10
11.3719506399
 20
10.6659390013
 30
0.0
 10
11.3688839256
 20
10.6679881466
 30
0.0
 10
11.3658985057
 20
10.6697940489
 30
0.0
 10
11.3630041329
 20
10.6713976513
 30
0.0
 10
11.3601991344
 20
10.6728314587
 30
0.0
 10
11.3574702396
 20
10.6741158989
 30
0.0
 10
11.3548033839
 20
10.6752754299
 30
0.0
 10
11.3521844828
 20
10.6763337946
 30
0.0
 10
11.3496016946
 20
10.6773141082
 30
0.0
 10
11.3470413412
 20
10.6782264346
 30
0.0
 10
11.343649826
 20
10.6793619351
 30
0.0
 10
11.3376411908
 20
10.6811978098
 30
0.0
 10
11.3306156307
 20
10.6830261185
 30
0.0
 10
11.3233903992
 20
10.6846661966
 30
0.0
 10
11.3156834248
 20
10.6862734055
 30
0.0
 10
11.3054546166
 20
10.6881496047
 30
0.0
 10
11.292411445
 20
10.6902146458
 30
0.0
 10
11.2783238145
 20
10.6921564572
 30
0.0
 10
11.2631690021
 20
10.6939907612
 30
0.0
 10
11.2469496387
 20
10.695721676
 30
0.0
 10
11.2296894705
 20
10.6973513007
 30
0.0
 10
11.2114248513
 20
10.6988778313
 30
0.0
 10
11.1922046462
 20
10.7002990407
 30
0.0
 10
11.1648439581
 20
10.70208395
 30
0.0
 10
11.1287309175
 20
10.7040032688
 30
0.0
 10
11.0834531566
 20
10.7057952457
 30
0.0
 10
11.0360618091
 20
10.7070938539
 30
0.0
 10
10.987238904
 20
10.7078803504
 30
0.0
 10
10.9542872711
 20
10.708055669
 30
0.0
 10
10.9376923427
 20
10.708055669
 30
0.0
  0
SPLINE
  5
2BD
100
AcDbEntity
  8
0
100
AcDbSpline
 62
9
  6
CONTINUOUS
 70
0
 71
3
 72
67
 73
63
 74
0
 42
0.0000001
 43
0.0000001
 44
0.0000000001
 40
0.0
 40
0.0
 40
0.0
 40
0.0
 40
0.0483874691
 40
0.0963357926
 40
0.1433482346
 40
0.1889916168
 40
0.2328332561
 40
0.2744511306
 40
0.3134520141
 40
0.349468402
 40
0.366249199
 40
0.3821595928
 40
0.3971630834
 40
0.4112240381
 40
0.4243117605
 40
0.4363982923
 40
0.4474566946
 40
0.4574652874
 40
0.4664075944
 40
0.4742699049
 40
0.477793893
 40
0.4810466569
 40
0.484029284
 40
0.48674372
 40
0.4891931445
 40
0.4913825658
 40
0.493320094
 40
0.4950186472
 40
0.4964978343
 40
0.4977876878
 40
0.4989336559
 40
0.5000002098
 40
0.50106677
 40
0.5022127872
 40
0.5035027389
 40
0.5049820503
 40
0.5066807178
 40
0.5086183097
 40
0.5108077404
 40
0.5132572337
 40
0.5159717856
 40
0.5189545451
 40
0.5222074254
 40
0.525731481
 40
0.5335937832
 40
0.5425362042
 40
0.5525448863
 40
0.5636031923
 40
0.5756896719
 40
0.5887773472
 40
0.6028381339
 40
0.6178414336
 40
0.6337516479
 40
0.6505322179
 40
0.6865480878
 40
0.7255484756
 40
0.7671659083
 40
0.8110072539
 40
0.8566504162
 40
0.9036630281
 40
0.9516121336
 40
1.0
 40
1.0
 40
1.0
 40
1.0
 10
10.9376923427
 20
9.7964672018
 30
0.0
 10
10.927332419
 20
9.7964672018
 30
0.0
 10
10.9067064848
 20
9.7965552526
 30
0.0
 10
10.8760173019
 20
9.7969498374
 30
0.0
 10
10.8459201537
 20
9.7976036227
 30
0.0
 10
10.8167091831
 20
9.7985098326
 30
0.0
 10
10.7886626402
 20
9.7996591253
 30
0.0
 10
10.7620504623
 20
9.8010404009
 30
0.0
 10
10.737129082
 20
9.8026397567
 30
0.0
 10
10.7175338869
 20
9.8041739974
 30
0.0
 10
10.7028841261
 20
9.8055116848
 30
0.0
 10
10.6927238146
 20
9.8065354944
 30
0.0
 10
10.6831534685
 20
9.807600883
 30
0.0
 10
10.6741961611
 20
9.8087055246
 30
0.0
 10
10.6658733137
 20
9.809846464
 30
0.0
 10
10.6582047605
 20
9.8110205547
 30
0.0
 10
10.6512089312
 20
9.8122250274
 30
0.0
 10
10.6449022832
 20
9.813456595
 30
0.0
 10
10.6392995342
 20
9.8147116441
 30
0.0
 10
10.6350866419
 20
9.8158103154
 30
0.0
 10
10.632083819
 20
9.8167095889
 30
0.0
 10
10.6300988961
 20
9.8173633664
 30
0.0
 10
10.6282986247
 20
9.8180208463
 30
0.0
 10
10.626683902
 20
9.818681645
 30
0.0
 10
10.6252555141
 20
9.8193453508
 30
0.0
 10
10.6240140506
 20
9.8200117029
 30
0.0
 10
10.6229597273
 20
9.8206806716
 30
0.0
 10
10.6220922045
 20
9.821352492
 30
0.0
 10
10.6214110094
 20
9.8220284194
 30
0.0
 10
10.620916593
 20
9.8227112305
 30
0.0
 10
10.6206129124
 20
9.8234047824
 30
0.0
 10
10.6205094846
 20
9.8241087477
 30
0.0
 10
10.6206129374
 20
9.8248127247
 30
0.0
 10
10.6209167197
 20
9.8255062721
 30
0.0
 10
10.6214112483
 20
9.8261890717
 30
0.0
 10
10.6220925548
 20
9.8268649879
 30
0.0
 10
10.6229601647
 20
9.8275367993
 30
0.0
 10
10.6240145357
 20
9.8282057659
 30
0.0
 10
10.6252560241
 20
9.8288721358
 30
0.0
 10
10.6266844644
 20
9.829535829
 30
0.0
 10
10.6282992645
 20
9.8301966176
 30
0.0
 10
10.630099623
 20
9.8308540864
 30
0.0
 10
10.6320846205
 20
9.8315078534
 30
0.0
 10
10.6350874873
 20
9.8324071104
 30
0.0
 10
10.6393004143
 20
9.8335057951
 30
0.0
 10
10.6449032159
 20
9.8347608032
 30
0.0
 10
10.6512098927
 20
9.8359923399
 30
0.0
 10
10.6582057092
 20
9.8371968125
 30
0.0
 10
10.6658742246
 20
9.8383708742
 30
0.0
 10
10.6741970183
 20
9.8395117827
 30
0.0
 10
10.6831542397
 20
9.8406164111
 30
0.0
 10
10.692724472
 20
9.84168178
 30
0.0
 10
10.7028846574
 20
9.8427055652
 30
0.0
 10
10.7175342216
 20
9.8440432296
 30
0.0
 10
10.737129152
 20
9.845577448
 30
0.0
 10
10.7620502213
 20
9.8471767816
 30
0.0
 10
10.7886621356
 20
9.8485580499
 30
0.0
 10
10.816708474
 20
9.8497073391
 30
0.0
 10
10.8459193708
 20
9.850613554
 30
0.0
 10
10.8760166754
 20
9.8512673545
 30
0.0
 10
10.9067061473
 20
9.8516619373
 30
0.0
 10
10.927332334
 20
9.851749997
 30
0.0
 10
10.9376923427
 20
9.851749997
 30
0.0
  0
SPLINE
  5
2BE
100
AcDbEntity
  8
0
100
AcDbSpline
 62
7
  6
CONTINUOUS
 70
0
 71
3
 72
35
 73
31
 74
0
 42
0.0000001
 43
0.0000001
 44
0.0000000001
 40
0.0
 40
0.0
 40
0.0
 40
0.0
 40
0.0967747775
 40
0.1926711662
 40
0.286695896
 40
0.3779826579
 40
0.4656660085
 40
0.5489018166
 40
0.626903442
 40
0.6989360206
 40
0.7643178283
 40
0.7943249599
 40
0.8224470035
 40
0.8486225989
 40
0.8727958093
 40
0.8949127497
 40
0.9149301075
 40
0.9328149059
 40
0.9485396952
 40
0.9620921184
 40
0.9680574728
 40
0.9734864437
 40
0.9783853864
 40
0.9827643151
 40
0.9866394606
 40
0.9900366583
 40
0.9929951181
 40
0.9955748959
 40
0.9978668781
 40
1.0
 40
1.0
 40
1.0
 40
1.0
 10
10.9376923427
 20
9.7997049914
 30
0.0
 10
10.9468387176
 20
9.7997049914
 30
0.0
 10
10.9650485458
 20
9.7997827271
 30
0.0
 10
10.992142826
 20
9.8001310902
 30
0.0
 10
11.0187144365
 20
9.8007082882
 30
0.0
 10
11.0445037029
 20
9.8015083469
 30
0.0
 10
11.0692649673
 20
9.8025229991
 30
0.0
 10
11.0927598452
 20
9.803742513
 30
0.0
 10
11.1147620444
 20
9.8051543751
 30
0.0
 10
11.1350600037
 20
9.8067441092
 30
0.0
 10
11.1508132375
 20
9.8082430935
 30
0.0
 10
11.1624150829
 20
9.809534425
 30
0.0
 10
11.1703231952
 20
9.8105097058
 30
0.0
 10
11.1776711701
 20
9.8115169854
 30
0.0
 10
11.1844414862
 20
9.8125535495
 30
0.0
 10
11.1906179041
 20
9.8136169176
 30
0.0
 10
11.1961858001
 20
9.8147042674
 30
0.0
 10
11.2011324867
 20
9.8158121501
 30
0.0
 10
11.2054464235
 20
9.8169377609
 30
0.0
 10
11.208629587
 20
9.8179250371
 30
0.0
 10
11.2108447925
 20
9.8187337999
 30
0.0
 10
11.2122703907
 20
9.8193172292
 30
0.0
 10
11.2135314933
 20
9.8199031801
 30
0.0
 10
11.2146275634
 20
9.8204914806
 30
0.0
 10
11.2155584165
 20
9.8210820828
 30
0.0
 10
11.2163243526
 20
9.8216752187
 30
0.0
 10
11.2169257892
 20
9.8222719307
 30
0.0
 10
11.217362326
 20
9.8228748695
 30
0.0
 10
11.2176304731
 20
9.8234868202
 30
0.0
 10
11.2176921059
 20
9.8239069939
 30
0.0
 10
11.2176921167
 20
9.8241085994
 30
0.0
  0
SPLINE
  5
2BF
100
AcDbEntity
  8
0
100
AcDbSpline
 62
9
  6
CONTINUOUS
 70
0
 71
3
 72
67
 73
63
 74
0
 42
0.0000001
 43
0.0000001
 44
0.0000000001
 40
0.0
 40
0.0
 40
0.0
 40
0.0
 40
0.0483874691
 40
0.0963357926
 40
0.1433482346
 40
0.1889916168
 40
0.2328332561
 40
0.2744511306
 40
0.3134520141
 40
0.349468402
 40
0.366249199
 40
0.3821595928
 40
0.3971630834
 40
0.4112240381
 40
0.4243117605
 40
0.4363982923
 40
0.4474566946
 40
0.4574652874
 40
0.4664075944
 40
0.4742699049
 40
0.477793893
 40
0.4810466569
 40
0.484029284
 40
0.48674372
 40
0.4891931445
 40
0.4913825658
 40
0.493320094
 40
0.4950186472
 40
0.4964978343
 40
0.4977876878
 40
0.4989336559
 40
0.5000002098
 40
0.50106677
 40
0.5022127872
 40
0.5035027389
 40
0.5049820503
 40
0.5066807178
 40
0.5086183097
 40
0.5108077404
 40
0.5132572337
 40
0.5159717856
 40
0.5189545451
 40
0.5222074254
 40
0.525731481
 40
0.5335937832
 40
0.5425362042
 40
0.5525448863
 40
0.5636031923
 40
0.5756896719
 40
0.5887773472
 40
0.6028381339
 40
0.6178414336
 40
0.6337516479
 40
0.6505322179
 40
0.6865480878
 40
0.7255484756
 40
0.7671659083
 40
0.8110072539
 40
0.8566504162
 40
0.9036630281
 40
0.9516121336
 40
1.0
 40
1.0
 40
1.0
 40
1.0
 10
10.9376923427
 20
9.851749997
 30
0.0
 10
10.9480522664
 20
9.851749997
 30
0.0
 10
10.9686782007
 20
9.8516619462
 30
0.0
 10
10.9993673836
 20
9.8512673614
 30
0.0
 10
11.0294645318
 20
9.8506135761
 30
0.0
 10
11.0586755024
 20
9.8497073662
 30
0.0
 10
11.0867220453
 20
9.8485580735
 30
0.0
 10
11.1133342232
 20
9.8471767979
 30
0.0
 10
11.1382556035
 20
9.8455774421
 30
0.0
 10
11.1578507985
 20
9.8440432015
 30
0.0
 10
11.1725005594
 20
9.8427055141
 30
0.0
 10
11.1826608709
 20
9.8416817045
 30
0.0
 10
11.192231217
 20
9.8406163158
 30
0.0
 10
11.2011885244
 20
9.8395116742
 30
0.0
 10
11.2095113717
 20
9.8383707348
 30
0.0
 10
11.217179925
 20
9.8371966442
 30
0.0
 10
11.2241757543
 20
9.8359921715
 30
0.0
 10
11.2304824023
 20
9.8347606038
 30
0.0
 10
11.2360851513
 20
9.8335055547
 30
0.0
 10
11.2402980436
 20
9.8324068834
 30
0.0
 10
11.2433008664
 20
9.8315076099
 30
0.0
 10
11.2452857893
 20
9.8308538325
 30
0.0
 10
11.2470860607
 20
9.8301963526
 30
0.0
 10
11.2487007834
 20
9.8295355538
 30
0.0
 10
11.2501291714
 20
9.828871848
 30
0.0
 10
11.2513706348
 20
9.828205496
 30
0.0
 10
11.2524249582
 20
9.8275365272
 30
0.0
 10
11.253292481
 20
9.8268647068
 30
0.0
 10
11.2539736761
 20
9.8261887795
 30
0.0
 10
11.2544680925
 20
9.8255059684
 30
0.0
 10
11.2547717731
 20
9.8248124165
 30
0.0
 10
11.2548752009
 20
9.8241084511
 30
0.0
 10
11.254771748
 20
9.8234044741
 30
0.0
 10
11.2544679658
 20
9.8227109267
 30
0.0
 10
11.2539734371
 20
9.8220281272
 30
0.0
 10
11.2532921307
 20
9.8213522109
 30
0.0
 10
11.2524245208
 20
9.8206803995
 30
0.0
 10
11.2513701498
 20
9.820011433
 30
0.0
 10
11.2501286613
 20
9.8193450631
 30
0.0
 10
11.248700221
 20
9.8186813699
 30
0.0
 10
11.247085421
 20
9.8180205812
 30
0.0
 10
11.2452850624
 20
9.8173631124
 30
0.0
 10
11.2433000649
 20
9.8167093455
 30
0.0
 10
11.2402971981
 20
9.8158100884
 30
0.0
 10
11.2360842711
 20
9.8147114037
 30
0.0
 10
11.2304814696
 20
9.8134563956
 30
0.0
 10
11.2241747927
 20
9.8122248589
 30
0.0
 10
11.2171789763
 20
9.8110203864
 30
0.0
 10
11.2095104608
 20
9.8098463246
 30
0.0
 10
11.2011876671
 20
9.8087054161
 30
0.0
 10
11.1922304458
 20
9.8076007877
 30
0.0
 10
11.1826602134
 20
9.8065354189
 30
0.0
 10
11.172500028
 20
9.8055116336
 30
0.0
 10
11.1578504639
 20
9.8041739692
 30
0.0
 10
11.1382555335
 20
9.8026397508
 30
0.0
 10
11.1133344641
 20
9.8010404172
 30
0.0
 10
11.0867225498
 20
9.7996591489
 30
0.0
 10
11.0586762115
 20
9.7985098597
 30
0.0
 10
11.0294653147
 20
9.7976036448
 30
0.0
 10
10.99936801
 20
9.7969498443
 30
0.0
 10
10.9686785382
 20
9.7965552615
 30
0.0
 10
10.9480523515
 20
9.7964672018
 30
0.0
 10
10.9376923427
 20
9.7964672018
 30
0.0
  0
SPLINE
  5
2C0
100
AcDbEntity
  8
0
100
AcDbSpline
 62
9
  6
CONTINUOUS
 70
0
 71
3
 72
37
 73
33
 74
0
 42
0.0000001
 43
0.0000001
 44
0.0000000001
 40
0.0
 40
0.0
 40
0.0
 40
0.0
 40
0.0972370601
 40
0.1935722888
 40
0.2880100489
 40
0.3796700953
 40
0.4676681016
 40
0.5511522871
 40
0.6293218838
 40
0.7014317019
 40
0.7349973485
 40
0.7667976842
 40
0.7967560862
 40
0.8248052506
 40
0.8508824475
 40
0.8749273477
 40
0.8968907011
 40
0.9167300298
 40
0.9344076149
 40
0.9499012175
 40
0.9568266355
 40
0.9632043396
 40
0.9690361407
 40
0.9743267152
 40
0.979084573
 40
0.9833224311
 40
0.9870593638
 40
0.9903244404
 40
0.993162674
 40
0.9956444707
 40
0.9978756751
 40
1.0
 40
1.0
 40
1.0
 40
1.0
 10
10.9376923427
 20
9.8822918837
 30
0.0
 10
10.9491227709
 20
9.8822918837
 30
0.0
 10
10.9718777373
 20
9.8821942548
 30
0.0
 10
11.0057315277
 20
9.8817565165
 30
0.0
 10
11.0389246908
 20
9.8810313953
 30
0.0
 10
11.0711300762
 20
9.8800264889
 30
0.0
 10
11.1020373119
 20
9.8787520003
 30
0.0
 10
11.131345125
 20
9.8772207991
 30
0.0
 10
11.1587680572
 20
9.8754481837
 30
0.0
 10
11.1803134393
 20
9.8737476903
 30
0.0
 10
11.1964060803
 20
9.8722652172
 30
0.0
 10
11.2075543426
 20
9.871131306
 30
0.0
 10
11.2180455205
 20
9.8699512336
 30
0.0
 10
11.2278541753
 20
9.868728131
 30
0.0
 10
11.2369565328
 20
9.8674653188
 30
0.0
 10
11.245330524
 20
9.8661657305
 30
0.0
 10
11.252956004
 20
9.8648329796
 30
0.0
 10
11.259814922
 20
9.8634710521
 30
0.0
 10
11.2658908506
 20
9.8620831276
 30
0.0
 10
11.2704465395
 20
9.8608675988
 30
0.0
 10
11.2736825374
 20
9.859872678
 30
0.0
 10
11.2758130884
 20
9.8591502024
 30
0.0
 10
11.2777382129
 20
9.8584237164
 30
0.0
 10
11.2794569444
 20
9.8576935966
 30
0.0
 10
11.2809687467
 20
9.856960352
 30
0.0
 10
11.2822733724
 20
9.856224279
 30
0.0
 10
11.2833708206
 20
9.8554853939
 30
0.0
 10
11.2842613373
 20
9.8547430386
 30
0.0
 10
11.28494498
 20
9.8539952541
 30
0.0
 10
11.285420155
 20
9.853237988
 30
0.0
 10
11.2856804701
 20
9.852468412
 30
0.0
 10
11.2857035252
 20
9.8519486691
 30
0.0
 10
11.2856789614
 20
9.8517001612
 30
0.0
  0
SPLINE
  5
2C1
100
AcDbEntity
  8
0
100
AcDbSpline
 62
9
  6
CONTINUOUS
 70
0
 71
3
 72
37
 73
33
 74
0
 42
0.0000001
 43
0.0000001
 44
0.0000000001
 40
0.0
 40
0.0
 40
0.0
 40
0.0
 40
0.0021243249
 40
0.0043555293
 40
0.006837326
 40
0.0096755596
 40
0.0129406362
 40
0.0166775689
 40
0.020915427
 40
0.0256732848
 40
0.0309638593
 40
0.0367956604
 40
0.0431733645
 40
0.0500987825
 40
0.0655923851
 40
0.0832699702
 40
0.1031092989
 40
0.1250726523
 40
0.1491175525
 40
0.1751947494
 40
0.2032439138
 40
0.2332023158
 40
0.2650026515
 40
0.2985682981
 40
0.3706781162
 40
0.4488477129
 40
0.5323318984
 40
0.6203299047
 40
0.7119899511
 40
0.8064277112
 40
0.9027629399
 40
1.0
 40
1.0
 40
1.0
 40
1.0
 10
10.5897057241
 20
9.8517001612
 30
0.0
 10
10.5896811603
 20
9.8519486691
 30
0.0
 10
10.5897042154
 20
9.852468412
 30
0.0
 10
10.5899645305
 20
9.853237988
 30
0.0
 10
10.5904397055
 20
9.8539952541
 30
0.0
 10
10.5911233482
 20
9.8547430386
 30
0.0
 10
10.5920138649
 20
9.8554853939
 30
0.0
 10
10.5931113131
 20
9.856224279
 30
0.0
 10
10.5944159388
 20
9.856960352
 30
0.0
 10
10.595927741
 20
9.8576935966
 30
0.0
 10
10.5976464725
 20
9.8584237164
 30
0.0
 10
10.5995715971
 20
9.8591502024
 30
0.0
 10
10.6017021481
 20
9.859872678
 30
0.0
 10
10.604938146
 20
9.8608675988
 30
0.0
 10
10.6094938348
 20
9.8620831276
 30
0.0
 10
10.6155697634
 20
9.8634710521
 30
0.0
 10
10.6224286815
 20
9.8648329796
 30
0.0
 10
10.6300541615
 20
9.8661657305
 30
0.0
 10
10.6384281527
 20
9.8674653188
 30
0.0
 10
10.6475305102
 20
9.868728131
 30
0.0
 10
10.657339165
 20
9.8699512336
 30
0.0
 10
10.6678303428
 20
9.871131306
 30
0.0
 10
10.6789786051
 20
9.8722652172
 30
0.0
 10
10.6950712461
 20
9.8737476903
 30
0.0
 10
10.7166166282
 20
9.8754481837
 30
0.0
 10
10.7440395605
 20
9.8772207991
 30
0.0
 10
10.7733473736
 20
9.8787520003
 30
0.0
 10
10.8042546093
 20
9.8800264889
 30
0.0
 10
10.8364599947
 20
9.8810313953
 30
0.0
 10
10.8696531578
 20
9.8817565165
 30
0.0
 10
10.9035069482
 20
9.8821942548
 30
0.0
 10
10.9262619146
 20
9.8822918837
 30
0.0
 10
10.9376923427
 20
9.8822918837
 30
0.0
  0
SPLINE
  5
2C2
100
AcDbEntity
  8
0
100
AcDbSpline
 62
7
  6
CONTINUOUS
 70
0
 71
3
 72
15
 73
11
 74
0
 42
0.0000001
 43
0.0000001
 44
0.0000000001
 40
0.0
 40
0.0
 40
0.0
 40
0.0
 40
0.1402677721
 40
0.2790676996
 40
0.4148435809
 40
0.5461810483
 40
0.6716630202
 40
0.7899495686
 40
0.8997837364
 40
1.0
 40
1.0
 40
1.0
 40
1.0
 10
10.9376923427
 20
10.5857476437
 30
0.0
 10
10.923260569
 20
10.5857476437
 30
0.0
 10
10.8945478721
 20
10.5856179493
 30
0.0
 10
10.8518691176
 20
10.5850361745
 30
0.0
 10
10.8101162385
 20
10.5840732998
 30
0.0
 10
10.7697444345
 20
10.5827406881
 30
0.0
 10
10.7311869036
 20
10.5810529319
 30
0.0
 10
10.6948609892
 20
10.5790293346
 30
0.0
 10
10.6611590847
 20
10.5766930778
 30
0.0
 10
10.6396244818
 20
10.5748550491
 30
0.0
 10
10.6293604084
 20
10.5738726327
 30
0.0
  0
LINE
  5
2C3
100
AcDbEntity
  8
0
100
AcDbLine
 62
7
  6
CONTINUOUS
 10
10.6293604084
 20
10.5738726327
 11
10.6270950219
 21
10.5736540296
  0
LINE
  5
2C4
100
AcDbEntity
  8
0
100
AcDbLine
 62
7
  6
CONTINUOUS
 10
10.6270950219
 20
10.5736540296
 11
10.625894851
 21
10.5735367588
  0
LINE
  5
2C5
100
AcDbEntity
  8
0
100
AcDbLine
 62
7
  6
CONTINUOUS
 10
10.625894851
 20
10.5735367588
 11
10.625520855
 21
10.5735000054
  0
LINE
  5
2C6
100
AcDbEntity
  8
0
100
AcDbLine
 62
7
  6
CONTINUOUS
 10
10.625520855
 20
10.5735000054
 11
10.624995286
 21
10.5734481868
  0
LINE
  5
2C7
100
AcDbEntity
  8
0
100
AcDbLine
 62
7
  6
CONTINUOUS
 10
10.624995286
 20
10.5734481868
 11
10.6225447702
 21
10.5732039213
  0
SPLINE
  5
2C8
100
AcDbEntity
  8
0
100
AcDbSpline
 62
7
  6
CONTINUOUS
 70
0
 71
3
 72
28
 73
24
 74
0
 42
0.0000001
 43
0.0000001
 44
0.0000000001
 40
0.0
 40
0.0
 40
0.0
 40
0.0
 40
0.2193808427
 40
0.3196515344
 40
0.4133756221
 40
0.5003859987
 40
0.5805310035
 40
0.6536677685
 40
0.7196890295
 40
0.7785177764
 40
0.8301001733
 40
0.853174711
 40
0.8744470542
 40
0.893931136
 40
0.911648216
 40
0.9276300728
 40
0.9419242733
 40
0.9546046214
 40
0.9657813693
 40
0.9756174114
 40
0.9843531424
 40
0.9923314459
 40
1.0
 40
1.0
 40
1.0
 40
1.0
 10
10.6225447702
 20
10.5732039213
 30
0.0
 10
10.6147543118
 20
10.5724203326
 30
0.0
 10
10.6034121027
 20
10.5711827811
 30
0.0
 10
10.5887752783
 20
10.5693286424
 30
0.0
 10
10.5788423858
 20
10.5679400442
 30
0.0
 10
10.5696408751
 20
10.5665146932
 30
0.0
 10
10.5611892563
 20
10.5650558394
 30
0.0
 10
10.5535046347
 20
10.5635664125
 30
0.0
 10
10.5466021072
 20
10.5620500129
 30
0.0
 10
10.5404951779
 20
10.5605103918
 30
0.0
 10
10.5359226732
 20
10.559165995
 30
0.0
 10
10.5326793128
 20
10.5580679802
 30
0.0
 10
10.5305445756
 20
10.5572712537
 30
0.0
 10
10.5286166253
 20
10.5564708956
 30
0.0
 10
10.526896236
 20
10.5556672523
 30
0.0
 10
10.5253840266
 20
10.5548606782
 30
0.0
 10
10.5240803935
 20
10.554051233
 30
0.0
 10
10.5229852838
 20
10.5532387919
 30
0.0
 10
10.5220983254
 20
10.5524225765
 30
0.0
 10
10.521419559
 20
10.5516007147
 30
0.0
 10
10.5209509782
 20
10.5507698292
 30
0.0
 10
10.520698823
 20
10.5499283994
 30
0.0
 10
10.5206808838
 20
10.5493626801
 30
0.0
 10
10.5207078681
 20
10.5490903206
 30
0.0
  0
SPLINE
  5
2C9
100
AcDbEntity
  8
0
100
AcDbSpline
 62
7
  6
CONTINUOUS
 70
0
 71
3
 72
28
 73
24
 74
0
 42
0.0000001
 43
0.0000001
 44
0.0000000001
 40
0.0
 40
0.0
 40
0.0
 40
0.0
 40
0.0076685541
 40
0.0156468576
 40
0.0243825886
 40
0.0342186307
 40
0.0453953786
 40
0.0580757267
 40
0.0723699272
 40
0.088351784
 40
0.106068864
 40
0.1255529458
 40
0.146825289
 40
0.1698998267
 40
0.2214822236
 40
0.2803109705
 40
0.3463322315
 40
0.4194689965
 40
0.4996140013
 40
0.5866243779
 40
0.6803484656
 40
0.7806191573
 40
1.0
 40
1.0
 40
1.0
 40
1.0
 10
11.3546768174
 20
10.5490903206
 30
0.0
 10
11.3547038017
 20
10.5493626801
 30
0.0
 10
11.3546858624
 20
10.5499283994
 30
0.0
 10
11.3544337073
 20
10.5507698292
 30
0.0
 10
11.3539651265
 20
10.5516007147
 30
0.0
 10
11.3532863601
 20
10.5524225765
 30
0.0
 10
11.3523994016
 20
10.5532387919
 30
0.0
 10
11.351304292
 20
10.554051233
 30
0.0
 10
11.3500006589
 20
10.5548606782
 30
0.0
 10
11.3484884495
 20
10.5556672523
 30
0.0
 10
11.3467680602
 20
10.5564708956
 30
0.0
 10
11.3448401099
 20
10.5572712537
 30
0.0
 10
11.3427053727
 20
10.5580679802
 30
0.0
 10
11.3394620123
 20
10.559165995
 30
0.0
 10
11.3348895075
 20
10.5605103918
 30
0.0
 10
11.3287825783
 20
10.5620500129
 30
0.0
 10
11.3218800508
 20
10.5635664125
 30
0.0
 10
11.3141954292
 20
10.5650558394
 30
0.0
 10
11.3057438104
 20
10.5665146932
 30
0.0
 10
11.2965422997
 20
10.5679400442
 30
0.0
 10
11.2866094072
 20
10.5693286424
 30
0.0
 10
11.2719725828
 20
10.5711827811
 30
0.0
 10
11.2606303737
 20
10.5724203326
 30
0.0
 10
11.2528399152
 20
10.5732039213
 30
0.0
  0
LINE
  5
2CA
100
AcDbEntity
  8
0
100
AcDbLine
 62
7
  6
CONTINUOUS
 10
11.2316279352
 20
10.5751833154
 11
11.230933862
 21
10.5752432887
  0
LINE
  5
2CB
100
AcDbEntity
  8
0
100
AcDbLine
 62
7
  6
CONTINUOUS
 10
11.230933862
 20
10.5752432887
 11
11.2293947178
 21
10.575375287
  0
SPLINE
  5
2CC
100
AcDbEntity
  8
0
100
AcDbSpline
 62
7
  6
CONTINUOUS
 70
0
 71
3
 72
15
 73
11
 74
0
 42
0.0000001
 43
0.0000001
 44
0.0000000001
 40
0.0
 40
0.0
 40
0.0
 40
0.0
 40
0.1036763736
 40
0.2156622954
 40
0.3349274179
 40
0.4603705302
 40
0.5908253823
 40
0.7250769082
 40
0.8619191488
 40
1.0
 40
1.0
 40
1.0
 40
1.0
 10
11.2293947178
 20
10.575375287
 30
0.0
 10
11.2193412846
 20
10.5762330269
 30
0.0
 10
11.1984133257
 20
10.5778399536
 30
0.0
 10
11.1658813998
 20
10.5798905828
 30
0.0
 10
11.1312117301
 20
10.5816606207
 30
0.0
 10
11.0947293053
 20
10.5831329071
 30
0.0
 10
11.0567764727
 20
10.5842930753
 30
0.0
 10
11.0177055304
 20
10.5851299343
 30
0.0
 10
10.9778867128
 20
10.5856350343
 30
0.0
 10
10.9511306011
 20
10.5857476437
 30
0.0
 10
10.9376923427
 20
10.5857476437
 30
0.0
  0
SPLINE
  5
2CD
100
AcDbEntity
  8
0
100
AcDbSpline
 62
7
  6
CONTINUOUS
 70
0
 71
3
 72
35
 73
31
 74
0
 42
0.0000001
 43
0.0000001
 44
0.0000000001
 40
0.0
 40
0.0
 40
0.0
 40
0.0
 40
0.0021331139
 40
0.0044251101
 40
0.0070049511
 40
0.0099634974
 40
0.0133607513
 40
0.0172358579
 40
0.0216146494
 40
0.0265135603
 40
0.0319425847
 40
0.0379080251
 40
0.051460493
 40
0.0671850093
 40
0.0850697659
 40
0.105087065
 40
0.1272036542
 40
0.1513766036
 40
0.1775519721
 40
0.2056736195
 40
0.235680333
 40
0.3010613602
 40
0.373093097
 40
0.4510940658
 40
0.5343294405
 40
0.6220127547
 40
0.7132996694
 40
0.8073253607
 40
0.9032238791
 40
1.0
 40
1.0
 40
1.0
 40
1.0
 10
10.6576925688
 20
9.8241085994
 30
0.0
 10
10.657692558
 20
9.8239069946
 30
0.0
 10
10.6577541658
 20
9.8234868126
 30
0.0
 10
10.6580223259
 20
9.8228748577
 30
0.0
 10
10.658458893
 20
9.8222719215
 30
0.0
 10
10.6590603599
 20
9.821675213
 30
0.0
 10
10.6598263097
 20
9.8210820799
 30
0.0
 10
10.6607571472
 20
9.8204914753
 30
0.0
 10
10.6618531857
 20
9.819903157
 30
0.0
 10
10.6631142797
 20
9.8193172119
 30
0.0
 10
10.6645398905
 20
9.8187337865
 30
0.0
 10
10.6667551184
 20
9.8179250334
 30
0.0
 10
10.6699382708
 20
9.8169377685
 30
0.0
 10
10.6742521753
 20
9.8158121338
 30
0.0
 10
10.6791988318
 20
9.8147042745
 30
0.0
 10
10.6847666874
 20
9.8136169402
 30
0.0
 10
10.69094304
 20
9.8125535646
 30
0.0
 10
10.6977132784
 20
9.8115170138
 30
0.0
 10
10.7050611714
 20
9.8105097489
 30
0.0
 10
10.7129691854
 20
9.8095344704
 30
0.0
 10
10.7245708809
 20
9.8082431477
 30
0.0
 10
10.7403239233
 20
9.8067441769
 30
0.0
 10
10.7606216679
 20
9.8051544422
 30
0.0
 10
10.7826236857
 20
9.8037425822
 30
0.0
 10
10.8061184579
 20
9.8025230568
 30
0.0
 10
10.8308796936
 20
9.8015083945
 30
0.0
 10
10.8566690631
 20
9.80070832
 30
0.0
 10
10.8832409816
 20
9.8001311015
 30
0.0
 10
10.9103356827
 20
9.7997827357
 30
0.0
 10
10.9285458403
 20
9.7997049914
 30
0.0
 10
10.9376923427
 20
9.7997049914
 30
0.0
  0
ENDSEC
  0
SECTION
  2
OBJECTS
  0
DICTIONARY
  5
C
100
AcDbDictionary
280
0
281
1
  3
ACAD_GROUP
350
D
  3
ACAD_MLINESTYLE
350
17
  3
ACAD_LAYOUT
350
1A
  3
ACAD_PLOTSETTINGS
350
19
  3
ACAD_PLOTSTYLENAME
350
E
  0
DICTIONARY
  5
D
102
{ACAD_REACTORS
330
C
102
}
100
AcDbDictionary
280
0
281
1
  0
ACDBDICTIONARYWDFLT
  5
E
102
{ACAD_REACTORS
330
C
102
}
100
AcDbDictionary
281
1
  3
Normal
350
F
100
AcDbDictionaryWithDefault
340
F
  0
DICTIONARY
  5
17
102
{ACAD_REACTORS
330
C
102
}
100
AcDbDictionary
280
0
281
1
  3
Standard
350
18
  0
DICTIONARY
  5
19
102
{ACAD_REACTORS
330
C
102
}
100
AcDbDictionary
281
1
  0
DICTIONARY
  5
1A
102
{ACAD_REACTORS
330
C
102
}
100
AcDbDictionary
281
1
  3
Model
350
2CE
  3
Layout1
350
2CF
  0
ACDBPLACEHOLDER
  5
F
102
{ACAD_REACTORS
330
E
102
}
  0
MLINESTYLE
  5
18
102
{ACAD_REACTORS
330
17
102
}
100
AcDbMlineStyle
  2
STANDARD
 70
0
  3

 62
256
 51
90.0
 52
90.0
 71
2
 49
0.5
 62
256
  6
BYLAYER
 49
-0.5
 62
256
  6
BYLAYER
  0
LAYOUT
  5
2CE
102
{ACAD_REACTORS
330
1A
102
}
100
AcDbPlotSettings
  1

  2
none_device
  4
ANSI_C_(22.00_x_17.00_Inches)
  6

 40
0.0
 41
0.0
 42
0.0
 43
0.0
 44
558.8
 45
431.8
 46
0.0
 47
0.0
 48
0.0
 49
0.0
140
0.0
141
0.0
142
1.0
143
1.0
 70
1024
 72
0
 73
0
 74
0
  7

 75
0
147
1.0
148
0.0
149
0.0
100
AcDbLayout
  1
Model
 70
0
 71
0
 10
0.0
 20
0.0
 11
22.0
 21
17.0
 12
0.0
 22
0.0
 32
0.0
 14
0.0
 24
0.0
 34
0.0
 15
0.0
 25
0.0
 35
0.0
146
0.0
 13
0.0
 23
0.0
 33
0.0
 16
1.0
 26
0.0
 36
0.0
 17
0.0
 27
1.0
 37
0.0
 76
0
330
202
345
0
346
0
  0
LAYOUT
  5
2CF
102
{ACAD_REACTORS
330
1A
102
}
100
AcDbPlotSettings
  1

  2
none_device
  4
ANSI_C_(22.00_x_17.00_Inches)
  6

 40
0.0
 41
0.0
 42
0.0
 43
0.0
 44
558.8
 45
431.8
 46
0.0
 47
0.0
 48
0.0
 49
0.0
140
0.0
141
0.0
142
1.0
143
1.0
 70
0
 72
0
 73
0
 74
0
  7

 75
0
147
1.0
148
0.0
149
0.0
100
AcDbLayout
  1
Layout1
 70
0
 71
1
 10
0.0
 20
0.0
 11
22.0
 21
17.0
 12
0.0
 22
0.0
 32
0.0
 14
0.0
 24
0.0
 34
0.0
 15
0.0
 25
0.0
 35
0.0
146
0.0
 13
0.0
 23
0.0
 33
0.0
 16
1.0
 26
0.0
 36
0.0
 17
0.0
 27
1.0
 37
0.0
 76
0
330
203
345
0
346
0
  0
ENDSEC
  0
EOF
