  0
SECTION
  2
HEADER
  9
$ACADVER
  1
AC1015
  9
$DWGCODEPAGE
  3
ANSI_1252
  9
$EXTMAX
 10
11.6929133858
 20
8.2677165354
 30
0.0
  9
$EXTMIN
 10
0.0
 20
0.0
 30
0.0
  9
$LIMMIN
 10
0.0
 20
0.0
  9
$LIMMAX
 10
11.6929133858
 20
8.2677165354
  9
$VIEWCTR
 10
5.8464566929
 20
4.1338582677
  9
$VIEWSIZE
 40
8.2677165354
  9
$CLAYER
  8
0
  9
$LTSCALE
 40
0.6431102362
  9
$CELTYPE
  6
BYLAYER
  9
$DIMSCALE
 40
1.0
  9
$DIMASZ
 40
0.1875
  9
$DIMEXO
 40
0.0730807087
  9
$DIMDLI
 40
0.4443307087
  9
$DIMEXE
 40
0.2104724409
  9
$DIMCEN
 40
0.1052362205
  9
$DIMLFAC
 40
1.0
  9
$DIMBLK
  1
_CLOSED
  9
$DIMTXT
 40
0.15625
  9
$DIMTOL
 70
0
  9
$DIMLIM
 70
0
  9
$DIMTFAC
 40
1.0
  9
$PDMODE
 70
3
  9
$PDSIZE
 40
0.3125
  9
$HANDSEED
  5
3C5
  9
$TILEMODE
 70
1
  9
$MEASUREMENT
 70
0
  9
$INSUNITS
 70
1
  0
ENDSEC
  0
SECTION
  2
CLASSES
  0
CLASS
  1
ACDBDICTIONARYWDFLT
  2
AcDbDictionaryWithDefault
  3
AutoCAD 2000
 90
0
280
0
281
0
  0
CLASS
  1
ACDBPLACEHOLDER
  2
AcDbPlaceHolder
  3
AutoCAD 2000
 90
0
280
0
281
0
  0
CLASS
  1
LAYOUT
  2
AcDbLayout
  3
AutoCAD 2000
 90
0
280
0
281
0
  0
ENDSEC
  0
SECTION
  2
TABLES
  0
TABLE
  2
VPORT
  5
8
100
AcDbSymbolTable
 70
2
  0
VPORT
  5
1F4
100
AcDbSymbolTableRecord
100
AcDbViewportTableRecord
  2
*ACTIVE
 70
0
 10
0.0
 20
0.0
 11
1.0
 21
1.0
 12
5.8464566929
 22
4.1338582677
 13
0.0
 23
0.0
 14
1.0
 24
1.0
 15
0.0
 25
0.0
 16
0.0
 26
0.0
 36
1.0
 17
0.0
 27
0.0
 37
0.0
 40
8.2677165354
 41
1.4142857143
 42
50.0
 43
0.0
 44
0.0
 50
0.0
 51
0.0
 71
0
 72
100
 73
1
 74
1
 75
0
 76
0
 77
0
 78
0
  0
ENDTAB
  0
TABLE
  2
LTYPE
  5
5
100
AcDbSymbolTable
 70
6
  0
LTYPE
  5
14
100
AcDbSymbolTableRecord
100
AcDbLinetypeTableRecord
  2
BYBLOCK
 70
0
  3

 72
65
 73
0
 40
0.0
  0
LTYPE
  5
15
100
AcDbSymbolTableRecord
100
AcDbLinetypeTableRecord
  2
BYLAYER
 70
0
  3

 72
65
 73
0
 40
0.0
  0
LTYPE
  5
16
100
AcDbSymbolTableRecord
100
AcDbLinetypeTableRecord
  2
CONTINUOUS
 70
64
  3
Solid line
 72
65
 73
0
 40
0.0
  0
LTYPE
  5
1F5
100
AcDbSymbolTableRecord
100
AcDbLinetypeTableRecord
  2
CENTER
 70
64
  3
____ _ ____ _ ____ _ ____ _ ____ _ ____ _ ____
 72
65
 73
4
 40
0.6
 49
0.375
 74
0
 49
-0.075
 74
0
 49
0.075
 74
0
 49
-0.075
 74
0
  0
LTYPE
  5
1F6
100
AcDbSymbolTableRecord
100
AcDbLinetypeTableRecord
  2
HIDDEN
 70
64
  3
- - - - - - - - - - - - - - - - - - - -
 72
65
 73
2
 40
0.2
 49
0.1
 74
0
 49
-0.1
 74
0
  0
LTYPE
  5
1F7
100
AcDbSymbolTableRecord
100
AcDbLinetypeTableRecord
  2
PHANTOM
 70
64
  3
_____ _ _ _____ _ _ _____ _ _ _____
 72
65
 73
6
 40
0.8
 49
0.45
 74
0
 49
-0.05
 74
0
 49
0.1
 74
0
 49
-0.05
 74
0
 49
0.1
 74
0
 49
-0.05
 74
0
  0
LTYPE
  5
1F8
100
AcDbSymbolTableRecord
100
AcDbLinetypeTableRecord
  2
DOT
 70
64
  3
. . . . . . . . . . . . . . . . . . . .
 72
65
 73
2
 40
0.2
 49
0.1
 74
0
 49
-0.1
 74
0
  0
LTYPE
  5
1F9
100
AcDbSymbolTableRecord
100
AcDbLinetypeTableRecord
  2
DASHED
 70
64
  3
- - - - - - - - - - - - - - - - - - - -
 72
65
 73
2
 40
0.2
 49
0.1
 74
0
 49
-0.1
 74
0
  0
ENDTAB
  0
TABLE
  2
LAYER
  5
2
100
AcDbSymbolTable
 70
36
  0
LAYER
  5
10
100
AcDbSymbolTableRecord
100
AcDbLayerTableRecord
  2
0
 70
0
 62
7
  6
CONTINUOUS
370
-3
390
F
  0
LAYER
  5
1FA
100
AcDbSymbolTableRecord
100
AcDbLayerTableRecord
  2
DEFAULT_1
 70
0
 62
7
  6
CENTER
370
-3
390
F
  0
LAYER
  5
1FB
100
AcDbSymbolTableRecord
100
AcDbLayerTableRecord
  2
DEFAULT_2
 70
0
 62
8
  6
HIDDEN
370
-3
390
F
  0
LAYER
  5
1FC
100
AcDbSymbolTableRecord
100
AcDbLayerTableRecord
  2
DEFAULT_3
 70
0
 62
7
  6
PHANTOM
370
-3
390
F
  0
LAYER
  5
1FD
100
AcDbSymbolTableRecord
100
AcDbLayerTableRecord
  2
06___PRT_ALL_SURFS_1
 70
0
 62
7
  6
CONTINUOUS
370
-3
390
F
  0
LAYER
  5
1FE
100
AcDbSymbolTableRecord
100
AcDbLayerTableRecord
  2
06___PRT_ALL_SURFS_2
 70
0
 62
7
  6
CONTINUOUS
370
-3
390
F
  0
LAYER
  5
1FF
100
AcDbSymbolTableRecord
100
AcDbLayerTableRecord
  2
1-007
 70
0
 62
7
  6
CONTINUOUS
370
-3
390
F
  0
LAYER
  5
200
100
AcDbSymbolTableRecord
100
AcDbLayerTableRecord
  2
1-008
 70
0
 62
7
  6
CONTINUOUS
370
-3
390
F
  0
LAYER
  5
201
100
AcDbSymbolTableRecord
100
AcDbLayerTableRecord
  2
1-135
 70
0
 62
7
  6
CONTINUOUS
370
-3
390
F
  0
LAYER
  5
202
100
AcDbSymbolTableRecord
100
AcDbLayerTableRecord
  2
1-510
 70
0
 62
7
  6
CONTINUOUS
370
-3
390
F
  0
LAYER
  5
203
100
AcDbSymbolTableRecord
100
AcDbLayerTableRecord
  2
1-511
 70
0
 62
7
  6
CONTINUOUS
370
-3
390
F
  0
LAYER
  5
204
100
AcDbSymbolTableRecord
100
AcDbLayerTableRecord
  2
1-532C
 70
0
 62
7
  6
CONTINUOUS
370
-3
390
F
  0
LAYER
  5
205
100
AcDbSymbolTableRecord
100
AcDbLayerTableRecord
  2
10016
 70
0
 62
7
  6
CONTINUOUS
370
-3
390
F
  0
LAYER
  5
206
100
AcDbSymbolTableRecord
100
AcDbLayerTableRecord
  2
10016_1
 70
0
 62
7
  6
CONTINUOUS
370
-3
390
F
  0
LAYER
  5
207
100
AcDbSymbolTableRecord
100
AcDbLayerTableRecord
  2
10290
 70
0
 62
7
  6
CONTINUOUS
370
-3
390
F
  0
LAYER
  5
208
100
AcDbSymbolTableRecord
100
AcDbLayerTableRecord
  2
10305
 70
0
 62
7
  6
CONTINUOUS
370
-3
390
F
  0
LAYER
  5
209
100
AcDbSymbolTableRecord
100
AcDbLayerTableRecord
  2
10489
 70
0
 62
7
  6
CONTINUOUS
370
-3
390
F
  0
LAYER
  5
20A
100
AcDbSymbolTableRecord
100
AcDbLayerTableRecord
  2
10489_1
 70
0
 62
7
  6
CONTINUOUS
370
-3
390
F
  0
LAYER
  5
20B
100
AcDbSymbolTableRecord
100
AcDbLayerTableRecord
  2
11170
 70
0
 62
7
  6
CONTINUOUS
370
-3
390
F
  0
LAYER
  5
20C
100
AcDbSymbolTableRecord
100
AcDbLayerTableRecord
  2
11171
 70
0
 62
7
  6
CONTINUOUS
370
-3
390
F
  0
LAYER
  5
20D
100
AcDbSymbolTableRecord
100
AcDbLayerTableRecord
  2
11275
 70
0
 62
7
  6
CONTINUOUS
370
-3
390
F
  0
LAYER
  5
20E
100
AcDbSymbolTableRecord
100
AcDbLayerTableRecord
  2
11277
 70
0
 62
7
  6
CONTINUOUS
370
-3
390
F
  0
LAYER
  5
20F
100
AcDbSymbolTableRecord
100
AcDbLayerTableRecord
  2
11526
 70
0
 62
7
  6
CONTINUOUS
370
-3
390
F
  0
LAYER
  5
210
100
AcDbSymbolTableRecord
100
AcDbLayerTableRecord
  2
2-633
 70
0
 62
7
  6
CONTINUOUS
370
-3
390
F
  0
LAYER
  5
211
100
AcDbSymbolTableRecord
100
AcDbLayerTableRecord
  2
3-320
 70
0
 62
7
  6
CONTINUOUS
370
-3
390
F
  0
LAYER
  5
212
100
AcDbSymbolTableRecord
100
AcDbLayerTableRecord
  2
3_ALL_SYMBOLS
 70
0
 62
7
  6
CONTINUOUS
370
-3
390
F
  0
LAYER
  5
213
100
AcDbSymbolTableRecord
100
AcDbLayerTableRecord
  2
50464
 70
0
 62
7
  6
CONTINUOUS
370
-3
390
F
  0
LAYER
  5
214
100
AcDbSymbolTableRecord
100
AcDbLayerTableRecord
  2
91231
 70
0
 62
7
  6
CONTINUOUS
370
-3
390
F
  0
LAYER
  5
215
100
AcDbSymbolTableRecord
100
AcDbLayerTableRecord
  2
91265
 70
0
 62
7
  6
CONTINUOUS
370
-3
390
F
  0
LAYER
  5
216
100
AcDbSymbolTableRecord
100
AcDbLayerTableRecord
  2
ALL_ASSEMBLY_MEMBERS
 70
0
 62
7
  6
CONTINUOUS
370
-3
390
F
  0
LAYER
  5
217
100
AcDbSymbolTableRecord
100
AcDbLayerTableRecord
  2
ALL_ASSEMBLY_MEMBERS_1
 70
0
 62
7
  6
CONTINUOUS
370
-3
390
F
  0
LAYER
  5
218
100
AcDbSymbolTableRecord
100
AcDbLayerTableRecord
  2
ALL_ASSEMBLY_MEMBERS_2
 70
0
 62
7
  6
CONTINUOUS
370
-3
390
F
  0
LAYER
  5
219
100
AcDbSymbolTableRecord
100
AcDbLayerTableRecord
  2
ALL_ASSEMBLY_MEMBERS_3
 70
0
 62
7
  6
CONTINUOUS
370
-3
390
F
  0
LAYER
  5
21A
100
AcDbSymbolTableRecord
100
AcDbLayerTableRecord
  2
ALL_ASSEMBLY_MEMBERS_4
 70
0
 62
7
  6
CONTINUOUS
370
-3
390
F
  0
LAYER
  5
21B
100
AcDbSymbolTableRecord
100
AcDbLayerTableRecord
  2
ALL_ASSEMBLY_MEMBERS_5
 70
0
 62
7
  6
CONTINUOUS
370
-3
390
F
  0
LAYER
  5
21C
100
AcDbSymbolTableRecord
100
AcDbLayerTableRecord
  2
COLOR1
 70
0
 62
7
  6
CONTINUOUS
370
-3
390
F
  0
LAYER
  5
21D
100
AcDbSymbolTableRecord
100
AcDbLayerTableRecord
  2
COLOR11
 70
0
 62
7
  6
CONTINUOUS
370
-3
390
F
  0
LAYER
  5
21E
100
AcDbSymbolTableRecord
100
AcDbLayerTableRecord
  2
COLOR3
 70
0
 62
7
  6
CONTINUOUS
370
-3
390
F
  0
LAYER
  5
21F
100
AcDbSymbolTableRecord
100
AcDbLayerTableRecord
  2
COLOR7
 70
0
 62
7
  6
CONTINUOUS
370
-3
390
F
  0
LAYER
  5
220
100
AcDbSymbolTableRecord
100
AcDbLayerTableRecord
  2
DEFAULT_COORDINATE_SYSTEM
 70
0
 62
7
  6
CONTINUOUS
370
-3
390
F
  0
LAYER
  5
221
100
AcDbSymbolTableRecord
100
AcDbLayerTableRecord
  2
DEFAULT_DATUM_AXES
 70
0
 62
7
  6
CONTINUOUS
370
-3
390
F
  0
LAYER
  5
222
100
AcDbSymbolTableRecord
100
AcDbLayerTableRecord
  2
DEFAULT_DATUM_CURVES
 70
0
 62
7
  6
CONTINUOUS
370
-3
390
F
  0
LAYER
  5
223
100
AcDbSymbolTableRecord
100
AcDbLayerTableRecord
  2
DEFAULT_DATUM_PLANES
 70
0
 62
7
  6
CONTINUOUS
370
-3
390
F
  0
LAYER
  5
224
100
AcDbSymbolTableRecord
100
AcDbLayerTableRecord
  2
DEFAULT_SURFACES
 70
0
 62
7
  6
CONTINUOUS
370
-3
390
F
  0
LAYER
  5
225
100
AcDbSymbolTableRecord
100
AcDbLayerTableRecord
  2
INTF_10016
 70
0
 62
7
  6
CONTINUOUS
370
-3
390
F
  0
LAYER
  5
226
100
AcDbSymbolTableRecord
100
AcDbLayerTableRecord
  2
INTF_10290
 70
0
 62
7
  6
CONTINUOUS
370
-3
390
F
  0
LAYER
  5
227
100
AcDbSymbolTableRecord
100
AcDbLayerTableRecord
  2
INTF_10305
 70
0
 62
7
  6
CONTINUOUS
370
-3
390
F
  0
LAYER
  5
228
100
AcDbSymbolTableRecord
100
AcDbLayerTableRecord
  2
INTF_10489
 70
0
 62
7
  6
CONTINUOUS
370
-3
390
F
  0
LAYER
  5
229
100
AcDbSymbolTableRecord
100
AcDbLayerTableRecord
  2
INTF_11170
 70
0
 62
7
  6
CONTINUOUS
370
-3
390
F
  0
LAYER
  5
22A
100
AcDbSymbolTableRecord
100
AcDbLayerTableRecord
  2
INTF_11171
 70
0
 62
7
  6
CONTINUOUS
370
-3
390
F
  0
LAYER
  5
22B
100
AcDbSymbolTableRecord
100
AcDbLayerTableRecord
  2
INTF_11275
 70
0
 62
7
  6
CONTINUOUS
370
-3
390
F
  0
LAYER
  5
22C
100
AcDbSymbolTableRecord
100
AcDbLayerTableRecord
  2
INTF_11277
 70
0
 62
7
  6
CONTINUOUS
370
-3
390
F
  0
LAYER
  5
22D
100
AcDbSymbolTableRecord
100
AcDbLayerTableRecord
  2
INTF_11526
 70
0
 62
7
  6
CONTINUOUS
370
-3
390
F
  0
LAYER
  5
22E
100
AcDbSymbolTableRecord
100
AcDbLayerTableRecord
  2
INTF_50464
 70
0
 62
7
  6
CONTINUOUS
370
-3
390
F
  0
LAYER
  5
22F
100
AcDbSymbolTableRecord
100
AcDbLayerTableRecord
  2
INTF_91231
 70
0
 62
7
  6
CONTINUOUS
370
-3
390
F
  0
LAYER
  5
230
100
AcDbSymbolTableRecord
100
AcDbLayerTableRecord
  2
INTF_91265
 70
0
 62
7
  6
CONTINUOUS
370
-3
390
F
  0
LAYER
  5
231
100
AcDbSymbolTableRecord
100
AcDbLayerTableRecord
  2
INTF_BLANK
 70
0
 62
7
  6
CONTINUOUS
370
-3
390
F
  0
LAYER
  5
232
100
AcDbSymbolTableRecord
100
AcDbLayerTableRecord
  2
INTF_BLUE
 70
0
 62
7
  6
CONTINUOUS
370
-3
390
F
  0
LAYER
  5
233
100
AcDbSymbolTableRecord
100
AcDbLayerTableRecord
  2
PLATED_AREA
 70
0
 62
7
  6
CONTINUOUS
370
-3
390
F
  0
LAYER
  5
234
100
AcDbSymbolTableRecord
100
AcDbLayerTableRecord
  2
PLATED_AREA_1
 70
0
 62
7
  6
CONTINUOUS
370
-3
390
F
  0
LAYER
  5
235
100
AcDbSymbolTableRecord
100
AcDbLayerTableRecord
  2
QUILT
 70
0
 62
7
  6
CONTINUOUS
370
-3
390
F
  0
LAYER
  5
236
100
AcDbSymbolTableRecord
100
AcDbLayerTableRecord
  2
QUILTS_7
 70
0
 62
7
  6
CONTINUOUS
370
-3
390
F
  0
LAYER
  5
237
100
AcDbSymbolTableRecord
100
AcDbLayerTableRecord
  2
QUILT_1
 70
0
 62
7
  6
CONTINUOUS
370
-3
390
F
  0
LAYER
  5
238
100
AcDbSymbolTableRecord
100
AcDbLayerTableRecord
  2
QUILT_2
 70
0
 62
7
  6
CONTINUOUS
370
-3
390
F
  0
LAYER
  5
239
100
AcDbSymbolTableRecord
100
AcDbLayerTableRecord
  2
WETTED_SURFACE_AREA_1
 70
0
 62
7
  6
CONTINUOUS
370
-3
390
F
  0
LAYER
  5
23A
100
AcDbSymbolTableRecord
100
AcDbLayerTableRecord
  2
WETTED_SURFACE_AREA_2
 70
0
 62
7
  6
CONTINUOUS
370
-3
390
F
  0
LAYER
  5
23B
100
AcDbSymbolTableRecord
100
AcDbLayerTableRecord
  2
_BLACK_HOLE
 70
0
 62
7
  6
CONTINUOUS
370
-3
390
F
  0
ENDTAB
  0
TABLE
  2
STYLE
  5
3
100
AcDbSymbolTable
 70
1
  0
STYLE
  5
11
100
AcDbSymbolTableRecord
100
AcDbTextStyleTableRecord
  2
STANDARD
 70
0
 40
0.0
 41
0.8
 50
0.0
 71
0
 42
0.2
  3
txt
  4

  0
STYLE
  5
23C
100
AcDbSymbolTableRecord
100
AcDbTextStyleTableRecord
  2
TEXTSTYLE_1
 70
0
 40
0.0
 41
0.8
 50
0.0
 71
0
 42
0.2
  3
gdt
  4

  0
ENDTAB
  0
TABLE
  2
VIEW
  5
6
100
AcDbSymbolTable
 70
0
  0
ENDTAB
  0
TABLE
  2
UCS
  5
7
100
AcDbSymbolTable
 70
0
  0
ENDTAB
  0
TABLE
  2
APPID
  5
9
100
AcDbSymbolTable
 70
1
  0
APPID
  5
23D
100
AcDbSymbolTableRecord
100
AcDbRegAppTableRecord
  2
ACAD
 70
0
  0
ENDTAB
  0
TABLE
  2
BLOCK_RECORD
  5
1
100
AcDbSymbolTable
 70
0
  0
BLOCK_RECORD
  5
23E
100
AcDbSymbolTableRecord
100
AcDbBlockTableRecord
  2
*Model_Space
  0
BLOCK_RECORD
  5
23F
100
AcDbSymbolTableRecord
100
AcDbBlockTableRecord
  2
*Paper_Space
  0
ENDTAB
  0
TABLE
  2
DIMSTYLE
  5
A
100
AcDbSymbolTable
 70
1
100
AcDbDimStyleTable
 71
0
  0
DIMSTYLE
105
240
100
AcDbSymbolTableRecord
100
AcDbDimStyleTableRecord
  2
STANDARD
 70
0
  3

  4

 40
1.0
 41
0.1875
 42
0.0625
 43
0.38
 44
0.18
 45
0.0
 46
0.0
 47
0.01
 48
0.01
140
0.15625
141
0.09
142
0.0
143
25.4
144
1.0
145
0.0
146
1.0
147
0.09
 71
0.0
 72
0.0
 73
1
 74
1
 75
0
 76
0
 77
0
 78
4
170
0
171
2
172
0
173
0
174
0
175
0
176
0
177
0
178
0
270
2
271
2
272
2
273
2
274
2
275
0
280
0
281
0
282
0
283
1
284
4
285
0
286
0
287
3
288
0
340
11
  0
ENDTAB
  0
ENDSEC
  0
SECTION
  2
BLOCKS
  0
BLOCK
  5
20
100
AcDbEntity
  8
0
100
AcDbBlockBegin
  2
*Model_Space
 70
0
 10
0.0
 20
0.0
 30
0.0
  3
*Model_Space
  1

  0
ENDBLK
  5
21
100
AcDbEntity
  8
0
100
AcDbBlockEnd
  0
BLOCK
  5
1C
100
AcDbEntity
  8
0
100
AcDbBlockBegin
  2
*Paper_Space
 70
0
 10
0.0
 20
0.0
 30
0.0
  3
*Paper_Space
  1

  0
ENDBLK
  5
1D
100
AcDbEntity
  8
0
100
AcDbBlockEnd
  0
ENDSEC
  0
SECTION
  2
ENTITIES
  0
LINE
  5
241
100
AcDbEntity
  8
0
100
AcDbLine
 62
7
  6
CONTINUOUS
 10
1.0006014026
 20
3.8648135559
 11
1.0083205671
 21
3.1613577959
  0
LINE
  5
242
100
AcDbEntity
  8
0
100
AcDbLine
 62
7
  6
CONTINUOUS
 10
1.8314277808
 20
3.7921256664
 11
1.701672077
 21
3.1006973989
  0
LINE
  5
243
100
AcDbEntity
  8
0
100
AcDbLine
 62
9
  6
CONTINUOUS
 10
3.1227994661
 20
5.2504305918
 11
2.9090368765
 21
4.6631227038
  0
LINE
  5
244
100
AcDbEntity
  8
0
100
AcDbLine
 62
9
  6
CONTINUOUS
 10
4.4056143867
 20
4.1184130369
 11
4.6193769763
 21
4.7057209249
  0
LINE
  5
245
100
AcDbEntity
  8
0
100
AcDbLine
 62
9
  6
CONTINUOUS
 10
4.9188156118
 20
4.6529218144
 11
4.9188156118
 21
4.0279218144
  0
LINE
  5
246
100
AcDbEntity
  8
0
100
AcDbLine
 62
7
  6
CONTINUOUS
 10
1.6685021127
 20
3.075533114
 11
1.0366168729
 21
3.1308159091
  0
LINE
  5
247
100
AcDbEntity
  8
0
100
AcDbLine
 62
9
  6
CONTINUOUS
 10
1.0083205671
 20
3.1613577959
 11
1.701672077
 21
3.1006973989
  0
LINE
  5
248
100
AcDbEntity
  8
0
100
AcDbLine
 62
6
  6
CONTINUOUS
 10
9.6688156118
 20
3.0404218144
 11
9.6828156118
 21
3.0404218144
  0
LINE
  5
249
100
AcDbEntity
  8
0
100
AcDbLine
 62
7
  6
CONTINUOUS
 10
9.6688156118
 20
3.1704218144
 11
9.6828156118
 21
3.1704218144
  0
LINE
  5
24A
100
AcDbEntity
  8
0
100
AcDbLine
 62
7
  6
CONTINUOUS
 10
4.4056143867
 20
4.1184130369
 11
2.9090368765
 21
4.6631227038
  0
LINE
  5
24B
100
AcDbEntity
  8
0
100
AcDbLine
 62
7
  6
CONTINUOUS
 10
1.8314277808
 20
3.7921256664
 11
1.0006014026
 21
3.8648135559
  0
LINE
  5
24C
100
AcDbEntity
  8
0
100
AcDbLine
 62
7
  6
CONTINUOUS
 10
1.8262902596
 20
3.9169829415
 11
1.0273421117
 21
3.9868818472
  0
LINE
  5
24D
100
AcDbEntity
  8
0
100
AcDbLine
 62
6
  6
CONTINUOUS
 10
6.9188156118
 20
4.7754218144
 11
6.9188156118
 21
3.9054218144
  0
LINE
  5
24E
100
AcDbEntity
  8
0
100
AcDbLine
 62
6
  6
CONTINUOUS
 10
7.0488156118
 20
4.7754218144
 11
7.0488156118
 21
3.9054218144
  0
LINE
  5
24F
100
AcDbEntity
  8
0
100
AcDbLine
 62
6
  6
CONTINUOUS
 10
7.1203156118
 20
4.1854753872
 11
7.1203156118
 21
4.4953682415
  0
LINE
  5
250
100
AcDbEntity
  8
0
100
AcDbLine
 62
6
  6
CONTINUOUS
 10
7.1288156118
 20
4.4948139665
 11
7.1288156118
 21
4.4876416359
  0
LINE
  5
251
100
AcDbEntity
  8
0
100
AcDbLine
 62
6
  6
CONTINUOUS
 10
7.1288156118
 20
4.4624700891
 11
7.1288156118
 21
4.4492173503
  0
LINE
  5
252
100
AcDbEntity
  8
0
100
AcDbLine
 62
6
  6
CONTINUOUS
 10
7.1288156118
 20
4.4115454682
 11
7.1288156118
 21
4.3942299305
  0
LINE
  5
253
100
AcDbEntity
  8
0
100
AcDbLine
 62
6
  6
CONTINUOUS
 10
7.1288156118
 20
4.2866136982
 11
7.1288156118
 21
4.2692981605
  0
LINE
  5
254
100
AcDbEntity
  8
0
100
AcDbLine
 62
6
  6
CONTINUOUS
 10
7.1288156118
 20
4.2316262784
 11
7.1288156118
 21
4.2183735396
  0
LINE
  5
255
100
AcDbEntity
  8
0
100
AcDbLine
 62
6
  6
CONTINUOUS
 10
7.1288156118
 20
4.1932019928
 11
7.1288156118
 21
4.1860296622
  0
LINE
  5
256
100
AcDbEntity
  8
0
100
AcDbLine
 62
6
  6
CONTINUOUS
 10
7.1288156118
 20
4.1771905904
 11
7.1288156118
 21
4.1769516856
  0
LINE
  5
257
100
AcDbEntity
  8
0
100
AcDbLine
 62
6
  6
CONTINUOUS
 10
7.1503156118
 20
4.5241992353
 11
7.1503156118
 21
4.5183357031
  0
LINE
  5
258
100
AcDbEntity
  8
0
100
AcDbLine
 62
6
  6
CONTINUOUS
 10
7.1503156118
 20
4.5020843211
 11
7.1503156118
 21
4.4853863941
  0
LINE
  5
259
100
AcDbEntity
  8
0
100
AcDbLine
 62
6
  6
CONTINUOUS
 10
7.1503156118
 20
4.4553577557
 11
7.1503156118
 21
4.430367542
  0
LINE
  5
25A
100
AcDbEntity
  8
0
100
AcDbLine
 62
6
  6
CONTINUOUS
 10
7.1503156118
 20
4.3196263356
 11
7.1503156118
 21
4.2897103936
  0
LINE
  5
25B
100
AcDbEntity
  8
0
100
AcDbLine
 62
6
  6
CONTINUOUS
 10
7.1503156118
 20
4.2504760867
 11
7.1503156118
 21
4.225485873
  0
LINE
  5
25C
100
AcDbEntity
  8
0
100
AcDbLine
 62
6
  6
CONTINUOUS
 10
7.1503156118
 20
4.1954572346
 11
7.1503156118
 21
4.1787593076
  0
LINE
  5
25D
100
AcDbEntity
  8
0
100
AcDbLine
 62
6
  6
CONTINUOUS
 10
7.1503156118
 20
4.1625079256
 11
7.1503156118
 21
4.1566443934
  0
LINE
  5
25E
100
AcDbEntity
  8
0
100
AcDbLine
 62
9
  6
CONTINUOUS
 10
7.1531564792
 20
3.9454798977
 11
7.1531564792
 21
4.1566443934
  0
LINE
  5
25F
100
AcDbEntity
  8
0
100
AcDbLine
 62
9
  6
CONTINUOUS
 10
7.1531564792
 20
4.5241992353
 11
7.1531564792
 21
4.735363731
  0
LINE
  5
260
100
AcDbEntity
  8
0
100
AcDbLine
 62
6
  6
CONTINUOUS
 10
7.1203156118
 20
4.4954218144
 11
7.1288156118
 21
4.5039218144
  0
LINE
  5
261
100
AcDbEntity
  8
0
100
AcDbLine
 62
7
  6
CONTINUOUS
 10
7.627867641
 20
4.6144738435
 11
7.5953156118
 21
4.5819218144
  0
LINE
  5
262
100
AcDbEntity
  8
0
100
AcDbLine
 62
7
  6
CONTINUOUS
 10
7.6673853196
 20
4.6219218143
 11
7.6670536879
 21
4.621633184
  0
LINE
  5
263
100
AcDbEntity
  8
0
100
AcDbLine
 62
7
  6
CONTINUOUS
 10
6.9188156118
 20
4.0279218144
 11
4.9188156118
 21
4.0279218144
  0
LINE
  5
264
100
AcDbEntity
  8
0
100
AcDbLine
 62
7
  6
CONTINUOUS
 10
7.6486378469
 20
4.0589218144
 11
7.6423155769
 21
4.0589218144
  0
LINE
  5
265
100
AcDbEntity
  8
0
100
AcDbLine
 62
7
  6
CONTINUOUS
 10
7.6639749448
 20
4.0859316802
 11
7.6765525626
 21
4.0859316802
  0
LINE
  5
266
100
AcDbEntity
  8
0
100
AcDbLine
 62
7
  6
CONTINUOUS
 10
7.6140972548
 20
4.0861333643
 11
7.6265590411
 21
4.0861333622
  0
LINE
  5
267
100
AcDbEntity
  8
0
100
AcDbLine
 62
6
  6
CONTINUOUS
 10
7.5444384794
 20
4.1566443934
 11
7.1503156118
 21
4.1566443934
  0
LINE
  5
268
100
AcDbEntity
  8
0
100
AcDbLine
 62
6
  6
CONTINUOUS
 10
7.1503156118
 20
4.1625079256
 11
7.5444384794
 21
4.1625079256
  0
LINE
  5
269
100
AcDbEntity
  8
0
100
AcDbLine
 62
6
  6
CONTINUOUS
 10
7.5444384794
 20
4.1787593076
 11
7.1503156118
 21
4.1787593076
  0
LINE
  5
26A
100
AcDbEntity
  8
0
100
AcDbLine
 62
7
  6
CONTINUOUS
 10
7.7392710539
 20
3.9305565808
 11
7.8799206017
 21
3.9057562708
  0
LINE
  5
26B
100
AcDbEntity
  8
0
100
AcDbLine
 62
7
  6
CONTINUOUS
 10
4.6193769763
 20
4.7057209249
 11
3.1227994661
 21
5.2504305918
  0
LINE
  5
26C
100
AcDbEntity
  8
0
100
AcDbLine
 62
6
  6
CONTINUOUS
 10
7.1203156118
 20
4.1854218143
 11
7.1288156118
 21
4.1769218144
  0
LINE
  5
26D
100
AcDbEntity
  8
0
100
AcDbLine
 62
9
  6
CONTINUOUS
 10
7.4344747443
 20
3.9454798977
 11
7.4344747443
 21
4.1566443934
  0
LINE
  5
26E
100
AcDbEntity
  8
0
100
AcDbLine
 62
9
  6
CONTINUOUS
 10
7.4344747443
 20
4.5241992353
 11
7.4344747443
 21
4.735363731
  0
LINE
  5
26F
100
AcDbEntity
  8
0
100
AcDbLine
 62
6
  6
CONTINUOUS
 10
7.4953156118
 20
4.3187724418
 11
7.4953156118
 21
4.3619587558
  0
LINE
  5
270
100
AcDbEntity
  8
0
100
AcDbLine
 62
6
  6
CONTINUOUS
 10
7.5388156118
 20
3.9054218144
 11
7.5388156118
 21
4.1566443934
  0
LINE
  5
271
100
AcDbEntity
  8
0
100
AcDbLine
 62
6
  6
CONTINUOUS
 10
7.5388156118
 20
4.5241992353
 11
7.5388156118
 21
4.7754218144
  0
LINE
  5
272
100
AcDbEntity
  8
0
100
AcDbLine
 62
6
  6
CONTINUOUS
 10
7.5444384794
 20
4.1566443934
 11
7.5444384794
 21
4.1625079256
  0
LINE
  5
273
100
AcDbEntity
  8
0
100
AcDbLine
 62
6
  6
CONTINUOUS
 10
7.5444384794
 20
4.1787593076
 11
7.5444384794
 21
4.1954572346
  0
LINE
  5
274
100
AcDbEntity
  8
0
100
AcDbLine
 62
6
  6
CONTINUOUS
 10
7.5444384794
 20
4.225485873
 11
7.5444384794
 21
4.2504760867
  0
LINE
  5
275
100
AcDbEntity
  8
0
100
AcDbLine
 62
6
  6
CONTINUOUS
 10
7.5444384794
 20
4.2897103936
 11
7.5444384794
 21
4.3191883605
  0
LINE
  5
276
100
AcDbEntity
  8
0
100
AcDbLine
 62
6
  6
CONTINUOUS
 10
7.5444384794
 20
4.3616552682
 11
7.5444384794
 21
4.3911332351
  0
LINE
  5
277
100
AcDbEntity
  8
0
100
AcDbLine
 62
6
  6
CONTINUOUS
 10
7.5444384794
 20
4.430367542
 11
7.5444384794
 21
4.4553577557
  0
LINE
  5
278
100
AcDbEntity
  8
0
100
AcDbLine
 62
6
  6
CONTINUOUS
 10
7.5444384794
 20
4.4853863941
 11
7.5444384794
 21
4.5020843211
  0
LINE
  5
279
100
AcDbEntity
  8
0
100
AcDbLine
 62
6
  6
CONTINUOUS
 10
7.5444384794
 20
4.5183357031
 11
7.5444384794
 21
4.5241992353
  0
LINE
  5
27A
100
AcDbEntity
  8
0
100
AcDbLine
 62
6
  6
CONTINUOUS
 10
7.5568515102
 20
4.1860296622
 11
7.5568515102
 21
4.1932019928
  0
LINE
  5
27B
100
AcDbEntity
  8
0
100
AcDbLine
 62
6
  6
CONTINUOUS
 10
7.5568515102
 20
4.2183735396
 11
7.5568515102
 21
4.2316262784
  0
LINE
  5
27C
100
AcDbEntity
  8
0
100
AcDbLine
 62
6
  6
CONTINUOUS
 10
7.5568515102
 20
4.2692981605
 11
7.5568515102
 21
4.2866136982
  0
LINE
  5
27D
100
AcDbEntity
  8
0
100
AcDbLine
 62
6
  6
CONTINUOUS
 10
7.5568515102
 20
4.3310507129
 11
7.5568515102
 21
4.3497929158
  0
LINE
  5
27E
100
AcDbEntity
  8
0
100
AcDbLine
 62
6
  6
CONTINUOUS
 10
7.5568515102
 20
4.3942299305
 11
7.5568515102
 21
4.4115454682
  0
LINE
  5
27F
100
AcDbEntity
  8
0
100
AcDbLine
 62
6
  6
CONTINUOUS
 10
7.5568515102
 20
4.4492173503
 11
7.5568515102
 21
4.4624700891
  0
LINE
  5
280
100
AcDbEntity
  8
0
100
AcDbLine
 62
6
  6
CONTINUOUS
 10
7.5568515102
 20
4.4876416359
 11
7.5568515102
 21
4.4948139665
  0
LINE
  5
281
100
AcDbEntity
  8
0
100
AcDbLine
 62
6
  6
CONTINUOUS
 10
7.5568515102
 20
4.5036530383
 11
7.5568515102
 21
4.5038919431
  0
LINE
  5
282
100
AcDbEntity
  8
0
100
AcDbLine
 62
6
  6
CONTINUOUS
 10
7.5603156118
 20
4.4979218144
 11
7.5603156118
 21
4.1829218144
  0
LINE
  5
283
100
AcDbEntity
  8
0
100
AcDbLine
 62
7
  6
CONTINUOUS
 10
7.5953156118
 20
4.0989239869
 11
7.5953156118
 21
4.5819196418
  0
LINE
  5
284
100
AcDbEntity
  8
0
100
AcDbLine
 62
7
  6
CONTINUOUS
 10
7.6353156118
 20
4.3694557338
 11
7.6353156118
 21
4.1609861162
  0
LINE
  5
285
100
AcDbEntity
  8
0
100
AcDbLine
 62
9
  6
CONTINUOUS
 10
7.6688156118
 20
4.7754218144
 11
7.6688156118
 21
4.6216331847
  0
LINE
  5
286
100
AcDbEntity
  8
0
100
AcDbLine
 62
9
  6
CONTINUOUS
 10
7.6688156118
 20
4.0859316802
 11
7.6688156118
 21
3.9054218144
  0
LINE
  5
287
100
AcDbEntity
  8
0
100
AcDbLine
 62
7
  6
CONTINUOUS
 10
7.6748156118
 20
4.6734720431
 11
7.6748156118
 21
4.0074235687
  0
LINE
  5
288
100
AcDbEntity
  8
0
100
AcDbLine
 62
9
  6
CONTINUOUS
 10
7.7392710539
 20
4.7502870479
 11
7.7392710539
 21
3.9305565808
  0
LINE
  5
289
100
AcDbEntity
  8
0
100
AcDbLine
 62
7
  6
CONTINUOUS
 10
7.6489759455
 20
4.0592993015
 11
7.6644817252
 21
4.0863836055
  0
LINE
  5
28A
100
AcDbEntity
  8
0
100
AcDbLine
 62
7
  6
CONTINUOUS
 10
7.612183236
 20
4.0824182621
 11
7.6145237606
 21
4.0865058906
  0
LINE
  5
28B
100
AcDbEntity
  8
0
100
AcDbLine
 62
6
  6
CONTINUOUS
 10
7.5603156118
 20
4.1829218144
 11
7.5568515102
 21
4.1769218144
  0
LINE
  5
28C
100
AcDbEntity
  8
0
100
AcDbLine
 62
7
  6
CONTINUOUS
 10
7.6670531039
 20
4.6216331847
 11
7.6511622981
 21
4.5944396116
  0
LINE
  5
28D
100
AcDbEntity
  8
0
100
AcDbLine
 62
7
  6
CONTINUOUS
 10
7.6486378468
 20
4.0589218144
 11
7.6490499478
 21
4.0592991932
  0
LINE
  5
28E
100
AcDbEntity
  8
0
100
AcDbLine
 62
7
  6
CONTINUOUS
 10
7.612173186
 20
4.082428318
 11
7.6119179964
 21
4.0823194298
  0
LINE
  5
28F
100
AcDbEntity
  8
0
100
AcDbLine
 62
6
  6
CONTINUOUS
 10
7.5953156118
 20
4.1829218144
 11
7.5603156118
 21
4.1829218144
  0
LINE
  5
290
100
AcDbEntity
  8
0
100
AcDbLine
 62
6
  6
CONTINUOUS
 10
7.5568515102
 20
4.1860296622
 11
7.5507241906
 21
4.1860296622
  0
LINE
  5
291
100
AcDbEntity
  8
0
100
AcDbLine
 62
6
  6
CONTINUOUS
 10
7.139428438
 20
4.1860296622
 11
7.1288156118
 21
4.1860296622
  0
LINE
  5
292
100
AcDbEntity
  8
0
100
AcDbLine
 62
6
  6
CONTINUOUS
 10
7.1503156118
 20
4.1954572346
 11
7.5444384794
 21
4.1954572346
  0
LINE
  5
293
100
AcDbEntity
  8
0
100
AcDbLine
 62
6
  6
CONTINUOUS
 10
7.5568515102
 20
4.2183735396
 11
7.1288156118
 21
4.2183735396
  0
LINE
  5
294
100
AcDbEntity
  8
0
100
AcDbLine
 62
6
  6
CONTINUOUS
 10
7.5444384794
 20
4.225485873
 11
7.1503156118
 21
4.225485873
  0
LINE
  5
295
100
AcDbEntity
  8
0
100
AcDbLine
 62
6
  6
CONTINUOUS
 10
7.1503156118
 20
4.2504760867
 11
7.5444384794
 21
4.2504760867
  0
LINE
  5
296
100
AcDbEntity
  8
0
100
AcDbLine
 62
6
  6
CONTINUOUS
 10
7.5568515102
 20
4.2692981605
 11
7.1288156118
 21
4.2692981605
  0
LINE
  5
297
100
AcDbEntity
  8
0
100
AcDbLine
 62
6
  6
CONTINUOUS
 10
7.1288156118
 20
4.2866136982
 11
7.5568515102
 21
4.2866136982
  0
LINE
  5
298
100
AcDbEntity
  8
0
100
AcDbLine
 62
6
  6
CONTINUOUS
 10
7.5444384794
 20
4.2897103936
 11
7.1503156118
 21
4.2897103936
  0
LINE
  5
299
100
AcDbEntity
  8
0
100
AcDbLine
 62
6
  6
CONTINUOUS
 10
7.4953156118
 20
4.3187718144
 11
7.1203156118
 21
4.3187718144
  0
LINE
  5
29A
100
AcDbEntity
  8
0
100
AcDbLine
 62
6
  6
CONTINUOUS
 10
7.4953156118
 20
4.3196263356
 11
7.1503156118
 21
4.3196263356
  0
LINE
  5
29B
100
AcDbEntity
  8
0
100
AcDbLine
 62
6
  6
CONTINUOUS
 10
7.1425739064
 20
4.3234238089
 11
7.4953156118
 21
4.3234238089
  0
LINE
  5
29C
100
AcDbEntity
  8
0
100
AcDbLine
 62
6
  6
CONTINUOUS
 10
7.5568515102
 20
4.3310507129
 11
7.4953156118
 21
4.3310507129
  0
LINE
  5
29D
100
AcDbEntity
  8
0
100
AcDbLine
 62
6
  6
CONTINUOUS
 10
7.4953156118
 20
4.3497929158
 11
7.5568515102
 21
4.3497929158
  0
LINE
  5
29E
100
AcDbEntity
  8
0
100
AcDbLine
 62
6
  6
CONTINUOUS
 10
7.4953156118
 20
4.3574198198
 11
7.1425739064
 21
4.3574198198
  0
LINE
  5
29F
100
AcDbEntity
  8
0
100
AcDbLine
 62
6
  6
CONTINUOUS
 10
7.5444384794
 20
4.3616552682
 11
7.1203156118
 21
4.3620718144
  0
LINE
  5
2A0
100
AcDbEntity
  8
0
100
AcDbLine
 62
6
  6
CONTINUOUS
 10
7.1503156118
 20
4.3911332351
 11
7.5444384794
 21
4.3911332351
  0
LINE
  5
2A1
100
AcDbEntity
  8
0
100
AcDbLine
 62
6
  6
CONTINUOUS
 10
7.5568515102
 20
4.3942299305
 11
7.1288156118
 21
4.3942299305
  0
LINE
  5
2A2
100
AcDbEntity
  8
0
100
AcDbLine
 62
6
  6
CONTINUOUS
 10
7.1288156118
 20
4.4115454682
 11
7.5568515102
 21
4.4115454682
  0
LINE
  5
2A3
100
AcDbEntity
  8
0
100
AcDbLine
 62
6
  6
CONTINUOUS
 10
7.5444384794
 20
4.430367542
 11
7.1503156118
 21
4.430367542
  0
LINE
  5
2A4
100
AcDbEntity
  8
0
100
AcDbLine
 62
6
  6
CONTINUOUS
 10
7.1503156118
 20
4.4553577557
 11
7.5444384794
 21
4.4553577557
  0
LINE
  5
2A5
100
AcDbEntity
  8
0
100
AcDbLine
 62
6
  6
CONTINUOUS
 10
7.1288156118
 20
4.4624700891
 11
7.5568515102
 21
4.4624700891
  0
LINE
  5
2A6
100
AcDbEntity
  8
0
100
AcDbLine
 62
6
  6
CONTINUOUS
 10
7.5444384794
 20
4.4853863941
 11
7.1503156118
 21
4.4853863941
  0
LINE
  5
2A7
100
AcDbEntity
  8
0
100
AcDbLine
 62
6
  6
CONTINUOUS
 10
7.1288156118
 20
4.4948139665
 11
7.139428438
 21
4.4948139665
  0
LINE
  5
2A8
100
AcDbEntity
  8
0
100
AcDbLine
 62
6
  6
CONTINUOUS
 10
7.5507241906
 20
4.4948139665
 11
7.5568515102
 21
4.4948139665
  0
LINE
  5
2A9
100
AcDbEntity
  8
0
100
AcDbLine
 62
6
  6
CONTINUOUS
 10
7.5953156118
 20
4.4979218144
 11
7.5603156118
 21
4.4979218144
  0
LINE
  5
2AA
100
AcDbEntity
  8
0
100
AcDbLine
 62
6
  6
CONTINUOUS
 10
7.1503156118
 20
4.5020843211
 11
7.5444384794
 21
4.5020843211
  0
LINE
  5
2AB
100
AcDbEntity
  8
0
100
AcDbLine
 62
6
  6
CONTINUOUS
 10
7.5444384794
 20
4.5183357031
 11
7.1503156118
 21
4.5183357031
  0
LINE
  5
2AC
100
AcDbEntity
  8
0
100
AcDbLine
 62
6
  6
CONTINUOUS
 10
7.1503156118
 20
4.5241992353
 11
7.5444384794
 21
4.5241992353
  0
LINE
  5
2AD
100
AcDbEntity
  8
0
100
AcDbLine
 62
7
  6
CONTINUOUS
 10
7.6515921875
 20
4.5948080283
 11
7.6391577437
 21
4.5948080283
  0
LINE
  5
2AE
100
AcDbEntity
  8
0
100
AcDbLine
 62
6
  6
CONTINUOUS
 10
7.1492868019
 20
4.3610941328
 11
7.4953156118
 21
4.3605329974
  0
LINE
  5
2AF
100
AcDbEntity
  8
0
100
AcDbLine
 62
6
  6
CONTINUOUS
 10
7.5444384794
 20
4.3191883605
 11
7.4953156118
 21
4.3197934013
  0
LINE
  5
2B0
100
AcDbEntity
  8
0
100
AcDbLine
 62
7
  6
CONTINUOUS
 10
7.6423155755
 20
4.0589218144
 11
7.6419149148
 21
4.0592785391
  0
LINE
  5
2B1
100
AcDbEntity
  8
0
100
AcDbLine
 62
7
  6
CONTINUOUS
 10
7.6119219507
 20
4.0823154754
 11
7.5953156118
 21
4.0989218144
  0
LINE
  5
2B2
100
AcDbEntity
  8
0
100
AcDbLine
 62
6
  6
CONTINUOUS
 10
7.5603156118
 20
4.4979218144
 11
7.5568515102
 21
4.5039218144
  0
LINE
  5
2B3
100
AcDbEntity
  8
0
100
AcDbLine
 62
9
  6
CONTINUOUS
 10
7.8799206017
 20
4.7750873579
 11
7.8799206017
 21
3.9057562708
  0
LINE
  5
2B4
100
AcDbEntity
  8
0
100
AcDbLine
 62
9
  6
CONTINUOUS
 10
8.0703211319
 20
3.8159267138
 11
8.0703211319
 21
4.8649169149
  0
LINE
  5
2B5
100
AcDbEntity
  8
0
100
AcDbLine
 62
9
  6
CONTINUOUS
 10
8.1550359311
 20
3.7264645457
 11
8.1550359311
 21
3.7550657565
  0
LINE
  5
2B6
100
AcDbEntity
  8
0
100
AcDbLine
 62
9
  6
CONTINUOUS
 10
8.1550359311
 20
4.9257778722
 11
8.1550359311
 21
4.954379083
  0
LINE
  5
2B7
100
AcDbEntity
  8
0
100
AcDbLine
 62
7
  6
CONTINUOUS
 10
7.7392710539
 20
4.7502870479
 11
7.8799206017
 21
4.7750873579
  0
LINE
  5
2B8
100
AcDbEntity
  8
0
100
AcDbLine
 62
7
  6
CONTINUOUS
 10
7.6735878678
 20
4.6219218144
 11
7.6673862915
 21
4.6219218144
  0
LINE
  5
2B9
100
AcDbEntity
  8
0
100
AcDbLine
 62
7
  6
CONTINUOUS
 10
6.9188156118
 20
4.6529218144
 11
4.9188156118
 21
4.6529218144
  0
LINE
  5
2BA
100
AcDbEntity
  8
0
100
AcDbLine
 62
7
  6
CONTINUOUS
 10
7.6281128172
 20
4.6143868128
 11
7.6278749677
 21
4.6144811692
  0
LINE
  5
2BB
100
AcDbEntity
  8
0
100
AcDbLine
 62
7
  6
CONTINUOUS
 10
7.6395206236
 20
4.5944957708
 11
7.6281298408
 21
4.6144038451
  0
LINE
  5
2BC
100
AcDbEntity
  8
0
100
AcDbLine
 62
9
  6
CONTINUOUS
 10
8.6088156118
 20
5.1281693778
 11
8.6088156118
 21
3.5526742509
  0
LINE
  5
2BD
100
AcDbEntity
  8
0
100
AcDbLine
 62
9
  6
CONTINUOUS
 10
8.6314594441
 20
5.227909038
 11
8.6314594441
 21
5.1312522208
  0
LINE
  5
2BE
100
AcDbEntity
  8
0
100
AcDbLine
 62
9
  6
CONTINUOUS
 10
8.6314594441
 20
3.5495914079
 11
8.6314594441
 21
3.4529345907
  0
LINE
  5
2BF
100
AcDbEntity
  8
0
100
AcDbLine
 62
9
  6
CONTINUOUS
 10
9.0138156118
 20
5.1558923768
 11
9.0138156118
 21
3.5249512519
  0
LINE
  5
2C0
100
AcDbEntity
  8
0
100
AcDbLine
 62
7
  6
CONTINUOUS
 10
9.6688156118
 20
5.5104218144
 11
9.6828156118
 21
5.5104218144
  0
LINE
  5
2C1
100
AcDbEntity
  8
0
100
AcDbLine
 62
6
  6
CONTINUOUS
 10
9.6688156118
 20
5.6404218144
 11
9.6828156118
 21
5.6404218144
  0
LINE
  5
2C2
100
AcDbEntity
  8
0
100
AcDbLine
 62
9
  6
CONTINUOUS
 10
9.2928156118
 20
5.3903743182
 11
9.2928156118
 21
5.2725395348
  0
LINE
  5
2C3
100
AcDbEntity
  8
0
100
AcDbLine
 62
9
  6
CONTINUOUS
 10
9.2928156118
 20
3.4083040939
 11
9.2928156118
 21
3.2904693105
  0
LINE
  5
2C4
100
AcDbEntity
  8
0
100
AcDbLine
 62
9
  6
CONTINUOUS
 10
9.3028156118
 20
3.3985980441
 11
9.3028156118
 21
5.2822455846
  0
LINE
  5
2C5
100
AcDbEntity
  8
0
100
AcDbLine
 62
9
  6
CONTINUOUS
 10
9.3166612453
 20
5.4220282386
 11
9.3166612453
 21
5.292369968
  0
LINE
  5
2C6
100
AcDbEntity
  8
0
100
AcDbLine
 62
9
  6
CONTINUOUS
 10
9.3166612453
 20
3.3884736607
 11
9.3166612453
 21
3.2588153901
  0
LINE
  5
2C7
100
AcDbEntity
  8
0
100
AcDbLine
 62
9
  6
CONTINUOUS
 10
9.3178156118
 20
5.292369968
 11
9.3178156118
 21
3.3884736607
  0
LINE
  5
2C8
100
AcDbEntity
  8
0
100
AcDbLine
 62
9
  6
CONTINUOUS
 10
9.3528156118
 20
3.2310782573
 11
9.3528156118
 21
5.4497653714
  0
LINE
  5
2C9
100
AcDbEntity
  8
0
100
AcDbLine
 62
9
  6
CONTINUOUS
 10
9.4088156118
 20
5.4868923207
 11
9.4088156118
 21
3.193951308
  0
LINE
  5
2CA
100
AcDbEntity
  8
0
100
AcDbLine
 62
9
  6
CONTINUOUS
 10
9.4498156118
 20
3.1696758867
 11
9.4498156118
 21
5.511167742
  0
LINE
  5
2CB
100
AcDbEntity
  8
0
100
AcDbLine
 62
9
  6
CONTINUOUS
 10
9.5078156118
 20
5.542344184
 11
9.5078156118
 21
3.1384994447
  0
LINE
  5
2CC
100
AcDbEntity
  8
0
100
AcDbLine
 62
9
  6
CONTINUOUS
 10
9.5588156118
 20
3.1060501039
 11
9.5588156118
 21
5.5747935248
  0
LINE
  5
2CD
100
AcDbEntity
  8
0
100
AcDbLine
 62
9
  6
CONTINUOUS
 10
9.6688156118
 20
5.6404218144
 11
9.6688156118
 21
3.0404218144
  0
LINE
  5
2CE
100
AcDbEntity
  8
0
100
AcDbLine
 62
6
  6
CONTINUOUS
 10
9.6828156118
 20
5.6403631828
 11
9.6828156118
 21
5.5103685119
  0
LINE
  5
2CF
100
AcDbEntity
  8
0
100
AcDbLine
 62
7
  6
CONTINUOUS
 10
9.6828156118
 20
5.5103685119
 11
9.6828156118
 21
3.1704751168
  0
LINE
  5
2D0
100
AcDbEntity
  8
0
100
AcDbLine
 62
6
  6
CONTINUOUS
 10
9.6828156118
 20
3.1704751168
 11
9.6828156118
 21
3.0404804459
  0
ARC
  5
2D1
100
AcDbEntity
  8
0
100
AcDbCircle
 62
7
  6
CONTINUOUS
 10
-18.8938019131
 20
3.5421929598
 40
26.5198665475
100
AcDbArc
 50
1.7770327665
 51
1.9388479881
  0
ARC
  5
2D2
100
AcDbEntity
  8
0
100
AcDbCircle
 62
7
  6
CONTINUOUS
 10
-17.7878502972
 20
3.5791908271
 40
25.4632698443
100
AcDbArc
 50
1.780730465
 51
1.9401513921
  0
ARC
  5
2D3
100
AcDbEntity
  8
0
100
AcDbCircle
 62
7
  6
CONTINUOUS
 10
-10.8128139442
 20
4.0479645916
 40
18.450930618
100
AcDbArc
 50
0.9983787899
 51
1.2220140424
  0
ARC
  5
2D4
100
AcDbEntity
  8
0
100
AcDbCircle
 62
6
  6
CONTINUOUS
 10
7.987302974
 20
-1.5975810113
 40
5.9464903876
100
AcDbArc
 50
98.0914311822
 51
98.3007264025
  0
ARC
  5
2D5
100
AcDbEntity
  8
0
100
AcDbCircle
 62
6
  6
CONTINUOUS
 10
8.1305440089
 20
0.9792889104
 40
3.6116343015
100
AcDbArc
 50
105.7481004584
 51
105.8685467541
  0
ARC
  5
2D6
100
AcDbEntity
  8
0
100
AcDbCircle
 62
7
  6
CONTINUOUS
 10
1.0393187009
 20
3.1616979448
 40
0.031
100
AcDbArc
 50
180.6286931203
 51
265.0
  0
ARC
  5
2D7
100
AcDbEntity
  8
0
100
AcDbCircle
 62
7
  6
CONTINUOUS
 10
1.6712039408
 20
3.1064151496
 40
0.031
100
AcDbArc
 50
265.0
 51
349.3713068797
  0
ARC
  5
2D8
100
AcDbEntity
  8
0
100
AcDbCircle
 62
7
  6
CONTINUOUS
 10
2.609598241
 20
3.8404218144
 40
1.5005
100
AcDbArc
 50
70.0
 51
174.7041268241
  0
ARC
  5
2D9
100
AcDbEntity
  8
0
100
AcDbCircle
 62
7
  6
CONTINUOUS
 10
2.609598241
 20
3.8404218144
 40
0.8755
100
AcDbArc
 50
70.0
 51
174.4616050837
  0
ARC
  5
2DA
100
AcDbEntity
  8
0
100
AcDbCircle
 62
7
  6
CONTINUOUS
 10
1.0218512999
 20
3.9241215812
 40
0.063
100
AcDbArc
 50
85.0
 51
250.2875420391
  0
ARC
  5
2DB
100
AcDbEntity
  8
0
100
AcDbCircle
 62
7
  6
CONTINUOUS
 10
1.8207994478
 20
3.8542226755
 40
0.063
100
AcDbArc
 50
279.7124579609
 51
85.0
  0
ARC
  5
2DC
100
AcDbEntity
  8
0
100
AcDbCircle
 62
6
  6
CONTINUOUS
 10
5.1369835679
 20
3.2316835782
 40
2.7297092961
100
AcDbArc
 50
27.9330749833
 51
28.1220505163
  0
ARC
  5
2DD
100
AcDbEntity
  8
0
100
AcDbCircle
 62
6
  6
CONTINUOUS
 10
7.923303229
 20
1.706512854
 40
2.8554576739
100
AcDbArc
 50
105.8585656746
 51
106.1548786491
  0
ARC
  5
2DE
100
AcDbEntity
  8
0
100
AcDbCircle
 62
6
  6
CONTINUOUS
 10
9.1525132616
 20
2.6649235506
 40
2.7283570213
100
AcDbArc
 50
137.2099106863
 51
137.4362236517
  0
ARC
  5
2DF
100
AcDbEntity
  8
0
100
AcDbCircle
 62
6
  6
CONTINUOUS
 10
9.0673275509
 20
2.663861453
 40
2.6444069063
100
AcDbArc
 50
136.4630891568
 51
136.7462402364
  0
ARC
  5
2E0
100
AcDbEntity
  8
0
100
AcDbCircle
 62
6
  6
CONTINUOUS
 10
8.4770411861
 20
2.501903538
 40
2.4001924745
100
AcDbArc
 50
123.5564293138
 51
123.7659425573
  0
ARC
  5
2E1
100
AcDbEntity
  8
0
100
AcDbCircle
 62
6
  6
CONTINUOUS
 10
8.6026544156
 20
2.7497055215
 40
2.221241281
100
AcDbArc
 50
130.8318330075
 51
131.5689109706
  0
ARC
  5
2E2
100
AcDbEntity
  8
0
100
AcDbCircle
 62
6
  6
CONTINUOUS
 10
8.3030756761
 20
2.7620773462
 40
2.0872157839
100
AcDbArc
 50
123.765527331
 51
124.0025498771
  0
ARC
  5
2E3
100
AcDbEntity
  8
0
100
AcDbCircle
 62
6
  6
CONTINUOUS
 10
7.0779989017
 20
2.3935712644
 40
1.9526672724
100
AcDbArc
 50
75.8045731821
 51
76.179963867
  0
ARC
  5
2E4
100
AcDbEntity
  8
0
100
AcDbCircle
 62
6
  6
CONTINUOUS
 10
5.4390100014
 20
3.3297147999
 40
2.4017498517
100
AcDbArc
 50
28.3446876773
 51
28.6676466871
  0
ARC
  5
2E5
100
AcDbEntity
  8
0
100
AcDbCircle
 62
6
  6
CONTINUOUS
 10
5.4267415825
 20
3.3853027692
 40
2.4017480748
100
AcDbArc
 50
27.7218743932
 51
27.9333701781
  0
ARC
  5
2E6
100
AcDbEntity
  8
0
100
AcDbCircle
 62
6
  6
CONTINUOUS
 10
5.6456946347
 20
3.3623310678
 40
2.2260201765
100
AcDbArc
 50
31.1499943623
 51
31.463052318
  0
ARC
  5
2E7
100
AcDbEntity
  8
0
100
AcDbCircle
 62
6
  6
CONTINUOUS
 10
6.0760923131
 20
3.4484989497
 40
1.7663822906
100
AcDbArc
 50
33.0389082787
 51
33.7702560014
  0
ARC
  5
2E8
100
AcDbEntity
  8
0
100
AcDbCircle
 62
6
  6
CONTINUOUS
 10
6.9172744487
 20
3.1712473497
 40
1.4290816129
100
AcDbArc
 50
63.594931915
 51
63.9689543743
  0
ARC
  5
2E9
100
AcDbEntity
  8
0
100
AcDbCircle
 62
6
  6
CONTINUOUS
 10
7.0477214084
 20
3.4345316615
 40
1.1352534993
100
AcDbArc
 50
63.354269541
 51
63.5823860932
  0
ARC
  5
2EA
100
AcDbEntity
  8
0
100
AcDbCircle
 62
6
  6
CONTINUOUS
 10
7.2938156118
 20
2.9554218144
 40
1.0
100
AcDbArc
 50
81.9140108095
 51
98.0859891905
  0
ARC
  5
2EB
100
AcDbEntity
  8
0
100
AcDbCircle
 62
6
  6
CONTINUOUS
 10
5.6876412911
 20
3.5223916209
 40
2.1070244568
100
AcDbArc
 50
27.4848788873
 51
27.7222028385
  0
ARC
  5
2EC
100
AcDbEntity
  8
0
100
AcDbCircle
 62
6
  6
CONTINUOUS
 10
5.7621569586
 20
3.5041464294
 40
2.0345301104
100
AcDbArc
 50
28.1011430715
 51
28.3419693601
  0
ARC
  5
2ED
100
AcDbEntity
  8
0
100
AcDbCircle
 62
6
  6
CONTINUOUS
 10
6.3688481608
 20
3.4787187103
 40
1.558617904
100
AcDbArc
 50
40.5406035103
 51
41.0399657075
  0
ARC
  5
2EE
100
AcDbEntity
  8
0
100
AcDbCircle
 62
6
  6
CONTINUOUS
 10
6.6093049125
 20
3.6848381857
 40
1.241908988
100
AcDbArc
 50
40.2727484367
 51
40.5246467034
  0
ARC
  5
2EF
100
AcDbEntity
  8
0
100
AcDbCircle
 62
6
  6
CONTINUOUS
 10
6.6968467406
 20
3.4622905063
 40
1.2358271443
100
AcDbArc
 50
45.9014948377
 51
46.6975280809
  0
ARC
  5
2F0
100
AcDbEntity
  8
0
100
AcDbCircle
 62
6
  6
CONTINUOUS
 10
7.3993099612
 20
3.6979653769
 40
0.25
100
AcDbArc
 50
56.080842466
 51
81.9140108095
  0
ARC
  5
2F1
100
AcDbEntity
  8
0
100
AcDbCircle
 62
6
  6
CONTINUOUS
 10
7.1883212624
 20
3.6979653769
 40
0.25
100
AcDbArc
 50
98.0859891905
 51
123.919157534
  0
ARC
  5
2F2
100
AcDbEntity
  8
0
100
AcDbCircle
 62
6
  6
CONTINUOUS
 10
6.9838156118
 20
3.9054218144
 40
0.065
100
AcDbArc
 50
180.0
 51
360.0
  0
ARC
  5
2F3
100
AcDbEntity
  8
0
100
AcDbCircle
 62
6
  6
CONTINUOUS
 10
8.6214371638
 20
3.0820020204
 40
2.0331284235
100
AcDbArc
 50
136.9697397097
 51
137.2354542138
  0
ARC
  5
2F4
100
AcDbEntity
  8
0
100
AcDbCircle
 62
6
  6
CONTINUOUS
 10
8.6342494739
 20
3.1384045287
 40
2.0263705673
100
AcDbArc
 50
137.795617912
 51
137.9808639414
  0
ARC
  5
2F5
100
AcDbEntity
  8
0
100
AcDbCircle
 62
6
  6
CONTINUOUS
 10
8.4727812708
 20
3.1172579505
 40
1.9308896996
100
AcDbArc
 50
133.8200140128
 51
134.1097031619
  0
ARC
  5
2F6
100
AcDbEntity
  8
0
100
AcDbCircle
 62
6
  6
CONTINUOUS
 10
8.1337490682
 20
3.0129720425
 40
1.7845284143
100
AcDbArc
 50
124.00042711
 51
124.2730007766
  0
ARC
  5
2F7
100
AcDbEntity
  8
0
100
AcDbCircle
 62
6
  6
CONTINUOUS
 10
7.6688156118
 20
3.1554218144
 40
0.75
100
AcDbArc
 50
49.586918186
 51
90.0
  0
ARC
  5
2F8
100
AcDbEntity
  8
0
100
AcDbCircle
 62
6
  6
CONTINUOUS
 10
8.900822316
 20
2.8960487495
 40
2.3866448774
100
AcDbArc
 50
137.4358172323
 51
137.6908383322
  0
ARC
  5
2F9
100
AcDbEntity
  8
0
100
AcDbCircle
 62
6
  6
CONTINUOUS
 10
8.8155889864
 20
2.9007989699
 40
2.2987022833
100
AcDbArc
 50
136.7479536319
 51
136.9704367079
  0
ARC
  5
2FA
100
AcDbEntity
  8
0
100
AcDbCircle
 62
6
  6
CONTINUOUS
 10
9.5042556118
 20
3.0766017355
 40
0.062
100
AcDbArc
 50
28.3576365763
 51
86.708302835
  0
ARC
  5
2FB
100
AcDbEntity
  8
0
100
AcDbCircle
 62
6
  6
CONTINUOUS
 10
9.4001530477
 20
3.132559452
 40
0.062
100
AcDbArc
 50
36.7734275126
 51
81.96842665
  0
ARC
  5
2FC
100
AcDbEntity
  8
0
100
AcDbCircle
 62
6
  6
CONTINUOUS
 10
9.2928156118
 20
3.3404218144
 40
2.0
100
AcDbArc
 50
90.0
 51
109.3099375779
  0
ARC
  5
2FD
100
AcDbEntity
  8
0
100
AcDbCircle
 62
7
  6
CONTINUOUS
 10
9.0362969517
 20
3.182688795
 40
0.343
100
AcDbArc
 50
39.0112542963
 51
93.7580464625
  0
ARC
  5
2FE
100
AcDbEntity
  8
0
100
AcDbCircle
 62
7
  6
CONTINUOUS
 10
9.6688156118
 20
3.2954218144
 40
0.125
100
AcDbArc
 50
208.3576365763
 51
270.0
  0
ARC
  5
2FF
100
AcDbEntity
  8
0
100
AcDbCircle
 62
6
  6
CONTINUOUS
 10
9.6688156118
 20
3.1654218144
 40
0.125
100
AcDbArc
 50
208.3576365763
 51
270.0
  0
ARC
  5
300
100
AcDbEntity
  8
0
100
AcDbCircle
 62
7
  6
CONTINUOUS
 10
9.4197136763
 20
3.4011862236
 40
0.078
100
AcDbArc
 50
210.9443106101
 51
261.96842665
  0
ARC
  5
301
100
AcDbEntity
  8
0
100
AcDbCircle
 62
7
  6
CONTINUOUS
 10
9.5122943215
 20
3.3463707562
 40
0.078
100
AcDbArc
 50
216.7734275126
 51
266.708302835
  0
ARC
  5
302
100
AcDbEntity
  8
0
100
AcDbCircle
 62
6
  6
CONTINUOUS
 10
9.5122943215
 20
3.2163707562
 40
0.078
100
AcDbArc
 50
216.7734275126
 51
266.708302835
  0
ARC
  5
303
100
AcDbEntity
  8
0
100
AcDbCircle
 62
6
  6
CONTINUOUS
 10
9.4197136763
 20
3.2711862236
 40
0.078
100
AcDbArc
 50
210.9443106101
 51
261.96842665
  0
ARC
  5
304
100
AcDbEntity
  8
0
100
AcDbCircle
 62
7
  6
CONTINUOUS
 10
9.2996402272
 20
3.3291975661
 40
0.062
100
AcDbArc
 50
30.9443106101
 51
72.9532818349
  0
ARC
  5
305
100
AcDbEntity
  8
0
100
AcDbCircle
 62
7
  6
CONTINUOUS
 10
9.4001530477
 20
3.262559452
 40
0.062
100
AcDbArc
 50
36.7734275126
 51
81.96842665
  0
ARC
  5
306
100
AcDbEntity
  8
0
100
AcDbCircle
 62
7
  6
CONTINUOUS
 10
9.5042556118
 20
3.2066017355
 40
0.062
100
AcDbArc
 50
28.3576365763
 51
86.708302835
  0
ARC
  5
307
100
AcDbEntity
  8
0
100
AcDbCircle
 62
6
  6
CONTINUOUS
 10
9.2996402272
 20
3.1991975661
 40
0.062
100
AcDbArc
 50
30.9443106101
 51
74.0658408375
  0
ARC
  5
308
100
AcDbEntity
  8
0
100
AcDbCircle
 62
6
  6
CONTINUOUS
 10
9.325684948
 20
3.2904218144
 40
0.0328693362
100
AcDbArc
 50
180.0
 51
254.0658408375
  0
ARC
  5
309
100
AcDbEntity
  8
0
100
AcDbCircle
 62
7
  6
CONTINUOUS
 10
9.3269033041
 20
3.418111708
 40
0.031
100
AcDbArc
 50
219.0112542963
 51
252.9532818349
  0
ARC
  5
30A
100
AcDbEntity
  8
0
100
AcDbCircle
 62
7
  6
CONTINUOUS
 10
8.9141898487
 20
3.6391607897
 40
1.52
100
AcDbArc
 50
86.2419535375
 51
101.5898335018
  0
ARC
  5
30B
100
AcDbEntity
  8
0
100
AcDbCircle
 62
6
  6
CONTINUOUS
 10
9.1274765699
 20
3.8122936203
 40
1.5
100
AcDbArc
 50
109.3099375779
 51
130.413081814
  0
ARC
  5
30C
100
AcDbEntity
  8
0
100
AcDbCircle
 62
7
  6
CONTINUOUS
 10
8.8499005357
 20
3.952636282
 40
1.2
100
AcDbArc
 50
101.5898335018
 51
130.5151811264
  0
ARC
  5
30D
100
AcDbEntity
  8
0
100
AcDbCircle
 62
7
  6
CONTINUOUS
 10
7.8104613306
 20
3.5118331696
 40
0.4
100
AcDbArc
 50
49.4848188736
 51
80.0
  0
ARC
  5
30E
100
AcDbEntity
  8
0
100
AcDbCircle
 62
7
  6
CONTINUOUS
 10
7.7528156118
 20
4.0073715856
 40
0.078
100
AcDbArc
 50
180.0
 51
259.9999999996
  0
ARC
  5
30F
100
AcDbEntity
  8
0
100
AcDbCircle
 62
6
  6
CONTINUOUS
 10
7.6038156118
 20
3.9054218144
 40
0.065
100
AcDbArc
 50
180.0
 51
360.0
  0
ARC
  5
310
100
AcDbEntity
  8
0
100
AcDbCircle
 62
7
  6
CONTINUOUS
 10
-1.3025649675
 20
4.1450249693
 40
8.9557769077
100
AcDbArc
 50
2.0694420025
 51
2.2088507302
  0
ARC
  5
311
100
AcDbEntity
  8
0
100
AcDbCircle
 62
7
  6
CONTINUOUS
 10
-1.2230805004
 20
4.1493786508
 40
8.8387069926
100
AcDbArc
 50
2.0720137909
 51
2.1998083837
  0
ARC
  5
312
100
AcDbEntity
  8
0
100
AcDbCircle
 62
7
  6
CONTINUOUS
 10
0.4194983965
 20
4.2091139071
 40
7.2450143686
100
AcDbArc
 50
2.0548395255
 51
2.3334311982
  0
ARC
  5
313
100
AcDbEntity
  8
0
100
AcDbCircle
 62
7
  6
CONTINUOUS
 10
1.1341078579
 20
4.2383825688
 40
6.517316418
100
AcDbArc
 50
2.2143578189
 51
2.3311905203
  0
ARC
  5
314
100
AcDbEntity
  8
0
100
AcDbCircle
 62
7
  6
CONTINUOUS
 10
2.7376517325
 20
4.3031818487
 40
4.9249532833
100
AcDbArc
 50
2.3380056948
 51
2.4559076571
  0
ARC
  5
315
100
AcDbEntity
  8
0
100
AcDbCircle
 62
6
  6
CONTINUOUS
 10
5.6437495458
 20
5.2402368257
 40
2.1689084124
100
AcDbArc
 50
331.4361599706
 51
331.8915650178
  0
ARC
  5
316
100
AcDbEntity
  8
0
100
AcDbCircle
 62
6
  6
CONTINUOUS
 10
5.6876396937
 20
5.158452858
 40
2.1070262662
100
AcDbArc
 50
332.277796899
 51
332.5151206502
  0
ARC
  5
317
100
AcDbEntity
  8
0
100
AcDbCircle
 62
6
  6
CONTINUOUS
 10
6.0351752067
 20
5.0834604062
 40
1.7711080575
100
AcDbArc
 50
328.9683897292
 51
329.2231002199
  0
ARC
  5
318
100
AcDbEntity
  8
0
100
AcDbCircle
 62
6
  6
CONTINUOUS
 10
6.3067033621
 20
5.2561013783
 40
1.6409308815
100
AcDbArc
 50
318.9632298953
 51
319.1887339044
  0
ARC
  5
319
100
AcDbEntity
  8
0
100
AcDbCircle
 62
6
  6
CONTINUOUS
 10
6.6360380911
 20
5.2821846529
 40
1.3238402942
100
AcDbArc
 50
313.3289337252
 51
314.0720433562
  0
ARC
  5
31A
100
AcDbEntity
  8
0
100
AcDbCircle
 62
6
  6
CONTINUOUS
 10
6.5567733799
 20
5.0406316454
 40
1.3108368635
100
AcDbArc
 50
319.1731608818
 51
319.7232776453
  0
ARC
  5
31B
100
AcDbEntity
  8
0
100
AcDbCircle
 62
6
  6
CONTINUOUS
 10
7.0288131503
 20
5.284057825
 40
1.1774704538
100
AcDbArc
 50
296.1997735374
 51
296.6443754183
  0
ARC
  5
31C
100
AcDbEntity
  8
0
100
AcDbCircle
 62
6
  6
CONTINUOUS
 10
7.3993099612
 20
4.9828782518
 40
0.25
100
AcDbArc
 50
278.0859891905
 51
303.919157534
  0
ARC
  5
31D
100
AcDbEntity
  8
0
100
AcDbCircle
 62
6
  6
CONTINUOUS
 10
7.1883212624
 20
4.9828782518
 40
0.25
100
AcDbArc
 50
236.080842466
 51
261.9140108095
  0
ARC
  5
31E
100
AcDbEntity
  8
0
100
AcDbCircle
 62
6
  6
CONTINUOUS
 10
6.9838156118
 20
4.7754218144
 40
0.065
100
AcDbArc
 50
0.0
 51
180.0
  0
ARC
  5
31F
100
AcDbEntity
  8
0
100
AcDbCircle
 62
6
  6
CONTINUOUS
 10
7.1569537391
 20
4.3429604717
 40
0.0242582105
100
AcDbArc
 50
233.6453170597
 51
247.4646252492
  0
ARC
  5
320
100
AcDbEntity
  8
0
100
AcDbCircle
 62
6
  6
CONTINUOUS
 10
7.1567379271
 20
4.3424012471
 40
0.0236631091
100
AcDbArc
 50
247.5242108154
 51
254.252036973
  0
ARC
  5
321
100
AcDbEntity
  8
0
100
AcDbCircle
 62
7
  6
CONTINUOUS
 10
7.1563251874
 20
4.3390939032
 40
0.0228965958
100
AcDbArc
 50
110.5535972735
 51
118.3951127041
  0
ARC
  5
322
100
AcDbEntity
  8
0
100
AcDbCircle
 62
6
  6
CONTINUOUS
 10
5.1369864464
 20
5.4491585374
 40
2.7297060442
100
AcDbArc
 50
331.8779490167
 51
332.0669247737
  0
ARC
  5
323
100
AcDbEntity
  8
0
100
AcDbCircle
 62
6
  6
CONTINUOUS
 10
5.2323983702
 20
5.4637607756
 40
2.6370671851
100
AcDbArc
 50
331.2523829625
 51
331.4440854905
  0
ARC
  5
324
100
AcDbEntity
  8
0
100
AcDbCircle
 62
6
  6
CONTINUOUS
 10
5.4267413472
 20
5.2955409499
 40
2.4017483251
100
AcDbArc
 50
332.0666305467
 51
332.2781263075
  0
ARC
  5
325
100
AcDbEntity
  8
0
100
AcDbCircle
 62
6
  6
CONTINUOUS
 10
7.0414769051
 20
6.4336699314
 40
2.1035509266
100
AcDbArc
 50
283.8334992013
 51
284.1819637496
  0
ARC
  5
326
100
AcDbEntity
  8
0
100
AcDbCircle
 62
6
  6
CONTINUOUS
 10
5.9757297851
 20
5.2985330898
 40
1.886602886
100
AcDbArc
 50
326.2530462371
 51
326.9377894828
  0
ARC
  5
327
100
AcDbEntity
  8
0
100
AcDbCircle
 62
7
  6
CONTINUOUS
 10
4.9188156118
 20
5.5284218144
 40
1.5005
100
AcDbArc
 50
250.0
 51
270.0
  0
ARC
  5
328
100
AcDbEntity
  8
0
100
AcDbCircle
 62
6
  6
CONTINUOUS
 10
6.8941932169
 20
5.5567884518
 40
1.4816158266
100
AcDbArc
 50
296.0321717768
 51
296.2143872109
  0
ARC
  5
329
100
AcDbEntity
  8
0
100
AcDbCircle
 62
6
  6
CONTINUOUS
 10
7.2938156118
 20
5.7254218144
 40
1.0
100
AcDbArc
 50
261.9140108095
 51
278.0859891905
  0
ARC
  5
32A
100
AcDbEntity
  8
0
100
AcDbCircle
 62
7
  6
CONTINUOUS
 10
4.9188156118
 20
5.5284218144
 40
0.8755
100
AcDbArc
 50
250.0
 51
270.0
  0
ARC
  5
32B
100
AcDbEntity
  8
0
100
AcDbCircle
 62
7
  6
CONTINUOUS
 10
9.7984422609
 20
4.2498125857
 40
2.1924144161
100
AcDbArc
 50
182.617700401
 51
182.9680430634
  0
ARC
  5
32C
100
AcDbEntity
  8
0
100
AcDbCircle
 62
7
  6
CONTINUOUS
 10
8.9141898487
 20
5.041682839
 40
1.52
100
AcDbArc
 50
258.4101664982
 51
273.7580464625
  0
ARC
  5
32D
100
AcDbEntity
  8
0
100
AcDbCircle
 62
6
  6
CONTINUOUS
 10
9.1274765699
 20
4.8685500084
 40
1.5
100
AcDbArc
 50
229.586918186
 51
250.6900624221
  0
ARC
  5
32E
100
AcDbEntity
  8
0
100
AcDbCircle
 62
7
  6
CONTINUOUS
 10
8.8499005357
 20
4.7282073467
 40
1.2
100
AcDbArc
 50
229.4848188736
 51
258.4101664982
  0
ARC
  5
32F
100
AcDbEntity
  8
0
100
AcDbCircle
 62
7
  6
CONTINUOUS
 10
7.7528156118
 20
4.6734720431
 40
0.078
100
AcDbArc
 50
100.0000000004
 51
180.0
  0
ARC
  5
330
100
AcDbEntity
  8
0
100
AcDbCircle
 62
6
  6
CONTINUOUS
 10
7.6038156118
 20
4.7754218144
 40
0.065
100
AcDbArc
 50
0.0
 51
180.0
  0
ARC
  5
331
100
AcDbEntity
  8
0
100
AcDbCircle
 62
6
  6
CONTINUOUS
 10
8.6304389812
 20
5.6071940883
 40
2.0454083357
100
AcDbArc
 50
222.7651019946
 51
223.0542052853
  0
ARC
  5
332
100
AcDbEntity
  8
0
100
AcDbCircle
 62
6
  6
CONTINUOUS
 10
8.4727827432
 20
5.5635872327
 40
1.9308918406
100
AcDbArc
 50
225.8902975731
 51
226.1799864075
  0
ARC
  5
333
100
AcDbEntity
  8
0
100
AcDbCircle
 62
6
  6
CONTINUOUS
 10
7.6688156118
 20
5.5254218144
 40
0.75
100
AcDbArc
 50
270.0
 51
310.413081814
  0
ARC
  5
334
100
AcDbEntity
  8
0
100
AcDbCircle
 62
7
  6
CONTINUOUS
 10
7.8104613306
 20
5.1690104592
 40
0.4
100
AcDbArc
 50
280.0
 51
310.5151811264
  0
ARC
  5
335
100
AcDbEntity
  8
0
100
AcDbCircle
 62
6
  6
CONTINUOUS
 10
8.4164244667
 20
6.0877330765
 40
2.2906794806
100
AcDbArc
 50
236.0105487291
 51
236.4460479718
  0
ARC
  5
336
100
AcDbEntity
  8
0
100
AcDbCircle
 62
6
  6
CONTINUOUS
 10
8.5045836197
 20
5.8191142069
 40
2.0723579298
100
AcDbArc
 50
228.4046118664
 51
229.1946441555
  0
ARC
  5
337
100
AcDbEntity
  8
0
100
AcDbCircle
 62
6
  6
CONTINUOUS
 10
8.6734689302
 20
5.5778757451
 40
2.0792280761
100
AcDbArc
 50
222.0211743192
 51
222.3096302361
  0
ARC
  5
338
100
AcDbEntity
  8
0
100
AcDbCircle
 62
6
  6
CONTINUOUS
 10
9.2928156118
 20
5.3404218144
 40
2.0
100
AcDbArc
 50
250.6900624221
 51
270.0
  0
ARC
  5
339
100
AcDbEntity
  8
0
100
AcDbCircle
 62
7
  6
CONTINUOUS
 10
9.0362969517
 20
5.4981548337
 40
0.343
100
AcDbArc
 50
266.2419535375
 51
320.9887457037
  0
ARC
  5
33A
100
AcDbEntity
  8
0
100
AcDbCircle
 62
7
  6
CONTINUOUS
 10
9.6688156118
 20
5.3854218144
 40
0.125
100
AcDbArc
 50
90.0
 51
151.6423634237
  0
ARC
  5
33B
100
AcDbEntity
  8
0
100
AcDbCircle
 62
6
  6
CONTINUOUS
 10
9.6688156118
 20
5.5154218143
 40
0.125
100
AcDbArc
 50
90.0
 51
151.6423634237
  0
ARC
  5
33C
100
AcDbEntity
  8
0
100
AcDbCircle
 62
7
  6
CONTINUOUS
 10
9.4197136763
 20
5.2796574051
 40
0.078
100
AcDbArc
 50
98.03157335
 51
149.0556893899
  0
ARC
  5
33D
100
AcDbEntity
  8
0
100
AcDbCircle
 62
7
  6
CONTINUOUS
 10
9.5122943215
 20
5.3344728725
 40
0.078
100
AcDbArc
 50
93.291697165
 51
143.2265724874
  0
ARC
  5
33E
100
AcDbEntity
  8
0
100
AcDbCircle
 62
6
  6
CONTINUOUS
 10
9.5122943215
 20
5.4644728725
 40
0.078
100
AcDbArc
 50
93.291697165
 51
143.2265724874
  0
ARC
  5
33F
100
AcDbEntity
  8
0
100
AcDbCircle
 62
6
  6
CONTINUOUS
 10
9.4197136763
 20
5.4096574051
 40
0.078
100
AcDbArc
 50
98.03157335
 51
149.0556893899
  0
ARC
  5
340
100
AcDbEntity
  8
0
100
AcDbCircle
 62
7
  6
CONTINUOUS
 10
9.2996402272
 20
5.3516460626
 40
0.062
100
AcDbArc
 50
287.0467181651
 51
329.0556893899
  0
ARC
  5
341
100
AcDbEntity
  8
0
100
AcDbCircle
 62
7
  6
CONTINUOUS
 10
9.4001530477
 20
5.4182841767
 40
0.062
100
AcDbArc
 50
278.03157335
 51
323.2265724874
  0
ARC
  5
342
100
AcDbEntity
  8
0
100
AcDbCircle
 62
7
  6
CONTINUOUS
 10
9.5042556118
 20
5.4742418932
 40
0.062
100
AcDbArc
 50
273.291697165
 51
331.6423634237
  0
ARC
  5
343
100
AcDbEntity
  8
0
100
AcDbCircle
 62
6
  6
CONTINUOUS
 10
9.5042556118
 20
5.6042418932
 40
0.062
100
AcDbArc
 50
273.291697165
 51
331.6423634237
  0
ARC
  5
344
100
AcDbEntity
  8
0
100
AcDbCircle
 62
6
  6
CONTINUOUS
 10
9.4001530477
 20
5.5482841767
 40
0.062
100
AcDbArc
 50
278.03157335
 51
323.2265724874
  0
ARC
  5
345
100
AcDbEntity
  8
0
100
AcDbCircle
 62
6
  6
CONTINUOUS
 10
9.2996402272
 20
5.4816460626
 40
0.062
100
AcDbArc
 50
285.9341591625
 51
329.0556893899
  0
ARC
  5
346
100
AcDbEntity
  8
0
100
AcDbCircle
 62
6
  6
CONTINUOUS
 10
9.325684948
 20
5.3904218144
 40
0.0328693362
100
AcDbArc
 50
105.9341591625
 51
180.0
  0
ARC
  5
347
100
AcDbEntity
  8
0
100
AcDbCircle
 62
7
  6
CONTINUOUS
 10
9.3269033041
 20
5.2627319207
 40
0.031
100
AcDbArc
 50
107.0467181651
 51
140.9887457037
  0
ARC
  5
348
100
AcDbEntity
  8
0
100
AcDbCircle
 62
6
  6
CONTINUOUS
 10
9.1525164475
 20
6.0159229795
 40
2.7283613303
100
AcDbArc
 50
222.5637759696
 51
222.7900885782
  0
ARC
  5
349
100
AcDbEntity
  8
0
100
AcDbCircle
 62
6
  6
CONTINUOUS
 10
9.0974191519
 20
6.0454881022
 40
2.6858567362
100
AcDbArc
 50
223.3088535377
 51
223.5355684958
  0
ARC
  5
34A
100
AcDbEntity
  8
0
100
AcDbCircle
 62
6
  6
CONTINUOUS
 10
8.8363876789
 20
5.9436708417
 40
2.4568887932
100
AcDbArc
 50
226.3143522769
 51
226.6649777369
  0
ARC
  5
34B
100
AcDbEntity
  8
0
100
AcDbCircle
 62
6
  6
CONTINUOUS
 10
8.9008220179
 20
5.7847946704
 40
2.3866445165
100
AcDbArc
 50
222.3091627718
 51
222.5641839148
  0
ARC
  5
34C
100
AcDbEntity
  8
0
100
AcDbCircle
 62
6
  6
CONTINUOUS
 10
8.8233599058
 20
5.7873412994
 40
2.3093619234
100
AcDbArc
 50
223.0524650817
 51
223.2472649972
  0
ARC
  5
34D
100
AcDbEntity
  8
0
100
AcDbCircle
 62
7
  6
CONTINUOUS
 10
16.4164490084
 20
4.5281926262
 40
8.7663762166
100
AcDbArc
 50
182.0645326238
 51
182.1922376904
  0
ARC
  5
34E
100
AcDbEntity
  8
0
100
AcDbCircle
 62
7
  6
CONTINUOUS
 10
16.2560596599
 20
4.5250576947
 40
8.6434558728
100
AcDbArc
 50
182.0836475879
 51
182.2115651874
  0
ARC
  5
34F
100
AcDbEntity
  8
0
100
AcDbCircle
 62
7
  6
CONTINUOUS
 10
15.9813771997
 20
4.512105201
 40
8.3185154332
100
AcDbArc
 50
182.0607024745
 51
182.3005672779
  0
ARC
  5
350
100
AcDbEntity
  8
0
100
AcDbCircle
 62
7
  6
CONTINUOUS
 10
15.4924603161
 20
4.4493221451
 40
7.8561160031
100
AcDbArc
 50
181.9935651293
 51
182.1436465171
  0
ARC
  5
351
100
AcDbEntity
  8
0
100
AcDbCircle
 62
7
  6
CONTINUOUS
 10
14.0438215879
 20
4.4369750679
 40
6.3919960219
100
AcDbArc
 50
182.1887236528
 51
182.3338035495
  0
ARC
  5
352
100
AcDbEntity
  8
0
100
AcDbCircle
 62
7
  6
CONTINUOUS
 10
13.5117101159
 20
4.3756955121
 40
5.8739979736
100
AcDbArc
 50
182.1486677255
 51
182.2791667111
  0
ARC
  5
353
100
AcDbEntity
  8
0
100
AcDbCircle
 62
7
  6
CONTINUOUS
 10
12.4700293602
 20
4.3723514102
 40
4.804387974
100
AcDbArc
 50
182.3161932062
 51
182.5626746569
  0
ARC
  5
354
100
AcDbEntity
  8
0
100
AcDbCircle
 62
7
  6
CONTINUOUS
 10
12.3927105674
 20
4.3719261015
 40
4.7770700077
100
AcDbArc
 50
182.3491503537
 51
182.5996737092
  0
ARC
  5
355
100
AcDbEntity
  8
0
100
AcDbCircle
 62
7
  6
CONTINUOUS
 10
12.1835622384
 20
4.2780192505
 40
4.5770508301
100
AcDbArc
 50
181.6087988193
 51
181.7758318983
  0
ARC
  5
356
100
AcDbEntity
  8
0
100
AcDbCircle
 62
7
  6
CONTINUOUS
 10
12.0157586394
 20
4.3534625997
 40
4.3622146108
100
AcDbArc
 50
182.3225360411
 51
182.5782668037
  0
ARC
  5
357
100
AcDbEntity
  8
0
100
AcDbCircle
 62
6
  6
CONTINUOUS
 10
7.9260931428
 20
9.8534518179
 40
5.5171328674
100
AcDbArc
 50
261.6911296403
 51
261.9167127751
  0
ARC
  5
358
100
AcDbEntity
  8
0
100
AcDbCircle
 62
6
  6
CONTINUOUS
 10
8.0949896417
 20
7.5756435191
 40
3.4807995168
100
AcDbArc
 50
254.0049855179
 51
254.2526638347
  0
ARC
  5
359
100
AcDbEntity
  8
0
100
AcDbCircle
 62
7
  6
CONTINUOUS
 10
61.3629973443
 20
5.8525677686
 40
53.7481479277
100
AcDbArc
 50
181.581205135
 51
181.7209781672
  0
ARC
  5
35A
100
AcDbEntity
  8
0
100
AcDbCircle
 62
7
  6
CONTINUOUS
 10
57.3311717971
 20
5.8919332077
 40
49.7413163601
100
AcDbArc
 50
181.7596003974
 51
181.9041449079
  0
ARC
  5
35B
100
AcDbEntity
  8
0
100
AcDbCircle
 62
7
  6
CONTINUOUS
 10
53.4150841269
 20
5.7626624285
 40
45.7731201965
100
AcDbArc
 50
181.7809781429
 51
181.9072132883
  0
SPLINE
  5
35C
100
AcDbEntity
  8
0
100
AcDbSpline
 62
7
  6
CONTINUOUS
 70
0
 71
3
 72
10
 73
6
 74
4
 42
0.0000001
 43
0.0000001
 44
0.0000000001
 12
-0.0014891958
 22
0.0000314806
 32
0.0
 13
-0.0004555955
 23
0.0014181424
 33
0.0
 40
0.0
 40
0.0
 40
0.0
 40
0.0
 40
0.3338486338
 40
0.6206098289
 40
1.0
 40
1.0
 40
1.0
 40
1.0
 10
7.6140591817
 20
4.0861048786
 30
0.0
 10
7.6138934597
 20
4.0861083818
 30
0.0
 10
7.6136552807
 20
4.0863990233
 30
0.0
 10
7.6134523716
 20
4.086828181
 30
0.0
 10
7.6133380276
 20
4.0871454448
 30
0.0
 10
7.6132804115
 20
4.0873247879
 30
0.0
 11
7.6140591817
 21
4.0861048786
 31
0.0
 11
7.6136696923
 21
4.0864140427
 31
0.0
 11
7.6134750258
 21
4.0867942435
 31
0.0
 11
7.6132804115
 21
4.0873247879
 31
0.0
  0
SPLINE
  5
35D
100
AcDbEntity
  8
0
100
AcDbSpline
 62
7
  6
CONTINUOUS
 70
0
 71
3
 72
12
 73
8
 74
6
 42
0.0000001
 43
0.0000001
 44
0.0000000001
 12
-0.0060631986
 22
0.0188730552
 32
0.0
 13
-0.0015624705
 23
0.0197614088
 33
0.0
 40
0.0
 40
0.0
 40
0.0
 40
0.0
 40
0.0599143575
 40
0.1382892885
 40
0.3508940421
 40
0.6381712611
 40
1.0
 40
1.0
 40
1.0
 40
1.0
 10
7.6132804115
 20
4.0873247879
 30
0.0
 10
7.6131593206
 20
4.0877017102
 30
0.0
 10
7.6129326749
 20
4.088588279
 30
0.0
 10
7.6124856118
 20
4.0908636991
 30
0.0
 10
7.611961014
 20
4.0946508716
 30
0.0
 10
7.6113595747
 20
4.1003128572
 30
0.0
 10
7.6109960221
 20
4.1045869413
 30
0.0
 10
7.6108075732
 20
4.1069703565
 30
0.0
 11
7.6132804115
 21
4.0873247879
 31
0.0
 11
7.6129724014
 21
4.088471841
 31
0.0
 11
7.6126643743
 21
4.0899946325
 31
0.0
 11
7.6120476778
 21
4.0941637499
 31
0.0
 11
7.6114291386
 21
4.0998247784
 31
0.0
 11
7.6108075732
 21
4.1069703565
 31
0.0
  0
LINE
  5
35E
100
AcDbEntity
  8
0
100
AcDbLine
 62
7
  6
CONTINUOUS
 10
7.6108075732
 20
4.1069703565
 11
7.6089688153
 21
4.1362916501
  0
SPLINE
  5
35F
100
AcDbEntity
  8
0
100
AcDbSpline
 62
7
  6
CONTINUOUS
 70
0
 71
3
 72
13
 73
9
 74
7
 42
0.0000001
 43
0.0000001
 44
0.0000000001
 12
0.0043696487
 22
0.0000107351
 32
0.0
 13
0.000750266
 23
-0.0043047702
 33
0.0
 40
0.0
 40
0.0
 40
0.0
 40
0.0
 40
0.0987290715
 40
0.1807230724
 40
0.2887505732
 40
0.424091437
 40
0.5874617136
 40
1.0
 40
1.0
 40
1.0
 40
1.0
 10
7.6515919778
 20
4.5947989187
 30
0.0
 10
7.6517357816
 20
4.594799272
 30
0.0
 10
7.6519551442
 20
4.5945710456
 30
0.0
 10
7.6521418299
 20
4.5942108554
 30
0.0
 10
7.6523183746
 20
4.5937645024
 30
0.0
 10
7.652490204
 20
4.593199196
 30
0.0
 10
7.6527432145
 20
4.5921933702
 30
0.0
 10
7.6529005574
 20
4.5913691512
 30
0.0
 10
7.6530037285
 20
4.5907771903
 30
0.0
 11
7.6515919778
 21
4.5947989187
 31
0.0
 11
7.6519448609
 21
4.5945507446
 31
0.0
 11
7.6521213218
 21
4.5942389266
 31
0.0
 11
7.6522977925
 21
4.5938011101
 31
0.0
 11
7.6524742709
 21
4.5932366617
 31
0.0
 11
7.6526507545
 21
4.5925449478
 31
0.0
 11
7.6530037285
 21
4.5907771903
 31
0.0
  0
SPLINE
  5
360
100
AcDbEntity
  8
0
100
AcDbSpline
 62
7
  6
CONTINUOUS
 70
0
 71
3
 72
14
 73
10
 74
8
 42
0.0000001
 43
0.0000001
 44
0.0000000001
 12
0.0131780875
 22
-0.0756113702
 32
0.0
 13
0.0032902793
 23
-0.0766806061
 33
0.0
 40
0.0
 40
0.0
 40
0.0
 40
0.0
 40
0.0588053288
 40
0.1382888876
 40
0.2375516938
 40
0.3556590967
 40
0.491702474
 40
0.6449233434
 40
1.0
 40
1.0
 40
1.0
 40
1.0
 10
7.6530037285
 20
4.5907771903
 30
0.0
 10
7.6532620425
 20
4.5892950732
 30
0.0
 10
7.65372816
 20
4.5857859303
 30
0.0
 10
7.6543427049
 20
4.5797396718
 30
0.0
 10
7.6549626406
 20
4.5721698617
 30
0.0
 10
7.6555876848
 20
4.5631497825
 30
0.0
 10
7.6562151623
 20
4.5527464753
 30
0.0
 10
7.6570980024
 20
4.5362854235
 30
0.0
 10
7.6576919797
 20
4.5232946387
 30
0.0
 10
7.6580814135
 20
4.5142188076
 30
0.0
 11
7.6530037285
 21
4.5907771903
 31
0.0
 11
7.6536388667
 21
4.5863087257
 31
0.0
 11
7.6542739121
 21
4.5802414135
 31
0.0
 11
7.654908792
 21
4.5726493771
 31
0.0
 11
7.6555434338
 21
4.5636067396
 31
0.0
 11
7.6561778163
 21
4.553184541
 31
0.0
 11
7.6568121204
 21
4.5414417798
 31
0.0
 11
7.6580814135
 21
4.5142188076
 31
0.0
  0
LINE
  5
361
100
AcDbEntity
  8
0
100
AcDbLine
 62
7
  6
CONTINUOUS
 10
7.6598539738
 20
4.4688913437
 11
7.6602805182
 21
4.4569353686
  0
LINE
  5
362
100
AcDbEntity
  8
0
100
AcDbLine
 62
7
  6
CONTINUOUS
 10
7.6602805182
 20
4.4569353686
 11
7.6606095459
 21
4.4474800956
  0
LINE
  5
363
100
AcDbEntity
  8
0
100
AcDbLine
 62
7
  6
CONTINUOUS
 10
7.6606095459
 20
4.4474800956
 11
7.6608223775
 21
4.4412640593
  0
LINE
  5
364
100
AcDbEntity
  8
0
100
AcDbLine
 62
7
  6
CONTINUOUS
 10
7.6631225143
 20
4.3704519159
 11
7.6640753928
 21
4.3400829611
  0
LINE
  5
365
100
AcDbEntity
  8
0
100
AcDbLine
 62
7
  6
CONTINUOUS
 10
7.6673206859
 20
4.2392870073
 11
7.6677819136
 21
4.2259232852
  0
LINE
  5
366
100
AcDbEntity
  8
0
100
AcDbLine
 62
7
  6
CONTINUOUS
 10
7.6677819136
 20
4.2259232852
 11
7.6681012903
 21
4.2168885726
  0
LINE
  5
367
100
AcDbEntity
  8
0
100
AcDbLine
 62
7
  6
CONTINUOUS
 10
7.6681012903
 20
4.2168885726
 11
7.6682414204
 21
4.2129856143
  0
LINE
  5
368
100
AcDbEntity
  8
0
100
AcDbLine
 62
7
  6
CONTINUOUS
 10
7.6704462088
 20
4.1575366588
 11
7.6705827259
 21
4.1545327509
  0
SPLINE
  5
369
100
AcDbEntity
  8
0
100
AcDbSpline
 62
7
  6
CONTINUOUS
 70
0
 71
3
 72
13
 73
9
 74
7
 42
0.0000001
 43
0.0000001
 44
0.0000000001
 12
0.0028683186
 22
-0.0625170322
 32
0.0
 13
0.0087814888
 23
-0.0619636347
 33
0.0
 40
0.0
 40
0.0
 40
0.0
 40
0.0
 40
0.3412989172
 40
0.6240747277
 40
0.7424947709
 40
0.8449973233
 40
0.9310180978
 40
1.0
 40
1.0
 40
1.0
 40
1.0
 10
7.6705827259
 20
4.1545327509
 30
0.0
 10
7.6709090439
 20
4.1474204191
 30
0.0
 10
7.6715456616
 20
4.1344171151
 30
0.0
 10
7.6724496916
 20
4.118953886
 30
0.0
 10
7.6731928117
 20
4.1084724537
 30
0.0
 10
7.6737141232
 20
4.1020903742
 30
0.0
 10
7.6742323981
 20
4.0967434748
 30
0.0
 10
7.6746162191
 20
4.0935321812
 30
0.0
 10
7.6748181404
 20
4.0921073914
 30
0.0
 11
7.6705827259
 21
4.1545327509
 31
0.0
 11
7.6716422171
 21
4.1331996029
 31
0.0
 11
7.6727011803
 21
4.1155344136
 31
0.0
 11
7.6732304548
 21
4.1081422797
 31
0.0
 11
7.6737596313
 21
4.1017492468
 31
0.0
 11
7.6742888207
 21
4.0963918988
 31
0.0
 11
7.6748181404
 21
4.0921073914
 31
0.0
  0
SPLINE
  5
36A
100
AcDbEntity
  8
0
100
AcDbSpline
 62
7
  6
CONTINUOUS
 70
0
 71
3
 72
12
 73
8
 74
6
 42
0.0000001
 43
0.0000001
 44
0.0000000001
 12
-0.0022077832
 22
-0.0000338999
 32
0.0
 13
-0.0005420431
 23
0.0021404778
 33
0.0
 40
0.0
 40
0.0
 40
0.0
 40
0.0
 40
0.1214434668
 40
0.2076538778
 40
0.3161328962
 40
0.6063973206
 40
1.0
 40
1.0
 40
1.0
 40
1.0
 10
7.6640525669
 20
4.0859871546
 30
0.0
 10
7.6639631932
 20
4.0859857823
 30
0.0
 10
7.6638165226
 20
4.0860769069
 30
0.0
 10
7.6636765292
 20
4.0862594319
 30
0.0
 10
7.6634981218
 20
4.0865712109
 30
0.0
 10
7.6632915408
 20
4.087118203
 30
0.0
 10
7.6631550502
 20
4.0876030169
 30
0.0
 10
7.6630839337
 20
4.0878838495
 30
0.0
 11
7.6640525669
 21
4.0859871546
 31
0.0
 11
7.663810351
 21
4.0861022078
 31
0.0
 11
7.6636892515
 21
4.0862490765
 31
0.0
 11
7.6635681606
 21
4.0864557403
 31
0.0
 11
7.663326015
 21
4.0870491536
 31
0.0
 11
7.6630839337
 21
4.0878838495
 31
0.0
  0
SPLINE
  5
36B
100
AcDbEntity
  8
0
100
AcDbSpline
 62
7
  6
CONTINUOUS
 70
0
 71
3
 72
16
 73
12
 74
10
 42
0.0000001
 43
0.0000001
 44
0.0000000001
 12
-0.0166581622
 22
0.0657815295
 32
0.0
 13
-0.0030913518
 23
0.0677875176
 33
0.0
 40
0.0
 40
0.0
 40
0.0
 40
0.0
 40
0.0218883429
 40
0.0496357087
 40
0.1223832459
 40
0.2174801455
 40
0.3340662379
 40
0.4712911194
 40
0.6284593522
 40
0.8049152784
 40
1.0
 40
1.0
 40
1.0
 40
1.0
 10
7.6630839337
 20
4.0878838495
 30
0.0
 10
7.6629623938
 20
4.0883637991
 30
0.0
 10
7.6627321916
 20
4.0894634956
 30
0.0
 10
7.662278896
 20
4.0921946433
 30
0.0
 10
7.6617426186
 20
4.0965877971
 30
0.0
 10
7.6611290135
 20
4.1029921621
 30
0.0
 10
7.6605111991
 20
4.1108603906
 30
0.0
 10
7.6598885394
 20
4.1201356734
 30
0.0
 10
7.6592638691
 20
4.1307677341
 30
0.0
 10
7.6586375853
 20
4.1427104138
 30
0.0
 10
7.6582388907
 20
4.151104982
 30
0.0
 10
7.6580378656
 20
4.155513085
 30
0.0
 11
7.6630839337
 21
4.0878838495
 31
0.0
 11
7.6627683794
 21
4.089335241
 31
0.0
 11
7.662452943
 21
4.0911915105
 31
0.0
 11
7.6618223263
 21
4.0960875657
 31
0.0
 11
7.6611918886
 21
4.1025097788
 31
0.0
 11
7.660561435
 21
4.1103959138
 31
0.0
 11
7.6599308041
 21
4.1196863367
 31
0.0
 11
7.6592999817
 21
4.1303327814
 31
0.0
 11
7.6586689936
 21
4.1422900852
 31
0.0
 11
7.6580378656
 21
4.155513085
 31
0.0
  0
LINE
  5
36C
100
AcDbEntity
  8
0
100
AcDbLine
 62
7
  6
CONTINUOUS
 10
7.6580378656
 20
4.155513085
 11
7.6579598774
 21
4.157232478
  0
LINE
  5
36D
100
AcDbEntity
  8
0
100
AcDbLine
 62
7
  6
CONTINUOUS
 10
7.6557631729
 20
4.2123830905
 11
7.655571838
 21
4.2177139378
  0
LINE
  5
36E
100
AcDbEntity
  8
0
100
AcDbLine
 62
7
  6
CONTINUOUS
 10
7.655571838
 20
4.2177139378
 11
7.6552938957
 21
4.2255814935
  0
LINE
  5
36F
100
AcDbEntity
  8
0
100
AcDbLine
 62
7
  6
CONTINUOUS
 10
7.6552938957
 20
4.2255814935
 11
7.6550759271
 21
4.231848231
  0
LINE
  5
370
100
AcDbEntity
  8
0
100
AcDbLine
 62
7
  6
CONTINUOUS
 10
7.6550759271
 20
4.231848231
 11
7.6548333423
 21
4.2389164054
  0
LINE
  5
371
100
AcDbEntity
  8
0
100
AcDbLine
 62
7
  6
CONTINUOUS
 10
7.6548333423
 20
4.2389164054
 11
7.6483043338
 21
4.4417925187
  0
LINE
  5
372
100
AcDbEntity
  8
0
100
AcDbLine
 62
7
  6
CONTINUOUS
 10
7.6483043338
 20
4.4417925187
 11
7.6481606563
 21
4.4459930621
  0
LINE
  5
373
100
AcDbEntity
  8
0
100
AcDbLine
 62
7
  6
CONTINUOUS
 10
7.6481606563
 20
4.4459930621
 11
7.648007134
 21
4.4504429123
  0
LINE
  5
374
100
AcDbEntity
  8
0
100
AcDbLine
 62
7
  6
CONTINUOUS
 10
7.648007134
 20
4.4504429123
 11
7.6477955465
 21
4.4565076654
  0
LINE
  5
375
100
AcDbEntity
  8
0
100
AcDbLine
 62
7
  6
CONTINUOUS
 10
7.6477955465
 20
4.4565076654
 11
7.6473709389
 21
4.4684245578
  0
LINE
  5
376
100
AcDbEntity
  8
0
100
AcDbLine
 62
7
  6
CONTINUOUS
 10
7.6460305463
 20
4.5034791409
 11
7.645954295
 21
4.5053414474
  0
LINE
  5
377
100
AcDbEntity
  8
0
100
AcDbLine
 62
7
  6
CONTINUOUS
 10
7.645954295
 20
4.5053414474
 11
7.6456612994
 21
4.5123513563
  0
SPLINE
  5
378
100
AcDbEntity
  8
0
100
AcDbSpline
 62
7
  6
CONTINUOUS
 70
0
 71
3
 72
16
 73
12
 74
10
 42
0.0000001
 43
0.0000001
 44
0.0000000001
 12
-0.0034197364
 22
0.0804364776
 32
0.0
 13
-0.0187378603
 23
0.0782982382
 33
0.0
 40
0.0
 40
0.0
 40
0.0
 40
0.0
 40
0.1937881947
 40
0.3698449813
 40
0.5272869575
 40
0.6652296267
 40
0.7826471894
 40
0.878337314
 40
0.9511114055
 40
0.9785613267
 40
1.0
 40
1.0
 40
1.0
 40
1.0
 10
7.6456612994
 20
4.5123513563
 30
0.0
 10
7.6454403979
 20
4.5175472362
 30
0.0
 10
7.6450024351
 20
4.5274628993
 30
0.0
 10
7.6443164824
 20
4.5415967847
 30
0.0
 10
7.6436323058
 20
4.5542301603
 30
0.0
 10
7.6429503458
 20
4.5652873423
 30
0.0
 10
7.6422737164
 20
4.5746843432
 30
0.0
 10
7.641601528
 20
4.58232689
 30
0.0
 10
7.6410148167
 20
4.5875534415
 30
0.0
 10
7.6405160311
 20
4.5907804301
 30
0.0
 10
7.6402624144
 20
4.5920685859
 30
0.0
 10
7.6401285094
 20
4.5926281227
 30
0.0
 11
7.6456612994
 21
4.5123513563
 31
0.0
 11
7.6449695852
 21
4.5279377357
 31
0.0
 11
7.6442782938
 21
4.5420950484
 31
0.0
 11
7.6435871584
 21
4.5547517103
 31
0.0
 11
7.6428959151
 21
4.5658358226
 31
0.0
 11
7.642204418
 21
4.5752636842
 31
0.0
 11
7.641512672
 21
4.5829364946
 31
0.0
 11
7.6408206917
 21
4.588754467
 31
0.0
 11
7.6404746191
 21
4.5909371716
 31
0.0
 11
7.6401285094
 21
4.5926281227
 31
0.0
  0
LINE
  5
379
100
AcDbEntity
  8
0
100
AcDbLine
 62
7
  6
CONTINUOUS
 10
7.6401285094
 20
4.5926281227
 11
7.6394865185
 21
4.5944756677
  0
SPLINE
  5
37A
100
AcDbEntity
  8
0
100
AcDbSpline
 62
7
  6
CONTINUOUS
 70
0
 71
3
 72
12
 73
8
 74
6
 42
0.0000001
 43
0.0000001
 44
0.0000000001
 12
-0.0047743941
 22
0.0085608292
 32
0.0
 13
-0.0010494656
 23
0.0097458328
 33
0.0
 40
0.0
 40
0.0
 40
0.0
 40
0.0
 40
0.0544961229
 40
0.1286417797
 40
0.3374962902
 40
0.6279413919
 40
1.0
 40
1.0
 40
1.0
 40
1.0
 10
7.6419160324
 20
4.0592847503
 30
0.0
 10
7.6418293037
 20
4.0594402609
 30
0.0
 10
7.6416690844
 20
4.0598312025
 30
0.0
 10
7.6413537126
 20
4.0608880747
 30
0.0
 10
7.6409887519
 20
4.0627292705
 30
0.0
 10
7.6405704236
 20
4.0655450093
 30
0.0
 10
7.6403201418
 20
4.0676957378
 30
0.0
 10
7.6401899876
 20
4.0689044114
 30
0.0
 11
7.6419160324
 21
4.0592847503
 31
0.0
 11
7.6417007376
 21
4.0597736235
 31
0.0
 11
7.6414853798
 21
4.0604677725
 31
0.0
 11
7.641054338
 21
4.0624691089
 31
0.0
 11
7.6406226321
 21
4.0652831812
 31
0.0
 11
7.6401899876
 21
4.0689044114
 31
0.0
  0
LINE
  5
37B
100
AcDbEntity
  8
0
100
AcDbLine
 62
7
  6
CONTINUOUS
 10
7.6401899876
 20
4.0689044114
 11
7.638924315
 21
4.0839958952
  0
SPLINE
  5
37C
100
AcDbEntity
  8
0
100
AcDbSpline
 62
7
  6
CONTINUOUS
 70
0
 71
3
 72
11
 73
7
 74
5
 42
0.0000001
 43
0.0000001
 44
0.0000000001
 12
-0.0049430814
 22
0.0719248576
 32
0.0
 13
-0.0028332864
 23
0.0720388206
 33
0.0
 40
0.0
 40
0.0
 40
0.0
 40
0.0
 40
0.1942706812
 40
0.4278694942
 40
0.6977462716
 40
1.0
 40
1.0
 40
1.0
 40
1.0
 10
7.638924315
 20
4.0839958952
 30
0.0
 10
7.6386042164
 20
4.0886535256
 30
0.0
 10
7.6379899787
 20
4.0989179024
 30
0.0
 10
7.6371679777
 20
4.1156657779
 30
0.0
 10
7.6363421592
 20
4.1350111228
 30
0.0
 10
7.6357964722
 20
4.1487494481
 30
0.0
 10
7.6355110151
 20
4.1560074488
 30
0.0
 11
7.638924315
 21
4.0839958952
 31
0.0
 11
7.6380691498
 21
4.0979756143
 31
0.0
 11
7.6372273147
 21
4.1147957542
 31
0.0
 11
7.6363844013
 21
4.1342341225
 31
0.0
 11
7.6355110151
 21
4.1560074488
 31
0.0
  0
LINE
  5
37D
100
AcDbEntity
  8
0
100
AcDbLine
 62
7
  6
CONTINUOUS
 10
7.6355110151
 20
4.1560074488
 11
7.6353156118
 21
4.1609861162
  0
SPLINE
  5
37E
100
AcDbEntity
  8
0
100
AcDbSpline
 62
7
  6
CONTINUOUS
 70
0
 71
3
 72
11
 73
7
 74
5
 42
0.0000001
 43
0.0000001
 44
0.0000000001
 12
-0.0030621262
 22
0.0854861457
 32
0.0
 13
-0.0056198949
 23
0.0853561627
 33
0.0
 40
0.0
 40
0.0
 40
0.0
 40
0.0
 40
0.3010070782
 40
0.5704282026
 40
0.804506918
 40
1.0
 40
1.0
 40
1.0
 40
1.0
 10
7.6747987553
 20
4.506680846
 30
0.0
 10
7.6744915147
 20
4.5152581576
 30
0.0
 10
7.6739017108
 20
4.5315124417
 30
0.0
 10
7.6730490819
 20
4.5544360893
 30
0.0
 10
7.6721801215
 20
4.5743481516
 30
0.0
 10
7.6715020286
 20
4.586578643
 30
0.0
 10
7.6711358117
 20
4.5921408227
 30
0.0
 11
7.6747987553
 21
4.506680846
 31
0.0
 11
7.6738649463
 21
4.5324123451
 31
0.0
 11
7.6729851933
 21
4.5554420923
 31
0.0
 11
7.672089376
 21
4.575445364
 31
0.0
 11
7.6711358117
 21
4.5921408227
 31
0.0
  0
SPLINE
  5
37F
100
AcDbEntity
  8
0
100
AcDbSpline
 62
7
  6
CONTINUOUS
 70
0
 71
3
 72
14
 73
10
 74
8
 42
0.0000001
 43
0.0000001
 44
0.0000000001
 12
-0.001887786
 22
0.0286720962
 32
0.0
 13
-0.0079721179
 23
0.0276061256
 33
0.0
 40
0.0
 40
0.0
 40
0.0
 40
0.0
 40
0.3690202907
 40
0.5244914759
 40
0.6601413378
 40
0.77565979
 40
0.8708713888
 40
0.9456627253
 40
1.0
 40
1.0
 40
1.0
 40
1.0
 10
7.6711358117
 20
4.5921408227
 30
0.0
 10
7.6709036013
 20
4.5956676845
 30
0.0
 10
7.6705400309
 20
4.6006784838
 30
0.0
 10
7.6699848298
 20
4.6069770273
 30
0.0
 10
7.6695967634
 20
4.6108526042
 30
0.0
 10
7.6692173421
 20
4.6141485602
 30
0.0
 10
7.6688490142
 20
4.6168588855
 30
0.0
 10
7.6684925103
 20
4.6189778104
 30
0.0
 10
7.6682269007
 20
4.6201876059
 30
0.0
 10
7.6680825063
 20
4.6206876198
 30
0.0
 11
7.6711358117
 21
4.5921408227
 31
0.0
 11
7.6703536153
 21
4.6027154267
 31
0.0
 11
7.6699587529
 21
4.6071652781
 31
0.0
 11
7.6695672169
 21
4.6110433501
 31
0.0
 11
7.6691827733
 21
4.6143403393
 31
0.0
 11
7.6688067223
 21
4.6170501979
 31
0.0
 11
7.6684397409
 21
4.6191677001
 31
0.0
 11
7.6680825063
 21
4.6206876198
 31
0.0
  0
SPLINE
  5
380
100
AcDbEntity
  8
0
100
AcDbSpline
 62
7
  6
CONTINUOUS
 70
0
 71
3
 72
12
 73
8
 74
6
 42
0.0000001
 43
0.0000001
 44
0.0000000001
 12
-0.0004078664
 22
0.001412374
 32
0.0
 13
-0.0014700865
 23
-0.0000010995
 33
0.0
 40
0.0
 40
0.0
 40
0.0
 40
0.0
 40
0.3862998216
 40
0.674194886
 40
0.7833208628
 40
0.8714205324
 40
1.0
 40
1.0
 40
1.0
 40
1.0
 10
7.6680825063
 20
4.6206876198
 30
0.0
 10
7.6680299867
 20
4.6208694864
 30
0.0
 10
7.667929681
 20
4.6211844674
 30
0.0
 10
7.6677798321
 20
4.6215391938
 30
0.0
 10
7.6676525391
 20
4.6217415611
 30
0.0
 10
7.6675504328
 20
4.6218626126
 30
0.0
 10
7.6674477405
 20
4.6219209374
 30
0.0
 10
7.6673847328
 20
4.6219208902
 30
0.0
 11
7.6680825063
 21
4.6206876198
 31
0.0
 11
7.6679056288
 21
4.6212272662
 31
0.0
 11
7.6677307916
 21
4.6216126962
 31
0.0
 11
7.6676439424
 21
4.6217475787
 31
0.0
 11
7.6675573684
 21
4.6218439055
 31
0.0
 11
7.6673847328
 21
4.6219208902
 31
0.0
  0
SPLINE
  5
381
100
AcDbEntity
  8
0
100
AcDbSpline
 62
7
  6
CONTINUOUS
 70
0
 71
3
 72
13
 73
9
 74
7
 42
0.0000001
 43
0.0000001
 44
0.0000000001
 12
-0.002571112
 22
0.0025717088
 32
0.0
 13
-0.0004162901
 23
0.0036126176
 33
0.0
 40
0.0
 40
0.0
 40
0.0
 40
0.0
 40
0.0439398757
 40
0.1094735122
 40
0.1980546918
 40
0.3102688902
 40
0.6066559756
 40
1.0
 40
1.0
 40
1.0
 40
1.0
 10
7.6119142195
 20
4.0823300749
 30
0.0
 10
7.6118765614
 20
4.0823677417
 30
0.0
 10
7.6118087672
 20
4.082485082
 30
0.0
 10
7.6117241998
 20
4.0827092093
 30
0.0
 10
7.6116380331
 20
4.0830210455
 30
0.0
 10
7.6115097115
 20
4.0836098572
 30
0.0
 10
7.6113563482
 20
4.0845704973
 30
0.0
 10
7.6112525053
 20
4.0854000647
 30
0.0
 10
7.6111979236
 20
4.0858737319
 30
0.0
 11
7.6119142195
 21
4.0823300749
 31
0.0
 11
7.6118255309
 21
4.0824629909
 31
0.0
 11
7.6117369238
 21
4.0826842207
 31
0.0
 11
7.6116482364
 21
4.0829938991
 31
0.0
 11
7.6115593065
 21
4.0833921606
 31
0.0
 11
7.6113800717
 21
4.0844549719
 31
0.0
 11
7.6111979236
 21
4.0858737319
 31
0.0
  0
SPLINE
  5
382
100
AcDbEntity
  8
0
100
AcDbSpline
 62
7
  6
CONTINUOUS
 70
0
 71
3
 72
11
 73
7
 74
5
 42
0.0000001
 43
0.0000001
 44
0.0000000001
 12
-0.0025394475
 22
0.0220376444
 32
0.0
 13
-0.0010072848
 23
0.0221605944
 33
0.0
 40
0.0
 40
0.0
 40
0.0
 40
0.0
 40
0.1663597933
 40
0.3893075658
 40
0.6676088541
 40
1.0
 40
1.0
 40
1.0
 40
1.0
 10
7.6111979236
 20
4.0858737319
 30
0.0
 10
7.6110571029
 20
4.0870957912
 30
0.0
 10
7.6107931856
 20
4.0899629618
 30
0.0
 10
7.6104375535
 20
4.094886819
 30
0.0
 10
7.610076498
 20
4.1010407659
 30
0.0
 10
7.6098555172
 20
4.105551162
 30
0.0
 10
7.609743913
 20
4.1080064904
 30
0.0
 11
7.6111979236
 21
4.0858737319
 31
0.0
 11
7.6108418709
 21
4.0895469541
 31
0.0
 11
7.6104769156
 21
4.0944792268
 31
0.0
 11
7.6101089616
 21
4.1006419416
 31
0.0
 11
7.609743913
 21
4.1080064904
 31
0.0
  0
LINE
  5
383
100
AcDbEntity
  8
0
100
AcDbLine
 62
7
  6
CONTINUOUS
 10
7.609743913
 20
4.1080064904
 11
7.6087096702
 21
4.1361803289
  0
LINE
  5
384
100
AcDbEntity
  8
0
100
AcDbLine
 62
7
  6
CONTINUOUS
 10
7.6083156116
 20
4.3404218144
 11
7.6083156117
 21
4.5087252074
  0
LINE
  5
385
100
AcDbEntity
  8
0
100
AcDbLine
 62
7
  6
CONTINUOUS
 10
7.6083156117
 20
4.5086215448
 11
7.6085189841
 21
4.5036757042
  0
LINE
  5
386
100
AcDbEntity
  8
0
100
AcDbLine
 62
7
  6
CONTINUOUS
 10
7.6085189841
 20
4.5036757042
 11
7.6085938053
 21
4.5018294739
  0
LINE
  5
387
100
AcDbEntity
  8
0
100
AcDbLine
 62
7
  6
CONTINUOUS
 10
7.6085938053
 20
4.5018294739
 11
7.608725819
 21
4.498537882
  0
LINE
  5
388
100
AcDbEntity
  8
0
100
AcDbLine
 62
7
  6
CONTINUOUS
 10
7.608725819
 20
4.498537882
 11
7.609112761
 21
4.4886477096
  0
LINE
  5
389
100
AcDbEntity
  8
0
100
AcDbLine
 62
7
  6
CONTINUOUS
 10
7.609847509
 20
4.4689472366
 11
7.6103357524
 21
4.4552565187
  0
LINE
  5
38A
100
AcDbEntity
  8
0
100
AcDbLine
 62
7
  6
CONTINUOUS
 10
7.6103357524
 20
4.4552565187
 11
7.6105460263
 21
4.4492271814
  0
LINE
  5
38B
100
AcDbEntity
  8
0
100
AcDbLine
 62
7
  6
CONTINUOUS
 10
7.6105460263
 20
4.4492271814
 11
7.6108087371
 21
4.4415897274
  0
LINE
  5
38C
100
AcDbEntity
  8
0
100
AcDbLine
 62
7
  6
CONTINUOUS
 10
7.6108087371
 20
4.4415897274
 11
7.6108821742
 21
4.4394349172
  0
LINE
  5
38D
100
AcDbEntity
  8
0
100
AcDbLine
 62
7
  6
CONTINUOUS
 10
7.6173218555
 20
4.2391545724
 11
7.6176252054
 21
4.2303297774
  0
LINE
  5
38E
100
AcDbEntity
  8
0
100
AcDbLine
 62
7
  6
CONTINUOUS
 10
7.6176252054
 20
4.2303297774
 11
7.6178469811
 21
4.2239813593
  0
LINE
  5
38F
100
AcDbEntity
  8
0
100
AcDbLine
 62
7
  6
CONTINUOUS
 10
7.6178469811
 20
4.2239813593
 11
7.6182313798
 21
4.2132022895
  0
LINE
  5
390
100
AcDbEntity
  8
0
100
AcDbLine
 62
7
  6
CONTINUOUS
 10
7.6182313798
 20
4.2132022895
 11
7.6183187423
 21
4.2107946435
  0
LINE
  5
391
100
AcDbEntity
  8
0
100
AcDbLine
 62
7
  6
CONTINUOUS
 10
7.6190418872
 20
4.1915109668
 11
7.6194577269
 21
4.1809737455
  0
LINE
  5
392
100
AcDbEntity
  8
0
100
AcDbLine
 62
7
  6
CONTINUOUS
 10
7.6194577269
 20
4.1809737455
 11
7.6196552046
 21
4.1761191512
  0
LINE
  5
393
100
AcDbEntity
  8
0
100
AcDbLine
 62
7
  6
CONTINUOUS
 10
7.6205569859
 20
4.1552511081
 11
7.6207888637
 21
4.1502482121
  0
SPLINE
  5
394
100
AcDbEntity
  8
0
100
AcDbSpline
 62
7
  6
CONTINUOUS
 70
0
 71
3
 72
9
 73
5
 74
3
 42
0.0000001
 43
0.0000001
 44
0.0000000001
 12
0.00198826
 22
-0.0422341313
 32
0.0
 13
0.0032332058
 23
-0.0421571039
 33
0.0
 40
0.0
 40
0.0
 40
0.0
 40
0.0
 40
0.5588732081
 40
1.0
 40
1.0
 40
1.0
 40
1.0
 10
7.6207888637
 20
4.1502482121
 30
0.0
 10
7.6211592588
 20
4.1423803706
 30
0.0
 10
7.6218703803
 20
4.1283046687
 30
0.0
 10
7.6227496324
 20
4.114237422
 30
0.0
 10
7.6232250503
 20
4.108038546
 30
0.0
 11
7.6207888637
 21
4.1502482121
 31
0.0
 11
7.6220066261
 21
4.1266499462
 31
0.0
 11
7.6232250503
 21
4.108038546
 31
0.0
  0
SPLINE
  5
395
100
AcDbEntity
  8
0
100
AcDbSpline
 62
7
  6
CONTINUOUS
 70
0
 71
3
 72
12
 73
8
 74
6
 42
0.0000001
 43
0.0000001
 44
0.0000000001
 12
0.0015655906
 22
-0.0204134128
 32
0.0
 13
0.005486265
 23
-0.0197245885
 33
0.0
 40
0.0
 40
0.0
 40
0.0
 40
0.0
 40
0.3540671687
 40
0.6390820062
 40
0.8544702151
 40
0.9359573405
 40
1.0
 40
1.0
 40
1.0
 40
1.0
 10
7.6232250503
 20
4.108038546
 30
0.0
 10
7.6234098251
 20
4.1056293063
 30
0.0
 10
7.6237685847
 20
4.1012823644
 30
0.0
 10
7.6243613762
 20
4.0954812119
 30
0.0
 10
7.6248802755
 20
4.091542359
 30
0.0
 10
7.6253188709
 20
4.0891183309
 30
0.0
 10
7.6255410923
 20
4.0881494614
 30
0.0
 10
7.6256582106
 20
4.0877283897
 30
0.0
 11
7.6232250503
 21
4.108038546
 31
0.0
 11
7.6238333175
 21
4.1008151665
 31
0.0
 11
7.6244418216
 21
4.0950117695
 31
0.0
 11
7.6250502301
 21
4.0906442217
 31
0.0
 11
7.6253542946
 21
4.0890038496
 31
0.0
 11
7.6256582106
 21
4.0877283897
 31
0.0
  0
LINE
  5
396
100
AcDbEntity
  8
0
100
AcDbLine
 62
7
  6
CONTINUOUS
 10
7.6257180606
 20
4.087520319
 11
7.6261237948
 21
4.0864847487
  0
LINE
  5
397
100
AcDbEntity
  8
0
100
AcDbLine
 62
7
  6
CONTINUOUS
 10
7.6083156115
 20
4.1495178761
 11
7.6083214282
 21
4.230576263
  0
LINE
  5
398
100
AcDbEntity
  8
0
100
AcDbLine
 62
7
  6
CONTINUOUS
 10
7.6083214282
 20
4.230576263
 11
7.6083156116
 21
4.3404218144
  0
SPLINE
  5
399
100
AcDbEntity
  8
0
100
AcDbSpline
 62
7
  6
CONTINUOUS
 70
0
 71
3
 72
18
 73
14
 74
12
 42
0.0000001
 43
0.0000001
 44
0.0000000001
 12
-0.0308422804
 22
0.3474321571
 32
0.0
 13
-0.0392305349
 23
0.3465852206
 33
0.0
 40
0.0
 40
0.0
 40
0.0
 40
0.0
 40
0.1171122536
 40
0.179672373
 40
0.2443368144
 40
0.378073245
 40
0.514352981
 40
0.6489268411
 40
0.777510217
 40
0.8383009872
 40
0.8960650447
 40
0.9501775418
 40
1.0
 40
1.0
 40
1.0
 40
1.0
 10
7.6353156118
 20
4.1609861162
 30
0.0
 10
7.6341116088
 20
4.1745489705
 30
0.0
 10
7.6324852611
 20
4.1953763127
 30
0.0
 10
7.6304217224
 20
4.223709215
 30
0.0
 10
7.6282482571
 20
4.253972239
 30
0.0
 10
7.6254776656
 20
4.2927854899
 30
0.0
 10
7.6221778478
 20
4.3397097295
 30
0.0
 10
7.6188486266
 20
4.3860313176
 30
0.0
 10
7.6159623033
 20
4.4235849784
 30
0.0
 10
7.6136337729
 20
4.4522243034
 30
0.0
 10
7.6119363832
 20
4.4722278811
 30
0.0
 10
7.6102135534
 20
4.4909490849
 30
0.0
 10
7.6089671323
 20
4.5029692982
 30
0.0
 10
7.6083156117
 20
4.5087252074
 30
0.0
 11
7.6353156118
 21
4.1609861162
 31
0.0
 11
7.6320377491
 21
4.20170296
 31
0.0
 11
7.6304430865
 21
4.2234654852
 31
0.0
 11
7.6288245987
 21
4.2459621968
 31
0.0
 11
7.6255068249
 21
4.2924911169
 31
0.0
 11
7.6221516725
 21
4.3399067179
 31
0.0
 11
7.618759123
 21
4.3867231105
 31
0.0
 11
7.6153135688
 21
4.4314402437
 31
0.0
 11
7.613592524
 21
4.4525740079
 31
0.0
 11
7.6118759071
 21
4.4726487595
 31
0.0
 11
7.6101301559
 21
4.4914422054
 31
0.0
 11
7.6083156117
 21
4.5087252074
 31
0.0
  0
LINE
  5
39A
100
AcDbEntity
  8
0
100
AcDbLine
 62
7
  6
CONTINUOUS
 10
7.6390935303
 20
4.2383916179
 11
7.6393149872
 21
4.2310989842
  0
LINE
  5
39B
100
AcDbEntity
  8
0
100
AcDbLine
 62
7
  6
CONTINUOUS
 10
7.6393149872
 20
4.2310989842
 11
7.6395102468
 21
4.2247366649
  0
LINE
  5
39C
100
AcDbEntity
  8
0
100
AcDbLine
 62
7
  6
CONTINUOUS
 10
7.6395102468
 20
4.2247366649
 11
7.6398528792
 21
4.213746326
  0
LINE
  5
39D
100
AcDbEntity
  8
0
100
AcDbLine
 62
7
  6
CONTINUOUS
 10
7.6398528792
 20
4.213746326
 11
7.6400114885
 21
4.2087418142
  0
LINE
  5
39E
100
AcDbEntity
  8
0
100
AcDbLine
 62
7
  6
CONTINUOUS
 10
7.6400114885
 20
4.2087418142
 11
7.6405335658
 21
4.1926794666
  0
LINE
  5
39F
100
AcDbEntity
  8
0
100
AcDbLine
 62
7
  6
CONTINUOUS
 10
7.6405335658
 20
4.1926794666
 11
7.6408919839
 21
4.1820360457
  0
LINE
  5
3A0
100
AcDbEntity
  8
0
100
AcDbLine
 62
7
  6
CONTINUOUS
 10
7.6408919839
 20
4.1820360457
 11
7.6410993037
 21
4.1760294327
  0
SPLINE
  5
3A1
100
AcDbEntity
  8
0
100
AcDbSpline
 62
7
  6
CONTINUOUS
 70
0
 71
3
 72
9
 73
5
 74
3
 42
0.0000001
 43
0.0000001
 44
0.0000000001
 12
0.0019748868
 22
-0.0495294749
 32
0.0
 13
0.0029492571
 23
-0.049481016
 33
0.0
 40
0.0
 40
0.0
 40
0.0
 40
0.0
 40
0.549270658
 40
1.0
 40
1.0
 40
1.0
 40
1.0
 10
7.6423589365
 20
4.1420955804
 30
0.0
 10
7.642720519
 20
4.133027218
 30
0.0
 10
7.6434214719
 20
4.116519084
 30
0.0
 10
7.6442632601
 20
4.1000170888
 30
0.0
 10
7.6447063657
 20
4.0925829069
 30
0.0
 11
7.6423589365
 21
4.1420955804
 31
0.0
 11
7.6435330345
 21
4.1148942028
 31
0.0
 11
7.6447063657
 21
4.0925829069
 31
0.0
  0
SPLINE
  5
3A2
100
AcDbEntity
  8
0
100
AcDbSpline
 62
7
  6
CONTINUOUS
 70
0
 71
3
 72
15
 73
11
 74
9
 42
0.0000001
 43
0.0000001
 44
0.0000000001
 12
0.001967702
 22
-0.033013024
 32
0.0
 13
0.0116591857
 23
-0.0309482632
 33
0.0
 40
0.0
 40
0.0
 40
0.0
 40
0.0
 40
0.3815132674
 40
0.540279786
 40
0.6771870529
 40
0.791850636
 40
0.8839144642
 40
0.9532195342
 40
0.9793957869
 40
1.0
 40
1.0
 40
1.0
 40
1.0
 10
7.6447063657
 20
4.0925829069
 30
0.0
 10
7.6449566005
 20
4.0883846047
 30
0.0
 10
7.6453393175
 20
4.0824406406
 30
0.0
 10
7.6459256703
 20
4.0749983285
 30
0.0
 10
7.6463367408
 20
4.070493442
 30
0.0
 10
7.6467448022
 20
4.0667268838
 30
0.0
 10
7.6471502967
 20
4.063710994
 30
0.0
 10
7.6475061135
 20
4.0616726615
 30
0.0
 10
7.6478069966
 20
4.0604285055
 30
0.0
 10
7.6479594581
 20
4.0599350232
 30
0.0
 10
7.6480395342
 20
4.0597224683
 30
0.0
 11
7.6447063657
 21
4.0925829069
 31
0.0
 11
7.6455395342
 21
4.0799931864
 31
0.0
 11
7.6459561851
 21
4.0747590787
 31
0.0
 11
7.64637286
 21
4.0702505479
 31
0.0
 11
7.6467895439
 21
4.0664814007
 31
0.0
 11
7.6472062215
 21
4.0634653481
 31
0.0
 11
7.6476228846
 21
4.0612115079
 31
0.0
 11
7.647831211
 21
4.0603712574
 31
0.0
 11
7.6480395342
 21
4.0597224683
 31
0.0
  0
LINE
  5
3A3
100
AcDbEntity
  8
0
100
AcDbLine
 62
7
  6
CONTINUOUS
 10
7.6481639212
 20
4.0594264785
 11
7.6486378703
 21
4.0589260672
  0
LINE
  5
3A4
100
AcDbEntity
  8
0
100
AcDbLine
 62
7
  6
CONTINUOUS
 10
7.6339202538
 20
4.4414593152
 11
7.6337475837
 21
4.4497957815
  0
LINE
  5
3A5
100
AcDbEntity
  8
0
100
AcDbLine
 62
7
  6
CONTINUOUS
 10
7.6337475837
 20
4.4497957815
 11
7.6336252634
 21
4.4556954507
  0
LINE
  5
3A6
100
AcDbEntity
  8
0
100
AcDbLine
 62
7
  6
CONTINUOUS
 10
7.6336252634
 20
4.4556954507
 11
7.6333709151
 21
4.4679278072
  0
LINE
  5
3A7
100
AcDbEntity
  8
0
100
AcDbLine
 62
7
  6
CONTINUOUS
 10
7.6333709151
 20
4.4679278072
 11
7.632913214
 21
4.4896090374
  0
LINE
  5
3A8
100
AcDbEntity
  8
0
100
AcDbLine
 62
7
  6
CONTINUOUS
 10
7.632913214
 20
4.4896090374
 11
7.6326913974
 21
4.4998457357
  0
LINE
  5
3A9
100
AcDbEntity
  8
0
100
AcDbLine
 62
7
  6
CONTINUOUS
 10
7.6326913974
 20
4.4998457357
 11
7.6326102171
 21
4.5035317179
  0
LINE
  5
3AA
100
AcDbEntity
  8
0
100
AcDbLine
 62
7
  6
CONTINUOUS
 10
7.6326102171
 20
4.5035317179
 11
7.6325713231
 21
4.5052848281
  0
LINE
  5
3AB
100
AcDbEntity
  8
0
100
AcDbLine
 62
7
  6
CONTINUOUS
 10
7.6325713231
 20
4.5052848281
 11
7.6322075646
 21
4.5212165124
  0
LINE
  5
3AC
100
AcDbEntity
  8
0
100
AcDbLine
 62
7
  6
CONTINUOUS
 10
7.6322075646
 20
4.5212165124
 11
7.6321294696
 21
4.5245137391
  0
SPLINE
  5
3AD
100
AcDbEntity
  8
0
100
AcDbSpline
 62
7
  6
CONTINUOUS
 70
0
 71
3
 72
12
 73
8
 74
6
 42
0.0000001
 43
0.0000001
 44
0.0000000001
 12
-0.0019607293
 22
0.0821841804
 32
0.0
 13
-0.0062283582
 23
0.0819712847
 33
0.0
 40
0.0
 40
0.0
 40
0.0
 40
0.0
 40
0.3412666535
 40
0.6257446805
 40
0.8467182895
 40
0.9320493811
 40
1.0
 40
1.0
 40
1.0
 40
1.0
 10
7.6321294696
 20
4.5245137391
 30
0.0
 10
7.6319064257
 20
4.5338626458
 30
0.0
 10
7.6314732791
 20
4.5510042267
 30
0.0
 10
7.6307554427
 20
4.5741954798
 30
0.0
 10
7.6300866764
 20
4.5903712237
 30
0.0
 10
7.6295290284
 20
4.600611696
 30
0.0
 10
7.6292532575
 20
4.6048031301
 30
0.0
 10
7.6291121839
 20
4.6066597966
 30
0.0
 11
7.6321294696
 21
4.5245137391
 31
0.0
 11
7.6314050137
 21
4.5525590848
 31
0.0
 11
7.6306560991
 21
4.5759333365
 31
0.0
 11
7.6298760556
 21
4.5940822836
 31
0.0
 11
7.6294884483
 21
4.6010864282
 31
0.0
 11
7.6291121839
 21
4.6066597966
 31
0.0
  0
SPLINE
  5
3AE
100
AcDbEntity
  8
0
100
AcDbSpline
 62
7
  6
CONTINUOUS
 70
0
 71
3
 72
14
 73
10
 74
8
 42
0.0000001
 43
0.0000001
 44
0.0000000001
 12
-0.0005914832
 22
0.0077844977
 32
0.0
 13
-0.0037621788
 23
0.0068406336
 33
0.0
 40
0.0
 40
0.0
 40
0.0
 40
0.0
 40
0.3890401258
 40
0.5489089968
 40
0.6855583055
 40
0.7989259997
 40
0.888997213
 40
0.9558708113
 40
1.0
 40
1.0
 40
1.0
 40
1.0
 10
7.6291121839
 20
4.6066597966
 30
0.0
 10
7.6290354803
 20
4.6076692906
 30
0.0
 10
7.628919744
 20
4.609093149
 30
0.0
 10
7.6287437944
 20
4.6108685025
 30
0.0
 10
7.6286220439
 20
4.6119283155
 30
0.0
 10
7.6285013104
 20
4.6128049573
 30
0.0
 10
7.6283823428
 20
4.6134989942
 30
0.0
 10
7.6282640948
 20
4.6140079431
 30
0.0
 10
7.6281714782
 20
4.6142844345
 30
0.0
 10
7.6281161376
 20
4.6143850583
 30
0.0
 11
7.6291121839
 21
4.6066597966
 31
0.0
 11
7.6288587942
 21
4.6096864198
 31
0.0
 11
7.6287343542
 21
4.6109282868
 31
0.0
 11
7.6286107987
 21
4.6119879201
 31
0.0
 11
7.6284876635
 21
4.6128643669
 31
0.0
 11
7.6283644843
 21
4.6135566742
 31
0.0
 11
7.6282407971
 21
4.614063889
 31
0.0
 11
7.6281161376
 21
4.6143850583
 31
0.0
  0
LINE
  5
3AF
100
AcDbEntity
  8
0
100
AcDbLine
 62
6
  6
CONTINUOUS
 10
7.1394114197
 20
4.1669958241
 11
7.1358424147
 21
4.1704132098
  0
LINE
  5
3B0
100
AcDbEntity
  8
0
100
AcDbLine
 62
6
  6
CONTINUOUS
 10
7.1358424147
 20
4.1884379202
 11
7.1321421057
 21
4.1909406604
  0
LINE
  5
3B1
100
AcDbEntity
  8
0
100
AcDbLine
 62
6
  6
CONTINUOUS
 10
7.1321421057
 20
4.1909406604
 11
7.1288156118
 21
4.1932019928
  0
LINE
  5
3B2
100
AcDbEntity
  8
0
100
AcDbLine
 62
6
  6
CONTINUOUS
 10
7.1358424147
 20
4.2296008007
 11
7.1323377411
 21
4.2306084622
  0
LINE
  5
3B3
100
AcDbEntity
  8
0
100
AcDbLine
 62
6
  6
CONTINUOUS
 10
7.1323377411
 20
4.2306084622
 11
7.1288156118
 21
4.2316262784
  0
LINE
  5
3B4
100
AcDbEntity
  8
0
100
AcDbLine
 62
6
  6
CONTINUOUS
 10
7.1358424145
 20
4.5104304188
 11
7.1394119162
 21
4.5138482789
  0
LINE
  5
3B5
100
AcDbEntity
  8
0
100
AcDbLine
 62
6
  6
CONTINUOUS
 10
7.1394119162
 20
4.5138482789
 11
7.1430104453
 21
4.5172785684
  0
LINE
  5
3B6
100
AcDbEntity
  8
0
100
AcDbLine
 62
6
  6
CONTINUOUS
 10
7.1430104453
 20
4.5172785684
 11
7.1473843565
 21
4.5214288213
  0
LINE
  5
3B7
100
AcDbEntity
  8
0
100
AcDbLine
 62
6
  6
CONTINUOUS
 10
7.1473843565
 20
4.5214288213
 11
7.1503156118
 21
4.5241992353
  0
LINE
  5
3B8
100
AcDbEntity
  8
0
100
AcDbLine
 62
6
  6
CONTINUOUS
 10
7.5507584275
 20
4.5138074122
 11
7.5528076313
 21
4.5104087287
  0
LINE
  5
3B9
100
AcDbEntity
  8
0
100
AcDbLine
 62
6
  6
CONTINUOUS
 10
7.5528076313
 20
4.5104087287
 11
7.5542720746
 21
4.5079700492
  0
LINE
  5
3BA
100
AcDbEntity
  8
0
100
AcDbLine
 62
6
  6
CONTINUOUS
 10
7.5542720746
 20
4.5079700492
 11
7.5568515102
 21
4.5036530383
  0
LINE
  5
3BB
100
AcDbEntity
  8
0
100
AcDbLine
 62
7
  6
CONTINUOUS
 10
7.1425739064
 20
4.3574198198
 11
7.1454367301
 21
4.3592357899
  0
LINE
  5
3BC
100
AcDbEntity
  8
0
100
AcDbLine
 62
6
  6
CONTINUOUS
 10
7.5528076314
 20
4.1704349001
 11
7.5507590658
 21
4.1670372727
  0
LINE
  5
3BD
100
AcDbEntity
  8
0
100
AcDbLine
 62
6
  6
CONTINUOUS
 10
7.5507590658
 20
4.1670372727
 11
7.5486690713
 21
4.1635863995
  0
LINE
  5
3BE
100
AcDbEntity
  8
0
100
AcDbLine
 62
6
  6
CONTINUOUS
 10
7.5486690713
 20
4.1635863995
 11
7.5470472443
 21
4.1609185719
  0
LINE
  5
3BF
100
AcDbEntity
  8
0
100
AcDbLine
 62
6
  6
CONTINUOUS
 10
7.1412121912
 20
4.2050860861
 11
7.1430104453
 21
4.2031762354
  0
LINE
  5
3C0
100
AcDbEntity
  8
0
100
AcDbLine
 62
6
  6
CONTINUOUS
 10
7.1503156118
 20
4.3911332351
 11
7.1503156118
 21
4.3616552682
  0
LINE
  5
3C1
100
AcDbEntity
  8
0
100
AcDbLine
 62
6
  6
CONTINUOUS
 10
7.1358424147
 20
4.5025728603
 11
7.1332089519
 21
4.4996741667
  0
LINE
  5
3C2
100
AcDbEntity
  8
0
100
AcDbLine
 62
6
  6
CONTINUOUS
 10
7.5463466134
 20
4.4819017437
 11
7.5444384794
 21
4.4853863941
  0
ENDSEC
  0
SECTION
  2
OBJECTS
  0
DICTIONARY
  5
C
100
AcDbDictionary
280
0
281
1
  3
ACAD_GROUP
350
D
  3
ACAD_MLINESTYLE
350
17
  3
ACAD_LAYOUT
350
1A
  3
ACAD_PLOTSETTINGS
350
19
  3
ACAD_PLOTSTYLENAME
350
E
  0
DICTIONARY
  5
D
102
{ACAD_REACTORS
330
C
102
}
100
AcDbDictionary
280
0
281
1
  0
ACDBDICTIONARYWDFLT
  5
E
102
{ACAD_REACTORS
330
C
102
}
100
AcDbDictionary
281
1
  3
Normal
350
F
100
AcDbDictionaryWithDefault
340
F
  0
DICTIONARY
  5
17
102
{ACAD_REACTORS
330
C
102
}
100
AcDbDictionary
280
0
281
1
  3
Standard
350
18
  0
DICTIONARY
  5
19
102
{ACAD_REACTORS
330
C
102
}
100
AcDbDictionary
281
1
  0
DICTIONARY
  5
1A
102
{ACAD_REACTORS
330
C
102
}
100
AcDbDictionary
281
1
  3
Model
350
3C3
  3
Layout1
350
3C4
  0
ACDBPLACEHOLDER
  5
F
102
{ACAD_REACTORS
330
E
102
}
  0
MLINESTYLE
  5
18
102
{ACAD_REACTORS
330
17
102
}
100
AcDbMlineStyle
  2
STANDARD
 70
0
  3

 62
256
 51
90.0
 52
90.0
 71
2
 49
0.5
 62
256
  6
BYLAYER
 49
-0.5
 62
256
  6
BYLAYER
  0
LAYOUT
  5
3C3
102
{ACAD_REACTORS
330
1A
102
}
100
AcDbPlotSettings
  1

  2
none_device
  4
ISO_A4_(297.00_x_210.00_MM)
  6

 40
0.0
 41
0.0
 42
0.0
 43
0.0
 44
297.0
 45
210.0
 46
0.0
 47
0.0
 48
0.0
 49
0.0
140
0.0
141
0.0
142
1.0
143
1.0
 70
1024
 72
0
 73
0
 74
0
  7

 75
0
147
1.0
148
0.0
149
0.0
100
AcDbLayout
  1
Model
 70
0
 71
0
 10
0.0
 20
0.0
 11
11.6929133858
 21
8.2677165354
 12
0.0
 22
0.0
 32
0.0
 14
0.0
 24
0.0
 34
0.0
 15
0.0
 25
0.0
 35
0.0
146
0.0
 13
0.0
 23
0.0
 33
0.0
 16
1.0
 26
0.0
 36
0.0
 17
0.0
 27
1.0
 37
0.0
 76
0
330
23E
345
0
346
0
  0
LAYOUT
  5
3C4
102
{ACAD_REACTORS
330
1A
102
}
100
AcDbPlotSettings
  1

  2
none_device
  4
ISO_A4_(297.00_x_210.00_MM)
  6

 40
0.0
 41
0.0
 42
0.0
 43
0.0
 44
297.0
 45
210.0
 46
0.0
 47
0.0
 48
0.0
 49
0.0
140
0.0
141
0.0
142
1.0
143
1.0
 70
0
 72
0
 73
0
 74
0
  7

 75
0
147
1.0
148
0.0
149
0.0
100
AcDbLayout
  1
Layout1
 70
0
 71
1
 10
0.0
 20
0.0
 11
11.6929133858
 21
8.2677165354
 12
0.0
 22
0.0
 32
0.0
 14
0.0
 24
0.0
 34
0.0
 15
0.0
 25
0.0
 35
0.0
146
0.0
 13
0.0
 23
0.0
 33
0.0
 16
1.0
 26
0.0
 36
0.0
 17
0.0
 27
1.0
 37
0.0
 76
0
330
23F
345
0
346
0
  0
ENDSEC
  0
EOF
