999
DXF file: 7306_TOP.dxf
999
Pro/ENGINEER 2009300 by Parametric Technology Corporation
  0
SECTION
  2
HEADER
  9
$ACADVER
  1
AC1015
  9
$DWGCODEPAGE
  3
ANSI_1252
  9
$EXTMAX
 10
23.3858267717
 20
16.5354330709
 30
0.0
  9
$EXTMIN
 10
0.0
 20
0.0
 30
0.0
  9
$LIMMIN
 10
0.0
 20
0.0
  9
$LIMMAX
 10
23.3858267717
 20
16.5354330709
  9
$VIEWCTR
 10
11.6929133858
 20
8.2677165354
  9
$VIEWSIZE
 40
16.5354330709
  9
$CLAYER
  8
0
  9
$LTSCALE
 40
1.2862204724
  9
$CELTYPE
  6
BYLAYER
  9
$DIMSCALE
 40
1.0
  9
$DIMASZ
 40
0.1875
  9
$DIMEXO
 40
0.1461614173
  9
$DIMDLI
 40
0.8886614173
  9
$DIMEXE
 40
0.4209448819
  9
$DIMCEN
 40
0.2104724409
  9
$DIMLFAC
 40
1.0
  9
$DIMBLK
  1
_CLOSED
  9
$DIMTXT
 40
0.15625
  9
$DIMTOL
 70
0
  9
$DIMLIM
 70
0
  9
$DIMTFAC
 40
1.0
  9
$PDMODE
 70
3
  9
$PDSIZE
 40
0.3125
  9
$HANDSEED
  5
46E
  9
$TILEMODE
 70
1
  9
$MEASUREMENT
 70
0
  9
$INSUNITS
 70
1
  0
ENDSEC
  0
SECTION
  2
CLASSES
  0
CLASS
  1
ACDBDICTIONARYWDFLT
  2
AcDbDictionaryWithDefault
  3
AutoCAD 2000
 90
0
280
0
281
0
  0
CLASS
  1
ACDBPLACEHOLDER
  2
AcDbPlaceHolder
  3
AutoCAD 2000
 90
0
280
0
281
0
  0
CLASS
  1
LAYOUT
  2
AcDbLayout
  3
AutoCAD 2000
 90
0
280
0
281
0
  0
ENDSEC
  0
SECTION
  2
TABLES
  0
TABLE
  2
VPORT
  5
8
100
AcDbSymbolTable
 70
2
  0
VPORT
  5
1F4
100
AcDbSymbolTableRecord
100
AcDbViewportTableRecord
  2
*ACTIVE
 70
0
 10
0.0
 20
0.0
 11
1.0
 21
1.0
 12
11.6929133858
 22
8.2677165354
 13
0.0
 23
0.0
 14
1.0
 24
1.0
 15
0.0
 25
0.0
 16
0.0
 26
0.0
 36
1.0
 17
0.0
 27
0.0
 37
0.0
 40
16.5354330709
 41
1.4142857143
 42
50.0
 43
0.0
 44
0.0
 50
0.0
 51
0.0
 71
0
 72
100
 73
1
 74
1
 75
0
 76
0
 77
0
 78
0
  0
ENDTAB
  0
TABLE
  2
LTYPE
  5
5
100
AcDbSymbolTable
 70
6
  0
LTYPE
  5
14
100
AcDbSymbolTableRecord
100
AcDbLinetypeTableRecord
  2
BYBLOCK
 70
0
  3

 72
65
 73
0
 40
0.0
  0
LTYPE
  5
15
100
AcDbSymbolTableRecord
100
AcDbLinetypeTableRecord
  2
BYLAYER
 70
0
  3

 72
65
 73
0
 40
0.0
  0
LTYPE
  5
16
100
AcDbSymbolTableRecord
100
AcDbLinetypeTableRecord
  2
CONTINUOUS
 70
64
  3
Solid line
 72
65
 73
0
 40
0.0
  0
LTYPE
  5
1F5
100
AcDbSymbolTableRecord
100
AcDbLinetypeTableRecord
  2
CENTER
 70
64
  3
____ _ ____ _ ____ _ ____ _ ____ _ ____ _ ____
 72
65
 73
4
 40
0.6
 49
0.375
 74
0
 49
-0.075
 74
0
 49
0.075
 74
0
 49
-0.075
 74
0
  0
LTYPE
  5
1F6
100
AcDbSymbolTableRecord
100
AcDbLinetypeTableRecord
  2
HIDDEN
 70
64
  3
- - - - - - - - - - - - - - - - - - - -
 72
65
 73
2
 40
0.2
 49
0.1
 74
0
 49
-0.1
 74
0
  0
LTYPE
  5
1F7
100
AcDbSymbolTableRecord
100
AcDbLinetypeTableRecord
  2
PHANTOM
 70
64
  3
_____ _ _ _____ _ _ _____ _ _ _____
 72
65
 73
6
 40
0.8
 49
0.45
 74
0
 49
-0.05
 74
0
 49
0.1
 74
0
 49
-0.05
 74
0
 49
0.1
 74
0
 49
-0.05
 74
0
  0
LTYPE
  5
1F8
100
AcDbSymbolTableRecord
100
AcDbLinetypeTableRecord
  2
DOT
 70
64
  3
. . . . . . . . . . . . . . . . . . . .
 72
65
 73
2
 40
0.2
 49
0.1
 74
0
 49
-0.1
 74
0
  0
LTYPE
  5
1F9
100
AcDbSymbolTableRecord
100
AcDbLinetypeTableRecord
  2
DASHED
 70
64
  3
- - - - - - - - - - - - - - - - - - - -
 72
65
 73
2
 40
0.2
 49
0.1
 74
0
 49
-0.1
 74
0
  0
ENDTAB
  0
TABLE
  2
LAYER
  5
2
100
AcDbSymbolTable
 70
36
  0
LAYER
  5
10
100
AcDbSymbolTableRecord
100
AcDbLayerTableRecord
  2
0
 70
0
 62
7
  6
CONTINUOUS
370
-3
390
F
  0
LAYER
  5
1FA
100
AcDbSymbolTableRecord
100
AcDbLayerTableRecord
  2
DEFAULT_1
 70
0
 62
7
  6
CENTER
370
-3
390
F
  0
LAYER
  5
1FB
100
AcDbSymbolTableRecord
100
AcDbLayerTableRecord
  2
DEFAULT_2
 70
0
 62
8
  6
HIDDEN
370
-3
390
F
  0
LAYER
  5
1FC
100
AcDbSymbolTableRecord
100
AcDbLayerTableRecord
  2
DEFAULT_3
 70
0
 62
7
  6
PHANTOM
370
-3
390
F
  0
LAYER
  5
1FD
100
AcDbSymbolTableRecord
100
AcDbLayerTableRecord
  2
1-003
 70
0
 62
7
  6
CONTINUOUS
370
-3
390
F
  0
LAYER
  5
1FE
100
AcDbSymbolTableRecord
100
AcDbLayerTableRecord
  2
1-004
 70
0
 62
7
  6
CONTINUOUS
370
-3
390
F
  0
LAYER
  5
1FF
100
AcDbSymbolTableRecord
100
AcDbLayerTableRecord
  2
1-017
 70
0
 62
7
  6
CONTINUOUS
370
-3
390
F
  0
LAYER
  5
200
100
AcDbSymbolTableRecord
100
AcDbLayerTableRecord
  2
1-017_1
 70
0
 62
7
  6
CONTINUOUS
370
-3
390
F
  0
LAYER
  5
201
100
AcDbSymbolTableRecord
100
AcDbLayerTableRecord
  2
1-035
 70
0
 62
7
  6
CONTINUOUS
370
-3
390
F
  0
LAYER
  5
202
100
AcDbSymbolTableRecord
100
AcDbLayerTableRecord
  2
1-533
 70
0
 62
7
  6
CONTINUOUS
370
-3
390
F
  0
LAYER
  5
203
100
AcDbSymbolTableRecord
100
AcDbLayerTableRecord
  2
1-552
 70
0
 62
7
  6
CONTINUOUS
370
-3
390
F
  0
LAYER
  5
204
100
AcDbSymbolTableRecord
100
AcDbLayerTableRecord
  2
1-553
 70
0
 62
7
  6
CONTINUOUS
370
-3
390
F
  0
LAYER
  5
205
100
AcDbSymbolTableRecord
100
AcDbLayerTableRecord
  2
1-602
 70
0
 62
7
  6
CONTINUOUS
370
-3
390
F
  0
LAYER
  5
206
100
AcDbSymbolTableRecord
100
AcDbLayerTableRecord
  2
1-603
 70
0
 62
7
  6
CONTINUOUS
370
-3
390
F
  0
LAYER
  5
207
100
AcDbSymbolTableRecord
100
AcDbLayerTableRecord
  2
10016
 70
0
 62
7
  6
CONTINUOUS
370
-3
390
F
  0
LAYER
  5
208
100
AcDbSymbolTableRecord
100
AcDbLayerTableRecord
  2
10016_1
 70
0
 62
7
  6
CONTINUOUS
370
-3
390
F
  0
LAYER
  5
209
100
AcDbSymbolTableRecord
100
AcDbLayerTableRecord
  2
10029
 70
0
 62
7
  6
CONTINUOUS
370
-3
390
F
  0
LAYER
  5
20A
100
AcDbSymbolTableRecord
100
AcDbLayerTableRecord
  2
10289
 70
0
 62
7
  6
CONTINUOUS
370
-3
390
F
  0
LAYER
  5
20B
100
AcDbSymbolTableRecord
100
AcDbLayerTableRecord
  2
10306
 70
0
 62
7
  6
CONTINUOUS
370
-3
390
F
  0
LAYER
  5
20C
100
AcDbSymbolTableRecord
100
AcDbLayerTableRecord
  2
10394
 70
0
 62
7
  6
CONTINUOUS
370
-3
390
F
  0
LAYER
  5
20D
100
AcDbSymbolTableRecord
100
AcDbLayerTableRecord
  2
10395
 70
0
 62
7
  6
CONTINUOUS
370
-3
390
F
  0
LAYER
  5
20E
100
AcDbSymbolTableRecord
100
AcDbLayerTableRecord
  2
10411
 70
0
 62
7
  6
CONTINUOUS
370
-3
390
F
  0
LAYER
  5
20F
100
AcDbSymbolTableRecord
100
AcDbLayerTableRecord
  2
10529
 70
0
 62
7
  6
CONTINUOUS
370
-3
390
F
  0
LAYER
  5
210
100
AcDbSymbolTableRecord
100
AcDbLayerTableRecord
  2
10529_3
 70
0
 62
7
  6
CONTINUOUS
370
-3
390
F
  0
LAYER
  5
211
100
AcDbSymbolTableRecord
100
AcDbLayerTableRecord
  2
11278
 70
0
 62
7
  6
CONTINUOUS
370
-3
390
F
  0
LAYER
  5
212
100
AcDbSymbolTableRecord
100
AcDbLayerTableRecord
  2
11279
 70
0
 62
7
  6
CONTINUOUS
370
-3
390
F
  0
LAYER
  5
213
100
AcDbSymbolTableRecord
100
AcDbLayerTableRecord
  2
2-516
 70
0
 62
7
  6
CONTINUOUS
370
-3
390
F
  0
LAYER
  5
214
100
AcDbSymbolTableRecord
100
AcDbLayerTableRecord
  2
91231
 70
0
 62
7
  6
CONTINUOUS
370
-3
390
F
  0
LAYER
  5
215
100
AcDbSymbolTableRecord
100
AcDbLayerTableRecord
  2
92087
 70
0
 62
7
  6
CONTINUOUS
370
-3
390
F
  0
LAYER
  5
216
100
AcDbSymbolTableRecord
100
AcDbLayerTableRecord
  2
ALL_ASSEMBLY_MEMBERS
 70
0
 62
7
  6
CONTINUOUS
370
-3
390
F
  0
LAYER
  5
217
100
AcDbSymbolTableRecord
100
AcDbLayerTableRecord
  2
ALL_ASSEMBLY_MEMBERS_1
 70
0
 62
7
  6
CONTINUOUS
370
-3
390
F
  0
LAYER
  5
218
100
AcDbSymbolTableRecord
100
AcDbLayerTableRecord
  2
ALL_ASSEMBLY_MEMBERS_2
 70
0
 62
7
  6
CONTINUOUS
370
-3
390
F
  0
LAYER
  5
219
100
AcDbSymbolTableRecord
100
AcDbLayerTableRecord
  2
ALL_ASSEMBLY_MEMBERS_3
 70
0
 62
7
  6
CONTINUOUS
370
-3
390
F
  0
LAYER
  5
21A
100
AcDbSymbolTableRecord
100
AcDbLayerTableRecord
  2
ALL_ASSEMBLY_MEMBERS_4
 70
0
 62
7
  6
CONTINUOUS
370
-3
390
F
  0
LAYER
  5
21B
100
AcDbSymbolTableRecord
100
AcDbLayerTableRecord
  2
ALL_ASSEMBLY_MEMBERS_5
 70
0
 62
7
  6
CONTINUOUS
370
-3
390
F
  0
LAYER
  5
21C
100
AcDbSymbolTableRecord
100
AcDbLayerTableRecord
  2
ALL_ASSEMBLY_MEMBERS_6
 70
0
 62
7
  6
CONTINUOUS
370
-3
390
F
  0
LAYER
  5
21D
100
AcDbSymbolTableRecord
100
AcDbLayerTableRecord
  2
ALL_ASSEMBLY_MEMBERS_7
 70
0
 62
7
  6
CONTINUOUS
370
-3
390
F
  0
LAYER
  5
21E
100
AcDbSymbolTableRecord
100
AcDbLayerTableRecord
  2
COLOR19
 70
0
 62
7
  6
CONTINUOUS
370
-3
390
F
  0
LAYER
  5
21F
100
AcDbSymbolTableRecord
100
AcDbLayerTableRecord
  2
COLOR20
 70
0
 62
7
  6
CONTINUOUS
370
-3
390
F
  0
LAYER
  5
220
100
AcDbSymbolTableRecord
100
AcDbLayerTableRecord
  2
COLOR21
 70
0
 62
7
  6
CONTINUOUS
370
-3
390
F
  0
LAYER
  5
221
100
AcDbSymbolTableRecord
100
AcDbLayerTableRecord
  2
COLOR22
 70
0
 62
7
  6
CONTINUOUS
370
-3
390
F
  0
LAYER
  5
222
100
AcDbSymbolTableRecord
100
AcDbLayerTableRecord
  2
COLOR23
 70
0
 62
7
  6
CONTINUOUS
370
-3
390
F
  0
LAYER
  5
223
100
AcDbSymbolTableRecord
100
AcDbLayerTableRecord
  2
COLOR24
 70
0
 62
7
  6
CONTINUOUS
370
-3
390
F
  0
LAYER
  5
224
100
AcDbSymbolTableRecord
100
AcDbLayerTableRecord
  2
COLOR25
 70
0
 62
7
  6
CONTINUOUS
370
-3
390
F
  0
LAYER
  5
225
100
AcDbSymbolTableRecord
100
AcDbLayerTableRecord
  2
COLOR26
 70
0
 62
7
  6
CONTINUOUS
370
-3
390
F
  0
LAYER
  5
226
100
AcDbSymbolTableRecord
100
AcDbLayerTableRecord
  2
COLOR27
 70
0
 62
7
  6
CONTINUOUS
370
-3
390
F
  0
LAYER
  5
227
100
AcDbSymbolTableRecord
100
AcDbLayerTableRecord
  2
COLOR28
 70
0
 62
7
  6
CONTINUOUS
370
-3
390
F
  0
LAYER
  5
228
100
AcDbSymbolTableRecord
100
AcDbLayerTableRecord
  2
COLOR29
 70
0
 62
7
  6
CONTINUOUS
370
-3
390
F
  0
LAYER
  5
229
100
AcDbSymbolTableRecord
100
AcDbLayerTableRecord
  2
COLOR30
 70
0
 62
7
  6
CONTINUOUS
370
-3
390
F
  0
LAYER
  5
22A
100
AcDbSymbolTableRecord
100
AcDbLayerTableRecord
  2
COLOR5
 70
0
 62
7
  6
CONTINUOUS
370
-3
390
F
  0
LAYER
  5
22B
100
AcDbSymbolTableRecord
100
AcDbLayerTableRecord
  2
DEFAULT_COORDINATE_SYSTEM
 70
0
 62
7
  6
CONTINUOUS
370
-3
390
F
  0
LAYER
  5
22C
100
AcDbSymbolTableRecord
100
AcDbLayerTableRecord
  2
DEFAULT_DATUM_AXES
 70
0
 62
7
  6
CONTINUOUS
370
-3
390
F
  0
LAYER
  5
22D
100
AcDbSymbolTableRecord
100
AcDbLayerTableRecord
  2
DEFAULT_DATUM_CURVES
 70
0
 62
7
  6
CONTINUOUS
370
-3
390
F
  0
LAYER
  5
22E
100
AcDbSymbolTableRecord
100
AcDbLayerTableRecord
  2
DEFAULT_DATUM_PLANES
 70
0
 62
7
  6
CONTINUOUS
370
-3
390
F
  0
LAYER
  5
22F
100
AcDbSymbolTableRecord
100
AcDbLayerTableRecord
  2
INTF_10016
 70
0
 62
7
  6
CONTINUOUS
370
-3
390
F
  0
LAYER
  5
230
100
AcDbSymbolTableRecord
100
AcDbLayerTableRecord
  2
INTF_10029
 70
0
 62
7
  6
CONTINUOUS
370
-3
390
F
  0
LAYER
  5
231
100
AcDbSymbolTableRecord
100
AcDbLayerTableRecord
  2
INTF_10289
 70
0
 62
7
  6
CONTINUOUS
370
-3
390
F
  0
LAYER
  5
232
100
AcDbSymbolTableRecord
100
AcDbLayerTableRecord
  2
INTF_10306
 70
0
 62
7
  6
CONTINUOUS
370
-3
390
F
  0
LAYER
  5
233
100
AcDbSymbolTableRecord
100
AcDbLayerTableRecord
  2
INTF_10394
 70
0
 62
7
  6
CONTINUOUS
370
-3
390
F
  0
LAYER
  5
234
100
AcDbSymbolTableRecord
100
AcDbLayerTableRecord
  2
INTF_10395
 70
0
 62
7
  6
CONTINUOUS
370
-3
390
F
  0
LAYER
  5
235
100
AcDbSymbolTableRecord
100
AcDbLayerTableRecord
  2
INTF_10411
 70
0
 62
7
  6
CONTINUOUS
370
-3
390
F
  0
LAYER
  5
236
100
AcDbSymbolTableRecord
100
AcDbLayerTableRecord
  2
INTF_10529
 70
0
 62
7
  6
CONTINUOUS
370
-3
390
F
  0
LAYER
  5
237
100
AcDbSymbolTableRecord
100
AcDbLayerTableRecord
  2
INTF_11278
 70
0
 62
7
  6
CONTINUOUS
370
-3
390
F
  0
LAYER
  5
238
100
AcDbSymbolTableRecord
100
AcDbLayerTableRecord
  2
INTF_11279
 70
0
 62
7
  6
CONTINUOUS
370
-3
390
F
  0
LAYER
  5
239
100
AcDbSymbolTableRecord
100
AcDbLayerTableRecord
  2
INTF_91231
 70
0
 62
7
  6
CONTINUOUS
370
-3
390
F
  0
LAYER
  5
23A
100
AcDbSymbolTableRecord
100
AcDbLayerTableRecord
  2
INTF_92087
 70
0
 62
7
  6
CONTINUOUS
370
-3
390
F
  0
ENDTAB
  0
TABLE
  2
STYLE
  5
3
100
AcDbSymbolTable
 70
1
  0
STYLE
  5
11
100
AcDbSymbolTableRecord
100
AcDbTextStyleTableRecord
  2
STANDARD
 70
0
 40
0.0
 41
0.8
 50
0.0
 71
0
 42
0.2
  3
txt
  4

  0
STYLE
  5
23B
100
AcDbSymbolTableRecord
100
AcDbTextStyleTableRecord
  2
TEXTSTYLE_1
 70
0
 40
0.0
 41
0.8
 50
0.0
 71
0
 42
0.2
  3
gdt
  4

  0
ENDTAB
  0
TABLE
  2
VIEW
  5
6
100
AcDbSymbolTable
 70
0
  0
ENDTAB
  0
TABLE
  2
UCS
  5
7
100
AcDbSymbolTable
 70
0
  0
ENDTAB
  0
TABLE
  2
APPID
  5
9
100
AcDbSymbolTable
 70
1
  0
APPID
  5
23C
100
AcDbSymbolTableRecord
100
AcDbRegAppTableRecord
  2
ACAD
 70
0
  0
ENDTAB
  0
TABLE
  2
BLOCK_RECORD
  5
1
100
AcDbSymbolTable
 70
0
  0
BLOCK_RECORD
  5
23D
100
AcDbSymbolTableRecord
100
AcDbBlockTableRecord
  2
*Model_Space
  0
BLOCK_RECORD
  5
23E
100
AcDbSymbolTableRecord
100
AcDbBlockTableRecord
  2
*Paper_Space
  0
ENDTAB
  0
TABLE
  2
DIMSTYLE
  5
A
100
AcDbSymbolTable
 70
1
100
AcDbDimStyleTable
 71
0
  0
DIMSTYLE
105
23F
100
AcDbSymbolTableRecord
100
AcDbDimStyleTableRecord
  2
STANDARD
 70
0
  3

  4

 40
1.0
 41
0.1875
 42
0.0625
 43
0.38
 44
0.18
 45
0.0
 46
0.0
 47
0.01
 48
0.01
140
0.15625
141
0.09
142
0.0
143
25.4
144
1.0
145
0.0
146
1.0
147
0.09
 71
0.0
 72
0.0
 73
1
 74
1
 75
0
 76
0
 77
0
 78
4
170
0
171
2
172
0
173
0
174
0
175
0
176
0
177
0
178
0
270
2
271
2
272
2
273
2
274
2
275
0
280
0
281
0
282
0
283
1
284
4
285
0
286
0
287
3
288
0
340
11
  0
ENDTAB
  0
ENDSEC
  0
SECTION
  2
BLOCKS
  0
BLOCK
  5
20
100
AcDbEntity
  8
0
100
AcDbBlockBegin
  2
*Model_Space
 70
0
 10
0.0
 20
0.0
 30
0.0
  3
*Model_Space
  1

  0
ENDBLK
  5
21
100
AcDbEntity
  8
0
100
AcDbBlockEnd
  0
BLOCK
  5
1C
100
AcDbEntity
  8
0
100
AcDbBlockBegin
  2
*Paper_Space
 70
0
 10
0.0
 20
0.0
 30
0.0
  3
*Paper_Space
  1

  0
ENDBLK
  5
1D
100
AcDbEntity
  8
0
100
AcDbBlockEnd
  0
ENDSEC
  0
SECTION
  2
ENTITIES
  0
LINE
  5
240
100
AcDbEntity
  8
0
100
AcDbLine
 62
7
  6
CONTINUOUS
 10
8.2442986804
 20
13.5176257038
 11
8.256153141
 21
13.5381582318
  0
LINE
  5
241
100
AcDbEntity
  8
0
100
AcDbLine
 62
7
  6
CONTINUOUS
 10
8.0571738297
 20
13.173081813
 11
8.0808464792
 21
13.2053247296
  0
LINE
  5
242
100
AcDbEntity
  8
0
100
AcDbLine
 62
7
  6
CONTINUOUS
 10
8.0894167463
 20
13.1494091636
 11
8.1130893957
 21
13.1816520802
  0
LINE
  5
243
100
AcDbEntity
  8
0
100
AcDbLine
 62
7
  6
CONTINUOUS
 10
8.0731330213
 20
13.2642492659
 11
8.087566098
 21
13.2830588177
  0
LINE
  5
244
100
AcDbEntity
  8
0
100
AcDbLine
 62
7
  6
CONTINUOUS
 10
8.3962194088
 20
13.4445689437
 11
8.3817863321
 21
13.4257593919
  0
LINE
  5
245
100
AcDbEntity
  8
0
100
AcDbLine
 62
7
  6
CONTINUOUS
 10
8.3060265021
 20
13.5015192219
 11
8.3248360539
 21
13.5159522986
  0
LINE
  5
246
100
AcDbEntity
  8
0
100
AcDbLine
 62
7
  6
CONTINUOUS
 10
8.1633259279
 20
13.2072989878
 11
8.1445163761
 21
13.1928659111
  0
LINE
  5
247
100
AcDbEntity
  8
0
100
AcDbLine
 62
7
  6
CONTINUOUS
 10
8.4025733292
 20
13.1660296527
 11
8.3799356838
 21
13.1494091636
  0
LINE
  5
248
100
AcDbEntity
  8
0
100
AcDbLine
 62
7
  6
CONTINUOUS
 10
8.2250537497
 20
13.1911925059
 11
8.2131992891
 21
13.1706599779
  0
LINE
  5
249
100
AcDbEntity
  8
0
100
AcDbLine
 62
7
  6
CONTINUOUS
 10
8.1199324413
 20
13.2092923712
 11
8.1260687617
 21
13.2321934304
  0
LINE
  5
24A
100
AcDbEntity
  8
0
100
AcDbLine
 62
7
  6
CONTINUOUS
 10
8.3494199888
 20
13.4995258385
 11
8.3432836684
 21
13.4766247792
  0
LINE
  5
24B
100
AcDbEntity
  8
0
100
AcDbLine
 62
7
  6
CONTINUOUS
 10
8.1811059256
 20
13.508883938
 11
8.1842005608
 21
13.5323900261
  0
LINE
  5
24C
100
AcDbEntity
  8
0
100
AcDbLine
 62
7
  6
CONTINUOUS
 10
8.2882465045
 20
13.1999342717
 11
8.2851518693
 21
13.1764281836
  0
LINE
  5
24D
100
AcDbEntity
  8
0
100
AcDbLine
 62
7
  6
CONTINUOUS
 10
8.4323948705
 20
13.445443121
 11
8.4173366824
 21
13.383737481
  0
LINE
  5
24E
100
AcDbEntity
  8
0
100
AcDbLine
 62
7
  6
CONTINUOUS
 10
8.1842005608
 20
13.1764281836
 11
8.1811059256
 21
13.1999342717
  0
LINE
  5
24F
100
AcDbEntity
  8
0
100
AcDbLine
 62
7
  6
CONTINUOUS
 10
8.0520157476
 20
13.383737481
 11
8.0369575596
 21
13.445443121
  0
LINE
  5
250
100
AcDbEntity
  8
0
100
AcDbLine
 62
7
  6
CONTINUOUS
 10
8.2851518693
 20
13.5323900261
 11
8.2882465045
 21
13.508883938
  0
LINE
  5
251
100
AcDbEntity
  8
0
100
AcDbLine
 62
7
  6
CONTINUOUS
 10
8.1260687617
 20
13.4766247792
 11
8.1199324413
 21
13.4995258385
  0
LINE
  5
252
100
AcDbEntity
  8
0
100
AcDbLine
 62
7
  6
CONTINUOUS
 10
8.3432836684
 20
13.2321934304
 11
8.3494199888
 21
13.2092923712
  0
LINE
  5
253
100
AcDbEntity
  8
0
100
AcDbLine
 62
7
  6
CONTINUOUS
 10
16.3060265021
 20
13.5015192219
 11
16.3248360539
 21
13.5159522986
  0
LINE
  5
254
100
AcDbEntity
  8
0
100
AcDbLine
 62
7
  6
CONTINUOUS
 10
16.1633259279
 20
13.2072989878
 11
16.1445163761
 21
13.1928659111
  0
LINE
  5
255
100
AcDbEntity
  8
0
100
AcDbLine
 62
7
  6
CONTINUOUS
 10
16.0660604021
 20
13.5422608906
 11
16.0894167463
 21
13.5594090461
  0
LINE
  5
256
100
AcDbEntity
  8
0
100
AcDbLine
 62
7
  6
CONTINUOUS
 10
11.739676215
 20
12.4564091048
 11
11.739676215
 21
11.9891798874
  0
LINE
  5
257
100
AcDbEntity
  8
0
100
AcDbLine
 62
7
  6
CONTINUOUS
 10
8.256153141
 20
13.1706599779
 11
8.2442986804
 21
13.1911925059
  0
LINE
  5
258
100
AcDbEntity
  8
0
100
AcDbLine
 62
7
  6
CONTINUOUS
 10
8.2131992891
 20
13.5381582318
 11
8.2250537497
 21
13.5176257038
  0
LINE
  5
259
100
AcDbEntity
  8
0
100
AcDbLine
 62
9
  6
CONTINUOUS
 10
11.8596766036
 20
2.1727621268
 11
11.859676215
 21
2.1732836254
  0
LINE
  5
25A
100
AcDbEntity
  8
0
100
AcDbLine
 62
7
  6
CONTINUOUS
 10
11.797176215
 20
12.6024091048
 11
11.797176215
 21
12.5430332932
  0
LINE
  5
25B
100
AcDbEntity
  8
0
100
AcDbLine
 62
6
  6
CONTINUOUS
 10
11.859676215
 20
11.7574091048
 11
11.859676215
 21
2.0619914096
  0
LINE
  5
25C
100
AcDbEntity
  8
0
100
AcDbLine
 62
7
  6
CONTINUOUS
 10
11.953676215
 20
14.6844091048
 11
11.953676215
 21
14.6484091048
  0
LINE
  5
25D
100
AcDbEntity
  8
0
100
AcDbLine
 62
7
  6
CONTINUOUS
 10
12.032176215
 20
14.3354091048
 11
12.032176215
 21
14.2064091048
  0
LINE
  5
25E
100
AcDbEntity
  8
0
100
AcDbLine
 62
7
  6
CONTINUOUS
 10
12.056176215
 20
14.5884091048
 11
12.056176215
 21
14.5574091048
  0
LINE
  5
25F
100
AcDbEntity
  8
0
100
AcDbLine
 62
9
  6
CONTINUOUS
 10
12.234676215
 20
9.2074091048
 11
12.234676215
 21
1.8110614142
  0
LINE
  5
260
100
AcDbEntity
  8
0
100
AcDbLine
 62
7
  6
CONTINUOUS
 10
16.0731330213
 20
13.2642492659
 11
16.087566098
 21
13.2830588177
  0
LINE
  5
261
100
AcDbEntity
  8
0
100
AcDbLine
 62
7
  6
CONTINUOUS
 10
8.087566098
 20
13.4257593919
 11
8.0731330213
 21
13.4445689437
  0
LINE
  5
262
100
AcDbEntity
  8
0
100
AcDbLine
 62
7
  6
CONTINUOUS
 10
8.3817863321
 20
13.2830588177
 11
8.3962194088
 21
13.2642492659
  0
LINE
  5
263
100
AcDbEntity
  8
0
100
AcDbLine
 62
7
  6
CONTINUOUS
 10
8.3799356838
 20
13.1494091636
 11
8.3562630343
 21
13.1816520802
  0
LINE
  5
264
100
AcDbEntity
  8
0
100
AcDbLine
 62
7
  6
CONTINUOUS
 10
8.3885059509
 20
13.2053247296
 11
8.4121786003
 21
13.173081813
  0
LINE
  5
265
100
AcDbEntity
  8
0
100
AcDbLine
 62
9
  6
CONTINUOUS
 10
8.0834676367
 20
13.5650496165
 11
8.0864383171
 21
13.5609113218
  0
LINE
  5
266
100
AcDbEntity
  8
0
100
AcDbLine
 62
9
  6
CONTINUOUS
 10
12.6096758264
 20
2.1738050713
 11
12.609676215
 21
2.1732836254
  0
LINE
  5
267
100
AcDbEntity
  8
0
100
AcDbLine
 62
7
  6
CONTINUOUS
 10
12.413176215
 20
14.5884091048
 11
12.413176215
 21
14.5574091048
  0
LINE
  5
268
100
AcDbEntity
  8
0
100
AcDbLine
 62
7
  6
CONTINUOUS
 10
12.437176215
 20
14.3354091048
 11
12.437176215
 21
14.2064091048
  0
LINE
  5
269
100
AcDbEntity
  8
0
100
AcDbLine
 62
7
  6
CONTINUOUS
 10
12.515676215
 20
14.6844091048
 11
12.515676215
 21
14.6484091048
  0
LINE
  5
26A
100
AcDbEntity
  8
0
100
AcDbLine
 62
6
  6
CONTINUOUS
 10
12.609676215
 20
2.0619914096
 11
12.609676215
 21
11.7574091048
  0
LINE
  5
26B
100
AcDbEntity
  8
0
100
AcDbLine
 62
7
  6
CONTINUOUS
 10
12.672176215
 20
12.6024091048
 11
12.672176215
 21
12.5430332932
  0
LINE
  5
26C
100
AcDbEntity
  8
0
100
AcDbLine
 62
7
  6
CONTINUOUS
 10
12.729676215
 20
12.4564091048
 11
12.729676215
 21
11.9891798874
  0
LINE
  5
26D
100
AcDbEntity
  8
0
100
AcDbLine
 62
7
  6
CONTINUOUS
 10
16.3799356838
 20
13.5594090461
 11
16.3562630343
 21
13.5271661295
  0
LINE
  5
26E
100
AcDbEntity
  8
0
100
AcDbLine
 62
7
  6
CONTINUOUS
 10
16.4121786003
 20
13.5357363966
 11
16.3885059509
 21
13.5034934801
  0
LINE
  5
26F
100
AcDbEntity
  8
0
100
AcDbLine
 62
7
  6
CONTINUOUS
 10
16.3962194088
 20
13.4445689437
 11
16.3817863321
 21
13.4257593919
  0
LINE
  5
270
100
AcDbEntity
  8
0
100
AcDbLine
 62
7
  6
CONTINUOUS
 10
16.2442986804
 20
13.5176257038
 11
16.256153141
 21
13.5381582318
  0
LINE
  5
271
100
AcDbEntity
  8
0
100
AcDbLine
 62
7
  6
CONTINUOUS
 10
16.2250537497
 20
13.1911925059
 11
16.2131992891
 21
13.1706599779
  0
LINE
  5
272
100
AcDbEntity
  8
0
100
AcDbLine
 62
9
  6
CONTINUOUS
 10
11.859676215
 20
9.2074091048
 11
12.6096758264
 21
9.2074091048
  0
LINE
  5
273
100
AcDbEntity
  8
0
100
AcDbLine
 62
7
  6
CONTINUOUS
 10
8.0894167463
 20
13.1494091636
 11
8.0571738297
 21
13.173081813
  0
LINE
  5
274
100
AcDbEntity
  8
0
100
AcDbLine
 62
7
  6
CONTINUOUS
 10
8.3248360539
 20
13.1928659111
 11
8.3060265021
 21
13.2072989878
  0
LINE
  5
275
100
AcDbEntity
  8
0
100
AcDbLine
 62
7
  6
CONTINUOUS
 10
8.1445163761
 20
13.5159522986
 11
8.1633259279
 21
13.5015192219
  0
LINE
  5
276
100
AcDbEntity
  8
0
100
AcDbLine
 62
7
  6
CONTINUOUS
 10
16.0369575596
 20
13.2633750887
 11
16.0520157476
 21
13.3250807287
  0
LINE
  5
277
100
AcDbEntity
  8
0
100
AcDbLine
 62
7
  6
CONTINUOUS
 10
16.1199324413
 20
13.2092923712
 11
16.1260687617
 21
13.2321934304
  0
LINE
  5
278
100
AcDbEntity
  8
0
100
AcDbLine
 62
7
  6
CONTINUOUS
 10
16.3494199888
 20
13.4995258385
 11
16.3432836684
 21
13.4766247792
  0
LINE
  5
279
100
AcDbEntity
  8
0
100
AcDbLine
 62
7
  6
CONTINUOUS
 10
8.0714596161
 20
13.3640315702
 11
8.0647014474
 21
13.3679334007
  0
LINE
  5
27A
100
AcDbEntity
  8
0
100
AcDbLine
 62
7
  6
CONTINUOUS
 10
8.397892814
 20
13.3447866395
 11
8.4046509827
 21
13.3408848089
  0
LINE
  5
27B
100
AcDbEntity
  8
0
100
AcDbLine
 62
7
  6
CONTINUOUS
 10
16.1811059256
 20
13.508883938
 11
16.1842005608
 21
13.5323900261
  0
LINE
  5
27C
100
AcDbEntity
  8
0
100
AcDbLine
 62
7
  6
CONTINUOUS
 10
16.2882465045
 20
13.1999342717
 11
16.2851518693
 21
13.1764281836
  0
LINE
  5
27D
100
AcDbEntity
  8
0
100
AcDbLine
 62
7
  6
CONTINUOUS
 10
16.1124605406
 20
13.2458016515
 11
16.0895594814
 21
13.2396653311
  0
LINE
  5
27E
100
AcDbEntity
  8
0
100
AcDbLine
 62
7
  6
CONTINUOUS
 10
16.1718425703
 20
13.1762024521
 11
16.1340102864
 21
13.1667803238
  0
LINE
  5
27F
100
AcDbEntity
  8
0
100
AcDbLine
 62
7
  6
CONTINUOUS
 10
11.804676215
 20
11.7574091048
 11
12.664675651
 21
11.7574091048
  0
LINE
  5
280
100
AcDbEntity
  8
0
100
AcDbLine
 62
7
  6
CONTINUOUS
 10
11.7396767353
 20
11.9891798874
 11
12.7296756948
 21
11.9891798874
  0
LINE
  5
281
100
AcDbEntity
  8
0
100
AcDbLine
 62
7
  6
CONTINUOUS
 10
8.3797929487
 20
13.2396653311
 11
8.3568918894
 21
13.2458016515
  0
LINE
  5
282
100
AcDbEntity
  8
0
100
AcDbLine
 62
7
  6
CONTINUOUS
 10
16.3568918894
 20
13.4630165582
 11
16.3797929487
 21
13.4691528786
  0
LINE
  5
283
100
AcDbEntity
  8
0
100
AcDbLine
 62
7
  6
CONTINUOUS
 10
16.4126571363
 20
13.3039334506
 11
16.3891510482
 21
13.3008388154
  0
LINE
  5
284
100
AcDbEntity
  8
0
100
AcDbLine
 62
9
  6
CONTINUOUS
 10
12.7296756948
 20
12.4564091048
 11
11.7396767353
 21
12.4564091048
  0
LINE
  5
285
100
AcDbEntity
  8
0
100
AcDbLine
 62
9
  6
CONTINUOUS
 10
11.7684267036
 20
12.499721199
 11
12.7009257265
 21
12.499721199
  0
LINE
  5
286
100
AcDbEntity
  8
0
100
AcDbLine
 62
9
  6
CONTINUOUS
 10
12.6721757581
 20
12.5430332932
 11
11.797176672
 21
12.5430332932
  0
LINE
  5
287
100
AcDbEntity
  8
0
100
AcDbLine
 62
7
  6
CONTINUOUS
 10
12.6770654561
 20
12.6024091048
 11
11.7922869859
 21
12.6024091048
  0
LINE
  5
288
100
AcDbEntity
  8
0
100
AcDbLine
 62
7
  6
CONTINUOUS
 10
8.0802013819
 20
13.3008388154
 11
8.0566952938
 21
13.3039334506
  0
LINE
  5
289
100
AcDbEntity
  8
0
100
AcDbLine
 62
7
  6
CONTINUOUS
 10
8.1340102864
 20
13.5420378859
 11
8.1718425703
 21
13.5326157576
  0
LINE
  5
28A
100
AcDbEntity
  8
0
100
AcDbLine
 62
7
  6
CONTINUOUS
 10
8.0895594814
 20
13.4691528786
 11
8.1124605406
 21
13.4630165582
  0
LINE
  5
28B
100
AcDbEntity
  8
0
100
AcDbLine
 62
7
  6
CONTINUOUS
 10
16.1842005608
 20
13.1764281836
 11
16.1811059256
 21
13.1999342717
  0
LINE
  5
28C
100
AcDbEntity
  8
0
100
AcDbLine
 62
7
  6
CONTINUOUS
 10
16.0566952938
 20
13.4048847591
 11
16.0802013819
 21
13.4079793943
  0
LINE
  5
28D
100
AcDbEntity
  8
0
100
AcDbLine
 62
7
  6
CONTINUOUS
 10
8.3891510482
 20
13.4079793943
 11
8.4126571363
 21
13.4048847591
  0
LINE
  5
28E
100
AcDbEntity
  8
0
100
AcDbLine
 62
7
  6
CONTINUOUS
 10
16.1260687617
 20
13.4766247792
 11
16.1199324413
 21
13.4995258385
  0
LINE
  5
28F
100
AcDbEntity
  8
0
100
AcDbLine
 62
7
  6
CONTINUOUS
 10
16.2851518693
 20
13.5323900261
 11
16.2882465045
 21
13.508883938
  0
LINE
  5
290
100
AcDbEntity
  8
0
100
AcDbLine
 62
7
  6
CONTINUOUS
 10
8.4126571363
 20
13.3039334506
 11
8.3891510482
 21
13.3008388154
  0
LINE
  5
291
100
AcDbEntity
  8
0
100
AcDbLine
 62
7
  6
CONTINUOUS
 10
16.0802013819
 20
13.3008388154
 11
16.0566952938
 21
13.3039334506
  0
LINE
  5
292
100
AcDbEntity
  8
0
100
AcDbLine
 62
7
  6
CONTINUOUS
 10
16.3432836684
 20
13.2321934304
 11
16.3494199888
 21
13.2092923712
  0
LINE
  5
293
100
AcDbEntity
  8
0
100
AcDbLine
 62
7
  6
CONTINUOUS
 10
16.4173366824
 20
13.3250807287
 11
16.4323948705
 21
13.2633750887
  0
LINE
  5
294
100
AcDbEntity
  8
0
100
AcDbLine
 62
7
  6
CONTINUOUS
 10
8.1124605406
 20
13.2458016515
 11
8.0895594814
 21
13.2396653311
  0
LINE
  5
295
100
AcDbEntity
  8
0
100
AcDbLine
 62
7
  6
CONTINUOUS
 10
8.3568918894
 20
13.4630165582
 11
8.3797929487
 21
13.4691528786
  0
LINE
  5
296
100
AcDbEntity
  8
0
100
AcDbLine
 62
7
  6
CONTINUOUS
 10
8.2975098598
 20
13.5326157576
 11
8.3353421437
 21
13.5420378859
  0
LINE
  5
297
100
AcDbEntity
  8
0
100
AcDbLine
 62
7
  6
CONTINUOUS
 10
8.0566952938
 20
13.4048847591
 11
8.0802013819
 21
13.4079793943
  0
LINE
  5
298
100
AcDbEntity
  8
0
100
AcDbLine
 62
7
  6
CONTINUOUS
 10
12.032176215
 20
14.2064091048
 11
12.437176215
 21
14.2064091048
  0
LINE
  5
299
100
AcDbEntity
  8
0
100
AcDbLine
 62
9
  6
CONTINUOUS
 10
12.437176215
 20
14.3354091048
 11
12.032176215
 21
14.3354091048
  0
LINE
  5
29A
100
AcDbEntity
  8
0
100
AcDbLine
 62
9
  6
CONTINUOUS
 10
12.0525473952
 20
14.3736081047
 11
12.4168050349
 21
14.3736081047
  0
LINE
  5
29B
100
AcDbEntity
  8
0
100
AcDbLine
 62
7
  6
CONTINUOUS
 10
16.3891510482
 20
13.4079793943
 11
16.4126571363
 21
13.4048847591
  0
LINE
  5
29C
100
AcDbEntity
  8
0
100
AcDbLine
 62
7
  6
CONTINUOUS
 10
16.3353421437
 20
13.1667803238
 11
16.2975098598
 21
13.1762024521
  0
LINE
  5
29D
100
AcDbEntity
  8
0
100
AcDbLine
 62
7
  6
CONTINUOUS
 10
16.3797929487
 20
13.2396653311
 11
16.3568918894
 21
13.2458016515
  0
LINE
  5
29E
100
AcDbEntity
  8
0
100
AcDbLine
 62
7
  6
CONTINUOUS
 10
16.0895594814
 20
13.4691528786
 11
16.1124605406
 21
13.4630165582
  0
LINE
  5
29F
100
AcDbEntity
  8
0
100
AcDbLine
 62
7
  6
CONTINUOUS
 10
16.087566098
 20
13.4257593919
 11
16.0731330213
 21
13.4445689437
  0
LINE
  5
2A0
100
AcDbEntity
  8
0
100
AcDbLine
 62
7
  6
CONTINUOUS
 10
16.0808464792
 20
13.5034934801
 11
16.0571738297
 21
13.5357363966
  0
LINE
  5
2A1
100
AcDbEntity
  8
0
100
AcDbLine
 62
7
  6
CONTINUOUS
 10
16.256153141
 20
13.1706599779
 11
16.2442986804
 21
13.1911925059
  0
LINE
  5
2A2
100
AcDbEntity
  8
0
100
AcDbLine
 62
7
  6
CONTINUOUS
 10
16.2131992891
 20
13.5381582318
 11
16.2250537497
 21
13.5176257038
  0
LINE
  5
2A3
100
AcDbEntity
  8
0
100
AcDbLine
 62
9
  6
CONTINUOUS
 10
12.4062944586
 20
14.5423123606
 11
12.0630579715
 21
14.5423123606
  0
LINE
  5
2A4
100
AcDbEntity
  8
0
100
AcDbLine
 62
9
  6
CONTINUOUS
 10
12.056176215
 20
14.5574091048
 11
12.413176215
 21
14.5574091048
  0
LINE
  5
2A5
100
AcDbEntity
  8
0
100
AcDbLine
 62
7
  6
CONTINUOUS
 10
12.455676215
 20
14.5884091048
 11
12.013676215
 21
14.5884091048
  0
LINE
  5
2A6
100
AcDbEntity
  8
0
100
AcDbLine
 62
9
  6
CONTINUOUS
 10
11.953676215
 20
14.6484091048
 11
12.515676215
 21
14.6484091048
  0
LINE
  5
2A7
100
AcDbEntity
  8
0
100
AcDbLine
 62
9
  6
CONTINUOUS
 10
12.515676215
 20
14.6844091048
 11
11.953676215
 21
14.6844091048
  0
LINE
  5
2A8
100
AcDbEntity
  8
0
100
AcDbLine
 62
7
  6
CONTINUOUS
 10
12.455676215
 20
14.7444091048
 11
12.013676215
 21
14.7444091048
  0
LINE
  5
2A9
100
AcDbEntity
  8
0
100
AcDbLine
 62
7
  6
CONTINUOUS
 10
12.1216327778
 20
14.8314091048
 11
12.3477196523
 21
14.8314091048
  0
LINE
  5
2AA
100
AcDbEntity
  8
0
100
AcDbLine
 62
7
  6
CONTINUOUS
 10
16.0714596161
 20
13.3640315702
 11
16.0647014474
 21
13.3679334007
  0
LINE
  5
2AB
100
AcDbEntity
  8
0
100
AcDbLine
 62
7
  6
CONTINUOUS
 10
16.397892814
 20
13.3447866395
 11
16.4046509827
 21
13.3408848089
  0
LINE
  5
2AC
100
AcDbEntity
  8
0
100
AcDbLine
 62
7
  6
CONTINUOUS
 10
16.3799356838
 20
13.5594090461
 11
16.400246837
 21
13.5444966603
  0
LINE
  5
2AD
100
AcDbEntity
  8
0
100
AcDbLine
 62
7
  6
CONTINUOUS
 10
16.3248360539
 20
13.1928659111
 11
16.3060265021
 21
13.2072989878
  0
LINE
  5
2AE
100
AcDbEntity
  8
0
100
AcDbLine
 62
7
  6
CONTINUOUS
 10
16.1445163761
 20
13.5159522986
 11
16.1633259279
 21
13.5015192219
  0
LINE
  5
2AF
100
AcDbEntity
  8
0
100
AcDbLine
 62
7
  6
CONTINUOUS
 10
16.3817863321
 20
13.2830588177
 11
16.3962194088
 21
13.2642492659
  0
LINE
  5
2B0
100
AcDbEntity
  8
0
100
AcDbLine
 62
7
  6
CONTINUOUS
 10
16.0894167463
 20
13.5594090461
 11
16.1130893957
 21
13.5271661295
  0
LINE
  5
2B1
100
AcDbEntity
  8
0
100
AcDbLine
 62
9
  6
CONTINUOUS
 10
16.0834676367
 20
13.5650496165
 11
16.0864383171
 21
13.5609113218
  0
ARC
  5
2B2
100
AcDbEntity
  8
0
100
AcDbCircle
 62
7
  6
CONTINUOUS
 10
12.2263649329
 20
2.0518516201
 40
0.553821653
100
AcDbArc
 50
224.0185782074
 51
238.3195171475
  0
ARC
  5
2B3
100
AcDbEntity
  8
0
100
AcDbCircle
 62
9
  6
CONTINUOUS
 10
12.2346756731
 20
2.0891367983
 40
0.4748520092
100
AcDbArc
 50
270.0000653942
 51
270.4292618292
  0
ARC
  5
2B4
100
AcDbEntity
  8
0
100
AcDbCircle
 62
9
  6
CONTINUOUS
 10
12.2346260962
 20
1.871529726
 40
0.3884539004
100
AcDbArc
 50
271.0128214438
 51
284.2056204088
  0
ARC
  5
2B5
100
AcDbEntity
  8
0
100
AcDbCircle
 62
7
  6
CONTINUOUS
 10
12.2341137266
 20
2.0854620641
 40
0.3880372744
100
AcDbArc
 50
255.5477337644
 51
258.5603701355
  0
ARC
  5
2B6
100
AcDbEntity
  8
0
100
AcDbCircle
 62
6
  6
CONTINUOUS
 10
12.2346031965
 20
2.0872151346
 40
0.3874421595
100
AcDbArc
 50
261.0220509913
 51
265.257077625
  0
ARC
  5
2B7
100
AcDbEntity
  8
0
100
AcDbCircle
 62
6
  6
CONTINUOUS
 10
12.2344946019
 20
2.0865261159
 40
0.3867446357
100
AcDbArc
 50
258.2376460947
 51
261.0220124479
  0
ARC
  5
2B8
100
AcDbEntity
  8
0
100
AcDbCircle
 62
9
  6
CONTINUOUS
 10
12.2346744653
 20
1.8695366218
 40
0.3864602529
100
AcDbArc
 50
270.0151785719
 51
271.0108746507
  0
ARC
  5
2B9
100
AcDbEntity
  8
0
100
AcDbCircle
 62
7
  6
CONTINUOUS
 10
12.2345738947
 20
1.8691363808
 40
0.3862313842
100
AcDbArc
 50
245.3880259645
 51
270.0151785719
  0
ARC
  5
2BA
100
AcDbEntity
  8
0
100
AcDbCircle
 62
7
  6
CONTINUOUS
 10
12.2336696907
 20
2.083639893
 40
0.3861619454
100
AcDbArc
 50
252.3264447352
 51
255.5440570148
  0
ARC
  5
2BB
100
AcDbEntity
  8
0
100
AcDbCircle
 62
6
  6
CONTINUOUS
 10
12.2342738174
 20
2.0855241203
 40
0.3857186731
100
AcDbArc
 50
252.7262811011
 51
258.239412076
  0
ARC
  5
2BC
100
AcDbEntity
  8
0
100
AcDbCircle
 62
6
  6
CONTINUOUS
 10
12.2337612054
 20
2.0838315306
 40
0.3839502108
100
AcDbArc
 50
252.3076497881
 51
252.724326129
  0
ARC
  5
2BD
100
AcDbEntity
  8
0
100
AcDbCircle
 62
9
  6
CONTINUOUS
 10
12.2334524534
 20
1.8663514051
 40
0.3831211544
100
AcDbArc
 50
246.9393983125
 51
250.2296320744
  0
ARC
  5
2BE
100
AcDbEntity
  8
0
100
AcDbCircle
 62
7
  6
CONTINUOUS
 10
12.2322831072
 20
2.0801422852
 40
0.3824085667
100
AcDbArc
 50
235.226400089
 51
252.3647594054
  0
ARC
  5
2BF
100
AcDbEntity
  8
0
100
AcDbCircle
 62
9
  6
CONTINUOUS
 10
12.2331489833
 20
1.865501881
 40
0.3822190556
100
AcDbArc
 50
250.2293667139
 51
253.8009748252
  0
ARC
  5
2C0
100
AcDbEntity
  8
0
100
AcDbCircle
 62
6
  6
CONTINUOUS
 10
12.2332381922
 20
2.0819601512
 40
0.3820084036
100
AcDbArc
 50
235.2765282936
 51
252.2970836909
  0
ARC
  5
2C1
100
AcDbEntity
  8
0
100
AcDbCircle
 62
7
  6
CONTINUOUS
 10
12.2301584261
 20
2.0766895738
 40
0.3783607537
100
AcDbArc
 50
233.907652042
 51
235.1924848757
  0
ARC
  5
2C2
100
AcDbEntity
  8
0
100
AcDbCircle
 62
6
  6
CONTINUOUS
 10
12.2275159485
 20
2.0731110956
 40
0.3714759396
100
AcDbArc
 50
233.9244216066
 51
235.2244894883
  0
ARC
  5
2C3
100
AcDbEntity
  8
0
100
AcDbCircle
 62
7
  6
CONTINUOUS
 10
12.2253711424
 20
2.0706992204
 40
0.3707001595
100
AcDbArc
 50
217.7176081564
 51
233.9601418005
  0
ARC
  5
2C4
100
AcDbEntity
  8
0
100
AcDbCircle
 62
6
  6
CONTINUOUS
 10
12.2256961375
 20
2.0708982765
 40
0.3686158876
100
AcDbArc
 50
217.7240664969
 51
233.9505071579
  0
ARC
  5
2C5
100
AcDbEntity
  8
0
100
AcDbCircle
 62
7
  6
CONTINUOUS
 10
12.2220600385
 20
2.0679153164
 40
0.3663778917
100
AcDbArc
 50
216.4702859882
 51
217.6900012389
  0
ARC
  5
2C6
100
AcDbEntity
  8
0
100
AcDbCircle
 62
7
  6
CONTINUOUS
 10
12.2189636573
 20
2.0657147039
 40
0.3625798396
100
AcDbArc
 50
210.8905577395
 51
216.4814820384
  0
ARC
  5
2C7
100
AcDbEntity
  8
0
100
AcDbCircle
 62
6
  6
CONTINUOUS
 10
12.2191293599
 20
2.0655467603
 40
0.3601452729
100
AcDbArc
 50
203.7513925436
 51
217.6762629716
  0
ARC
  5
2C8
100
AcDbEntity
  8
0
100
AcDbCircle
 62
7
  6
CONTINUOUS
 10
12.2165121272
 20
2.0642296625
 40
0.3597136405
100
AcDbArc
 50
202.8979200324
 51
210.8880454864
  0
ARC
  5
2C9
100
AcDbEntity
  8
0
100
AcDbCircle
 62
6
  6
CONTINUOUS
 10
12.2157092882
 20
2.0639754182
 40
0.3563819929
100
AcDbArc
 50
202.7289165364
 51
203.7416251685
  0
ARC
  5
2CA
100
AcDbEntity
  8
0
100
AcDbCircle
 62
7
  6
CONTINUOUS
 10
12.2129934859
 20
2.0628148612
 40
0.3559217902
100
AcDbArc
 50
196.0264932184
 51
202.9085052783
  0
ARC
  5
2CB
100
AcDbEntity
  8
0
100
AcDbCircle
 62
6
  6
CONTINUOUS
 10
12.2132450947
 20
2.062959035
 40
0.3537164595
100
AcDbArc
 50
198.4190853895
 51
202.7312879997
  0
ARC
  5
2CC
100
AcDbEntity
  8
0
100
AcDbCircle
 62
6
  6
CONTINUOUS
 10
12.2112297003
 20
2.0622031513
 40
0.3515654884
100
AcDbArc
 50
185.5633084676
 51
198.4059878592
  0
ARC
  5
2CD
100
AcDbEntity
  8
0
100
AcDbCircle
 62
7
  6
CONTINUOUS
 10
12.2078358595
 20
2.0619932245
 40
0.3506596445
100
AcDbArc
 50
176.9903302203
 51
196.0188905695
  0
ARC
  5
2CE
100
AcDbEntity
  8
0
100
AcDbCircle
 62
6
  6
CONTINUOUS
 10
12.2095755517
 20
2.0619128798
 40
0.3498979466
100
AcDbArc
 50
177.0755814893
 51
179.9746278348
  0
ARC
  5
2CF
100
AcDbEntity
  8
0
100
AcDbCircle
 62
6
  6
CONTINUOUS
 10
12.2076928192
 20
2.0619111442
 40
0.3480151343
100
AcDbArc
 50
179.9759420693
 51
185.5587073029
  0
ARC
  5
2D0
100
AcDbEntity
  8
0
100
AcDbCircle
 62
7
  6
CONTINUOUS
 10
8.4207488675
 20
13.228997379
 40
0.08
100
AcDbArc
 50
197.1598715463
 51
216.2859999995
  0
ARC
  5
2D1
100
AcDbEntity
  8
0
100
AcDbCircle
 62
7
  6
CONTINUOUS
 10
8.0486035626
 20
13.228997379
 40
0.08
100
AcDbArc
 50
323.7140000004
 51
342.8401284536
  0
ARC
  5
2D2
100
AcDbEntity
  8
0
100
AcDbCircle
 62
7
  6
CONTINUOUS
 10
8.4207488675
 20
13.228997379
 40
0.04
100
AcDbArc
 50
166.2860000024
 51
216.2859999981
  0
ARC
  5
2D3
100
AcDbEntity
  8
0
100
AcDbCircle
 62
7
  6
CONTINUOUS
 10
8.0486035626
 20
13.228997379
 40
0.04
100
AcDbArc
 50
323.714000002
 51
13.7139999976
  0
ARC
  5
2D4
100
AcDbEntity
  8
0
100
AcDbCircle
 62
7
  6
CONTINUOUS
 10
8.2310882891
 20
13.3565676977
 40
0.2853659139
100
AcDbArc
 50
326.9824477034
 51
330.8874037527
  0
ARC
  5
2D5
100
AcDbEntity
  8
0
100
AcDbCircle
 62
7
  6
CONTINUOUS
 10
8.2333101613
 20
13.3512644326
 40
0.2846114123
100
AcDbArc
 50
60.5027417592
 51
69.1427074722
  0
ARC
  5
2D6
100
AcDbEntity
  8
0
100
AcDbCircle
 62
7
  6
CONTINUOUS
 10
8.2317621129
 20
13.3561962556
 40
0.2845965007
100
AcDbArc
 50
330.8867358219
 51
334.8778013458
  0
ARC
  5
2D7
100
AcDbEntity
  8
0
100
AcDbCircle
 62
7
  6
CONTINUOUS
 10
8.231896662
 20
13.356034248
 40
0.2843974157
100
AcDbArc
 50
322.1147297569
 51
326.983821767
  0
ARC
  5
2D8
100
AcDbEntity
  8
0
100
AcDbCircle
 62
7
  6
CONTINUOUS
 10
8.2329381353
 20
13.3556325502
 40
0.2832924037
100
AcDbArc
 50
334.8800464625
 51
335.9116225096
  0
ARC
  5
2D9
100
AcDbEntity
  8
0
100
AcDbCircle
 62
7
  6
CONTINUOUS
 10
8.2337937212
 20
13.3527371196
 40
0.2830648348
100
AcDbArc
 50
69.1370300675
 51
76.8756705734
  0
ARC
  5
2DA
100
AcDbEntity
  8
0
100
AcDbCircle
 62
7
  6
CONTINUOUS
 10
8.2340562407
 20
13.35436225
 40
0.2816662412
100
AcDbArc
 50
318.4259967855
 51
322.1133977654
  0
ARC
  5
2DB
100
AcDbEntity
  8
0
100
AcDbCircle
 62
7
  6
CONTINUOUS
 10
8.2344747798
 20
13.3549593917
 40
0.2816148287
100
AcDbArc
 50
335.9090515754
 51
339.5488418256
  0
ARC
  5
2DC
100
AcDbEntity
  8
0
100
AcDbCircle
 62
7
  6
CONTINUOUS
 10
8.2346679986
 20
13.3561542368
 40
0.2795384664
100
AcDbArc
 50
76.8911523921
 51
77.6110511372
  0
ARC
  5
2DD
100
AcDbEntity
  8
0
100
AcDbCircle
 62
7
  6
CONTINUOUS
 10
8.2169614316
 20
13.3607438899
 40
0.2779394305
100
AcDbArc
 50
62.1672949748
 51
78.5182924712
  0
ARC
  5
2DE
100
AcDbEntity
  8
0
100
AcDbCircle
 62
7
  6
CONTINUOUS
 10
8.2194375831
 20
13.3655037671
 40
0.2725741095
100
AcDbArc
 50
45.6968960676
 51
62.1604320348
  0
ARC
  5
2DF
100
AcDbEntity
  8
0
100
AcDbCircle
 62
7
  6
CONTINUOUS
 10
8.2344495744
 20
13.3493109187
 40
0.2659068577
100
AcDbArc
 50
162.1313812494
 51
178.9014106188
  0
ARC
  5
2E0
100
AcDbEntity
  8
0
100
AcDbCircle
 62
7
  6
CONTINUOUS
 10
8.2317031055
 20
13.3502655087
 40
0.2629918957
100
AcDbArc
 50
132.4121841091
 51
162.1127686456
  0
ARC
  5
2E1
100
AcDbEntity
  8
0
100
AcDbCircle
 62
7
  6
CONTINUOUS
 10
8.2304144568
 20
13.3517037001
 40
0.2610609212
100
AcDbArc
 50
128.4372786958
 51
132.4162612493
  0
ARC
  5
2E2
100
AcDbEntity
  8
0
100
AcDbCircle
 62
7
  6
CONTINUOUS
 10
8.229726751
 20
13.3555880527
 40
0.2570308907
100
AcDbArc
 50
70.195070037
 51
71.2395439659
  0
ARC
  5
2E3
100
AcDbEntity
  8
0
100
AcDbCircle
 62
7
  6
CONTINUOUS
 10
8.229720249
 20
13.356184866
 40
0.2565059145
100
AcDbArc
 50
49.4330929737
 51
55.2889316699
  0
ARC
  5
2E4
100
AcDbEntity
  8
0
100
AcDbCircle
 62
7
  6
CONTINUOUS
 10
8.2302697335
 20
13.3569154371
 40
0.2555980535
100
AcDbArc
 50
55.2846758095
 51
70.2087716251
  0
ARC
  5
2E5
100
AcDbEntity
  8
0
100
AcDbCircle
 62
7
  6
CONTINUOUS
 10
8.2318297941
 20
13.3586534734
 40
0.2532587319
100
AcDbArc
 50
43.8931143189
 51
49.4324338613
  0
ARC
  5
2E6
100
AcDbEntity
  8
0
100
AcDbCircle
 62
7
  6
CONTINUOUS
 10
8.23263949
 20
13.3532677549
 40
0.1543408857
100
AcDbArc
 50
26.1588953597
 51
32.3112970485
  0
ARC
  5
2E7
100
AcDbEntity
  8
0
100
AcDbCircle
 62
7
  6
CONTINUOUS
 10
8.2334678389
 20
13.3536590333
 40
0.1534248813
100
AcDbArc
 50
19.3541337636
 51
26.1641183268
  0
ARC
  5
2E8
100
AcDbEntity
  8
0
100
AcDbCircle
 62
7
  6
CONTINUOUS
 10
8.2335676242
 20
13.3552205811
 40
0.1534227749
100
AcDbArc
 50
318.0101613433
 51
326.7653008984
  0
ARC
  5
2E9
100
AcDbEntity
  8
0
100
AcDbCircle
 62
7
  6
CONTINUOUS
 10
8.2333194153
 20
13.3546232776
 40
0.1534169491
100
AcDbArc
 50
349.4741449037
 51
359.9200140439
  0
ARC
  5
2EA
100
AcDbEntity
  8
0
100
AcDbCircle
 62
7
  6
CONTINUOUS
 10
8.2333864044
 20
13.3537627236
 40
0.15344543
100
AcDbArc
 50
32.3072355238
 51
38.7246686088
  0
ARC
  5
2EB
100
AcDbEntity
  8
0
100
AcDbCircle
 62
7
  6
CONTINUOUS
 10
8.2340529671
 20
13.3539266233
 40
0.1528428614
100
AcDbArc
 50
38.2604531597
 51
41.8534141406
  0
ARC
  5
2EC
100
AcDbEntity
  8
0
100
AcDbCircle
 62
7
  6
CONTINUOUS
 10
8.2342405753
 20
13.3549353042
 40
0.1526921359
100
AcDbArc
 50
289.9415295212
 51
308.7365994606
  0
ARC
  5
2ED
100
AcDbEntity
  8
0
100
AcDbCircle
 62
7
  6
CONTINUOUS
 10
8.2342181194
 20
13.3540353247
 40
0.1526455614
100
AcDbArc
 50
34.4144721935
 51
35.6150628631
  0
ARC
  5
2EE
100
AcDbEntity
  8
0
100
AcDbCircle
 62
7
  6
CONTINUOUS
 10
8.2342048112
 20
13.35465119
 40
0.1525682552
100
AcDbArc
 50
316.4019379202
 51
318.0090085111
  0
ARC
  5
2EF
100
AcDbEntity
  8
0
100
AcDbCircle
 62
7
  6
CONTINUOUS
 10
8.234507824
 20
13.3543448789
 40
0.152238888
100
AcDbArc
 50
16.758157148
 51
20.5055950714
  0
ARC
  5
2F0
100
AcDbEntity
  8
0
100
AcDbCircle
 62
7
  6
CONTINUOUS
 10
8.2345746217
 20
13.354375693
 40
0.1521661591
100
AcDbArc
 50
8.448568586
 51
15.4422222284
  0
ARC
  5
2F1
100
AcDbEntity
  8
0
100
AcDbCircle
 62
7
  6
CONTINUOUS
 10
8.2346695703
 20
13.3545353889
 40
0.1521271718
100
AcDbArc
 50
326.7624015954
 51
330.9067868525
  0
ARC
  5
2F2
100
AcDbEntity
  8
0
100
AcDbCircle
 62
7
  6
CONTINUOUS
 10
8.224191377
 20
13.370016592
 40
0.1491404039
100
AcDbArc
 50
33.3738572744
 51
36.5984395615
  0
ARC
  5
2F3
100
AcDbEntity
  8
0
100
AcDbCircle
 62
7
  6
CONTINUOUS
 10
8.2247359398
 20
13.3704256617
 40
0.148459322
100
AcDbArc
 50
36.5969942131
 51
39.2849774936
  0
ARC
  5
2F4
100
AcDbEntity
  8
0
100
AcDbCircle
 62
7
  6
CONTINUOUS
 10
8.2302023432
 20
13.3725684332
 40
0.1426090678
100
AcDbArc
 50
13.2112912429
 51
18.7337198741
  0
ARC
  5
2F5
100
AcDbEntity
  8
0
100
AcDbCircle
 62
7
  6
CONTINUOUS
 10
8.2346696849
 20
13.3492373494
 40
0.1401443541
100
AcDbArc
 50
159.2078051307
 51
176.6752577252
  0
ARC
  5
2F6
100
AcDbEntity
  8
0
100
AcDbCircle
 62
7
  6
CONTINUOUS
 10
8.2330177147
 20
13.3730443832
 40
0.1397595494
100
AcDbArc
 50
357.9345587893
 51
13.2851164635
  0
ARC
  5
2F7
100
AcDbEntity
  8
0
100
AcDbCircle
 62
7
  6
CONTINUOUS
 10
8.2329742348
 20
13.349361187
 40
0.1384445779
100
AcDbArc
 50
176.6857287261
 51
177.9104381152
  0
ARC
  5
2F8
100
AcDbEntity
  8
0
100
AcDbCircle
 62
7
  6
CONTINUOUS
 10
8.2320994661
 20
13.3500516373
 40
0.1374525507
100
AcDbArc
 50
140.2832618905
 51
159.1448127305
  0
ARC
  5
2F9
100
AcDbEntity
  8
0
100
AcDbCircle
 62
7
  6
CONTINUOUS
 10
8.2314884159
 20
13.3504012834
 40
0.1367603964
100
AcDbArc
 50
129.6584569342
 51
137.7750346857
  0
ARC
  5
2FA
100
AcDbEntity
  8
0
100
AcDbCircle
 62
7
  6
CONTINUOUS
 10
8.2309182569
 20
13.3509349641
 40
0.1359795309
100
AcDbArc
 50
137.7801016596
 51
140.2515264362
  0
ARC
  5
2FB
100
AcDbEntity
  8
0
100
AcDbCircle
 62
7
  6
CONTINUOUS
 10
8.2306459019
 20
13.3514341984
 40
0.1354274937
100
AcDbArc
 50
121.3715681469
 51
129.6629400566
  0
ARC
  5
2FC
100
AcDbEntity
  8
0
100
AcDbCircle
 62
7
  6
CONTINUOUS
 10
8.2301091333
 20
13.3521905962
 40
0.1345022554
100
AcDbArc
 50
114.6079454207
 51
121.3440803022
  0
ARC
  5
2FD
100
AcDbEntity
  8
0
100
AcDbCircle
 62
7
  6
CONTINUOUS
 10
8.2317986078
 20
13.3585786926
 40
0.1273519389
100
AcDbArc
 50
26.0117203913
 51
45.2409428035
  0
ARC
  5
2FE
100
AcDbEntity
  8
0
100
AcDbCircle
 62
7
  6
CONTINUOUS
 10
8.2318476532
 20
13.3588307424
 40
0.1272007561
100
AcDbArc
 50
14.5045135868
 51
19.1529156824
  0
ARC
  5
2FF
100
AcDbEntity
  8
0
100
AcDbCircle
 62
7
  6
CONTINUOUS
 10
8.232518988
 20
13.3590795147
 40
0.1264849632
100
AcDbArc
 50
19.1462372048
 51
25.950945846
  0
ARC
  5
300
100
AcDbEntity
  8
0
100
AcDbCircle
 62
7
  6
CONTINUOUS
 10
8.2333338321
 20
13.3592021611
 40
0.1256689213
100
AcDbArc
 50
6.7726915542
 51
14.5102774255
  0
ARC
  5
301
100
AcDbEntity
  8
0
100
AcDbCircle
 62
7
  6
CONTINUOUS
 10
8.1146768572
 20
13.4644091636
 40
0.08
100
AcDbArc
 50
76.0149999997
 51
193.7140000001
  0
ARC
  5
302
100
AcDbEntity
  8
0
100
AcDbCircle
 62
7
  6
CONTINUOUS
 10
8.1146768572
 20
13.4644091636
 40
0.04
100
AcDbArc
 50
75.4343483309
 51
193.7140000002
  0
CIRCLE
  5
303
100
AcDbEntity
  8
0
100
AcDbCircle
 62
6
  6
CONTINUOUS
 10
8.044826215
 20
13.3544091048
 40
0.02165
  0
CIRCLE
  5
304
100
AcDbEntity
  8
0
100
AcDbCircle
 62
7
  6
CONTINUOUS
 10
8.234676215
 20
13.3544091048
 40
1.17
  0
CIRCLE
  5
305
100
AcDbEntity
  8
0
100
AcDbCircle
 62
9
  6
CONTINUOUS
 10
8.234676215
 20
13.3544091048
 40
1.1043717104
  0
CIRCLE
  5
306
100
AcDbEntity
  8
0
100
AcDbCircle
 62
9
  6
CONTINUOUS
 10
8.234676215
 20
13.3544091048
 40
1.0719223696
  0
CIRCLE
  5
307
100
AcDbEntity
  8
0
100
AcDbCircle
 62
9
  6
CONTINUOUS
 10
8.234676215
 20
13.3544091048
 40
1.0407459276
  0
CIRCLE
  5
308
100
AcDbEntity
  8
0
100
AcDbCircle
 62
9
  6
CONTINUOUS
 10
8.234676215
 20
13.3544091048
 40
1.0164705063
  0
CIRCLE
  5
309
100
AcDbEntity
  8
0
100
AcDbCircle
 62
9
  6
CONTINUOUS
 10
8.234676215
 20
13.3544091048
 40
0.9793435571
  0
CIRCLE
  5
30A
100
AcDbEntity
  8
0
100
AcDbCircle
 62
9
  6
CONTINUOUS
 10
8.234676215
 20
13.3544091048
 40
0.9519481536
  0
CIRCLE
  5
30B
100
AcDbEntity
  8
0
100
AcDbCircle
 62
9
  6
CONTINUOUS
 10
8.234676215
 20
13.3544091048
 40
0.9418237702
  0
CIRCLE
  5
30C
100
AcDbEntity
  8
0
100
AcDbCircle
 62
7
  6
CONTINUOUS
 10
8.234676215
 20
13.3544091048
 40
0.8187389754
  0
CIRCLE
  5
30D
100
AcDbEntity
  8
0
100
AcDbCircle
 62
9
  6
CONTINUOUS
 10
8.234676215
 20
13.3544091048
 40
0.7877475635
  0
CIRCLE
  5
30E
100
AcDbEntity
  8
0
100
AcDbCircle
 62
9
  6
CONTINUOUS
 10
8.234676215
 20
13.3544091048
 40
0.5244951005
  0
CIRCLE
  5
30F
100
AcDbEntity
  8
0
100
AcDbCircle
 62
9
  6
CONTINUOUS
 10
8.234676215
 20
13.3544091048
 40
0.4346655436
  0
CIRCLE
  5
310
100
AcDbEntity
  8
0
100
AcDbCircle
 62
9
  6
CONTINUOUS
 10
8.234676215
 20
13.3544091048
 40
0.4098651671
  0
CIRCLE
  5
311
100
AcDbEntity
  8
0
100
AcDbCircle
 62
9
  6
CONTINUOUS
 10
8.234676215
 20
13.3544091048
 40
0.3330477656
  0
CIRCLE
  5
312
100
AcDbEntity
  8
0
100
AcDbCircle
 62
7
  6
CONTINUOUS
 10
8.234676215
 20
13.3544091048
 40
0.3041988751
  0
ARC
  5
313
100
AcDbEntity
  8
0
100
AcDbCircle
 62
7
  6
CONTINUOUS
 10
8.2352089865
 20
13.3595929058
 40
0.2814746703
100
AcDbArc
 50
337.1090426385
 51
347.5339783466
  0
ARC
  5
314
100
AcDbEntity
  8
0
100
AcDbCircle
 62
7
  6
CONTINUOUS
 10
8.234676215
 20
13.3544091048
 40
0.2812588826
100
AcDbArc
 50
0.0
 51
82.3480448658
  0
ARC
  5
315
100
AcDbEntity
  8
0
100
AcDbCircle
 62
7
  6
CONTINUOUS
 10
8.236218273
 20
13.3537427657
 40
0.279605447
100
AcDbArc
 50
348.3163940552
 51
352.4387026478
  0
ARC
  5
316
100
AcDbEntity
  8
0
100
AcDbCircle
 62
7
  6
CONTINUOUS
 10
8.2356865382
 20
13.3529388774
 40
0.2795020861
100
AcDbArc
 50
317.4184822885
 51
318.4225078183
  0
ARC
  5
317
100
AcDbEntity
  8
0
100
AcDbCircle
 62
7
  6
CONTINUOUS
 10
8.2374569259
 20
13.3591106456
 40
0.2791756272
100
AcDbArc
 50
347.5310330707
 51
351.3130995194
  0
ARC
  5
318
100
AcDbEntity
  8
0
100
AcDbCircle
 62
7
  6
CONTINUOUS
 10
8.2374610033
 20
13.3586407365
 40
0.2790435368
100
AcDbArc
 50
317.5275123357
 51
332.066415692
  0
ARC
  5
319
100
AcDbEntity
  8
0
100
AcDbCircle
 62
7
  6
CONTINUOUS
 10
8.2376381727
 20
13.3584757858
 40
0.2788111106
100
AcDbArc
 50
334.1963735299
 51
337.106624577
  0
ARC
  5
31A
100
AcDbEntity
  8
0
100
AcDbCircle
 62
7
  6
CONTINUOUS
 10
8.2362535087
 20
13.3565838427
 40
0.2785840675
100
AcDbArc
 50
44.3349822676
 51
47.2360740573
  0
ARC
  5
31B
100
AcDbEntity
  8
0
100
AcDbCircle
 62
7
  6
CONTINUOUS
 10
8.2386005941
 20
13.3580295791
 40
0.2777504231
100
AcDbArc
 50
332.0676767914
 51
334.1928224225
  0
ARC
  5
31C
100
AcDbEntity
  8
0
100
AcDbCircle
 62
7
  6
CONTINUOUS
 10
8.2382553289
 20
13.3535630706
 40
0.2775846797
100
AcDbArc
 50
339.5462316866
 51
344.2052744426
  0
ARC
  5
31D
100
AcDbEntity
  8
0
100
AcDbCircle
 62
7
  6
CONTINUOUS
 10
8.2352356206
 20
13.3588826019
 40
0.276751855
100
AcDbArc
 50
77.6046418712
 51
82.3368846285
  0
ARC
  5
31E
100
AcDbEntity
  8
0
100
AcDbCircle
 62
7
  6
CONTINUOUS
 10
8.23930251
 20
13.3570502762
 40
0.2766113112
100
AcDbArc
 50
317.01123923
 51
317.5129454628
  0
ARC
  5
31F
100
AcDbEntity
  8
0
100
AcDbCircle
 62
7
  6
CONTINUOUS
 10
8.2379324647
 20
13.3508816116
 40
0.2764563507
100
AcDbArc
 50
309.1978607892
 51
317.417470111
  0
ARC
  5
320
100
AcDbEntity
  8
0
100
AcDbCircle
 62
7
  6
CONTINUOUS
 10
8.2404335114
 20
13.3528801288
 40
0.2753028551
100
AcDbArc
 50
344.2186508615
 51
348.314551798
  0
ARC
  5
321
100
AcDbEntity
  8
0
100
AcDbCircle
 62
7
  6
CONTINUOUS
 10
8.2385908253
 20
13.3591043347
 40
0.27514664
100
AcDbArc
 50
47.237031294
 51
51.5051238565
  0
ARC
  5
322
100
AcDbEntity
  8
0
100
AcDbCircle
 62
7
  6
CONTINUOUS
 10
8.2392692946
 20
13.3522309077
 40
0.2718198433
100
AcDbArc
 50
230.9082918469
 51
248.1546415499
  0
ARC
  5
323
100
AcDbEntity
  8
0
100
AcDbCircle
 62
7
  6
CONTINUOUS
 10
8.2386427313
 20
13.3511715468
 40
0.2706026064
100
AcDbArc
 50
213.6191672192
 51
230.869820859
  0
ARC
  5
324
100
AcDbEntity
  8
0
100
AcDbCircle
 62
7
  6
CONTINUOUS
 10
8.2362196108
 20
13.3495227914
 40
0.2676712642
100
AcDbArc
 50
178.9540181972
 51
213.6124527012
  0
ARC
  5
325
100
AcDbEntity
  8
0
100
AcDbCircle
 62
7
  6
CONTINUOUS
 10
8.234676215
 20
13.3544091048
 40
0.2542
100
AcDbArc
 50
56.4689914581
 51
45.0274096944
  0
ARC
  5
326
100
AcDbEntity
  8
0
100
AcDbCircle
 62
7
  6
CONTINUOUS
 10
8.234676215
 20
13.3544091048
 40
0.2512500119
100
AcDbArc
 50
234.6792532673
 51
305.3207467327
  0
ARC
  5
327
100
AcDbEntity
  8
0
100
AcDbCircle
 62
7
  6
CONTINUOUS
 10
8.234676215
 20
13.3544091048
 40
0.2512493449
100
AcDbArc
 50
314.4703125157
 51
225.5296874843
  0
ARC
  5
328
100
AcDbEntity
  8
0
100
AcDbCircle
 62
7
  6
CONTINUOUS
 10
8.234676215
 20
13.3544091048
 40
0.185
100
AcDbArc
 50
263.6164833423
 51
276.3837756086
  0
ARC
  5
329
100
AcDbEntity
  8
0
100
AcDbCircle
 62
7
  6
CONTINUOUS
 10
8.234676215
 20
13.3544091048
 40
0.185
100
AcDbArc
 50
83.6164833423
 51
96.3837756086
  0
ARC
  5
32A
100
AcDbEntity
  8
0
100
AcDbCircle
 62
7
  6
CONTINUOUS
 10
8.234676215
 20
13.3544091048
 40
0.185
100
AcDbArc
 50
151.1334984949
 51
173.334942153
  0
ARC
  5
32B
100
AcDbEntity
  8
0
100
AcDbCircle
 62
7
  6
CONTINUOUS
 10
8.234676215
 20
13.3544091048
 40
0.185
100
AcDbArc
 50
119.1665988874
 51
150.8326273455
  0
ARC
  5
32C
100
AcDbEntity
  8
0
100
AcDbCircle
 62
7
  6
CONTINUOUS
 10
8.234676215
 20
13.3544091048
 40
0.185
100
AcDbArc
 50
96.6662283411
 51
118.8701079191
  0
ARC
  5
32D
100
AcDbEntity
  8
0
100
AcDbCircle
 62
7
  6
CONTINUOUS
 10
8.234676215
 20
13.3544091048
 40
0.185
100
AcDbArc
 50
61.1297178775
 51
83.333434758
  0
ARC
  5
32E
100
AcDbEntity
  8
0
100
AcDbCircle
 62
7
  6
CONTINUOUS
 10
8.234676215
 20
13.3544091048
 40
0.185
100
AcDbArc
 50
29.1809180354
 51
60.8349035332
  0
ARC
  5
32F
100
AcDbEntity
  8
0
100
AcDbCircle
 62
7
  6
CONTINUOUS
 10
8.234676215
 20
13.3544091048
 40
0.185
100
AcDbArc
 50
6.6665846093
 51
28.866820277
  0
ARC
  5
330
100
AcDbEntity
  8
0
100
AcDbCircle
 62
7
  6
CONTINUOUS
 10
8.234676215
 20
13.3544091048
 40
0.185
100
AcDbArc
 50
299.1650964668
 51
330.8190819646
  0
ARC
  5
331
100
AcDbEntity
  8
0
100
AcDbCircle
 62
7
  6
CONTINUOUS
 10
8.234676215
 20
13.3544091048
 40
0.185
100
AcDbArc
 50
276.6665652421
 51
298.8701079191
  0
ARC
  5
332
100
AcDbEntity
  8
0
100
AcDbCircle
 62
7
  6
CONTINUOUS
 10
8.234676215
 20
13.3544091048
 40
0.185
100
AcDbArc
 50
241.1297178775
 51
263.333771659
  0
ARC
  5
333
100
AcDbEntity
  8
0
100
AcDbCircle
 62
7
  6
CONTINUOUS
 10
8.234676215
 20
13.3544091048
 40
0.185
100
AcDbArc
 50
209.1673726545
 51
240.8334011125
  0
ARC
  5
334
100
AcDbEntity
  8
0
100
AcDbCircle
 62
7
  6
CONTINUOUS
 10
8.234676215
 20
13.3544091048
 40
0.185
100
AcDbArc
 50
186.665057847
 51
208.866820277
  0
ARC
  5
335
100
AcDbEntity
  8
0
100
AcDbCircle
 62
7
  6
CONTINUOUS
 10
8.234676215
 20
13.3544091048
 40
0.185
100
AcDbArc
 50
331.1334984949
 51
353.3334153907
  0
ARC
  5
336
100
AcDbEntity
  8
0
100
AcDbCircle
 62
7
  6
CONTINUOUS
 10
8.234676215
 20
13.3544091048
 40
0.1635
100
AcDbArc
 50
154.1260218922
 51
160.8739781078
  0
ARC
  5
337
100
AcDbEntity
  8
0
100
AcDbCircle
 62
7
  6
CONTINUOUS
 10
8.234676215
 20
13.3544091048
 40
0.1635
100
AcDbArc
 50
131.6260218921
 51
138.3739781079
  0
ARC
  5
338
100
AcDbEntity
  8
0
100
AcDbCircle
 62
7
  6
CONTINUOUS
 10
8.234676215
 20
13.3544091048
 40
0.1635
100
AcDbArc
 50
109.1260218923
 51
115.8739781078
  0
ARC
  5
339
100
AcDbEntity
  8
0
100
AcDbCircle
 62
7
  6
CONTINUOUS
 10
8.234676215
 20
13.3544091048
 40
0.1635
100
AcDbArc
 50
86.6260218922
 51
93.3739781078
  0
ARC
  5
33A
100
AcDbEntity
  8
0
100
AcDbCircle
 62
7
  6
CONTINUOUS
 10
8.234676215
 20
13.3544091048
 40
0.1635
100
AcDbArc
 50
64.1260218922
 51
70.8739781077
  0
ARC
  5
33B
100
AcDbEntity
  8
0
100
AcDbCircle
 62
7
  6
CONTINUOUS
 10
8.234676215
 20
13.3544091048
 40
0.1635
100
AcDbArc
 50
41.6260218922
 51
48.3739781079
  0
ARC
  5
33C
100
AcDbEntity
  8
0
100
AcDbCircle
 62
7
  6
CONTINUOUS
 10
8.234676215
 20
13.3544091048
 40
0.1635
100
AcDbArc
 50
19.1260218922
 51
25.8739781078
  0
ARC
  5
33D
100
AcDbEntity
  8
0
100
AcDbCircle
 62
7
  6
CONTINUOUS
 10
8.234676215
 20
13.3544091048
 40
0.1635
100
AcDbArc
 50
311.6260218921
 51
318.3739781078
  0
ARC
  5
33E
100
AcDbEntity
  8
0
100
AcDbCircle
 62
7
  6
CONTINUOUS
 10
8.234676215
 20
13.3544091048
 40
0.1635
100
AcDbArc
 50
289.1260218923
 51
295.8739781078
  0
ARC
  5
33F
100
AcDbEntity
  8
0
100
AcDbCircle
 62
7
  6
CONTINUOUS
 10
8.234676215
 20
13.3544091048
 40
0.1635
100
AcDbArc
 50
266.6260218921
 51
273.3739781078
  0
ARC
  5
340
100
AcDbEntity
  8
0
100
AcDbCircle
 62
7
  6
CONTINUOUS
 10
8.234676215
 20
13.3544091048
 40
0.1635
100
AcDbArc
 50
244.1260218922
 51
250.8739781077
  0
ARC
  5
341
100
AcDbEntity
  8
0
100
AcDbCircle
 62
7
  6
CONTINUOUS
 10
8.234676215
 20
13.3544091048
 40
0.1635
100
AcDbArc
 50
221.6260218921
 51
228.3739781079
  0
ARC
  5
342
100
AcDbEntity
  8
0
100
AcDbCircle
 62
7
  6
CONTINUOUS
 10
8.234676215
 20
13.3544091048
 40
0.1635
100
AcDbArc
 50
199.1260218922
 51
205.8739781078
  0
ARC
  5
343
100
AcDbEntity
  8
0
100
AcDbCircle
 62
7
  6
CONTINUOUS
 10
8.234676215
 20
13.3544091048
 40
0.1635
100
AcDbArc
 50
176.6260218922
 51
183.3739781078
  0
ARC
  5
344
100
AcDbEntity
  8
0
100
AcDbCircle
 62
7
  6
CONTINUOUS
 10
8.234676215
 20
13.3544091048
 40
0.1635
100
AcDbArc
 50
356.6260218922
 51
3.3739781078
  0
ARC
  5
345
100
AcDbEntity
  8
0
100
AcDbCircle
 62
7
  6
CONTINUOUS
 10
8.234676215
 20
13.3544091048
 40
0.1635
100
AcDbArc
 50
334.1260218922
 51
340.8739781078
  0
ARC
  5
346
100
AcDbEntity
  8
0
100
AcDbCircle
 62
7
  6
CONTINUOUS
 10
8.234676215
 20
13.3544091048
 40
0.1549989873
100
AcDbArc
 50
180.0
 51
178.9949702111
  0
ARC
  5
347
100
AcDbEntity
  8
0
100
AcDbCircle
 62
7
  6
CONTINUOUS
 10
8.2347679609
 20
13.3556323936
 40
0.153240851
100
AcDbArc
 50
273.9382670682
 51
275.7167238972
  0
ARC
  5
348
100
AcDbEntity
  8
0
100
AcDbCircle
 62
7
  6
CONTINUOUS
 10
8.2348847063
 20
13.354538743
 40
0.1521410107
100
AcDbArc
 50
275.7140025773
 51
279.6963068322
  0
ARC
  5
349
100
AcDbEntity
  8
0
100
AcDbCircle
 62
7
  6
CONTINUOUS
 10
8.2348085906
 20
13.3545826299
 40
0.152092389
100
AcDbArc
 50
308.7414577323
 51
310.0842828437
  0
ARC
  5
34A
100
AcDbEntity
  8
0
100
AcDbCircle
 62
7
  6
CONTINUOUS
 10
8.2347373516
 20
13.3542684357
 40
0.1519653994
100
AcDbArc
 50
345.4324265908
 51
349.4747045789
  0
ARC
  5
34B
100
AcDbEntity
  8
0
100
AcDbCircle
 62
7
  6
CONTINUOUS
 10
8.2347951813
 20
13.3544340683
 40
0.1519380184
100
AcDbArc
 50
15.4431497797
 51
16.7571966614
  0
ARC
  5
34C
100
AcDbEntity
  8
0
100
AcDbCircle
 62
7
  6
CONTINUOUS
 10
8.2347479665
 20
13.354716282
 40
0.1519376176
100
AcDbArc
 50
3.9187895465
 51
5.4004121199
  0
ARC
  5
34D
100
AcDbEntity
  8
0
100
AcDbCircle
 62
7
  6
CONTINUOUS
 10
8.2348925653
 20
13.3545174074
 40
0.1518180904
100
AcDbArc
 50
20.4954724061
 51
34.4167518921
  0
ARC
  5
34E
100
AcDbEntity
  8
0
100
AcDbCircle
 62
7
  6
CONTINUOUS
 10
8.2352999855
 20
13.3540008364
 40
0.151330844
100
AcDbArc
 50
310.0837753414
 51
312.0200425978
  0
ARC
  5
34F
100
AcDbEntity
  8
0
100
AcDbCircle
 62
7
  6
CONTINUOUS
 10
8.2354250645
 20
13.3544554936
 40
0.1513146594
100
AcDbArc
 50
3.0166569332
 51
8.4529973771
  0
ARC
  5
350
100
AcDbEntity
  8
0
100
AcDbCircle
 62
7
  6
CONTINUOUS
 10
8.235073574
 20
13.3550917101
 40
0.1512977815
100
AcDbArc
 50
38.7317250469
 51
46.3390568457
  0
ARC
  5
351
100
AcDbEntity
  8
0
100
AcDbCircle
 62
7
  6
CONTINUOUS
 10
8.2388900199
 20
13.3573920743
 40
0.1511563525
100
AcDbArc
 50
297.07582925
 51
311.8927573064
  0
ARC
  5
352
100
AcDbEntity
  8
0
100
AcDbCircle
 62
7
  6
CONTINUOUS
 10
8.2359069149
 20
13.3539812752
 40
0.1507612094
100
AcDbArc
 50
330.9125202859
 51
345.4262540359
  0
ARC
  5
353
100
AcDbEntity
  8
0
100
AcDbCircle
 62
7
  6
CONTINUOUS
 10
8.2360350814
 20
13.354844281
 40
0.1506441693
100
AcDbArc
 50
5.3980184857
 51
8.5626088438
  0
ARC
  5
354
100
AcDbEntity
  8
0
100
AcDbCircle
 62
7
  6
CONTINUOUS
 10
8.2359110322
 20
13.35332103
 40
0.1504167797
100
AcDbArc
 50
312.0204626809
 51
313.5357046643
  0
ARC
  5
355
100
AcDbEntity
  8
0
100
AcDbCircle
 62
7
  6
CONTINUOUS
 10
8.2352013221
 20
13.3524367908
 40
0.1500157659
100
AcDbArc
 50
279.7123213836
 51
289.9220525399
  0
ARC
  5
356
100
AcDbEntity
  8
0
100
AcDbCircle
 62
7
  6
CONTINUOUS
 10
8.2396735973
 20
13.3565240663
 40
0.1499869862
100
AcDbArc
 50
311.891347886
 51
314.4427965658
  0
ARC
  5
357
100
AcDbEntity
  8
0
100
AcDbCircle
 62
7
  6
CONTINUOUS
 10
8.2394911405
 20
13.355850056
 40
0.1495364821
100
AcDbArc
 50
295.9558538568
 51
297.0648369493
  0
ARC
  5
358
100
AcDbEntity
  8
0
100
AcDbCircle
 62
7
  6
CONTINUOUS
 10
8.2367873609
 20
13.3524054638
 40
0.1491494235
100
AcDbArc
 50
313.5339212623
 51
316.3425600525
  0
ARC
  5
359
100
AcDbEntity
  8
0
100
AcDbCircle
 62
7
  6
CONTINUOUS
 10
8.2375476701
 20
13.3550647546
 40
0.1491156142
100
AcDbArc
 50
8.5653727813
 51
19.3594130816
  0
ARC
  5
35A
100
AcDbEntity
  8
0
100
AcDbCircle
 62
7
  6
CONTINUOUS
 10
8.2367445821
 20
13.3566056495
 40
0.1490429565
100
AcDbArc
 50
42.0049793213
 51
46.3379367279
  0
ARC
  5
35B
100
AcDbEntity
  8
0
100
AcDbCircle
 62
7
  6
CONTINUOUS
 10
8.2380238715
 20
13.3546059001
 40
0.1487115389
100
AcDbArc
 50
359.925017235
 51
3.0114816257
  0
ARC
  5
35C
100
AcDbEntity
  8
0
100
AcDbCircle
 62
7
  6
CONTINUOUS
 10
8.2397609618
 20
13.3549182667
 40
0.1485683204
100
AcDbArc
 50
264.7263487258
 51
295.955750225
  0
ARC
  5
35D
100
AcDbEntity
  8
0
100
AcDbCircle
 62
7
  6
CONTINUOUS
 10
8.2394709788
 20
13.3527570289
 40
0.1463896056
100
AcDbArc
 50
241.8169515495
 51
264.7616172313
  0
ARC
  5
35E
100
AcDbEntity
  8
0
100
AcDbCircle
 62
7
  6
CONTINUOUS
 10
8.2390240894
 20
13.3516773666
 40
0.145241172
100
AcDbArc
 50
226.5474016106
 51
230.9927194825
  0
ARC
  5
35F
100
AcDbEntity
  8
0
100
AcDbCircle
 62
7
  6
CONTINUOUS
 10
8.2386002954
 20
13.3511449537
 40
0.1445607081
100
AcDbArc
 50
230.990422679
 51
241.8119801662
  0
ARC
  5
360
100
AcDbEntity
  8
0
100
AcDbCircle
 62
7
  6
CONTINUOUS
 10
8.2384470085
 20
13.3510848658
 40
0.1444141605
100
AcDbArc
 50
218.8649846533
 51
226.5519376974
  0
ARC
  5
361
100
AcDbEntity
  8
0
100
AcDbCircle
 62
7
  6
CONTINUOUS
 10
8.237047405
 20
13.3499143764
 40
0.1425899283
100
AcDbArc
 50
203.5761072998
 51
218.8516679176
  0
ARC
  5
362
100
AcDbEntity
  8
0
100
AcDbCircle
 62
7
  6
CONTINUOUS
 10
8.2359301142
 20
13.3494909805
 40
0.1414017096
100
AcDbArc
 50
197.5978833264
 51
203.5763054597
  0
ARC
  5
363
100
AcDbEntity
  8
0
100
AcDbCircle
 62
7
  6
CONTINUOUS
 10
8.234676215
 20
13.3544091048
 40
0.12499886
100
AcDbArc
 50
21.5278196491
 51
9.0273203816
  0
CIRCLE
  5
364
100
AcDbEntity
  8
0
100
AcDbCircle
 62
7
  6
CONTINUOUS
 10
8.234676215
 20
13.3544091048
 40
0.1005
  0
ARC
  5
365
100
AcDbEntity
  8
0
100
AcDbCircle
 62
7
  6
CONTINUOUS
 10
8.3546755729
 20
13.4644091636
 40
0.08
100
AcDbArc
 50
346.2859999999
 51
103.9850000001
  0
ARC
  5
366
100
AcDbEntity
  8
0
100
AcDbCircle
 62
7
  6
CONTINUOUS
 10
8.3546755729
 20
13.4644091636
 40
0.04
100
AcDbArc
 50
346.286
 51
104.565374163
  0
CIRCLE
  5
367
100
AcDbEntity
  8
0
100
AcDbCircle
 62
6
  6
CONTINUOUS
 10
8.424526215
 20
13.3544091048
 40
0.02165
  0
ARC
  5
368
100
AcDbEntity
  8
0
100
AcDbCircle
 62
7
  6
CONTINUOUS
 10
8.234676215
 20
13.7849091048
 40
0.26
100
AcDbArc
 50
256.015
 51
257.6805849352
  0
ARC
  5
369
100
AcDbEntity
  8
0
100
AcDbCircle
 62
7
  6
CONTINUOUS
 10
8.234676215
 20
13.7849091048
 40
0.26
100
AcDbArc
 50
283.4298012508
 51
283.985
  0
ARC
  5
36A
100
AcDbEntity
  8
0
100
AcDbCircle
 62
7
  6
CONTINUOUS
 10
11.804676215
 20
11.8824091048
 40
0.125
100
AcDbArc
 50
121.3322514975
 51
270.0000000001
  0
ARC
  5
36B
100
AcDbEntity
  8
0
100
AcDbCircle
 62
7
  6
CONTINUOUS
 10
11.750176215
 20
12.5430332932
 40
0.047
100
AcDbArc
 50
292.8486294329
 51
360.0
  0
ARC
  5
36C
100
AcDbEntity
  8
0
100
AcDbCircle
 62
7
  6
CONTINUOUS
 10
11.786676215
 20
12.4564091048
 40
0.047
100
AcDbArc
 50
112.8486294328
 51
180.0
  0
ARC
  5
36D
100
AcDbEntity
  8
0
100
AcDbCircle
 62
7
  6
CONTINUOUS
 10
11.9932550012
 20
14.4619816685
 40
0.1064212139
100
AcDbArc
 50
303.8588093351
 51
49.0111475599
  0
ARC
  5
36E
100
AcDbEntity
  8
0
100
AcDbCircle
 62
7
  6
CONTINUOUS
 10
12.144676215
 20
14.7444091048
 40
0.09
100
AcDbArc
 50
104.835111582
 51
180.0
  0
ARC
  5
36F
100
AcDbEntity
  8
0
100
AcDbCircle
 62
7
  6
CONTINUOUS
 10
12.013676215
 20
14.6844091048
 40
0.06
100
AcDbArc
 50
90.0
 51
180.0
  0
ARC
  5
370
100
AcDbEntity
  8
0
100
AcDbCircle
 62
7
  6
CONTINUOUS
 10
12.013676215
 20
14.6484091048
 40
0.06
100
AcDbArc
 50
180.0
 51
270.0
  0
ARC
  5
371
100
AcDbEntity
  8
0
100
AcDbCircle
 62
7
  6
CONTINUOUS
 10
12.078176215
 20
14.3354091048
 40
0.046
100
AcDbArc
 50
123.8588093363
 51
180.0
  0
ARC
  5
372
100
AcDbEntity
  8
0
100
AcDbCircle
 62
7
  6
CONTINUOUS
 10
12.076176215
 20
14.5574091048
 40
0.02
100
AcDbArc
 50
180.0
 51
229.0111475607
  0
ARC
  5
373
100
AcDbEntity
  8
0
100
AcDbCircle
 62
7
  6
CONTINUOUS
 10
12.2429912989
 20
2.0518469103
 40
0.5538156692
100
AcDbArc
 50
301.678306787
 51
315.9751823533
  0
ARC
  5
374
100
AcDbEntity
  8
0
100
AcDbCircle
 62
9
  6
CONTINUOUS
 10
12.2347865197
 20
2.0924308989
 40
0.4781461113
100
AcDbArc
 50
270.4130222291
 51
291.6594821242
  0
ARC
  5
375
100
AcDbEntity
  8
0
100
AcDbCircle
 62
9
  6
CONTINUOUS
 10
12.2346767575
 20
2.0891331402
 40
0.474848351
100
AcDbArc
 50
269.5706298336
 51
269.9999345442
  0
ARC
  5
376
100
AcDbEntity
  8
0
100
AcDbCircle
 62
7
  6
CONTINUOUS
 10
12.2349193151
 20
2.0896508276
 40
0.3923036391
100
AcDbArc
 50
261.0281225376
 51
265.2391034112
  0
ARC
  5
377
100
AcDbEntity
  8
0
100
AcDbCircle
 62
7
  6
CONTINUOUS
 10
12.2347267308
 20
2.088445124
 40
0.3910826539
100
AcDbArc
 50
258.5590251737
 51
261.028444704
  0
ARC
  5
378
100
AcDbEntity
  8
0
100
AcDbCircle
 62
7
  6
CONTINUOUS
 10
12.2347363397
 20
2.087341072
 40
0.3899866664
100
AcDbArc
 50
265.2377282184
 51
269.9911666529
  0
ARC
  5
379
100
AcDbEntity
  8
0
100
AcDbCircle
 62
9
  6
CONTINUOUS
 10
12.2348268258
 20
1.8720924666
 40
0.3890161268
100
AcDbArc
 50
253.8344638586
 51
269.9778174764
  0
ARC
  5
37A
100
AcDbEntity
  8
0
100
AcDbCircle
 62
7
  6
CONTINUOUS
 10
12.2349066205
 20
2.0858998751
 40
0.3885380047
100
AcDbArc
 50
269.9660239008
 51
295.9312920775
  0
ARC
  5
37B
100
AcDbEntity
  8
0
100
AcDbCircle
 62
6
  6
CONTINUOUS
 10
12.234688037
 20
2.0881796859
 40
0.3884104613
100
AcDbArc
 50
265.2572083388
 51
269.9982561079
  0
ARC
  5
37C
100
AcDbEntity
  8
0
100
AcDbCircle
 62
7
  6
CONTINUOUS
 10
12.234778413
 20
1.8691370333
 40
0.3862320368
100
AcDbArc
 50
269.9848396079
 51
294.6121934676
  0
ARC
  5
37D
100
AcDbEntity
  8
0
100
AcDbCircle
 62
6
  6
CONTINUOUS
 10
12.2349305123
 20
2.0855875766
 40
0.385810844
100
AcDbArc
 50
269.9622357088
 51
295.9683649039
  0
ARC
  5
37E
100
AcDbEntity
  8
0
100
AcDbCircle
 62
9
  6
CONTINUOUS
 10
12.2351936607
 20
1.8684636654
 40
0.3853423674
100
AcDbArc
 50
284.2356865735
 51
290.7927993895
  0
ARC
  5
37F
100
AcDbEntity
  8
0
100
AcDbCircle
 62
7
  6
CONTINUOUS
 10
12.2378001629
 20
2.079033973
 40
0.3810914685
100
AcDbArc
 50
295.9914597451
 51
299.1193179212
  0
ARC
  5
380
100
AcDbEntity
  8
0
100
AcDbCircle
 62
6
  6
CONTINUOUS
 10
12.2375615329
 20
2.07944636
 40
0.3791319998
100
AcDbArc
 50
296.0172839073
 51
300.2465448892
  0
ARC
  5
381
100
AcDbEntity
  8
0
100
AcDbCircle
 62
7
  6
CONTINUOUS
 10
12.2398169423
 20
2.0756584682
 40
0.3771611935
100
AcDbArc
 50
299.1012017663
 51
313.7431522538
  0
ARC
  5
382
100
AcDbEntity
  8
0
100
AcDbCircle
 62
7
  6
CONTINUOUS
 10
12.2451991391
 20
2.0696274466
 40
0.3690828152
100
AcDbArc
 50
313.7868766223
 51
319.9119968201
  0
ARC
  5
383
100
AcDbEntity
  8
0
100
AcDbCircle
 62
7
  6
CONTINUOUS
 10
12.2473692779
 20
2.067817022
 40
0.3662566899
100
AcDbArc
 50
319.9100549049
 51
327.1170821407
  0
ARC
  5
384
100
AcDbEntity
  8
0
100
AcDbCircle
 62
7
  6
CONTINUOUS
 10
12.2517015441
 20
2.0649066396
 40
0.3610384266
100
AcDbArc
 50
327.1316813952
 51
329.1180426867
  0
ARC
  5
385
100
AcDbEntity
  8
0
100
AcDbCircle
 62
6
  6
CONTINUOUS
 10
12.2517171804
 20
2.064816631
 40
0.3585014606
100
AcDbArc
 50
327.1782925214
 51
328.9603197606
  0
ARC
  5
386
100
AcDbEntity
  8
0
100
AcDbCircle
 62
9
  6
CONTINUOUS
 10
12.2541578402
 20
2.1748690751
 40
0.3557597305
100
AcDbArc
 50
328.6016045889
 51
342.2094029393
  0
ARC
  5
387
100
AcDbEntity
  8
0
100
AcDbCircle
 62
7
  6
CONTINUOUS
 10
12.256471115
 20
2.0625671481
 40
0.3557435402
100
AcDbArc
 50
329.0471335247
 51
354.4704162727
  0
ARC
  5
388
100
AcDbEntity
  8
0
100
AcDbCircle
 62
6
  6
CONTINUOUS
 10
12.2563900028
 20
2.0625296566
 40
0.35331774
100
AcDbArc
 50
328.8873535838
 51
354.5015580077
  0
ARC
  5
389
100
AcDbEntity
  8
0
100
AcDbCircle
 62
7
  6
CONTINUOUS
 10
12.2590391893
 20
2.0618780044
 40
0.3531398776
100
AcDbArc
 50
3.0094976875
 51
6.9459240727
  0
ARC
  5
38A
100
AcDbEntity
  8
0
100
AcDbCircle
 62
7
  6
CONTINUOUS
 10
12.2609009691
 20
2.061981229
 40
0.3512752461
100
AcDbArc
 50
0.0016925163
 51
3.0086273286
  0
ARC
  5
38B
100
AcDbEntity
  8
0
100
AcDbCircle
 62
9
  6
CONTINUOUS
 10
12.259068398
 20
2.1732906472
 40
0.3506017264
100
AcDbArc
 50
342.2098245095
 51
359.9988524224
  0
ARC
  5
38C
100
AcDbEntity
  8
0
100
AcDbCircle
 62
7
  6
CONTINUOUS
 10
12.2616300063
 20
2.0619926096
 40
0.3505462087
100
AcDbArc
 50
354.5042730653
 51
359.9998359145
  0
ARC
  5
38D
100
AcDbEntity
  8
0
100
AcDbCircle
 62
6
  6
CONTINUOUS
 10
12.260403988
 20
2.0620621538
 40
0.3492708335
100
AcDbArc
 50
354.5329572817
 51
359.9758594088
  0
ARC
  5
38E
100
AcDbEntity
  8
0
100
AcDbCircle
 62
6
  6
CONTINUOUS
 10
12.2589121628
 20
2.0590295308
 40
0.330763384
100
AcDbArc
 50
359.9785143683
 51
4.1172212827
  0
ARC
  5
38F
100
AcDbEntity
  8
0
100
AcDbCircle
 62
7
  6
CONTINUOUS
 10
12.664676215
 20
11.8824091048
 40
0.125
100
AcDbArc
 50
269.9999999999
 51
58.6677485025
  0
ARC
  5
390
100
AcDbEntity
  8
0
100
AcDbCircle
 62
7
  6
CONTINUOUS
 10
12.719176215
 20
12.5430332932
 40
0.047
100
AcDbArc
 50
180.0
 51
247.1513705671
  0
ARC
  5
391
100
AcDbEntity
  8
0
100
AcDbCircle
 62
7
  6
CONTINUOUS
 10
12.682676215
 20
12.4564091048
 40
0.047
100
AcDbArc
 50
0.0
 51
67.1513705672
  0
ARC
  5
392
100
AcDbEntity
  8
0
100
AcDbCircle
 62
7
  6
CONTINUOUS
 10
12.234676215
 20
13.3544091048
 40
1.3
100
AcDbArc
 50
102.2628828127
 51
247.6124754324
  0
ARC
  5
393
100
AcDbEntity
  8
0
100
AcDbCircle
 62
7
  6
CONTINUOUS
 10
12.234676215
 20
13.3544091048
 40
1.3
100
AcDbArc
 50
292.4769058063
 51
77.7117748251
  0
ARC
  5
394
100
AcDbEntity
  8
0
100
AcDbCircle
 62
9
  6
CONTINUOUS
 10
12.234676215
 20
13.3544091048
 40
1.2343717104
100
AcDbArc
 50
98.2661341391
 51
246.3387631702
  0
ARC
  5
395
100
AcDbEntity
  8
0
100
AcDbCircle
 62
9
  6
CONTINUOUS
 10
12.234676215
 20
13.3544091048
 40
1.2343717104
100
AcDbArc
 50
293.6629057527
 51
81.7089534889
  0
ARC
  5
396
100
AcDbEntity
  8
0
100
AcDbCircle
 62
9
  6
CONTINUOUS
 10
12.234676215
 20
13.3544091048
 40
1.2019223696
100
AcDbArc
 50
98.2777755368
 51
245.6425455813
  0
ARC
  5
397
100
AcDbEntity
  8
0
100
AcDbCircle
 62
9
  6
CONTINUOUS
 10
12.234676215
 20
13.3544091048
 40
1.2019223696
100
AcDbArc
 50
294.3269683009
 51
81.7968837498
  0
ARC
  5
398
100
AcDbEntity
  8
0
100
AcDbCircle
 62
9
  6
CONTINUOUS
 10
12.234676215
 20
13.3544091048
 40
1.1707459276
100
AcDbArc
 50
97.2444429177
 51
244.9750341745
  0
ARC
  5
399
100
AcDbEntity
  8
0
100
AcDbCircle
 62
9
  6
CONTINUOUS
 10
12.234676215
 20
13.3544091048
 40
1.1707459276
100
AcDbArc
 50
295.0674256284
 51
82.6954660735
  0
ARC
  5
39A
100
AcDbEntity
  8
0
100
AcDbCircle
 62
9
  6
CONTINUOUS
 10
12.234676215
 20
13.3544091048
 40
1.1464705063
100
AcDbArc
 50
97.0947992385
 51
244.3488417686
  0
ARC
  5
39B
100
AcDbEntity
  8
0
100
AcDbCircle
 62
9
  6
CONTINUOUS
 10
12.234676215
 20
13.3544091048
 40
1.1464705063
100
AcDbArc
 50
295.6143248839
 51
83.0093129084
  0
ARC
  5
39C
100
AcDbEntity
  8
0
100
AcDbCircle
 62
9
  6
CONTINUOUS
 10
12.234676215
 20
13.3544091048
 40
1.1093435571
100
AcDbArc
 50
97.0999800718
 51
243.4270906109
  0
ARC
  5
39D
100
AcDbEntity
  8
0
100
AcDbCircle
 62
9
  6
CONTINUOUS
 10
12.234676215
 20
13.3544091048
 40
1.1093435571
100
AcDbArc
 50
296.5999980406
 51
82.8058996115
  0
ARC
  5
39E
100
AcDbEntity
  8
0
100
AcDbCircle
 62
9
  6
CONTINUOUS
 10
12.234676215
 20
13.3544091048
 40
1.0816064242
100
AcDbArc
 50
97.7974051251
 51
242.6438988627
  0
ARC
  5
39F
100
AcDbEntity
  8
0
100
AcDbCircle
 62
9
  6
CONTINUOUS
 10
12.234676215
 20
13.3544091048
 40
1.0816064242
100
AcDbArc
 50
297.3372235602
 51
82.3386387775
  0
ARC
  5
3A0
100
AcDbEntity
  8
0
100
AcDbCircle
 62
9
  6
CONTINUOUS
 10
12.234676215
 20
13.3544091048
 40
1.05
100
AcDbArc
 50
99.3284008305
 51
241.787226894
  0
ARC
  5
3A1
100
AcDbEntity
  8
0
100
AcDbCircle
 62
9
  6
CONTINUOUS
 10
12.234676215
 20
13.3544091048
 40
1.05
100
AcDbArc
 50
298.2128270533
 51
80.6520826967
  0
ARC
  5
3A2
100
AcDbEntity
  8
0
100
AcDbCircle
 62
7
  6
CONTINUOUS
 10
12.234676215
 20
13.3544091048
 40
1.0
100
AcDbArc
 50
299.1203438268
 51
78.3244584
  0
ARC
  5
3A3
100
AcDbEntity
  8
0
100
AcDbCircle
 62
7
  6
CONTINUOUS
 10
12.234676215
 20
13.3544091048
 40
1.0
100
AcDbArc
 50
101.6754613331
 51
240.8796541943
  0
ARC
  5
3A4
100
AcDbEntity
  8
0
100
AcDbCircle
 62
9
  6
CONTINUOUS
 10
12.234676215
 20
13.3544091048
 40
0.8896582498
100
AcDbArc
 50
103.2173848059
 51
240.2611584885
  0
ARC
  5
3A5
100
AcDbEntity
  8
0
100
AcDbCircle
 62
9
  6
CONTINUOUS
 10
12.234676215
 20
13.3544091048
 40
0.8896582498
100
AcDbArc
 50
299.5767904504
 51
76.8454301041
  0
ARC
  5
3A6
100
AcDbEntity
  8
0
100
AcDbCircle
 62
7
  6
CONTINUOUS
 10
12.234676215
 20
13.3544091048
 40
0.8725
100
AcDbArc
 50
103.3452762892
 51
239.7483971465
  0
ARC
  5
3A7
100
AcDbEntity
  8
0
100
AcDbCircle
 62
7
  6
CONTINUOUS
 10
12.234676215
 20
13.3544091048
 40
0.8725
100
AcDbArc
 50
300.251650708
 51
76.6547237108
  0
CIRCLE
  5
3A8
100
AcDbEntity
  8
0
100
AcDbCircle
 62
7
  6
CONTINUOUS
 10
12.234676215
 20
13.3544091048
 40
0.4635
  0
CIRCLE
  5
3A9
100
AcDbEntity
  8
0
100
AcDbCircle
 62
9
  6
CONTINUOUS
 10
12.234676215
 20
13.3544091048
 40
0.346
  0
CIRCLE
  5
3AA
100
AcDbEntity
  8
0
100
AcDbCircle
 62
7
  6
CONTINUOUS
 10
12.234676215
 20
13.3544091048
 40
0.3125
  0
CIRCLE
  5
3AB
100
AcDbEntity
  8
0
100
AcDbCircle
 62
9
  6
CONTINUOUS
 10
12.234676215
 20
13.3544091048
 40
0.1279789985
  0
ARC
  5
3AC
100
AcDbEntity
  8
0
100
AcDbCircle
 62
7
  6
CONTINUOUS
 10
12.324676215
 20
14.7444091048
 40
0.09
100
AcDbArc
 50
0.0
 51
75.164888418
  0
ARC
  5
3AD
100
AcDbEntity
  8
0
100
AcDbCircle
 62
7
  6
CONTINUOUS
 10
12.4760974289
 20
14.4619816685
 40
0.1064212139
100
AcDbArc
 50
130.9888524401
 51
236.1411906649
  0
ARC
  5
3AE
100
AcDbEntity
  8
0
100
AcDbCircle
 62
7
  6
CONTINUOUS
 10
12.455676215
 20
14.6484091048
 40
0.06
100
AcDbArc
 50
270.0
 51
360.0
  0
ARC
  5
3AF
100
AcDbEntity
  8
0
100
AcDbCircle
 62
7
  6
CONTINUOUS
 10
12.455676215
 20
14.6844091048
 40
0.06
100
AcDbArc
 50
0.0
 51
90.0
  0
ARC
  5
3B0
100
AcDbEntity
  8
0
100
AcDbCircle
 62
7
  6
CONTINUOUS
 10
12.391176215
 20
14.3354091048
 40
0.046
100
AcDbArc
 50
0.0000000006
 51
56.1411906637
  0
ARC
  5
3B1
100
AcDbEntity
  8
0
100
AcDbCircle
 62
7
  6
CONTINUOUS
 10
12.393176215
 20
14.5574091048
 40
0.02
100
AcDbArc
 50
310.9888524393
 51
359.9999999985
  0
ARC
  5
3B2
100
AcDbEntity
  8
0
100
AcDbCircle
 62
7
  6
CONTINUOUS
 10
16.234676215
 20
12.9239091048
 40
0.26
100
AcDbArc
 50
76.015
 51
77.6805849352
  0
ARC
  5
3B3
100
AcDbEntity
  8
0
100
AcDbCircle
 62
7
  6
CONTINUOUS
 10
16.234676215
 20
12.9239091048
 40
0.26
100
AcDbArc
 50
103.4298012508
 51
103.985
  0
ARC
  5
3B4
100
AcDbEntity
  8
0
100
AcDbCircle
 62
7
  6
CONTINUOUS
 10
16.3546755729
 20
13.2444090461
 40
0.08
100
AcDbArc
 50
256.0149999997
 51
13.7140000001
  0
ARC
  5
3B5
100
AcDbEntity
  8
0
100
AcDbCircle
 62
7
  6
CONTINUOUS
 10
16.1146768572
 20
13.2444090461
 40
0.08
100
AcDbArc
 50
166.2859999999
 51
283.9850000001
  0
ARC
  5
3B6
100
AcDbEntity
  8
0
100
AcDbCircle
 62
7
  6
CONTINUOUS
 10
16.3546755729
 20
13.2444090461
 40
0.04
100
AcDbArc
 50
255.4343483309
 51
13.7140000002
  0
ARC
  5
3B7
100
AcDbEntity
  8
0
100
AcDbCircle
 62
7
  6
CONTINUOUS
 10
16.1146768572
 20
13.2444090461
 40
0.04
100
AcDbArc
 50
166.286
 51
284.565374163
  0
ARC
  5
3B8
100
AcDbEntity
  8
0
100
AcDbCircle
 62
7
  6
CONTINUOUS
 10
16.2310882891
 20
13.3565676977
 40
0.2853659139
100
AcDbArc
 50
326.9824477034
 51
330.8874037526
  0
ARC
  5
3B9
100
AcDbEntity
  8
0
100
AcDbCircle
 62
7
  6
CONTINUOUS
 10
16.2333101613
 20
13.3512644326
 40
0.2846114123
100
AcDbArc
 50
60.5027417592
 51
69.1427074723
  0
ARC
  5
3BA
100
AcDbEntity
  8
0
100
AcDbCircle
 62
7
  6
CONTINUOUS
 10
16.2317621129
 20
13.3561962556
 40
0.2845965007
100
AcDbArc
 50
330.8867358219
 51
334.8778013458
  0
ARC
  5
3BB
100
AcDbEntity
  8
0
100
AcDbCircle
 62
7
  6
CONTINUOUS
 10
16.231896662
 20
13.356034248
 40
0.2843974157
100
AcDbArc
 50
322.114729757
 51
326.9838217669
  0
ARC
  5
3BC
100
AcDbEntity
  8
0
100
AcDbCircle
 62
7
  6
CONTINUOUS
 10
16.2329381353
 20
13.3556325502
 40
0.2832924038
100
AcDbArc
 50
334.8800464625
 51
335.9116225096
  0
ARC
  5
3BD
100
AcDbEntity
  8
0
100
AcDbCircle
 62
7
  6
CONTINUOUS
 10
16.2337937212
 20
13.3527371196
 40
0.2830648348
100
AcDbArc
 50
69.1370300675
 51
76.8756705734
  0
ARC
  5
3BE
100
AcDbEntity
  8
0
100
AcDbCircle
 62
7
  6
CONTINUOUS
 10
16.2340562407
 20
13.35436225
 40
0.2816662412
100
AcDbArc
 50
318.4259967855
 51
322.1133977654
  0
ARC
  5
3BF
100
AcDbEntity
  8
0
100
AcDbCircle
 62
7
  6
CONTINUOUS
 10
16.2344747799
 20
13.3549593917
 40
0.2816148287
100
AcDbArc
 50
335.9090515754
 51
339.5488418257
  0
ARC
  5
3C0
100
AcDbEntity
  8
0
100
AcDbCircle
 62
7
  6
CONTINUOUS
 10
16.2346679986
 20
13.3561542369
 40
0.2795384663
100
AcDbArc
 50
76.8911523919
 51
77.6110511373
  0
ARC
  5
3C1
100
AcDbEntity
  8
0
100
AcDbCircle
 62
7
  6
CONTINUOUS
 10
16.2169614316
 20
13.3607438899
 40
0.2779394305
100
AcDbArc
 50
62.1672949748
 51
78.5182924712
  0
ARC
  5
3C2
100
AcDbEntity
  8
0
100
AcDbCircle
 62
7
  6
CONTINUOUS
 10
16.2194375831
 20
13.3655037671
 40
0.2725741095
100
AcDbArc
 50
45.6968960676
 51
62.1604320348
  0
ARC
  5
3C3
100
AcDbEntity
  8
0
100
AcDbCircle
 62
7
  6
CONTINUOUS
 10
16.2344495744
 20
13.3493109187
 40
0.2659068577
100
AcDbArc
 50
162.1313812494
 51
178.9014106188
  0
ARC
  5
3C4
100
AcDbEntity
  8
0
100
AcDbCircle
 62
7
  6
CONTINUOUS
 10
16.2317031055
 20
13.3502655087
 40
0.2629918957
100
AcDbArc
 50
132.4121841091
 51
162.1127686455
  0
ARC
  5
3C5
100
AcDbEntity
  8
0
100
AcDbCircle
 62
7
  6
CONTINUOUS
 10
16.2304144568
 20
13.3517037001
 40
0.2610609212
100
AcDbArc
 50
128.4372786959
 51
132.4162612492
  0
ARC
  5
3C6
100
AcDbEntity
  8
0
100
AcDbCircle
 62
7
  6
CONTINUOUS
 10
16.229726751
 20
13.3555880527
 40
0.2570308906
100
AcDbArc
 50
70.1950700369
 51
71.2395439659
  0
ARC
  5
3C7
100
AcDbEntity
  8
0
100
AcDbCircle
 62
7
  6
CONTINUOUS
 10
16.229720249
 20
13.356184866
 40
0.2565059145
100
AcDbArc
 50
49.4330929736
 51
55.28893167
  0
ARC
  5
3C8
100
AcDbEntity
  8
0
100
AcDbCircle
 62
7
  6
CONTINUOUS
 10
16.2302697335
 20
13.3569154371
 40
0.2555980535
100
AcDbArc
 50
55.2846758096
 51
70.2087716251
  0
ARC
  5
3C9
100
AcDbEntity
  8
0
100
AcDbCircle
 62
7
  6
CONTINUOUS
 10
16.2318297941
 20
13.3586534734
 40
0.2532587319
100
AcDbArc
 50
43.8931143189
 51
49.4324338613
  0
ARC
  5
3CA
100
AcDbEntity
  8
0
100
AcDbCircle
 62
7
  6
CONTINUOUS
 10
16.2345844692
 20
13.3531858161
 40
0.153240851
100
AcDbArc
 50
93.9382670681
 51
95.7167238971
  0
ARC
  5
3CB
100
AcDbEntity
  8
0
100
AcDbCircle
 62
7
  6
CONTINUOUS
 10
16.2344677238
 20
13.3542794667
 40
0.1521410107
100
AcDbArc
 50
95.7140025773
 51
99.6963068322
  0
ARC
  5
3CC
100
AcDbEntity
  8
0
100
AcDbCircle
 62
7
  6
CONTINUOUS
 10
16.2345438394
 20
13.3542355798
 40
0.152092389
100
AcDbArc
 50
128.7414577322
 51
130.0842828439
  0
ARC
  5
3CD
100
AcDbEntity
  8
0
100
AcDbCircle
 62
7
  6
CONTINUOUS
 10
16.2346150785
 20
13.3545497739
 40
0.1519653994
100
AcDbArc
 50
165.4324265908
 51
169.4747045788
  0
ARC
  5
3CE
100
AcDbEntity
  8
0
100
AcDbCircle
 62
7
  6
CONTINUOUS
 10
16.2345572487
 20
13.3543841414
 40
0.1519380184
100
AcDbArc
 50
195.4431497795
 51
196.7571966615
  0
ARC
  5
3CF
100
AcDbEntity
  8
0
100
AcDbCircle
 62
7
  6
CONTINUOUS
 10
16.2346044636
 20
13.3541019277
 40
0.1519376176
100
AcDbArc
 50
183.9187895465
 51
185.40041212
  0
ARC
  5
3D0
100
AcDbEntity
  8
0
100
AcDbCircle
 62
7
  6
CONTINUOUS
 10
16.2344598648
 20
13.3543008023
 40
0.1518180904
100
AcDbArc
 50
200.4954724061
 51
214.416751892
  0
ARC
  5
3D1
100
AcDbEntity
  8
0
100
AcDbCircle
 62
7
  6
CONTINUOUS
 10
16.2340524446
 20
13.3548173733
 40
0.151330844
100
AcDbArc
 50
130.0837753412
 51
132.0200425978
  0
ARC
  5
3D2
100
AcDbEntity
  8
0
100
AcDbCircle
 62
7
  6
CONTINUOUS
 10
16.2339273656
 20
13.3543627161
 40
0.1513146594
100
AcDbArc
 50
183.0166569333
 51
188.4529973771
  0
ARC
  5
3D3
100
AcDbEntity
  8
0
100
AcDbCircle
 62
7
  6
CONTINUOUS
 10
16.2342788561
 20
13.3537264996
 40
0.1512977815
100
AcDbArc
 50
218.7317250468
 51
226.3390568457
  0
ARC
  5
3D4
100
AcDbEntity
  8
0
100
AcDbCircle
 62
7
  6
CONTINUOUS
 10
16.2304624102
 20
13.3514261354
 40
0.1511563525
100
AcDbArc
 50
117.07582925
 51
131.8927573064
  0
ARC
  5
3D5
100
AcDbEntity
  8
0
100
AcDbCircle
 62
7
  6
CONTINUOUS
 10
16.2334455152
 20
13.3548369344
 40
0.1507612094
100
AcDbArc
 50
150.912520286
 51
165.4262540358
  0
ARC
  5
3D6
100
AcDbEntity
  8
0
100
AcDbCircle
 62
7
  6
CONTINUOUS
 10
16.2333173487
 20
13.3539739287
 40
0.1506441693
100
AcDbArc
 50
185.3980184857
 51
188.5626088437
  0
ARC
  5
3D7
100
AcDbEntity
  8
0
100
AcDbCircle
 62
7
  6
CONTINUOUS
 10
16.2334413979
 20
13.3554971797
 40
0.1504167797
100
AcDbArc
 50
132.0204626808
 51
133.5357046644
  0
ARC
  5
3D8
100
AcDbEntity
  8
0
100
AcDbCircle
 62
7
  6
CONTINUOUS
 10
16.234151108
 20
13.3563814189
 40
0.1500157659
100
AcDbArc
 50
99.7123213837
 51
109.9220525399
  0
ARC
  5
3D9
100
AcDbEntity
  8
0
100
AcDbCircle
 62
7
  6
CONTINUOUS
 10
16.2296788328
 20
13.3522941434
 40
0.1499869862
100
AcDbArc
 50
131.8913478859
 51
134.4427965658
  0
ARC
  5
3DA
100
AcDbEntity
  8
0
100
AcDbCircle
 62
7
  6
CONTINUOUS
 10
16.2298612896
 20
13.3529681537
 40
0.1495364821
100
AcDbArc
 50
115.9558538567
 51
117.0648369493
  0
ARC
  5
3DB
100
AcDbEntity
  8
0
100
AcDbCircle
 62
7
  6
CONTINUOUS
 10
16.2325650691
 20
13.3564127459
 40
0.1491494235
100
AcDbArc
 50
133.5339212623
 51
136.3425600525
  0
ARC
  5
3DC
100
AcDbEntity
  8
0
100
AcDbCircle
 62
7
  6
CONTINUOUS
 10
16.23180476
 20
13.3537534551
 40
0.1491156142
100
AcDbArc
 50
188.5653727813
 51
199.3594130816
  0
ARC
  5
3DD
100
AcDbEntity
  8
0
100
AcDbCircle
 62
7
  6
CONTINUOUS
 10
16.232607848
 20
13.3522125602
 40
0.1490429565
100
AcDbArc
 50
222.0049793214
 51
226.3379367279
  0
ARC
  5
3DE
100
AcDbEntity
  8
0
100
AcDbCircle
 62
7
  6
CONTINUOUS
 10
16.2313285585
 20
13.3542123096
 40
0.1487115389
100
AcDbArc
 50
179.925017235
 51
183.0114816257
  0
ARC
  5
3DF
100
AcDbEntity
  8
0
100
AcDbCircle
 62
7
  6
CONTINUOUS
 10
16.2295914683
 20
13.353899943
 40
0.1485683204
100
AcDbArc
 50
84.7263487257
 51
115.9557502249
  0
ARC
  5
3E0
100
AcDbEntity
  8
0
100
AcDbCircle
 62
7
  6
CONTINUOUS
 10
16.2298814513
 20
13.3560611808
 40
0.1463896056
100
AcDbArc
 50
61.8169515495
 51
84.7616172313
  0
ARC
  5
3E1
100
AcDbEntity
  8
0
100
AcDbCircle
 62
7
  6
CONTINUOUS
 10
16.2303283407
 20
13.3571408431
 40
0.145241172
100
AcDbArc
 50
46.5474016106
 51
50.9927194825
  0
ARC
  5
3E2
100
AcDbEntity
  8
0
100
AcDbCircle
 62
7
  6
CONTINUOUS
 10
16.2307521347
 20
13.357673256
 40
0.1445607081
100
AcDbArc
 50
50.990422679
 51
61.8119801661
  0
ARC
  5
3E3
100
AcDbEntity
  8
0
100
AcDbCircle
 62
7
  6
CONTINUOUS
 10
16.2309054216
 20
13.3577333439
 40
0.1444141605
100
AcDbArc
 50
38.8649846533
 51
46.5519376974
  0
ARC
  5
3E4
100
AcDbEntity
  8
0
100
AcDbCircle
 62
7
  6
CONTINUOUS
 10
16.2323050251
 20
13.3589038333
 40
0.1425899283
100
AcDbArc
 50
23.5761072999
 51
38.8516679177
  0
ARC
  5
3E5
100
AcDbEntity
  8
0
100
AcDbCircle
 62
7
  6
CONTINUOUS
 10
16.2334223159
 20
13.3593272292
 40
0.1414017096
100
AcDbArc
 50
17.5978833264
 51
23.5763054598
  0
CIRCLE
  5
3E6
100
AcDbEntity
  8
0
100
AcDbCircle
 62
6
  6
CONTINUOUS
 10
16.044826215
 20
13.3544091048
 40
0.02165
  0
ARC
  5
3E7
100
AcDbEntity
  8
0
100
AcDbCircle
 62
7
  6
CONTINUOUS
 10
16.0486035626
 20
13.4798208306
 40
0.08
100
AcDbArc
 50
17.1598715463
 51
36.2859999995
  0
ARC
  5
3E8
100
AcDbEntity
  8
0
100
AcDbCircle
 62
7
  6
CONTINUOUS
 10
16.0486035626
 20
13.4798208306
 40
0.04
100
AcDbArc
 50
346.2860000024
 51
36.2859999981
  0
CIRCLE
  5
3E9
100
AcDbEntity
  8
0
100
AcDbCircle
 62
7
  6
CONTINUOUS
 10
16.234676215
 20
13.3544091048
 40
1.17
  0
CIRCLE
  5
3EA
100
AcDbEntity
  8
0
100
AcDbCircle
 62
9
  6
CONTINUOUS
 10
16.234676215
 20
13.3544091048
 40
1.1043717104
  0
CIRCLE
  5
3EB
100
AcDbEntity
  8
0
100
AcDbCircle
 62
9
  6
CONTINUOUS
 10
16.234676215
 20
13.3544091048
 40
1.0719223696
  0
CIRCLE
  5
3EC
100
AcDbEntity
  8
0
100
AcDbCircle
 62
9
  6
CONTINUOUS
 10
16.234676215
 20
13.3544091048
 40
1.0407459276
  0
CIRCLE
  5
3ED
100
AcDbEntity
  8
0
100
AcDbCircle
 62
9
  6
CONTINUOUS
 10
16.234676215
 20
13.3544091048
 40
1.0164705063
  0
CIRCLE
  5
3EE
100
AcDbEntity
  8
0
100
AcDbCircle
 62
9
  6
CONTINUOUS
 10
16.234676215
 20
13.3544091048
 40
0.9793435571
  0
CIRCLE
  5
3EF
100
AcDbEntity
  8
0
100
AcDbCircle
 62
9
  6
CONTINUOUS
 10
16.234676215
 20
13.3544091048
 40
0.9519481536
  0
CIRCLE
  5
3F0
100
AcDbEntity
  8
0
100
AcDbCircle
 62
9
  6
CONTINUOUS
 10
16.234676215
 20
13.3544091048
 40
0.9418237702
  0
CIRCLE
  5
3F1
100
AcDbEntity
  8
0
100
AcDbCircle
 62
7
  6
CONTINUOUS
 10
16.234676215
 20
13.3544091048
 40
0.8187389754
  0
CIRCLE
  5
3F2
100
AcDbEntity
  8
0
100
AcDbCircle
 62
9
  6
CONTINUOUS
 10
16.234676215
 20
13.3544091048
 40
0.7877475635
  0
CIRCLE
  5
3F3
100
AcDbEntity
  8
0
100
AcDbCircle
 62
9
  6
CONTINUOUS
 10
16.234676215
 20
13.3544091048
 40
0.5244951005
  0
CIRCLE
  5
3F4
100
AcDbEntity
  8
0
100
AcDbCircle
 62
9
  6
CONTINUOUS
 10
16.234676215
 20
13.3544091048
 40
0.4346655436
  0
CIRCLE
  5
3F5
100
AcDbEntity
  8
0
100
AcDbCircle
 62
9
  6
CONTINUOUS
 10
16.234676215
 20
13.3544091048
 40
0.4098651671
  0
CIRCLE
  5
3F6
100
AcDbEntity
  8
0
100
AcDbCircle
 62
9
  6
CONTINUOUS
 10
16.234676215
 20
13.3544091048
 40
0.3330477656
  0
CIRCLE
  5
3F7
100
AcDbEntity
  8
0
100
AcDbCircle
 62
7
  6
CONTINUOUS
 10
16.234676215
 20
13.3544091048
 40
0.3041988751
  0
ARC
  5
3F8
100
AcDbEntity
  8
0
100
AcDbCircle
 62
7
  6
CONTINUOUS
 10
16.2352089865
 20
13.3595929058
 40
0.2814746703
100
AcDbArc
 50
337.1090426384
 51
347.5339783466
  0
ARC
  5
3F9
100
AcDbEntity
  8
0
100
AcDbCircle
 62
7
  6
CONTINUOUS
 10
16.234676215
 20
13.3544091048
 40
0.2812588826
100
AcDbArc
 50
0.0
 51
82.3480448658
  0
ARC
  5
3FA
100
AcDbEntity
  8
0
100
AcDbCircle
 62
7
  6
CONTINUOUS
 10
16.236218273
 20
13.3537427657
 40
0.279605447
100
AcDbArc
 50
348.3163940552
 51
352.4387026478
  0
ARC
  5
3FB
100
AcDbEntity
  8
0
100
AcDbCircle
 62
7
  6
CONTINUOUS
 10
16.2356865382
 20
13.3529388775
 40
0.2795020861
100
AcDbArc
 50
317.4184822886
 51
318.4225078182
  0
ARC
  5
3FC
100
AcDbEntity
  8
0
100
AcDbCircle
 62
7
  6
CONTINUOUS
 10
16.2374569259
 20
13.3591106456
 40
0.2791756272
100
AcDbArc
 50
347.5310330707
 51
351.3130995194
  0
ARC
  5
3FD
100
AcDbEntity
  8
0
100
AcDbCircle
 62
7
  6
CONTINUOUS
 10
16.2374610033
 20
13.3586407365
 40
0.2790435368
100
AcDbArc
 50
317.5275123357
 51
332.066415692
  0
ARC
  5
3FE
100
AcDbEntity
  8
0
100
AcDbCircle
 62
7
  6
CONTINUOUS
 10
16.2376381727
 20
13.3584757858
 40
0.2788111106
100
AcDbArc
 50
334.1963735298
 51
337.106624577
  0
ARC
  5
3FF
100
AcDbEntity
  8
0
100
AcDbCircle
 62
7
  6
CONTINUOUS
 10
16.2362535087
 20
13.3565838427
 40
0.2785840675
100
AcDbArc
 50
44.3349822677
 51
47.2360740573
  0
ARC
  5
400
100
AcDbEntity
  8
0
100
AcDbCircle
 62
7
  6
CONTINUOUS
 10
16.2386005942
 20
13.3580295791
 40
0.2777504231
100
AcDbArc
 50
332.0676767913
 51
334.1928224226
  0
ARC
  5
401
100
AcDbEntity
  8
0
100
AcDbCircle
 62
7
  6
CONTINUOUS
 10
16.2382553289
 20
13.3535630706
 40
0.2775846797
100
AcDbArc
 50
339.5462316866
 51
344.2052744426
  0
ARC
  5
402
100
AcDbEntity
  8
0
100
AcDbCircle
 62
7
  6
CONTINUOUS
 10
16.2352356206
 20
13.3588826019
 40
0.276751855
100
AcDbArc
 50
77.6046418712
 51
82.3368846285
  0
ARC
  5
403
100
AcDbEntity
  8
0
100
AcDbCircle
 62
7
  6
CONTINUOUS
 10
16.2393025103
 20
13.3570502759
 40
0.2766113107
100
AcDbArc
 50
317.0112392296
 51
317.5129454632
  0
ARC
  5
404
100
AcDbEntity
  8
0
100
AcDbCircle
 62
7
  6
CONTINUOUS
 10
16.2379324647
 20
13.3508816116
 40
0.2764563507
100
AcDbArc
 50
309.1978607892
 51
317.417470111
  0
ARC
  5
405
100
AcDbEntity
  8
0
100
AcDbCircle
 62
7
  6
CONTINUOUS
 10
16.2404335114
 20
13.3528801288
 40
0.2753028551
100
AcDbArc
 50
344.2186508615
 51
348.314551798
  0
ARC
  5
406
100
AcDbEntity
  8
0
100
AcDbCircle
 62
7
  6
CONTINUOUS
 10
16.2385908253
 20
13.3591043347
 40
0.27514664
100
AcDbArc
 50
47.237031294
 51
51.5051238565
  0
ARC
  5
407
100
AcDbEntity
  8
0
100
AcDbCircle
 62
7
  6
CONTINUOUS
 10
16.2392692946
 20
13.3522309077
 40
0.2718198433
100
AcDbArc
 50
230.9082918469
 51
248.1546415499
  0
ARC
  5
408
100
AcDbEntity
  8
0
100
AcDbCircle
 62
7
  6
CONTINUOUS
 10
16.2386427312
 20
13.3511715468
 40
0.2706026064
100
AcDbArc
 50
213.6191672192
 51
230.869820859
  0
ARC
  5
409
100
AcDbEntity
  8
0
100
AcDbCircle
 62
7
  6
CONTINUOUS
 10
16.2362196107
 20
13.3495227914
 40
0.267671264
100
AcDbArc
 50
178.9540181876
 51
213.612452711
  0
ARC
  5
40A
100
AcDbEntity
  8
0
100
AcDbCircle
 62
7
  6
CONTINUOUS
 10
16.234676215
 20
13.3544091048
 40
0.2542
100
AcDbArc
 50
56.4689914581
 51
45.0274096944
  0
ARC
  5
40B
100
AcDbEntity
  8
0
100
AcDbCircle
 62
7
  6
CONTINUOUS
 10
16.234676215
 20
13.3544091048
 40
0.2512500119
100
AcDbArc
 50
54.6792532673
 51
125.3207467327
  0
ARC
  5
40C
100
AcDbEntity
  8
0
100
AcDbCircle
 62
7
  6
CONTINUOUS
 10
16.234676215
 20
13.3544091048
 40
0.2512493449
100
AcDbArc
 50
134.4703125157
 51
45.5296874843
  0
ARC
  5
40D
100
AcDbEntity
  8
0
100
AcDbCircle
 62
7
  6
CONTINUOUS
 10
16.234676215
 20
13.3544091048
 40
0.185
100
AcDbArc
 50
83.6164833423
 51
96.3837756086
  0
ARC
  5
40E
100
AcDbEntity
  8
0
100
AcDbCircle
 62
7
  6
CONTINUOUS
 10
16.234676215
 20
13.3544091048
 40
0.185
100
AcDbArc
 50
263.6164833423
 51
276.3837756086
  0
ARC
  5
40F
100
AcDbEntity
  8
0
100
AcDbCircle
 62
7
  6
CONTINUOUS
 10
16.234676215
 20
13.3544091048
 40
0.185
100
AcDbArc
 50
331.1334984949
 51
353.334942153
  0
ARC
  5
410
100
AcDbEntity
  8
0
100
AcDbCircle
 62
7
  6
CONTINUOUS
 10
16.234676215
 20
13.3544091048
 40
0.185
100
AcDbArc
 50
299.1665988874
 51
330.8326273455
  0
ARC
  5
411
100
AcDbEntity
  8
0
100
AcDbCircle
 62
7
  6
CONTINUOUS
 10
16.234676215
 20
13.3544091048
 40
0.185
100
AcDbArc
 50
276.6662283411
 51
298.8701079191
  0
ARC
  5
412
100
AcDbEntity
  8
0
100
AcDbCircle
 62
7
  6
CONTINUOUS
 10
16.234676215
 20
13.3544091048
 40
0.185
100
AcDbArc
 50
241.1297178775
 51
263.333434758
  0
ARC
  5
413
100
AcDbEntity
  8
0
100
AcDbCircle
 62
7
  6
CONTINUOUS
 10
16.234676215
 20
13.3544091048
 40
0.185
100
AcDbArc
 50
209.1809180354
 51
240.8349035332
  0
ARC
  5
414
100
AcDbEntity
  8
0
100
AcDbCircle
 62
7
  6
CONTINUOUS
 10
16.234676215
 20
13.3544091048
 40
0.185
100
AcDbArc
 50
186.6665846093
 51
208.866820277
  0
ARC
  5
415
100
AcDbEntity
  8
0
100
AcDbCircle
 62
7
  6
CONTINUOUS
 10
16.234676215
 20
13.3544091048
 40
0.185
100
AcDbArc
 50
119.1650964668
 51
150.8190819646
  0
ARC
  5
416
100
AcDbEntity
  8
0
100
AcDbCircle
 62
7
  6
CONTINUOUS
 10
16.234676215
 20
13.3544091048
 40
0.185
100
AcDbArc
 50
96.6665652421
 51
118.8701079191
  0
ARC
  5
417
100
AcDbEntity
  8
0
100
AcDbCircle
 62
7
  6
CONTINUOUS
 10
16.234676215
 20
13.3544091048
 40
0.185
100
AcDbArc
 50
61.1297178775
 51
83.333771659
  0
ARC
  5
418
100
AcDbEntity
  8
0
100
AcDbCircle
 62
7
  6
CONTINUOUS
 10
16.234676215
 20
13.3544091048
 40
0.185
100
AcDbArc
 50
29.1673726545
 51
60.8334011125
  0
ARC
  5
419
100
AcDbEntity
  8
0
100
AcDbCircle
 62
7
  6
CONTINUOUS
 10
16.234676215
 20
13.3544091048
 40
0.185
100
AcDbArc
 50
6.665057847
 51
28.866820277
  0
ARC
  5
41A
100
AcDbEntity
  8
0
100
AcDbCircle
 62
7
  6
CONTINUOUS
 10
16.234676215
 20
13.3544091048
 40
0.185
100
AcDbArc
 50
151.1334984949
 51
173.3334153907
  0
ARC
  5
41B
100
AcDbEntity
  8
0
100
AcDbCircle
 62
7
  6
CONTINUOUS
 10
16.234676215
 20
13.3544091048
 40
0.1635
100
AcDbArc
 50
334.1260218922
 51
340.8739781078
  0
ARC
  5
41C
100
AcDbEntity
  8
0
100
AcDbCircle
 62
7
  6
CONTINUOUS
 10
16.234676215
 20
13.3544091048
 40
0.1635
100
AcDbArc
 50
311.6260218921
 51
318.3739781079
  0
ARC
  5
41D
100
AcDbEntity
  8
0
100
AcDbCircle
 62
7
  6
CONTINUOUS
 10
16.234676215
 20
13.3544091048
 40
0.1635
100
AcDbArc
 50
289.1260218923
 51
295.8739781078
  0
ARC
  5
41E
100
AcDbEntity
  8
0
100
AcDbCircle
 62
7
  6
CONTINUOUS
 10
16.234676215
 20
13.3544091048
 40
0.1635
100
AcDbArc
 50
266.6260218922
 51
273.3739781078
  0
ARC
  5
41F
100
AcDbEntity
  8
0
100
AcDbCircle
 62
7
  6
CONTINUOUS
 10
16.234676215
 20
13.3544091048
 40
0.1635
100
AcDbArc
 50
244.1260218922
 51
250.8739781077
  0
ARC
  5
420
100
AcDbEntity
  8
0
100
AcDbCircle
 62
7
  6
CONTINUOUS
 10
16.234676215
 20
13.3544091048
 40
0.1635
100
AcDbArc
 50
221.6260218921
 51
228.3739781079
  0
ARC
  5
421
100
AcDbEntity
  8
0
100
AcDbCircle
 62
7
  6
CONTINUOUS
 10
16.234676215
 20
13.3544091048
 40
0.1635
100
AcDbArc
 50
199.1260218922
 51
205.8739781078
  0
ARC
  5
422
100
AcDbEntity
  8
0
100
AcDbCircle
 62
7
  6
CONTINUOUS
 10
16.234676215
 20
13.3544091048
 40
0.1635
100
AcDbArc
 50
131.6260218921
 51
138.3739781078
  0
ARC
  5
423
100
AcDbEntity
  8
0
100
AcDbCircle
 62
7
  6
CONTINUOUS
 10
16.234676215
 20
13.3544091048
 40
0.1635
100
AcDbArc
 50
109.1260218923
 51
115.8739781078
  0
ARC
  5
424
100
AcDbEntity
  8
0
100
AcDbCircle
 62
7
  6
CONTINUOUS
 10
16.234676215
 20
13.3544091048
 40
0.1635
100
AcDbArc
 50
86.6260218922
 51
93.3739781078
  0
ARC
  5
425
100
AcDbEntity
  8
0
100
AcDbCircle
 62
7
  6
CONTINUOUS
 10
16.234676215
 20
13.3544091048
 40
0.1635
100
AcDbArc
 50
64.1260218922
 51
70.8739781077
  0
ARC
  5
426
100
AcDbEntity
  8
0
100
AcDbCircle
 62
7
  6
CONTINUOUS
 10
16.234676215
 20
13.3544091048
 40
0.1635
100
AcDbArc
 50
41.6260218921
 51
48.3739781079
  0
ARC
  5
427
100
AcDbEntity
  8
0
100
AcDbCircle
 62
7
  6
CONTINUOUS
 10
16.234676215
 20
13.3544091048
 40
0.1635
100
AcDbArc
 50
19.1260218922
 51
25.8739781078
  0
ARC
  5
428
100
AcDbEntity
  8
0
100
AcDbCircle
 62
7
  6
CONTINUOUS
 10
16.234676215
 20
13.3544091048
 40
0.1635
100
AcDbArc
 50
356.6260218922
 51
3.3739781078
  0
ARC
  5
429
100
AcDbEntity
  8
0
100
AcDbCircle
 62
7
  6
CONTINUOUS
 10
16.234676215
 20
13.3544091048
 40
0.1635
100
AcDbArc
 50
176.6260218922
 51
183.3739781078
  0
ARC
  5
42A
100
AcDbEntity
  8
0
100
AcDbCircle
 62
7
  6
CONTINUOUS
 10
16.234676215
 20
13.3544091048
 40
0.1635
100
AcDbArc
 50
154.1260218922
 51
160.8739781078
  0
ARC
  5
42B
100
AcDbEntity
  8
0
100
AcDbCircle
 62
7
  6
CONTINUOUS
 10
16.234676215
 20
13.3544091048
 40
0.1549989873
100
AcDbArc
 50
0.0
 51
358.9949702111
  0
ARC
  5
42C
100
AcDbEntity
  8
0
100
AcDbCircle
 62
7
  6
CONTINUOUS
 10
16.2367129401
 20
13.3555504548
 40
0.1543408857
100
AcDbArc
 50
206.1588953597
 51
212.3112970486
  0
ARC
  5
42D
100
AcDbEntity
  8
0
100
AcDbCircle
 62
7
  6
CONTINUOUS
 10
16.2358845911
 20
13.3551591764
 40
0.1534248813
100
AcDbArc
 50
199.3541337636
 51
206.1641183268
  0
ARC
  5
42E
100
AcDbEntity
  8
0
100
AcDbCircle
 62
7
  6
CONTINUOUS
 10
16.2357848059
 20
13.3535976286
 40
0.1534227749
100
AcDbArc
 50
138.0101613432
 51
146.7653008984
  0
ARC
  5
42F
100
AcDbEntity
  8
0
100
AcDbCircle
 62
7
  6
CONTINUOUS
 10
16.2360330148
 20
13.354194932
 40
0.1534169491
100
AcDbArc
 50
169.4741449037
 51
179.920014044
  0
ARC
  5
430
100
AcDbEntity
  8
0
100
AcDbCircle
 62
7
  6
CONTINUOUS
 10
16.2359660257
 20
13.3550554861
 40
0.15344543
100
AcDbArc
 50
212.3072355238
 51
218.7246686089
  0
ARC
  5
431
100
AcDbEntity
  8
0
100
AcDbCircle
 62
7
  6
CONTINUOUS
 10
16.235299463
 20
13.3548915864
 40
0.1528428614
100
AcDbArc
 50
218.2604531598
 51
221.8534141406
  0
ARC
  5
432
100
AcDbEntity
  8
0
100
AcDbCircle
 62
7
  6
CONTINUOUS
 10
16.2351118547
 20
13.3538829055
 40
0.1526921359
100
AcDbArc
 50
109.9415295212
 51
128.7365994606
  0
ARC
  5
433
100
AcDbEntity
  8
0
100
AcDbCircle
 62
7
  6
CONTINUOUS
 10
16.2351343106
 20
13.3547828849
 40
0.1526455614
100
AcDbArc
 50
214.4144721934
 51
215.6150628631
  0
ARC
  5
434
100
AcDbEntity
  8
0
100
AcDbCircle
 62
7
  6
CONTINUOUS
 10
16.2351476189
 20
13.3541670196
 40
0.1525682552
100
AcDbArc
 50
136.4019379204
 51
138.009008511
  0
ARC
  5
435
100
AcDbEntity
  8
0
100
AcDbCircle
 62
7
  6
CONTINUOUS
 10
16.2348446061
 20
13.3544733308
 40
0.152238888
100
AcDbArc
 50
196.758157148
 51
200.5055950715
  0
ARC
  5
436
100
AcDbEntity
  8
0
100
AcDbCircle
 62
7
  6
CONTINUOUS
 10
16.2347778084
 20
13.3544425167
 40
0.1521661591
100
AcDbArc
 50
188.4485685859
 51
195.4422222283
  0
ARC
  5
437
100
AcDbEntity
  8
0
100
AcDbCircle
 62
7
  6
CONTINUOUS
 10
16.2346828598
 20
13.3542828208
 40
0.1521271718
100
AcDbArc
 50
146.7624015955
 51
150.9067868524
  0
ARC
  5
438
100
AcDbEntity
  8
0
100
AcDbCircle
 62
7
  6
CONTINUOUS
 10
16.245161053
 20
13.3388016177
 40
0.1491404038
100
AcDbArc
 50
213.3738572744
 51
216.5984395618
  0
ARC
  5
439
100
AcDbEntity
  8
0
100
AcDbCircle
 62
7
  6
CONTINUOUS
 10
16.2446164903
 20
13.338392548
 40
0.148459322
100
AcDbArc
 50
216.5969942131
 51
219.2849774935
  0
ARC
  5
43A
100
AcDbEntity
  8
0
100
AcDbCircle
 62
7
  6
CONTINUOUS
 10
16.2391500869
 20
13.3362497765
 40
0.1426090678
100
AcDbArc
 50
193.2112912429
 51
198.7337198741
  0
ARC
  5
43B
100
AcDbEntity
  8
0
100
AcDbCircle
 62
7
  6
CONTINUOUS
 10
16.2346827451
 20
13.3595808603
 40
0.1401443541
100
AcDbArc
 50
339.2078051306
 51
356.6752577253
  0
ARC
  5
43C
100
AcDbEntity
  8
0
100
AcDbCircle
 62
7
  6
CONTINUOUS
 10
16.2363347154
 20
13.3357738264
 40
0.1397595494
100
AcDbArc
 50
177.9345587893
 51
193.2851164634
  0
ARC
  5
43D
100
AcDbEntity
  8
0
100
AcDbCircle
 62
7
  6
CONTINUOUS
 10
16.2363781953
 20
13.3594570227
 40
0.1384445779
100
AcDbArc
 50
356.6857287262
 51
357.9104381153
  0
ARC
  5
43E
100
AcDbEntity
  8
0
100
AcDbCircle
 62
7
  6
CONTINUOUS
 10
16.237252964
 20
13.3587665724
 40
0.1374525507
100
AcDbArc
 50
320.2832618905
 51
339.1448127304
  0
ARC
  5
43F
100
AcDbEntity
  8
0
100
AcDbCircle
 62
7
  6
CONTINUOUS
 10
16.2378640142
 20
13.3584169263
 40
0.1367603964
100
AcDbArc
 50
309.6584569342
 51
317.7750346857
  0
ARC
  5
440
100
AcDbEntity
  8
0
100
AcDbCircle
 62
7
  6
CONTINUOUS
 10
16.2384341732
 20
13.3578832455
 40
0.1359795309
100
AcDbArc
 50
317.7801016596
 51
320.2515264362
  0
ARC
  5
441
100
AcDbEntity
  8
0
100
AcDbCircle
 62
7
  6
CONTINUOUS
 10
16.2387065282
 20
13.3573840113
 40
0.1354274937
100
AcDbArc
 50
301.3715681469
 51
309.6629400566
  0
ARC
  5
442
100
AcDbEntity
  8
0
100
AcDbCircle
 62
7
  6
CONTINUOUS
 10
16.2392432968
 20
13.3566276135
 40
0.1345022554
100
AcDbArc
 50
294.6079454207
 51
301.3440803022
  0
ARC
  5
443
100
AcDbEntity
  8
0
100
AcDbCircle
 62
7
  6
CONTINUOUS
 10
16.2375538223
 20
13.3502395171
 40
0.1273519389
100
AcDbArc
 50
206.0117203913
 51
225.2409428035
  0
ARC
  5
444
100
AcDbEntity
  8
0
100
AcDbCircle
 62
7
  6
CONTINUOUS
 10
16.2375047769
 20
13.3499874673
 40
0.1272007561
100
AcDbArc
 50
194.5045135868
 51
199.1529156824
  0
ARC
  5
445
100
AcDbEntity
  8
0
100
AcDbCircle
 62
7
  6
CONTINUOUS
 10
16.2368334421
 20
13.349738695
 40
0.1264849632
100
AcDbArc
 50
199.1462372048
 51
205.950945846
  0
ARC
  5
446
100
AcDbEntity
  8
0
100
AcDbCircle
 62
7
  6
CONTINUOUS
 10
16.236018598
 20
13.3496160486
 40
0.1256689213
100
AcDbArc
 50
186.7726915542
 51
194.5102774254
  0
ARC
  5
447
100
AcDbEntity
  8
0
100
AcDbCircle
 62
7
  6
CONTINUOUS
 10
16.234676215
 20
13.3544091048
 40
0.12499886
100
AcDbArc
 50
201.5278196491
 51
189.0273203816
  0
CIRCLE
  5
448
100
AcDbEntity
  8
0
100
AcDbCircle
 62
7
  6
CONTINUOUS
 10
16.234676215
 20
13.3544091048
 40
0.1005
  0
CIRCLE
  5
449
100
AcDbEntity
  8
0
100
AcDbCircle
 62
6
  6
CONTINUOUS
 10
16.424526215
 20
13.3544091048
 40
0.02165
  0
ARC
  5
44A
100
AcDbEntity
  8
0
100
AcDbCircle
 62
7
  6
CONTINUOUS
 10
16.4207488675
 20
13.4798208306
 40
0.08
100
AcDbArc
 50
143.7140000004
 51
162.8401284536
  0
ARC
  5
44B
100
AcDbEntity
  8
0
100
AcDbCircle
 62
7
  6
CONTINUOUS
 10
16.4207488675
 20
13.4798208306
 40
0.04
100
AcDbArc
 50
143.714000002
 51
193.7139999976
  0
SPLINE
  5
44C
100
AcDbEntity
  8
0
100
AcDbSpline
 62
7
  6
CONTINUOUS
 70
0
 71
3
 72
9
 73
5
 74
3
 42
0.0000001
 43
0.0000001
 44
0.0000000001
 12
0.0049481357
 22
0.0372411446
 32
0.0
 13
-0.0000120546
 23
0.0375684276
 33
0.0
 40
0.0
 40
0.0
 40
0.0
 40
0.0
 40
0.4999980572
 40
1.0
 40
1.0
 40
1.0
 40
1.0
 10
16.5134299742
 20
13.3169454058
 30
0.0
 10
16.5142546603
 20
13.3231522391
 30
0.0
 10
16.5155226948
 20
13.3356206848
 30
0.0
 10
16.5159382231
 20
13.3481476759
 30
0.0
 10
16.515936214
 20
13.3544091048
 30
0.0
 11
16.5134299742
 21
13.3169454058
 31
0.0
 11
16.5153095649
 21
13.3356352726
 31
0.0
 11
16.515936214
 21
13.3544091048
 31
0.0
  0
SPLINE
  5
44D
100
AcDbEntity
  8
0
100
AcDbSpline
 62
7
  6
CONTINUOUS
 70
0
 71
3
 72
13
 73
9
 74
7
 42
0.0000001
 43
0.0000001
 44
0.0000000001
 12
0.2022310556
 22
0.1604787876
 32
0.0
 13
0.2444521417
 23
-0.0830300641
 33
0.0
 40
0.0
 40
0.0
 40
0.0
 40
0.0
 40
0.2497759054
 40
0.4995417399
 40
0.6246662633
 40
0.7497981065
 40
0.8749115
 40
1.0
 40
1.0
 40
1.0
 40
1.0
 10
16.0681239646
 20
13.5561898872
 30
0.0
 10
16.0849614463
 20
13.5695511321
 30
0.0
 10
16.1221002802
 20
13.5921970348
 30
0.0
 10
16.1740358799
 20
13.6081704456
 30
0.0
 10
16.2168922547
 20
13.6129841263
 30
0.0
 10
16.2492806198
 20
13.6125384478
 30
0.0
 10
16.2813507694
 20
13.6080741948
 30
0.0
 10
16.3021983212
 20
13.6024253011
 30
0.0
 10
16.3123910385
 20
13.5989632657
 30
0.0
 11
16.0681239646
 21
13.5561898872
 31
0.0
 11
16.1231995091
 21
13.5897293755
 31
0.0
 11
16.1848259825
 21
13.6087044996
 31
0.0
 11
16.2169275965
 21
13.6123075124
 31
0.0
 11
16.2492296813
 21
13.6118684967
 31
0.0
 11
16.281220173
 21
13.6074055232
 31
0.0
 11
16.3123910385
 21
13.5989632657
 31
0.0
  0
SPLINE
  5
44E
100
AcDbEntity
  8
0
100
AcDbSpline
 62
7
  6
CONTINUOUS
 70
0
 71
3
 72
13
 73
9
 74
7
 42
0.0000001
 43
0.0000001
 44
0.0000000001
 12
-0.224956602
 22
-0.2413309145
 32
0.0
 13
-0.3062424556
 23
0.1227258794
 33
0.0
 40
0.0
 40
0.0
 40
0.0
 40
0.0
 40
0.1251690763
 40
0.2503514566
 40
0.5000044033
 40
0.7496490014
 40
0.8748255821
 40
1.0
 40
1.0
 40
1.0
 40
1.0
 10
16.441640218
 20
13.1684415028
 30
0.0
 10
16.4322543479
 20
13.1583724469
 30
0.0
 10
16.4119406527
 20
13.1396043916
 30
0.0
 10
16.3663625875
 20
13.1085577438
 30
0.0
 10
16.3013998144
 20
13.0830760199
 30
0.0
 10
16.2317863183
 20
13.0780347525
 30
0.0
 10
16.1772892281
 20
13.0865089871
 30
0.0
 10
16.1509022881
 20
13.0948093149
 30
0.0
 10
16.138124381
 20
13.0999300284
 30
0.0
 11
16.441640218
 21
13.1684415028
 31
0.0
 11
16.4113150054
 21
13.1404110646
 31
0.0
 11
16.3771706206
 21
13.117176446
 31
0.0
 11
16.3004691742
 21
13.0871615542
 31
0.0
 11
16.2183235946
 21
13.0811903198
 31
0.0
 11
16.1775140218
 21
13.0875233473
 31
0.0
 11
16.138124381
 21
13.0999300284
 31
0.0
  0
SPLINE
  5
44F
100
AcDbEntity
  8
0
100
AcDbSpline
 62
7
  6
CONTINUOUS
 70
0
 71
3
 72
9
 73
5
 74
3
 42
0.0000001
 43
0.0000001
 44
0.0000000001
 12
0.0145922297
 22
-0.046031967
 32
0.0
 13
-0.0017602642
 23
-0.0482573997
 33
0.0
 40
0.0
 40
0.0
 40
0.0
 40
0.0
 40
0.5007830756
 40
1.0
 40
1.0
 40
1.0
 40
1.0
 10
16.3682066853
 20
13.4020778694
 30
0.0
 10
16.3706425326
 20
13.3943938593
 30
0.0
 10
16.3741929018
 20
13.3786042822
 30
0.0
 10
16.3750236328
 20
13.3624394084
 30
0.0
 10
16.3747307149
 20
13.3544091048
 30
0.0
 11
16.3682066853
 21
13.4020778694
 31
0.0
 11
16.3735164213
 21
13.378485435
 31
0.0
 11
16.3747307149
 21
13.3544091048
 31
0.0
  0
SPLINE
  5
450
100
AcDbEntity
  8
0
100
AcDbSpline
 62
7
  6
CONTINUOUS
 70
0
 71
3
 72
15
 73
11
 74
9
 42
0.0000001
 43
0.0000001
 44
0.0000000001
 12
-0.1444811796
 22
-0.0661789006
 32
0.0
 13
-0.1128469009
 23
0.1118929626
 33
0.0
 40
0.0
 40
0.0
 40
0.0
 40
0.0
 40
0.1250070893
 40
0.2500075243
 40
0.3750166942
 40
0.5000085196
 40
0.6250083258
 40
0.7500034119
 40
0.8750155457
 40
1.0
 40
1.0
 40
1.0
 40
1.0
 10
16.2952509607
 20
13.2343410717
 30
0.0
 10
16.2892305702
 20
13.2315834611
 30
0.0
 10
16.2767643995
 20
13.226946014
 30
0.0
 10
16.2572527455
 20
13.2228533095
 30
0.0
 10
16.2373458579
 20
13.2217105438
 30
0.0
 10
16.2174913734
 20
13.2235602071
 30
0.0
 10
16.1981463137
 20
13.2283938513
 30
0.0
 10
16.179748708
 20
13.2360925585
 30
0.0
 10
16.1627545262
 20
13.2465203798
 30
0.0
 10
16.1526056704
 20
13.2551237658
 30
0.0
 10
16.147904301
 20
13.2597853928
 30
0.0
 11
16.2952509607
 21
13.2343410717
 31
0.0
 11
16.2766287077
 21
13.2274231702
 31
0.0
 11
16.2571871976
 21
13.2233450162
 31
0.0
 11
16.2373536666
 21
13.2222092989
 31
0.0
 11
16.2175765706
 21
13.2240574787
 31
0.0
 11
16.1983041536
 21
13.2288713783
 31
0.0
 11
16.1799833029
 21
13.2365470746
 31
0.0
 11
16.1630485111
 21
13.2469341024
 31
0.0
 11
16.147904301
 21
13.2597853928
 31
0.0
  0
SPLINE
  5
451
100
AcDbEntity
  8
0
100
AcDbSpline
 62
7
  6
CONTINUOUS
 70
0
 71
3
 72
9
 73
5
 74
3
 42
0.0000001
 43
0.0000001
 44
0.0000000001
 12
0.0049481357
 22
0.0372411446
 32
0.0
 13
-0.0000120546
 23
0.0375684276
 33
0.0
 40
0.0
 40
0.0
 40
0.0
 40
0.0
 40
0.4999980572
 40
1.0
 40
1.0
 40
1.0
 40
1.0
 10
8.5134299742
 20
13.3169454058
 30
0.0
 10
8.5142546603
 20
13.3231522391
 30
0.0
 10
8.5155226948
 20
13.3356206848
 30
0.0
 10
8.5159382231
 20
13.3481476759
 30
0.0
 10
8.515936214
 20
13.3544091048
 30
0.0
 11
8.5134299742
 21
13.3169454058
 31
0.0
 11
8.5153095649
 21
13.3356352726
 31
0.0
 11
8.515936214
 21
13.3544091048
 31
0.0
  0
SPLINE
  5
452
100
AcDbEntity
  8
0
100
AcDbSpline
 62
7
  6
CONTINUOUS
 70
0
 71
3
 72
13
 73
9
 74
7
 42
0.0000001
 43
0.0000001
 44
0.0000000001
 12
0.2022310556
 22
0.1604787876
 32
0.0
 13
0.2444521417
 23
-0.0830300641
 33
0.0
 40
0.0
 40
0.0
 40
0.0
 40
0.0
 40
0.2497759054
 40
0.4995417399
 40
0.6246662633
 40
0.7497981065
 40
0.8749115
 40
1.0
 40
1.0
 40
1.0
 40
1.0
 10
8.0681239646
 20
13.5561898872
 30
0.0
 10
8.0849614463
 20
13.5695511321
 30
0.0
 10
8.1221002802
 20
13.5921970348
 30
0.0
 10
8.1740358799
 20
13.6081704456
 30
0.0
 10
8.2168922547
 20
13.6129841263
 30
0.0
 10
8.2492806198
 20
13.6125384478
 30
0.0
 10
8.2813507694
 20
13.6080741948
 30
0.0
 10
8.3021983212
 20
13.6024253011
 30
0.0
 10
8.3123910385
 20
13.5989632657
 30
0.0
 11
8.0681239646
 21
13.5561898872
 31
0.0
 11
8.1231995091
 21
13.5897293755
 31
0.0
 11
8.1848259825
 21
13.6087044996
 31
0.0
 11
8.2169275965
 21
13.6123075124
 31
0.0
 11
8.2492296813
 21
13.6118684967
 31
0.0
 11
8.281220173
 21
13.6074055232
 31
0.0
 11
8.3123910385
 21
13.5989632657
 31
0.0
  0
SPLINE
  5
453
100
AcDbEntity
  8
0
100
AcDbSpline
 62
7
  6
CONTINUOUS
 70
0
 71
3
 72
13
 73
9
 74
7
 42
0.0000001
 43
0.0000001
 44
0.0000000001
 12
-0.224956602
 22
-0.2413309145
 32
0.0
 13
-0.3062424556
 23
0.1227258794
 33
0.0
 40
0.0
 40
0.0
 40
0.0
 40
0.0
 40
0.1251690763
 40
0.2503514566
 40
0.5000044033
 40
0.7496490014
 40
0.8748255821
 40
1.0
 40
1.0
 40
1.0
 40
1.0
 10
8.441640218
 20
13.1684415028
 30
0.0
 10
8.4322543479
 20
13.1583724469
 30
0.0
 10
8.4119406527
 20
13.1396043916
 30
0.0
 10
8.3663625875
 20
13.1085577438
 30
0.0
 10
8.3013998144
 20
13.0830760199
 30
0.0
 10
8.2317863183
 20
13.0780347525
 30
0.0
 10
8.1772892281
 20
13.0865089871
 30
0.0
 10
8.1509022881
 20
13.0948093149
 30
0.0
 10
8.138124381
 20
13.0999300284
 30
0.0
 11
8.441640218
 21
13.1684415028
 31
0.0
 11
8.4113150054
 21
13.1404110646
 31
0.0
 11
8.3771706206
 21
13.117176446
 31
0.0
 11
8.3004691742
 21
13.0871615542
 31
0.0
 11
8.2183235946
 21
13.0811903198
 31
0.0
 11
8.1775140218
 21
13.0875233473
 31
0.0
 11
8.138124381
 21
13.0999300284
 31
0.0
  0
SPLINE
  5
454
100
AcDbEntity
  8
0
100
AcDbSpline
 62
7
  6
CONTINUOUS
 70
0
 71
3
 72
13
 73
9
 74
7
 42
0.0000001
 43
0.0000001
 44
0.0000000001
 12
0.314721111
 22
0.0
 32
0.0
 13
0.2677264256
 23
0.1654446698
 33
0.0
 40
0.0
 40
0.0
 40
0.0
 40
0.0
 40
0.2503419694
 40
0.500763986
 40
0.6258192128
 40
0.7507068134
 40
0.8754325104
 40
1.0
 40
1.0
 40
1.0
 40
1.0
 10
12.234676215
 20
1.4959557989
 30
0.0
 10
12.2609388493
 20
1.4959557989
 30
0.0
 10
12.3135370963
 20
1.4995917391
 30
0.0
 10
12.3780141251
 20
1.5130640895
 30
0.0
 10
12.4280360557
 20
1.529094608
 30
0.0
 10
12.4645795949
 20
1.5436572722
 30
0.0
 10
12.4999751561
 20
1.5606984888
 30
0.0
 10
12.5227106406
 20
1.5736745612
 30
0.0
 10
12.5338273101
 20
1.5805442369
 30
0.0
 11
12.234676215
 21
1.4959557989
 31
0.0
 11
12.3132774105
 21
1.5013766565
 31
0.0
 11
12.39041982
 21
1.5175182994
 31
0.0
 11
12.4279004403
 21
1.5295273577
 31
0.0
 11
12.4644116299
 21
1.5440806232
 31
0.0
 11
12.4997782637
 21
1.5611118537
 31
0.0
 11
12.5338273101
 21
1.5805442369
 31
0.0
  0
SPLINE
  5
455
100
AcDbEntity
  8
0
100
AcDbSpline
 62
7
  6
CONTINUOUS
 70
0
 71
3
 72
20
 73
16
 74
14
 42
0.0000001
 43
0.0000001
 44
0.0000000001
 12
0.5993187171
 22
0.6206211596
 32
0.0
 13
-0.6459099184
 23
0.5719737107
 33
0.0
 40
0.0
 40
0.0
 40
0.0
 40
0.0
 40
0.0628750962
 40
0.1256072528
 40
0.2505381454
 40
0.3129291515
 40
0.3752486321
 40
0.4375214112
 40
0.4997785787
 40
0.5620457391
 40
0.6243533006
 40
0.6867278416
 40
0.7491924105
 40
0.8743171206
 40
1.0
 40
1.0
 40
1.0
 40
1.0
 10
12.6412062762
 20
1.6669616973
 30
0.0
 10
12.6537670169
 20
1.6799689023
 30
0.0
 10
12.6775975239
 20
1.7072163126
 30
0.0
 10
12.7194442814
 20
1.7659724883
 30
0.0
 10
12.7521901995
 20
1.8306555896
 30
0.0
 10
12.7745362911
 20
1.8989812744
 30
0.0
 10
12.7860269286
 20
1.9516138685
 30
0.0
 10
12.7920816034
 20
2.0050999569
 30
0.0
 10
12.7926569427
 20
2.0589103358
 30
0.0
 10
12.7877566854
 20
2.1125109814
 30
0.0
 10
12.7773989909
 20
2.1653617423
 30
0.0
 10
12.7617313334
 20
2.2169518538
 30
0.0
 10
12.7339285074
 20
2.2833581252
 30
0.0
 10
12.6866895807
 20
2.3608164243
 30
0.0
 10
12.6372609442
 20
2.4140950786
 30
0.0
 10
12.6102010048
 20
2.4380575129
 30
0.0
 11
12.6412062762
 21
1.6669616973
 31
0.0
 11
12.6769103591
 21
1.707801075
 31
0.0
 11
12.7082989444
 21
1.7518922158
 31
0.0
 11
12.7569271215
 21
1.8480845651
 31
0.0
 11
12.7736668453
 21
1.8992439268
 31
0.0
 11
12.7851243085
 21
1.9517756844
 31
0.0
 11
12.791168951
 21
2.0051609838
 31
0.0
 11
12.7917446628
 21
2.0588708464
 31
0.0
 11
12.7868496985
 21
2.1123689431
 31
0.0
 11
12.7765210617
 21
2.165123778
 31
0.0
 11
12.7608815647
 21
2.2166152886
 31
0.0
 11
12.7400750963
 21
2.2663287294
 31
0.0
 11
12.6838844352
 21
2.3585043904
 31
0.0
 11
12.6102010048
 21
2.4380575129
 31
0.0
  0
SPLINE
  5
456
100
AcDbEntity
  8
0
100
AcDbSpline
 62
7
  6
CONTINUOUS
 70
0
 71
3
 72
20
 73
16
 74
14
 42
0.0000001
 43
0.0000001
 44
0.0000000001
 12
-0.6457588743
 22
-0.5719653268
 32
0.0
 13
0.5991656913
 23
-0.6206040067
 33
0.0
 40
0.0
 40
0.0
 40
0.0
 40
0.0
 40
0.1256814158
 40
0.2508050103
 40
0.313269107
 40
0.3756433615
 40
0.4379506908
 40
0.5002178626
 40
0.5624751199
 40
0.6247481093
 40
0.6870679836
 40
0.7494594004
 40
0.8743914981
 40
0.9371242515
 40
1.0
 40
1.0
 40
1.0
 40
1.0
 10
11.859108066
 20
2.4380190934
 30
0.0
 10
11.8320547694
 20
2.4140572894
 30
0.0
 10
11.7826382558
 20
2.3607823226
 30
0.0
 10
11.735410971
 20
2.2833326944
 30
0.0
 10
11.7076154345
 20
2.216934728
 30
0.0
 10
11.6919511419
 20
2.1653516913
 30
0.0
 10
11.6815954051
 20
2.1125082363
 30
0.0
 10
11.6766962506
 20
2.0589150103
 30
0.0
 10
11.6772699405
 20
2.00511194
 30
0.0
 10
11.6833229503
 20
1.9516329272
 30
0.0
 10
11.6948093236
 20
1.8990067309
 30
0.0
 10
11.7171488783
 20
1.8306887133
 30
0.0
 10
11.7498853422
 20
1.7660114344
 30
0.0
 10
11.7917216115
 20
1.7072591173
 30
0.0
 10
11.8155460775
 20
1.6800125968
 30
0.0
 10
11.8281037413
 20
1.6670056163
 30
0.0
 11
11.859108066
 21
2.4380190934
 31
0.0
 11
11.7854427893
 21
2.3584712012
 31
0.0
 11
11.7292660701
 21
2.2663055532
 31
0.0
 11
11.7084648813
 21
2.2165983775
 31
0.0
 11
11.6928288472
 21
2.1651138069
 31
0.0
 11
11.6825022625
 21
2.1123663066
 31
0.0
 11
11.6776080739
 21
2.0588755468
 31
0.0
 11
11.678182587
 21
2.00517298
 31
0.0
 11
11.6842251275
 21
1.9517946949
 31
0.0
 11
11.6956786581
 21
1.899269299
 31
0.0
 11
11.7124133211
 21
1.8481156965
 31
0.0
 11
11.7610279873
 21
1.7519319597
 31
0.0
 11
11.7924085766
 21
1.7078436301
 31
0.0
 11
11.8281037413
 21
1.6670056163
 31
0.0
  0
SPLINE
  5
457
100
AcDbEntity
  8
0
100
AcDbSpline
 62
7
  6
CONTINUOUS
 70
0
 71
3
 72
13
 73
9
 74
7
 42
0.0000001
 43
0.0000001
 44
0.0000000001
 12
0.267737313
 22
-0.1654655525
 32
0.0
 13
0.3147413507
 23
-0.0
 33
0.0
 40
0.0
 40
0.0
 40
0.0
 40
0.0
 40
0.1245678127
 40
0.2492938122
 40
0.3741817672
 40
0.4992372828
 40
0.7496591577
 40
1.0
 40
1.0
 40
1.0
 40
1.0
 10
11.9355078794
 20
1.5805549006
 30
0.0
 10
11.9466250299
 20
1.57368434
 30
0.0
 10
11.9693615854
 20
1.5607066036
 30
0.0
 10
12.0047590586
 20
1.5436632875
 30
0.0
 10
12.0413046869
 20
1.529098756
 30
0.0
 10
12.0913295727
 20
1.513066198
 30
0.0
 10
12.1558105082
 20
1.4995922019
 30
0.0
 10
12.2084120101
 20
1.4959557989
 30
0.0
 10
12.234676215
 20
1.4959557989
 30
0.0
 11
11.9355078794
 21
1.5805549006
 31
0.0
 11
11.9695585291
 21
1.5611200351
 31
0.0
 11
12.0049270475
 21
1.5440866805
 31
0.0
 11
12.041440338
 21
1.5295315578
 31
0.0
 11
12.0789232184
 21
1.5175209605
 31
0.0
 11
12.1560703418
 21
1.5013773159
 31
0.0
 11
12.234676215
 21
1.4959557989
 31
0.0
  0
SPLINE
  5
458
100
AcDbEntity
  8
0
100
AcDbSpline
 62
7
  6
CONTINUOUS
 70
0
 71
3
 72
9
 73
5
 74
3
 42
0.0000001
 43
0.0000001
 44
0.0000000001
 12
-0.0145922297
 22
0.046031967
 32
0.0
 13
0.0017602642
 23
0.0482573997
 33
0.0
 40
0.0
 40
0.0
 40
0.0
 40
0.0
 40
0.5007830756
 40
1.0
 40
1.0
 40
1.0
 40
1.0
 10
8.1011457447
 20
13.3067403403
 30
0.0
 10
8.0987098975
 20
13.3144243503
 30
0.0
 10
8.0951595283
 20
13.3302139275
 30
0.0
 10
8.0943287973
 20
13.3463788013
 30
0.0
 10
8.0946217152
 20
13.3544091048
 30
0.0
 11
8.1011457447
 21
13.3067403403
 31
0.0
 11
8.0958360088
 21
13.3303327747
 31
0.0
 11
8.0946217152
 21
13.3544091048
 31
0.0
  0
SPLINE
  5
459
100
AcDbEntity
  8
0
100
AcDbSpline
 62
7
  6
CONTINUOUS
 70
0
 71
3
 72
15
 73
11
 74
9
 42
0.0000001
 43
0.0000001
 44
0.0000000001
 12
0.1444811796
 22
0.0661789006
 32
0.0
 13
0.1128469009
 23
-0.1118929626
 33
0.0
 40
0.0
 40
0.0
 40
0.0
 40
0.0
 40
0.1250070893
 40
0.2500075243
 40
0.3750166942
 40
0.5000085196
 40
0.6250083258
 40
0.7500034119
 40
0.8750155457
 40
1.0
 40
1.0
 40
1.0
 40
1.0
 10
8.1741014693
 20
13.474477138
 30
0.0
 10
8.1801218599
 20
13.4772347486
 30
0.0
 10
8.1925880305
 20
13.4818721957
 30
0.0
 10
8.2120996846
 20
13.4859649002
 30
0.0
 10
8.2320065722
 20
13.4871076659
 30
0.0
 10
8.2518610567
 20
13.4852580026
 30
0.0
 10
8.2712061164
 20
13.4804243584
 30
0.0
 10
8.2896037221
 20
13.4727256512
 30
0.0
 10
8.3065979039
 20
13.4622978299
 30
0.0
 10
8.3167467597
 20
13.4536944439
 30
0.0
 10
8.3214481291
 20
13.4490328169
 30
0.0
 11
8.1741014693
 21
13.474477138
 31
0.0
 11
8.1927237223
 21
13.4813950395
 31
0.0
 11
8.2121652324
 21
13.4854731935
 31
0.0
 11
8.2319987634
 21
13.4866089108
 31
0.0
 11
8.2517758595
 21
13.484760731
 31
0.0
 11
8.2710482765
 21
13.4799468314
 31
0.0
 11
8.2893691272
 21
13.4722711351
 31
0.0
 11
8.306303919
 21
13.4618841073
 31
0.0
 11
8.3214481291
 21
13.4490328169
 31
0.0
  0
SPLINE
  5
45A
100
AcDbEntity
  8
0
100
AcDbSpline
 62
9
  6
CONTINUOUS
 70
0
 71
3
 72
18
 73
14
 74
12
 42
0.0000001
 43
0.0000001
 44
0.0000000001
 12
0.3736482169
 22
-0.5084121674
 32
0.0
 13
-0.4539686112
 23
-0.4381876562
 33
0.0
 40
0.0
 40
0.0
 40
0.0
 40
0.0
 40
0.062852026
 40
0.1255348109
 40
0.2503503182
 40
0.374770662
 40
0.4369743786
 40
0.4991765724
 40
0.6235865984
 40
0.7483821025
 40
0.8110525079
 40
0.8738905041
 40
1.0
 40
1.0
 40
1.0
 40
1.0
 10
12.612645455
 20
2.3211176537
 30
0.0
 10
12.6204736375
 20
2.3104660754
 30
0.0
 10
12.6351792783
 20
2.2884865032
 30
0.0
 10
12.6604524741
 20
2.2422335755
 30
0.0
 10
12.6840902534
 20
2.1806315535
 30
0.0
 10
12.6961951585
 20
2.115870551
 30
0.0
 10
12.6987698154
 20
2.0635385627
 30
0.0
 10
12.696569901
 20
2.0111918071
 30
0.0
 10
12.684927277
 20
1.9463516219
 30
0.0
 10
12.6617320983
 20
1.8845954217
 30
0.0
 10
12.6367843934
 20
1.8381673358
 30
0.0
 10
12.6076420044
 20
1.7939342074
 30
0.0
 10
12.5813986002
 20
1.7637339756
 30
0.0
 10
12.5623153493
 20
1.7453141007
 30
0.0
 11
12.612645455
 21
2.3211176537
 31
0.0
 11
12.6346895488
 21
2.2881527182
 31
0.0
 11
12.6536526537
 21
2.2534457753
 31
0.0
 11
12.6818128093
 21
2.1799005068
 31
0.0
 11
12.6962476098
 21
2.1027362056
 31
0.0
 11
12.6981730183
 21
2.0635361253
 31
0.0
 11
12.6965280664
 21
2.0243242367
 31
0.0
 11
12.6826445319
 21
1.9470654621
 31
0.0
 11
12.6550101251
 21
1.8733345138
 31
0.0
 11
12.6362956982
 21
1.8385017176
 31
0.0
 11
12.6144879415
 21
1.8053905596
 31
0.0
 11
12.5623153493
 21
1.7453141007
 31
0.0
  0
SPLINE
  5
45B
100
AcDbEntity
  8
0
100
AcDbSpline
 62
9
  6
CONTINUOUS
 70
0
 71
3
 72
10
 73
6
 74
4
 42
0.0000001
 43
0.0000001
 44
0.0000000001
 12
-0.1299530132
 22
-0.1254355585
 32
0.0
 13
-0.1678096532
 23
-0.0667965961
 33
0.0
 40
0.0
 40
0.0
 40
0.0
 40
0.0
 40
0.4982182553
 40
0.7487667525
 40
1.0
 40
1.0
 40
1.0
 40
1.0
 10
12.5623153493
 20
1.7453141007
 30
0.0
 10
12.5407336948
 20
1.7244826724
 30
0.0
 10
12.5050638395
 20
1.6962993894
 30
0.0
 10
12.4528723299
 20
1.6661729673
 30
0.0
 10
12.4253160256
 20
1.6536446892
 30
0.0
 10
12.4112629042
 20
1.6480508472
 30
0.0
 11
12.5623153493
 21
1.7453141007
 31
0.0
 11
12.4917558389
 21
1.6894678702
 31
0.0
 11
12.4525671112
 21
1.666838984
 31
0.0
 11
12.4112629042
 21
1.6480508472
 31
0.0
  0
SPLINE
  5
45C
100
AcDbEntity
  8
0
100
AcDbSpline
 62
9
  6
CONTINUOUS
 70
0
 71
3
 72
13
 73
9
 74
7
 42
0.0000001
 43
0.0000001
 44
0.0000000001
 12
-0.3577803455
 22
0.0026808292
 32
0.0
 13
-0.2574156185
 23
0.2484978104
 33
0.0
 40
0.0
 40
0.0
 40
0.0
 40
0.0
 40
0.2512491072
 40
0.3769272255
 40
0.5022906923
 40
0.6273230766
 40
0.7520192563
 40
1.0
 40
1.0
 40
1.0
 40
1.0
 10
12.2311183138
 20
1.6142981226
 30
0.0
 10
12.2011543163
 20
1.6145226412
 30
0.0
 10
12.1560857677
 20
1.6191129603
 30
0.0
 10
12.097868885
 20
1.6334886133
 30
0.0
 10
12.0554714478
 20
1.6483393391
 30
0.0
 10
12.0147717171
 20
1.6670790572
 30
0.0
 10
11.9634142106
 20
1.6969617536
 30
0.0
 10
11.9282949586
 20
1.7247926721
 30
0.0
 10
11.9070169198
 20
1.7453335627
 30
0.0
 11
12.2311183138
 21
1.6142981226
 31
0.0
 11
12.141685345
 21
1.6233958178
 31
0.0
 11
12.0980316017
 21
1.6341814509
 31
0.0
 11
12.0556996782
 21
1.6490096514
 31
0.0
 11
12.01506816
 21
1.6677268745
 31
0.0
 11
11.9765091977
 21
1.690170428
 31
0.0
 11
11.9070169198
 21
1.7453335627
 31
0.0
  0
SPLINE
  5
45D
100
AcDbEntity
  8
0
100
AcDbSpline
 62
9
  6
CONTINUOUS
 70
0
 71
3
 72
18
 73
14
 74
12
 42
0.0000001
 43
0.0000001
 44
0.0000000001
 12
-0.4539226081
 22
0.4381970872
 32
0.0
 13
0.373634155
 23
0.5083895549
 33
0.0
 40
0.0
 40
0.0
 40
0.0
 40
0.0
 40
0.126109316
 40
0.1889472362
 40
0.251617582
 40
0.3764130327
 40
0.5008230723
 40
0.5630252906
 40
0.6252290413
 40
0.7496494883
 40
0.8744651032
 40
0.937147935
 40
1.0
 40
1.0
 40
1.0
 40
1.0
 10
11.9070169198
 20
1.7453335627
 30
0.0
 10
11.8879356299
 20
1.7637538077
 30
0.0
 10
11.8616951377
 20
1.793954241
 30
0.0
 10
11.8325563638
 20
1.8381869977
 30
0.0
 10
11.8076120375
 20
1.8846143306
 30
0.0
 10
11.7844205983
 20
1.9463689163
 30
0.0
 10
11.7727808849
 20
2.0112067724
 30
0.0
 10
11.7705827097
 20
2.0635514044
 30
0.0
 10
11.7731587118
 20
2.1158811481
 30
0.0
 10
11.7852645401
 20
2.1806391782
 30
0.0
 10
11.8089022244
 20
2.2422382865
 30
0.0
 10
11.8341747723
 20
2.2884890818
 30
0.0
 10
11.8488799097
 20
2.3104676697
 30
0.0
 10
11.8567078024
 20
2.3211187808
 30
0.0
 11
11.9070169198
 21
1.7453335627
 31
0.0
 11
11.854850091
 21
1.8054104419
 31
0.0
 11
11.8330450375
 21
1.8385213252
 31
0.0
 11
11.8143331462
 21
1.8733535523
 31
0.0
 11
11.7867031876
 21
1.9470825936
 31
0.0
 11
11.7728231062
 21
2.0243386416
 31
0.0
 11
11.7711794575
 21
2.0635489475
 31
0.0
 11
11.7731058729
 21
2.1027473464
 31
0.0
 11
11.7875417797
 21
2.1799081464
 31
0.0
 11
11.8157018374
 21
2.2534499769
 31
0.0
 11
11.8346644588
 21
2.2881553214
 31
0.0
 11
11.8567078024
 21
2.3211187808
 31
0.0
  0
SPLINE
  5
45E
100
AcDbEntity
  8
0
100
AcDbSpline
 62
7
  6
CONTINUOUS
 70
0
 71
3
 72
9
 73
5
 74
3
 42
0.0000001
 43
0.0000001
 44
0.0000000001
 12
0.0331736578
 22
0.0337725675
 32
0.0
 13
0.018686023
 23
0.0434960967
 33
0.0
 40
0.0
 40
0.0
 40
0.0
 40
0.0
 40
0.4989898665
 40
1.0
 40
1.0
 40
1.0
 40
1.0
 10
8.3358031065
 20
13.2809356279
 30
0.0
 10
8.3413208796
 20
13.2865530175
 30
0.0
 10
8.3513154956
 20
13.2988980626
 30
0.0
 10
8.3588940956
 20
13.3128510561
 30
0.0
 10
8.3620147246
 20
13.3201150512
 30
0.0
 11
8.3358031065
 21
13.2809356279
 31
0.0
 11
8.3506937378
 21
13.2992734868
 31
0.0
 11
8.3620147246
 21
13.3201150512
 31
0.0
  0
SPLINE
  5
45F
100
AcDbEntity
  8
0
100
AcDbSpline
 62
7
  6
CONTINUOUS
 70
0
 71
3
 72
9
 73
5
 74
3
 42
0.0000001
 43
0.0000001
 44
0.0000000001
 12
0.019449962
 22
0.0452743437
 32
0.0
 13
0.0018054886
 23
0.0492423338
 33
0.0
 40
0.0
 40
0.0
 40
0.0
 40
0.0
 40
0.5000341168
 40
1.0
 40
1.0
 40
1.0
 40
1.0
 10
8.3620147246
 20
13.3201150512
 30
0.0
 10
8.3652566061
 20
13.32766129
 30
0.0
 10
8.370300953
 20
13.3434073808
 30
0.0
 10
8.3723855701
 20
13.3598008217
 30
0.0
 10
8.3726864643
 20
13.3680073174
 30
0.0
 11
8.3620147246
 21
13.3201150512
 31
0.0
 11
8.3695612637
 21
13.3435703148
 31
0.0
 11
8.3726864643
 21
13.3680073174
 31
0.0
  0
SPLINE
  5
460
100
AcDbEntity
  8
0
100
AcDbSpline
 62
7
  6
CONTINUOUS
 70
0
 71
3
 72
9
 73
5
 74
3
 42
0.0000001
 43
0.0000001
 44
0.0000000001
 12
-0.0120659414
 22
0.0355746196
 32
0.0
 13
-0.0206647521
 23
0.0313705041
 33
0.0
 40
0.0
 40
0.0
 40
0.0
 40
0.0
 40
0.2503013033
 40
1.0
 40
1.0
 40
1.0
 40
1.0
 10
8.365256186
 20
13.4183702431
 30
0.0
 10
8.364249479
 20
13.4213383677
 30
0.0
 10
8.3598376743
 20
13.4330614034
 30
0.0
 10
8.3539096894
 20
13.4442086948
 30
0.0
 10
8.3487455768
 20
13.4520481702
 30
0.0
 11
8.365256186
 21
13.4183702431
 31
0.0
 11
8.3619459282
 21
13.4271708791
 31
0.0
 11
8.3487455768
 21
13.4520481702
 31
0.0
  0
SPLINE
  5
461
100
AcDbEntity
  8
0
100
AcDbSpline
 62
7
  6
CONTINUOUS
 70
0
 71
3
 72
13
 73
9
 74
7
 42
0.0000001
 43
0.0000001
 44
0.0000000001
 12
0.0169187111
 22
0.2270256637
 32
0.0
 13
-0.1628203436
 23
0.1591113775
 33
0.0
 40
0.0
 40
0.0
 40
0.0
 40
0.0
 40
0.2496767727
 40
0.3748891645
 40
0.4999914216
 40
0.6250549502
 40
0.7501324847
 40
1.0
 40
1.0
 40
1.0
 40
1.0
 10
8.488876215
 20
13.3544081673
 30
0.0
 10
8.4902842848
 20
13.3733025123
 30
0.0
 10
8.4891565091
 20
13.4020400007
 30
0.0
 10
8.4814598744
 20
13.4392446757
 30
0.0
 10
8.4726402718
 20
13.466394583
 30
0.0
 10
8.4609367508
 20
13.492418358
 30
0.0
 10
8.4416975545
 20
13.5251812537
 30
0.0
 10
8.4233792471
 20
13.5473205084
 30
0.0
 10
8.4098180755
 20
13.5605727633
 30
0.0
 11
8.488876215
 21
13.3544081673
 31
0.0
 11
8.4867226024
 21
13.4112075718
 31
0.0
 11
8.4809507385
 21
13.4391223539
 31
0.0
 11
8.4721580248
 21
13.4662112608
 31
0.0
 11
8.4604814454
 21
13.4921780868
 31
0.0
 11
8.446066163
 21
13.5167341404
 31
0.0
 11
8.4098180755
 21
13.5605727633
 31
0.0
  0
SPLINE
  5
462
100
AcDbEntity
  8
0
100
AcDbSpline
 62
7
  6
CONTINUOUS
 70
0
 71
3
 72
13
 73
9
 74
7
 42
0.0000001
 43
0.0000001
 44
0.0000000001
 12
0.0169187111
 22
0.2270256637
 32
0.0
 13
-0.1628203436
 23
0.1591113775
 33
0.0
 40
0.0
 40
0.0
 40
0.0
 40
0.0
 40
0.2496767727
 40
0.3748891645
 40
0.4999914216
 40
0.6250549502
 40
0.7501324847
 40
1.0
 40
1.0
 40
1.0
 40
1.0
 10
16.488876215
 20
13.3544081673
 30
0.0
 10
16.4902842848
 20
13.3733025123
 30
0.0
 10
16.4891565091
 20
13.4020400007
 30
0.0
 10
16.4814598744
 20
13.4392446757
 30
0.0
 10
16.4726402718
 20
13.466394583
 30
0.0
 10
16.4609367508
 20
13.492418358
 30
0.0
 10
16.4416975545
 20
13.5251812537
 30
0.0
 10
16.4233792471
 20
13.5473205084
 30
0.0
 10
16.4098180755
 20
13.5605727633
 30
0.0
 11
16.488876215
 21
13.3544081673
 31
0.0
 11
16.4867226024
 21
13.4112075718
 31
0.0
 11
16.4809507385
 21
13.4391223539
 31
0.0
 11
16.4721580248
 21
13.4662112608
 31
0.0
 11
16.4604814454
 21
13.4921780868
 31
0.0
 11
16.446066163
 21
13.5167341404
 31
0.0
 11
16.4098180755
 21
13.5605727633
 31
0.0
  0
SPLINE
  5
463
100
AcDbEntity
  8
0
100
AcDbSpline
 62
7
  6
CONTINUOUS
 70
0
 71
3
 72
9
 73
5
 74
3
 42
0.0000001
 43
0.0000001
 44
0.0000000001
 12
-0.0331736578
 22
-0.0337725675
 32
0.0
 13
-0.018686023
 23
-0.0434960967
 33
0.0
 40
0.0
 40
0.0
 40
0.0
 40
0.0
 40
0.4989898665
 40
1.0
 40
1.0
 40
1.0
 40
1.0
 10
16.1335493235
 20
13.4278825818
 30
0.0
 10
16.1280315505
 20
13.4222651921
 30
0.0
 10
16.1180369345
 20
13.4099201471
 30
0.0
 10
16.1104583345
 20
13.3959671536
 30
0.0
 10
16.1073377055
 20
13.3887031585
 30
0.0
 11
16.1335493235
 21
13.4278825818
 31
0.0
 11
16.1186586922
 21
13.4095447229
 31
0.0
 11
16.1073377055
 21
13.3887031585
 31
0.0
  0
SPLINE
  5
464
100
AcDbEntity
  8
0
100
AcDbSpline
 62
7
  6
CONTINUOUS
 70
0
 71
3
 72
9
 73
5
 74
3
 42
0.0000001
 43
0.0000001
 44
0.0000000001
 12
-0.019449962
 22
-0.0452743437
 32
0.0
 13
-0.0018054886
 23
-0.0492423338
 33
0.0
 40
0.0
 40
0.0
 40
0.0
 40
0.0
 40
0.5000341168
 40
1.0
 40
1.0
 40
1.0
 40
1.0
 10
16.1073377055
 20
13.3887031585
 30
0.0
 10
16.104095824
 20
13.3811569197
 30
0.0
 10
16.0990514771
 20
13.3654108289
 30
0.0
 10
16.09696686
 20
13.349017388
 30
0.0
 10
16.0966659658
 20
13.3408108923
 30
0.0
 11
16.1073377055
 21
13.3887031585
 31
0.0
 11
16.0997911664
 21
13.3652478948
 31
0.0
 11
16.0966659658
 21
13.3408108923
 31
0.0
  0
SPLINE
  5
465
100
AcDbEntity
  8
0
100
AcDbSpline
 62
7
  6
CONTINUOUS
 70
0
 71
3
 72
9
 73
5
 74
3
 42
0.0000001
 43
0.0000001
 44
0.0000000001
 12
0.0120659414
 22
-0.0355746196
 32
0.0
 13
0.0206647521
 23
-0.0313705041
 33
0.0
 40
0.0
 40
0.0
 40
0.0
 40
0.0
 40
0.2503013033
 40
1.0
 40
1.0
 40
1.0
 40
1.0
 10
16.1040962441
 20
13.2904479666
 30
0.0
 10
16.1051029511
 20
13.287479842
 30
0.0
 10
16.1095147558
 20
13.2757568063
 30
0.0
 10
16.1154427407
 20
13.2646095149
 30
0.0
 10
16.1206068533
 20
13.2567700395
 30
0.0
 11
16.1040962441
 21
13.2904479666
 31
0.0
 11
16.1074065018
 21
13.2816473306
 31
0.0
 11
16.1206068533
 21
13.2567700395
 31
0.0
  0
SPLINE
  5
466
100
AcDbEntity
  8
0
100
AcDbSpline
 62
6
  6
CONTINUOUS
 70
0
 71
3
 72
9
 73
5
 74
3
 42
0.0000001
 43
0.0000001
 44
0.0000000001
 12
0.1495119014
 22
0.0872060241
 32
0.0
 13
0.0938147992
 23
0.1454561196
 33
0.0
 40
0.0
 40
0.0
 40
0.0
 40
0.0
 40
0.5019513453
 40
1.0
 40
1.0
 40
1.0
 40
1.0
 10
12.4285386183
 20
1.7519271602
 30
0.0
 10
12.4535545183
 20
1.7665182206
 30
0.0
 10
12.5002045418
 20
1.8014589602
 30
0.0
 10
12.5374131585
 20
1.846351216
 30
0.0
 10
12.5529879367
 20
1.8704992909
 30
0.0
 11
12.4285386183
 21
1.7519271602
 31
0.0
 11
12.4980077913
 21
1.8041026589
 31
0.0
 11
12.5529879367
 21
1.8704992909
 31
0.0
  0
SPLINE
  5
467
100
AcDbEntity
  8
0
100
AcDbSpline
 62
9
  6
CONTINUOUS
 70
0
 71
3
 72
20
 73
16
 74
14
 42
0.0000001
 43
0.0000001
 44
0.0000000001
 12
0.0000461711
 22
0.5181888051
 32
0.0
 13
-0.5181888071
 23
0.0
 33
0.0
 40
0.0
 40
0.0
 40
0.0
 40
0.0
 40
0.0534198023
 40
0.1072280306
 40
0.1617988908
 40
0.217466266
 40
0.3329240288
 40
0.3931759121
 40
0.4551422748
 40
0.5839849866
 40
0.6508109785
 40
0.7189843971
 40
0.7882984878
 40
0.8585060372
 40
1.0
 40
1.0
 40
1.0
 40
1.0
 10
12.6096701244
 20
7.3272509111
 30
0.0
 10
12.6096709465
 20
7.3364780923
 30
0.0
 10
12.6084639479
 20
7.3550227166
 30
0.0
 10
12.6030214261
 20
7.3825096235
 30
0.0
 10
12.5940215459
 20
7.4094594161
 30
0.0
 10
12.5772061
 20
7.4447193757
 30
0.0
 10
12.5536269341
 20
7.4774770629
 30
0.0
 10
12.5247388755
 20
7.5067144372
 30
0.0
 10
12.4912789178
 20
7.5344011281
 30
0.0
 10
12.4530740554
 20
7.5577671824
 30
0.0
 10
12.4114762939
 20
7.5764675118
 30
0.0
 10
12.3781829817
 20
7.5882938012
 30
0.0
 10
12.3435003946
 20
7.5976157869
 30
0.0
 10
12.2957601411
 20
7.6065648146
 30
0.0
 10
12.259116411
 20
7.6092746399
 30
0.0
 10
12.234676215
 20
7.6092746399
 30
0.0
 11
12.6096701244
 21
7.3272509111
 31
0.0
 11
12.607872686
 21
7.3548740368
 31
0.0
 11
12.6024800789
 21
7.3822304169
 31
0.0
 11
12.5935510642
 21
7.4090617136
 31
0.0
 11
12.5811645381
 21
7.4351131598
 31
0.0
 11
12.5465113072
 21
7.4838845992
 31
0.0
 11
12.5245988285
 21
7.5061252666
 31
0.0
 11
12.4998896235
 21
7.5266319726
 31
0.0
 11
12.4430825308
 21
7.5617104498
 31
0.0
 11
12.4115137233
 21
7.5759421781
 31
0.0
 11
12.3782324263
 21
7.5877883244
 31
0.0
 11
12.3435498438
 21
7.5971267299
 31
0.0
 11
12.3077959483
 21
7.6038512454
 31
0.0
 11
12.234676215
 21
7.6092746399
 31
0.0
  0
SPLINE
  5
468
100
AcDbEntity
  8
0
100
AcDbSpline
 62
9
  6
CONTINUOUS
 70
0
 71
3
 72
20
 73
16
 74
14
 42
0.0000001
 43
0.0000001
 44
0.0000000001
 12
-0.0000461711
 22
0.5181888051
 32
0.0
 13
0.5181888071
 23
-0.0
 33
0.0
 40
0.0
 40
0.0
 40
0.0
 40
0.0
 40
0.0534198023
 40
0.1072280306
 40
0.1617988908
 40
0.217466266
 40
0.3329240288
 40
0.3931759121
 40
0.4551422748
 40
0.5839849866
 40
0.6508109785
 40
0.7189843971
 40
0.7882984878
 40
0.8585060372
 40
1.0
 40
1.0
 40
1.0
 40
1.0
 10
11.8596823057
 20
7.3272509111
 30
0.0
 10
11.8596814836
 20
7.3364780923
 30
0.0
 10
11.8608884822
 20
7.3550227166
 30
0.0
 10
11.866331004
 20
7.3825096235
 30
0.0
 10
11.8753308842
 20
7.4094594161
 30
0.0
 10
11.89214633
 20
7.4447193757
 30
0.0
 10
11.915725496
 20
7.4774770629
 30
0.0
 10
11.9446135546
 20
7.5067144372
 30
0.0
 10
11.9780735123
 20
7.5344011281
 30
0.0
 10
12.0162783747
 20
7.5577671824
 30
0.0
 10
12.0578761362
 20
7.5764675118
 30
0.0
 10
12.0911694484
 20
7.5882938012
 30
0.0
 10
12.1258520355
 20
7.5976157869
 30
0.0
 10
12.173592289
 20
7.6065648146
 30
0.0
 10
12.2102360191
 20
7.6092746399
 30
0.0
 10
12.234676215
 20
7.6092746399
 30
0.0
 11
11.8596823057
 21
7.3272509111
 31
0.0
 11
11.8614797441
 21
7.3548740368
 31
0.0
 11
11.8668723512
 21
7.3822304169
 31
0.0
 11
11.8758013659
 21
7.4090617136
 31
0.0
 11
11.888187892
 21
7.4351131598
 31
0.0
 11
11.9228411229
 21
7.4838845992
 31
0.0
 11
11.9447536016
 21
7.5061252666
 31
0.0
 11
11.9694628065
 21
7.5266319726
 31
0.0
 11
12.0262698992
 21
7.5617104498
 31
0.0
 11
12.0578387068
 21
7.5759421781
 31
0.0
 11
12.0911200037
 21
7.5877883244
 31
0.0
 11
12.1258025863
 21
7.5971267299
 31
0.0
 11
12.1615564818
 21
7.6038512454
 31
0.0
 11
12.234676215
 21
7.6092746399
 31
0.0
  0
SPLINE
  5
469
100
AcDbEntity
  8
0
100
AcDbSpline
 62
9
  6
CONTINUOUS
 70
0
 71
3
 72
15
 73
11
 74
9
 42
0.0000001
 43
0.0000001
 44
0.0000000001
 12
-0.3855528571
 22
-0.0
 32
0.0
 13
-0.2005345253
 23
0.3292976007
 33
0.0
 40
0.0
 40
0.0
 40
0.0
 40
0.0
 40
0.1261170167
 40
0.2522869368
 40
0.378175031
 40
0.5036024153
 40
0.6284757631
 40
0.7528246348
 40
0.8766650819
 40
1.0
 40
1.0
 40
1.0
 40
1.0
 10
12.234676215
 20
1.8110614142
 30
0.0
 10
12.2184679563
 20
1.8110614142
 30
0.0
 10
12.1860087332
 20
1.8131042819
 30
0.0
 10
12.1381424105
 20
1.8222097165
 30
0.0
 10
12.0918841333
 20
1.8372577156
 30
0.0
 10
12.0480379205
 20
1.8579328661
 30
0.0
 10
12.0073497165
 20
1.8839242033
 30
0.0
 10
11.970485425
 20
1.9147895162
 30
0.0
 10
11.9380491028
 20
1.9500035323
 30
0.0
 10
11.9197111692
 20
1.9760755075
 30
0.0
 10
11.9114668661
 20
1.9896134717
 30
0.0
 11
12.234676215
 21
1.8110614142
 31
0.0
 11
12.1861471827
 21
1.8141113112
 31
0.0
 11
12.1383611708
 21
1.8232135056
 31
0.0
 11
12.0922053701
 21
1.8382280082
 31
0.0
 11
12.0484730468
 21
1.8588693694
 31
0.0
 11
12.0079051777
 21
1.8847964902
 31
0.0
 11
11.9711522292
 21
1.9155821695
 31
0.0
 11
11.93881878
 21
1.9507151699
 31
0.0
 11
11.9114668661
 21
1.9896134717
 31
0.0
  0
SPLINE
  5
46A
100
AcDbEntity
  8
0
100
AcDbSpline
 62
9
  6
CONTINUOUS
 70
0
 71
3
 72
11
 73
7
 74
5
 42
0.0000001
 43
0.0000001
 44
0.0000000001
 12
-0.1001580704
 22
0.1644694959
 32
0.0
 13
-0.0002994087
 23
0.1925662601
 33
0.0
 40
0.0
 40
0.0
 40
0.0
 40
0.0
 40
0.2510340359
 40
0.501168531
 40
0.7507064265
 40
1.0
 40
1.0
 40
1.0
 40
1.0
 10
11.9114668661
 20
1.9896134717
 30
0.0
 10
11.9030858379
 20
2.0033759521
 30
0.0
 10
11.8881736999
 20
2.0320109661
 30
0.0
 10
11.8718839085
 20
2.0775143973
 30
0.0
 10
11.8619491788
 20
2.1247004154
 30
0.0
 10
11.8597076094
 20
2.156760292
 30
0.0
 10
11.8596827292
 20
2.1727621357
 30
0.0
 11
11.9114668661
 21
1.9896134717
 31
0.0
 11
11.8891598457
 21
2.0324996508
 31
0.0
 11
11.8729271256
 21
2.0778495021
 31
0.0
 11
11.8630408166
 21
2.124874143
 31
0.0
 11
11.8596827292
 21
2.1727621357
 31
0.0
  0
SPLINE
  5
46B
100
AcDbEntity
  8
0
100
AcDbSpline
 62
9
  6
CONTINUOUS
 70
0
 71
3
 72
15
 73
11
 74
9
 42
0.0000001
 43
0.0000001
 44
0.0000000001
 12
-0.2005827658
 22
-0.3291362485
 32
0.0
 13
-0.3854401588
 23
-0.0
 33
0.0
 40
0.0
 40
0.0
 40
0.0
 40
0.0
 40
0.1233111091
 40
0.2471265407
 40
0.3714863013
 40
0.4964011674
 40
0.6218518443
 40
0.7477710422
 40
0.8739751586
 40
1.0
 40
1.0
 40
1.0
 40
1.0
 10
12.5578220326
 20
1.9895233331
 30
0.0
 10
12.5495773382
 20
1.9759946145
 30
0.0
 10
12.5312499095
 20
1.9499343945
 30
0.0
 10
12.4988152463
 20
1.9147443287
 30
0.0
 10
12.4619567065
 20
1.8838881465
 30
0.0
 10
12.4212614043
 20
1.8579168619
 30
0.0
 10
12.3774225542
 20
1.8372312529
 30
0.0
 10
12.331160192
 20
1.8222001185
 30
0.0
 10
12.2833089842
 20
1.8131176908
 30
0.0
 10
12.2508678933
 20
1.8110614142
 30
0.0
 10
12.234676215
 20
1.8110614142
 30
0.0
 11
12.5578220326
 21
1.9895233331
 31
0.0
 11
12.5304782936
 21
1.9506474941
 31
0.0
 11
12.4981535014
 21
1.9155385992
 31
0.0
 11
12.4614030601
 21
1.8847652158
 31
0.0
 11
12.4208269802
 21
1.8588473616
 31
0.0
 11
12.3771001843
 21
1.8382063729
 31
0.0
 11
12.3309425662
 21
1.8232045702
 31
0.0
 11
12.2831551595
 21
1.8141152581
 31
0.0
 11
12.234676215
 21
1.8110614142
 31
0.0
  0
ENDSEC
  0
SECTION
  2
OBJECTS
  0
DICTIONARY
  5
C
100
AcDbDictionary
280
0
281
1
  3
ACAD_GROUP
350
D
  3
ACAD_MLINESTYLE
350
17
  3
ACAD_LAYOUT
350
1A
  3
ACAD_PLOTSETTINGS
350
19
  3
ACAD_PLOTSTYLENAME
350
E
  0
DICTIONARY
  5
D
102
{ACAD_REACTORS
330
C
102
}
100
AcDbDictionary
280
0
281
1
  0
ACDBDICTIONARYWDFLT
  5
E
102
{ACAD_REACTORS
330
C
102
}
100
AcDbDictionary
281
1
  3
Normal
350
F
100
AcDbDictionaryWithDefault
340
F
  0
DICTIONARY
  5
17
102
{ACAD_REACTORS
330
C
102
}
100
AcDbDictionary
280
0
281
1
  3
Standard
350
18
  0
DICTIONARY
  5
19
102
{ACAD_REACTORS
330
C
102
}
100
AcDbDictionary
281
1
  0
DICTIONARY
  5
1A
102
{ACAD_REACTORS
330
C
102
}
100
AcDbDictionary
281
1
  3
Model
350
46C
  3
Layout1
350
46D
  0
ACDBPLACEHOLDER
  5
F
102
{ACAD_REACTORS
330
E
102
}
  0
MLINESTYLE
  5
18
102
{ACAD_REACTORS
330
17
102
}
100
AcDbMlineStyle
  2
STANDARD
 70
0
  3

 62
256
 51
90.0
 52
90.0
 71
2
 49
0.5
 62
256
  6
BYLAYER
 49
-0.5
 62
256
  6
BYLAYER
  0
LAYOUT
  5
46C
102
{ACAD_REACTORS
330
1A
102
}
100
AcDbPlotSettings
  1

  2
none_device
  4
ISO_A2_(594.00_x_420.00_MM)
  6

 40
0.0
 41
0.0
 42
0.0
 43
0.0
 44
594.0
 45
420.0
 46
0.0
 47
0.0
 48
0.0
 49
0.0
140
0.0
141
0.0
142
1.0
143
1.0
 70
1024
 72
0
 73
0
 74
0
  7

 75
0
147
1.0
148
0.0
149
0.0
100
AcDbLayout
  1
Model
 70
0
 71
0
 10
0.0
 20
0.0
 11
23.3858267717
 21
16.5354330709
 12
0.0
 22
0.0
 32
0.0
 14
0.0
 24
0.0
 34
0.0
 15
0.0
 25
0.0
 35
0.0
146
0.0
 13
0.0
 23
0.0
 33
0.0
 16
1.0
 26
0.0
 36
0.0
 17
0.0
 27
1.0
 37
0.0
 76
0
330
23D
345
0
346
0
  0
LAYOUT
  5
46D
102
{ACAD_REACTORS
330
1A
102
}
100
AcDbPlotSettings
  1

  2
none_device
  4
ISO_A2_(594.00_x_420.00_MM)
  6

 40
0.0
 41
0.0
 42
0.0
 43
0.0
 44
594.0
 45
420.0
 46
0.0
 47
0.0
 48
0.0
 49
0.0
140
0.0
141
0.0
142
1.0
143
1.0
 70
0
 72
0
 73
0
 74
0
  7

 75
0
147
1.0
148
0.0
149
0.0
100
AcDbLayout
  1
Layout1
 70
0
 71
1
 10
0.0
 20
0.0
 11
23.3858267717
 21
16.5354330709
 12
0.0
 22
0.0
 32
0.0
 14
0.0
 24
0.0
 34
0.0
 15
0.0
 25
0.0
 35
0.0
146
0.0
 13
0.0
 23
0.0
 33
0.0
 16
1.0
 26
0.0
 36
0.0
 17
0.0
 27
1.0
 37
0.0
 76
0
330
23E
345
0
346
0
  0
ENDSEC
  0
EOF
