  0
SECTION
  2
HEADER
  9
$ACADVER
  1
AC1015
  9
$DWGCODEPAGE
  3
ANSI_1252
  9
$EXTMAX
 10
11.6929133858
 20
8.2677165354
 30
0.0
  9
$EXTMIN
 10
0.0
 20
0.0
 30
0.0
  9
$LIMMIN
 10
0.0
 20
0.0
  9
$LIMMAX
 10
11.6929133858
 20
8.2677165354
  9
$VIEWCTR
 10
5.8464566929
 20
4.1338582677
  9
$VIEWSIZE
 40
8.2677165354
  9
$CLAYER
  8
0
  9
$LTSCALE
 40
0.6431102362
  9
$CELTYPE
  6
BYLAYER
  9
$DIMSCALE
 40
1.0
  9
$DIMASZ
 40
0.1875
  9
$DIMEXO
 40
0.0730807087
  9
$DIMDLI
 40
0.4443307087
  9
$DIMEXE
 40
0.2104724409
  9
$DIMCEN
 40
0.1052362205
  9
$DIMLFAC
 40
1.0
  9
$DIMBLK
  1
_CLOSED
  9
$DIMTXT
 40
0.15625
  9
$DIMTOL
 70
0
  9
$DIMLIM
 70
0
  9
$DIMTFAC
 40
1.0
  9
$PDMODE
 70
3
  9
$PDSIZE
 40
0.3125
  9
$HANDSEED
  5
24E
  9
$TILEMODE
 70
1
  9
$MEASUREMENT
 70
0
  9
$INSUNITS
 70
1
  0
ENDSEC
  0
SECTION
  2
CLASSES
  0
CLASS
  1
ACDBDICTIONARYWDFLT
  2
AcDbDictionaryWithDefault
  3
AutoCAD 2000
 90
0
280
0
281
0
  0
CLASS
  1
ACDBPLACEHOLDER
  2
AcDbPlaceHolder
  3
AutoCAD 2000
 90
0
280
0
281
0
  0
CLASS
  1
LAYOUT
  2
AcDbLayout
  3
AutoCAD 2000
 90
0
280
0
281
0
  0
ENDSEC
  0
SECTION
  2
TABLES
  0
TABLE
  2
VPORT
  5
8
100
AcDbSymbolTable
 70
2
  0
VPORT
  5
1F4
100
AcDbSymbolTableRecord
100
AcDbViewportTableRecord
  2
*ACTIVE
 70
0
 10
0.0
 20
0.0
 11
1.0
 21
1.0
 12
5.8464566929
 22
4.1338582677
 13
0.0
 23
0.0
 14
1.0
 24
1.0
 15
0.0
 25
0.0
 16
0.0
 26
0.0
 36
1.0
 17
0.0
 27
0.0
 37
0.0
 40
8.2677165354
 41
1.4142857143
 42
50.0
 43
0.0
 44
0.0
 50
0.0
 51
0.0
 71
0
 72
100
 73
1
 74
1
 75
0
 76
0
 77
0
 78
0
  0
ENDTAB
  0
TABLE
  2
LTYPE
  5
5
100
AcDbSymbolTable
 70
6
  0
LTYPE
  5
14
100
AcDbSymbolTableRecord
100
AcDbLinetypeTableRecord
  2
BYBLOCK
 70
0
  3

 72
65
 73
0
 40
0.0
  0
LTYPE
  5
15
100
AcDbSymbolTableRecord
100
AcDbLinetypeTableRecord
  2
BYLAYER
 70
0
  3

 72
65
 73
0
 40
0.0
  0
LTYPE
  5
16
100
AcDbSymbolTableRecord
100
AcDbLinetypeTableRecord
  2
CONTINUOUS
 70
64
  3
Solid line
 72
65
 73
0
 40
0.0
  0
LTYPE
  5
1F5
100
AcDbSymbolTableRecord
100
AcDbLinetypeTableRecord
  2
CENTER
 70
64
  3
____ _ ____ _ ____ _ ____ _ ____ _ ____ _ ____
 72
65
 73
4
 40
0.6
 49
0.375
 74
0
 49
-0.075
 74
0
 49
0.075
 74
0
 49
-0.075
 74
0
  0
LTYPE
  5
1F6
100
AcDbSymbolTableRecord
100
AcDbLinetypeTableRecord
  2
HIDDEN
 70
64
  3
- - - - - - - - - - - - - - - - - - - -
 72
65
 73
2
 40
0.2
 49
0.1
 74
0
 49
-0.1
 74
0
  0
LTYPE
  5
1F7
100
AcDbSymbolTableRecord
100
AcDbLinetypeTableRecord
  2
PHANTOM
 70
64
  3
_____ _ _ _____ _ _ _____ _ _ _____
 72
65
 73
6
 40
0.8
 49
0.45
 74
0
 49
-0.05
 74
0
 49
0.1
 74
0
 49
-0.05
 74
0
 49
0.1
 74
0
 49
-0.05
 74
0
  0
LTYPE
  5
1F8
100
AcDbSymbolTableRecord
100
AcDbLinetypeTableRecord
  2
DOT
 70
64
  3
. . . . . . . . . . . . . . . . . . . .
 72
65
 73
2
 40
0.2
 49
0.1
 74
0
 49
-0.1
 74
0
  0
LTYPE
  5
1F9
100
AcDbSymbolTableRecord
100
AcDbLinetypeTableRecord
  2
DASHED
 70
64
  3
- - - - - - - - - - - - - - - - - - - -
 72
65
 73
2
 40
0.2
 49
0.1
 74
0
 49
-0.1
 74
0
  0
ENDTAB
  0
TABLE
  2
LAYER
  5
2
100
AcDbSymbolTable
 70
36
  0
LAYER
  5
10
100
AcDbSymbolTableRecord
100
AcDbLayerTableRecord
  2
0
 70
0
 62
7
  6
CONTINUOUS
370
-3
390
F
  0
LAYER
  5
1FA
100
AcDbSymbolTableRecord
100
AcDbLayerTableRecord
  2
DEFAULT_1
 70
0
 62
7
  6
CENTER
370
-3
390
F
  0
LAYER
  5
1FB
100
AcDbSymbolTableRecord
100
AcDbLayerTableRecord
  2
DEFAULT_2
 70
0
 62
8
  6
HIDDEN
370
-3
390
F
  0
LAYER
  5
1FC
100
AcDbSymbolTableRecord
100
AcDbLayerTableRecord
  2
DEFAULT_3
 70
0
 62
7
  6
PHANTOM
370
-3
390
F
  0
LAYER
  5
1FD
100
AcDbSymbolTableRecord
100
AcDbLayerTableRecord
  2
3_ALL_SYMBOLS
 70
0
 62
7
  6
CONTINUOUS
370
-3
390
F
  0
LAYER
  5
1FE
100
AcDbSymbolTableRecord
100
AcDbLayerTableRecord
  2
DEFAULT_COORDINATE_SYSTEM
 70
0
 62
7
  6
CONTINUOUS
370
-3
390
F
  0
LAYER
  5
1FF
100
AcDbSymbolTableRecord
100
AcDbLayerTableRecord
  2
DEFAULT_DATUM_AXES
 70
0
 62
7
  6
CONTINUOUS
370
-3
390
F
  0
LAYER
  5
200
100
AcDbSymbolTableRecord
100
AcDbLayerTableRecord
  2
DEFAULT_DATUM_CURVES
 70
0
 62
7
  6
CONTINUOUS
370
-3
390
F
  0
LAYER
  5
201
100
AcDbSymbolTableRecord
100
AcDbLayerTableRecord
  2
DEFAULT_DATUM_PLANES
 70
0
 62
7
  6
CONTINUOUS
370
-3
390
F
  0
ENDTAB
  0
TABLE
  2
STYLE
  5
3
100
AcDbSymbolTable
 70
1
  0
STYLE
  5
11
100
AcDbSymbolTableRecord
100
AcDbTextStyleTableRecord
  2
STANDARD
 70
0
 40
0.0
 41
0.8
 50
0.0
 71
0
 42
0.2
  3
txt
  4

  0
STYLE
  5
202
100
AcDbSymbolTableRecord
100
AcDbTextStyleTableRecord
  2
TEXTSTYLE_1
 70
0
 40
0.0
 41
0.8
 50
0.0
 71
0
 42
0.2
  3
gdt
  4

  0
ENDTAB
  0
TABLE
  2
VIEW
  5
6
100
AcDbSymbolTable
 70
0
  0
ENDTAB
  0
TABLE
  2
UCS
  5
7
100
AcDbSymbolTable
 70
0
  0
ENDTAB
  0
TABLE
  2
APPID
  5
9
100
AcDbSymbolTable
 70
1
  0
APPID
  5
203
100
AcDbSymbolTableRecord
100
AcDbRegAppTableRecord
  2
ACAD
 70
0
  0
ENDTAB
  0
TABLE
  2
BLOCK_RECORD
  5
1
100
AcDbSymbolTable
 70
0
  0
BLOCK_RECORD
  5
204
100
AcDbSymbolTableRecord
100
AcDbBlockTableRecord
  2
*Model_Space
  0
BLOCK_RECORD
  5
205
100
AcDbSymbolTableRecord
100
AcDbBlockTableRecord
  2
*Paper_Space
  0
ENDTAB
  0
TABLE
  2
DIMSTYLE
  5
A
100
AcDbSymbolTable
 70
1
100
AcDbDimStyleTable
 71
0
  0
DIMSTYLE
105
206
100
AcDbSymbolTableRecord
100
AcDbDimStyleTableRecord
  2
STANDARD
 70
0
  3

  4

 40
1.0
 41
0.1875
 42
0.0625
 43
0.38
 44
0.18
 45
0.0
 46
0.0
 47
0.01
 48
0.01
140
0.15625
141
0.09
142
0.0
143
25.4
144
1.0
145
0.0
146
1.0
147
0.09
 71
0.0
 72
0.0
 73
1
 74
1
 75
0
 76
0
 77
0
 78
4
170
0
171
2
172
0
173
0
174
0
175
0
176
0
177
0
178
0
270
2
271
2
272
2
273
2
274
2
275
0
280
0
281
0
282
0
283
1
284
4
285
0
286
0
287
3
288
0
340
11
  0
ENDTAB
  0
ENDSEC
  0
SECTION
  2
BLOCKS
  0
BLOCK
  5
20
100
AcDbEntity
  8
0
100
AcDbBlockBegin
  2
*Model_Space
 70
0
 10
0.0
 20
0.0
 30
0.0
  3
*Model_Space
  1

  0
ENDBLK
  5
21
100
AcDbEntity
  8
0
100
AcDbBlockEnd
  0
BLOCK
  5
1C
100
AcDbEntity
  8
0
100
AcDbBlockBegin
  2
*Paper_Space
 70
0
 10
0.0
 20
0.0
 30
0.0
  3
*Paper_Space
  1

  0
ENDBLK
  5
1D
100
AcDbEntity
  8
0
100
AcDbBlockEnd
  0
ENDSEC
  0
SECTION
  2
ENTITIES
  0
LINE
  5
207
100
AcDbEntity
  8
0
100
AcDbLine
 62
9
  6
CONTINUOUS
 10
4.6432267643
 20
3.5912142429
 11
4.6432267643
 21
3.8412142429
  0
LINE
  5
208
100
AcDbEntity
  8
0
100
AcDbLine
 62
6
  6
CONTINUOUS
 10
4.7450886085
 20
6.1467695019
 11
4.7368257643
 21
6.2412142429
  0
LINE
  5
209
100
AcDbEntity
  8
0
100
AcDbLine
 62
6
  6
CONTINUOUS
 10
5.4482261478
 20
3.5912142429
 11
4.3596794068
 21
3.5912142429
  0
LINE
  5
20A
100
AcDbEntity
  8
0
100
AcDbLine
 62
6
  6
CONTINUOUS
 10
6.5904253808
 20
3.5912142429
 11
7.6789721218
 21
3.5912142429
  0
LINE
  5
20B
100
AcDbEntity
  8
0
100
AcDbLine
 62
6
  6
CONTINUOUS
 10
5.4482268919
 20
3.8412142429
 11
4.3596794068
 21
3.8412142429
  0
LINE
  5
20C
100
AcDbEntity
  8
0
100
AcDbLine
 62
6
  6
CONTINUOUS
 10
6.5904246367
 20
3.8412142429
 11
7.6789721218
 21
3.8412142429
  0
LINE
  5
20D
100
AcDbEntity
  8
0
100
AcDbLine
 62
6
  6
CONTINUOUS
 10
5.4468257643
 20
5.6412142429
 11
5.4468257643
 21
5.5241345463
  0
LINE
  5
20E
100
AcDbEntity
  8
0
100
AcDbLine
 62
7
  6
CONTINUOUS
 10
5.4482268919
 20
3.8430641275
 11
5.4482049901
 21
3.6198388108
  0
LINE
  5
20F
100
AcDbEntity
  8
0
100
AcDbLine
 62
6
  6
CONTINUOUS
 10
5.7118257643
 20
4.2142142429
 11
6.3268257643
 21
4.2142142429
  0
LINE
  5
210
100
AcDbEntity
  8
0
100
AcDbLine
 62
6
  6
CONTINUOUS
 10
5.7078257643
 20
4.2224733906
 11
6.3308257643
 21
4.2224733906
  0
LINE
  5
211
100
AcDbEntity
  8
0
100
AcDbLine
 62
6
  6
CONTINUOUS
 10
5.7078257643
 20
4.2844733906
 11
6.3308257643
 21
4.2844733906
  0
LINE
  5
212
100
AcDbEntity
  8
0
100
AcDbLine
 62
6
  6
CONTINUOUS
 10
5.7118257643
 20
4.2224733906
 11
5.7118257643
 21
4.2142142429
  0
LINE
  5
213
100
AcDbEntity
  8
0
100
AcDbLine
 62
6
  6
CONTINUOUS
 10
5.9624138351
 20
4.4972917085
 11
5.9624138351
 21
4.5860595742
  0
LINE
  5
214
100
AcDbEntity
  8
0
100
AcDbLine
 62
6
  6
CONTINUOUS
 10
5.9780462131
 20
4.6005102064
 11
5.9780462131
 21
4.4821001639
  0
LINE
  5
215
100
AcDbEntity
  8
0
100
AcDbLine
 62
6
  6
CONTINUOUS
 10
5.9969213579
 20
4.6105736931
 11
5.9969213579
 21
4.4723549539
  0
LINE
  5
216
100
AcDbEntity
  8
0
100
AcDbLine
 62
6
  6
CONTINUOUS
 10
6.0045423408
 20
4.4706631749
 11
6.0045423408
 21
4.6120737224
  0
LINE
  5
217
100
AcDbEntity
  8
0
100
AcDbLine
 62
6
  6
CONTINUOUS
 10
6.0341091878
 20
4.4703177287
 11
6.0341091878
 21
4.6120241695
  0
LINE
  5
218
100
AcDbEntity
  8
0
100
AcDbLine
 62
6
  6
CONTINUOUS
 10
6.0417301707
 20
4.6099527956
 11
6.0417301707
 21
4.4725424707
  0
LINE
  5
219
100
AcDbEntity
  8
0
100
AcDbLine
 62
6
  6
CONTINUOUS
 10
6.0606053155
 20
4.6011636301
 11
6.0606053155
 21
4.4819230302
  0
LINE
  5
21A
100
AcDbEntity
  8
0
100
AcDbLine
 62
6
  6
CONTINUOUS
 10
6.0762376935
 20
4.4963794482
 11
6.0762376935
 21
4.5858198821
  0
LINE
  5
21B
100
AcDbEntity
  8
0
100
AcDbLine
 62
6
  6
CONTINUOUS
 10
6.3268257643
 20
4.2224733906
 11
6.3268257643
 21
4.2142142429
  0
LINE
  5
21C
100
AcDbEntity
  8
0
100
AcDbLine
 62
7
  6
CONTINUOUS
 10
6.5904246367
 20
3.8430641275
 11
6.590463785
 21
3.6446867322
  0
LINE
  5
21D
100
AcDbEntity
  8
0
100
AcDbLine
 62
6
  6
CONTINUOUS
 10
6.5918257643
 20
5.6412142429
 11
6.5918257643
 21
5.5241345463
  0
LINE
  5
21E
100
AcDbEntity
  8
0
100
AcDbLine
 62
9
  6
CONTINUOUS
 10
6.5823090947
 20
5.470481644
 11
5.4563424339
 21
5.470481644
  0
LINE
  5
21F
100
AcDbEntity
  8
0
100
AcDbLine
 62
9
  6
CONTINUOUS
 10
6.5918257643
 20
5.5241345463
 11
5.4468257643
 21
5.5241345463
  0
LINE
  5
220
100
AcDbEntity
  8
0
100
AcDbLine
 62
6
  6
CONTINUOUS
 10
5.3543257643
 20
5.6412142429
 11
6.6843257643
 21
5.6412142429
  0
LINE
  5
221
100
AcDbEntity
  8
0
100
AcDbLine
 62
6
  6
CONTINUOUS
 10
7.2935629201
 20
6.1467695019
 11
7.3018257643
 21
6.2412142429
  0
LINE
  5
222
100
AcDbEntity
  8
0
100
AcDbLine
 62
9
  6
CONTINUOUS
 10
5.1757296977
 20
5.7962142429
 11
6.8629218309
 21
5.7962142429
  0
LINE
  5
223
100
AcDbEntity
  8
0
100
AcDbLine
 62
9
  6
CONTINUOUS
 10
5.0018400852
 20
5.9308718546
 11
7.0368114434
 21
5.9308718546
  0
LINE
  5
224
100
AcDbEntity
  8
0
100
AcDbLine
 62
9
  6
CONTINUOUS
 10
7.3954247643
 20
3.8412142429
 11
7.3954247643
 21
3.5912142429
  0
LINE
  5
225
100
AcDbEntity
  8
0
100
AcDbLine
 62
6
  6
CONTINUOUS
 10
4.931377017
 20
5.9760676258
 11
7.1072745116
 21
5.9760676258
  0
LINE
  5
226
100
AcDbEntity
  8
0
100
AcDbLine
 62
9
  6
CONTINUOUS
 10
4.7450886085
 20
6.1467695019
 11
7.2935629201
 21
6.1467695019
  0
LINE
  5
227
100
AcDbEntity
  8
0
100
AcDbLine
 62
6
  6
CONTINUOUS
 10
4.7368257643
 20
6.2412142429
 11
7.3018257643
 21
6.2412142429
  0
ARC
  5
228
100
AcDbEntity
  8
0
100
AcDbCircle
 62
6
  6
CONTINUOUS
 10
1.3435412342
 20
3.9640732359
 40
4.38
100
AcDbArc
 50
4.1949858806
 51
20.1164231314
  0
CIRCLE
  5
229
100
AcDbEntity
  8
0
100
AcDbCircle
 62
6
  6
CONTINUOUS
 10
4.1432267643
 20
3.7162142429
 40
0.25
  0
ARC
  5
22A
100
AcDbEntity
  8
0
100
AcDbCircle
 62
6
  6
CONTINUOUS
 10
6.013295355
 20
4.4856921186
 40
0.1502926025
100
AcDbArc
 50
87.7004206918
 51
90.2232822799
  0
ARC
  5
22B
100
AcDbEntity
  8
0
100
AcDbCircle
 62
6
  6
CONTINUOUS
 10
6.0133989731
 20
4.4873004689
 40
0.1486822669
100
AcDbArc
 50
77.1731707392
 51
87.7154632808
  0
ARC
  5
22C
100
AcDbEntity
  8
0
100
AcDbCircle
 62
6
  6
CONTINUOUS
 10
6.0193239861
 20
4.5412152128
 40
0.0949980265
100
AcDbArc
 50
161.3881569371
 51
179.0238935898
  0
ARC
  5
22D
100
AcDbEntity
  8
0
100
AcDbCircle
 62
6
  6
CONTINUOUS
 10
5.7078257643
 20
4.2534733906
 40
0.031
100
AcDbArc
 50
90.0
 51
270.0
  0
ARC
  5
22E
100
AcDbEntity
  8
0
100
AcDbCircle
 62
6
  6
CONTINUOUS
 10
5.1700692125
 20
5.6092999339
 40
0.187
100
AcDbArc
 50
9.8264714962
 51
88.2653932544
  0
ARC
  5
22F
100
AcDbEntity
  8
0
100
AcDbCircle
 62
6
  6
CONTINUOUS
 10
5.1813901829
 20
5.9831285519
 40
0.187
100
AcDbArc
 50
196.2272372787
 51
268.2653932544
  0
ARC
  5
230
100
AcDbEntity
  8
0
100
AcDbCircle
 62
6
  6
CONTINUOUS
 10
4.931377017
 20
6.1630676258
 40
0.187
100
AcDbArc
 50
185.0
 51
270.0
  0
ARC
  5
231
100
AcDbEntity
  8
0
100
AcDbCircle
 62
6
  6
CONTINUOUS
 10
5.6028257643
 20
5.5241345463
 40
0.156
100
AcDbArc
 50
180.0
 51
200.1164231315
  0
ARC
  5
232
100
AcDbEntity
  8
0
100
AcDbCircle
 62
6
  6
CONTINUOUS
 10
4.9413499454
 20
5.9132666572
 40
0.063
100
AcDbArc
 50
16.2272372787
 51
85.8835812399
  0
ARC
  5
233
100
AcDbEntity
  8
0
100
AcDbCircle
 62
6
  6
CONTINUOUS
 10
6.0193257643
 20
3.7166391852
 40
0.5849249423
100
AcDbArc
 50
12.4823434717
 51
58.2840502337
  0
ARC
  5
234
100
AcDbEntity
  8
0
100
AcDbCircle
 62
6
  6
CONTINUOUS
 10
6.0193257643
 20
3.7166391852
 40
0.5849249423
100
AcDbArc
 50
121.7159497663
 51
167.5176565283
  0
ARC
  5
235
100
AcDbEntity
  8
0
100
AcDbCircle
 62
6
  6
CONTINUOUS
 10
6.0193257643
 20
3.7166391852
 40
0.5849249423
100
AcDbArc
 50
192.4823434717
 51
347.5176565283
  0
CIRCLE
  5
236
100
AcDbEntity
  8
0
100
AcDbCircle
 62
6
  6
CONTINUOUS
 10
7.8954247643
 20
3.7162142429
 40
0.25
  0
ARC
  5
237
100
AcDbEntity
  8
0
100
AcDbCircle
 62
6
  6
CONTINUOUS
 10
6.0193394769
 20
4.5411610537
 40
0.0950537232
100
AcDbArc
 50
93.9995041263
 51
119.2371273832
  0
ARC
  5
238
100
AcDbEntity
  8
0
100
AcDbCircle
 62
6
  6
CONTINUOUS
 10
6.0193311239
 20
4.5412224089
 40
0.0949902803
100
AcDbArc
 50
46.0691184678
 51
73.4388003072
  0
CIRCLE
  5
239
100
AcDbEntity
  8
0
100
AcDbCircle
 62
6
  6
CONTINUOUS
 10
6.0193257643
 20
4.5412142429
 40
0.0725
  0
ARC
  5
23A
100
AcDbEntity
  8
0
100
AcDbCircle
 62
6
  6
CONTINUOUS
 10
6.3308257643
 20
4.2534733906
 40
0.031
100
AcDbArc
 50
270.0
 51
90.0
  0
ARC
  5
23B
100
AcDbEntity
  8
0
100
AcDbCircle
 62
6
  6
CONTINUOUS
 10
10.6951102944
 20
3.9640732359
 40
4.38
100
AcDbArc
 50
159.8835768686
 51
175.8050141194
  0
ARC
  5
23C
100
AcDbEntity
  8
0
100
AcDbCircle
 62
6
  6
CONTINUOUS
 10
6.8685823161
 20
5.6092999339
 40
0.187
100
AcDbArc
 50
91.7346067456
 51
170.1735285038
  0
ARC
  5
23D
100
AcDbEntity
  8
0
100
AcDbCircle
 62
6
  6
CONTINUOUS
 10
6.8572613457
 20
5.9831285519
 40
0.187
100
AcDbArc
 50
271.7346067456
 51
343.7727627213
  0
ARC
  5
23E
100
AcDbEntity
  8
0
100
AcDbCircle
 62
6
  6
CONTINUOUS
 10
7.1072745116
 20
6.1630676258
 40
0.187
100
AcDbArc
 50
270.0
 51
355.0
  0
ARC
  5
23F
100
AcDbEntity
  8
0
100
AcDbCircle
 62
6
  6
CONTINUOUS
 10
6.4358257643
 20
5.5241345463
 40
0.156
100
AcDbArc
 50
339.8835768685
 51
360.0
  0
ARC
  5
240
100
AcDbEntity
  8
0
100
AcDbCircle
 62
6
  6
CONTINUOUS
 10
7.0973015832
 20
5.9132666572
 40
0.063
100
AcDbArc
 50
94.1164187601
 51
163.7727627213
  0
LINE
  5
241
100
AcDbEntity
  8
0
100
AcDbLine
 62
7
  6
CONTINUOUS
 10
6.590463785
 20
3.6446867322
 11
6.5904246367
 21
3.5902142429
  0
LINE
  5
242
100
AcDbEntity
  8
0
100
AcDbLine
 62
7
  6
CONTINUOUS
 10
5.4482049901
 20
3.6198388108
 11
5.4482268919
 21
3.5902142429
  0
SPLINE
  5
243
100
AcDbEntity
  8
0
100
AcDbSpline
 62
6
  6
CONTINUOUS
 70
0
 71
3
 72
36
 73
32
 74
30
 42
0.0000001
 43
0.0000001
 44
0.0000000001
 12
-0.1104590366
 22
0.0066472703
 32
0.0
 13
0.0105208565
 23
0.1101575987
 33
0.0
 40
0.0
 40
0.0
 40
0.0
 40
0.0
 40
0.0625292289
 40
0.1250793039
 40
0.1875886243
 40
0.2500207056
 40
0.3123794392
 40
0.343551733
 40
0.3747247523
 40
0.4370421132
 40
0.4682014886
 40
0.4993655907
 40
0.5305428825
 40
0.5617287559
 40
0.5929216352
 40
0.6241274537
 40
0.6553586401
 40
0.686612565
 40
0.7178787261
 40
0.7491561018
 40
0.7648036273
 40
0.7804578315
 40
0.8117798494
 40
0.8431222293
 40
0.8744870062
 40
0.8901826092
 40
0.9058849149
 40
0.9215898632
 40
0.9372932176
 40
0.9686740476
 40
1.0
 40
1.0
 40
1.0
 40
1.0
 10
6.0193257643
 20
4.4665577107
 30
0.0
 10
6.0170234581
 20
4.4666962602
 30
0.0
 10
6.012426252
 20
4.4671379905
 30
0.0
 10
6.0055983735
 20
4.4682951409
 30
0.0
 10
5.998876557
 20
4.4699492655
 30
0.0
 10
5.9923051613
 20
4.4721032582
 30
0.0
 10
5.9869896774
 20
4.4743211636
 30
0.0
 10
5.9828602653
 20
4.4763504066
 30
0.0
 10
5.9788208833
 20
4.478549842
 30
0.0
 10
5.9749269269
 20
4.4810082655
 30
0.0
 10
5.9712153878
 20
4.4837237416
 30
0.0
 10
5.9685298167
 20
4.4858898796
 30
0.0
 10
5.9659518561
 20
4.4881844899
 30
0.0
 10
5.9634906778
 20
4.4906055965
 30
0.0
 10
5.9611563159
 20
4.4931507425
 30
0.0
 10
5.9589588816
 20
4.4958173115
 30
0.0
 10
5.9569092006
 20
4.498601979
 30
0.0
 10
5.9550180564
 20
4.5014994527
 30
0.0
 10
5.9532968649
 20
4.5045030228
 30
0.0
 10
5.9520141281
 20
4.5070884222
 30
0.0
 10
5.951085123
 20
4.5092018985
 30
0.0
 10
5.9502224212
 20
4.5113450618
 30
0.0
 10
5.9492710794
 20
4.5140750579
 30
0.0
 10
5.948340998
 20
4.5174187902
 30
0.0
 10
5.9477485046
 20
4.5202517836
 30
0.0
 10
5.9473881674
 20
4.522539012
 30
0.0
 10
5.9471752271
 20
4.5242636999
 30
0.0
 10
5.9470197853
 20
4.5259948002
 30
0.0
 10
5.9468895375
 20
4.5283075586
 30
0.0
 10
5.946871376
 20
4.531201996
 30
0.0
 10
5.9470125017
 20
4.5335127616
 30
0.0
 10
5.9471223603
 20
4.5346630254
 30
0.0
 11
6.0193257643
 21
4.4665577107
 31
0.0
 11
6.0124381522
 21
4.4672203464
 31
0.0
 11
6.0056139978
 21
4.4683784185
 31
0.0
 11
5.9988977587
 21
4.470033693
 31
0.0
 11
5.9923339213
 21
4.4721890744
 31
0.0
 11
5.9859670356
 21
4.4748499602
 31
0.0
 11
5.9828713741
 21
4.4763717573
 31
0.0
 11
5.9798421295
 21
4.4780219747
 31
0.0
 11
5.9740142864
 21
4.4817085216
 31
0.0
 11
5.9712319705
 21
4.4837451472
 31
0.0
 11
5.9685482469
 21
4.4859108713
 31
0.0
 11
5.9659716808
 21
4.4882052361
 31
0.0
 11
5.9635121147
 21
4.4906259571
 31
0.0
 11
5.961179631
 21
4.4931704073
 31
0.0
 11
5.9589843117
 21
4.4958359593
 31
0.0
 11
5.9569363148
 21
4.4986197872
 31
0.0
 11
5.9550467675
 21
4.5015165093
 31
0.0
 11
5.9533274704
 21
4.5045189705
 31
0.0
 11
5.9517902375
 21
4.5076199799
 31
0.0
 11
5.9510935866
 21
4.5092051927
 31
0.0
 11
5.9504467574
 21
4.5108121755
 31
0.0
 11
5.9493066412
 21
4.5140853544
 31
0.0
 11
5.9483777887
 21
4.5174269743
 31
0.0
 11
5.947668049
 21
4.5208244229
 31
0.0
 11
5.9473977822
 21
4.5225401241
 31
0.0
 11
5.9471848264
 21
4.5242646244
 31
0.0
 11
5.9470294009
 21
4.5259955521
 31
0.0
 11
5.9469317094
 21
4.5277305194
 31
0.0
 11
5.9469103439
 21
4.5312030207
 31
0.0
 11
5.9471223603
 21
4.5346630254
 31
0.0
  0
SPLINE
  5
244
100
AcDbEntity
  8
0
100
AcDbSpline
 62
6
  6
CONTINUOUS
 70
0
 71
3
 72
20
 73
16
 74
14
 42
0.0000001
 43
0.0000001
 44
0.0000000001
 12
0.0497895762
 22
0.0693846386
 32
0.0
 13
0.0849837826
 23
0.0084253582
 33
0.0
 40
0.0
 40
0.0
 40
0.0
 40
0.0
 40
0.062302696
 40
0.1246689868
 40
0.187074349
 40
0.2494787771
 40
0.3118627981
 40
0.3742515425
 40
0.49906183
 40
0.624031153
 40
0.6866197117
 40
0.7492690095
 40
0.8119697688
 40
0.8746911195
 40
1.0
 40
1.0
 40
1.0
 40
1.0
 10
5.9292941428
 20
4.5715343208
 30
0.0
 10
5.930328151
 20
4.5729752709
 30
0.0
 10
5.9324877623
 20
4.5757948073
 30
0.0
 10
5.9359775155
 20
4.5798213901
 30
0.0
 10
5.9397000121
 20
4.583637984
 30
0.0
 10
5.9436359754
 20
4.5872344724
 30
0.0
 10
5.9477681696
 20
4.5906029675
 30
0.0
 10
5.9535164762
 20
4.5947836557
 30
0.0
 10
5.9611173666
 20
4.5994218538
 30
0.0
 10
5.9691629213
 20
4.6032470439
 30
0.0
 10
5.9758114091
 20
4.6058092175
 30
0.0
 10
5.9808959824
 20
4.6074808148
 30
0.0
 10
5.9860610419
 20
4.6088986089
 30
0.0
 10
5.9930298916
 20
4.6104498566
 30
0.0
 10
5.9983358497
 20
4.6112334091
 30
0.0
 10
6.0018855906
 20
4.6115853332
 30
0.0
 11
5.9292941428
 21
4.5715343208
 31
0.0
 11
5.9325281207
 21
4.5757593625
 31
0.0
 11
5.936015233
 21
4.5797852117
 31
0.0
 11
5.9397355542
 21
4.5836012539
 31
0.0
 11
5.9436691796
 21
4.5871969053
 31
0.0
 11
5.9477978607
 21
4.5905640312
 31
0.0
 11
5.9521061907
 21
4.593698698
 31
0.0
 11
5.9612013017
 21
4.5992565782
 31
0.0
 11
5.9708375267
 21
4.6038439477
 31
0.0
 11
5.9758248875
 21
4.6057664992
 31
0.0
 11
5.9809073921
 21
4.607437905
 31
0.0
 11
5.9860708467
 21
4.6088560845
 31
0.0
 11
5.9912992074
 21
4.6100203768
 31
0.0
 11
6.0018855906
 21
4.6115853332
 31
0.0
  0
SPLINE
  5
245
100
AcDbEntity
  8
0
100
AcDbSpline
 62
6
  6
CONTINUOUS
 70
0
 71
3
 72
15
 73
11
 74
9
 42
0.0000001
 43
0.0000001
 44
0.0000000001
 12
-0.044792303
 22
-0.0233142122
 32
0.0
 13
-0.050405013
 23
0.0030393363
 33
0.0
 40
0.0
 40
0.0
 40
0.0
 40
0.0
 40
0.1249470125
 40
0.2500302393
 40
0.3751115778
 40
0.5001313382
 40
0.6251487758
 40
0.750191158
 40
0.8751833874
 40
1.0
 40
1.0
 40
1.0
 40
1.0
 10
6.0681967498
 20
4.4766474707
 30
0.0
 10
6.066331195
 20
4.475676457
 30
0.0
 10
6.0625245081
 20
4.4738713642
 30
0.0
 10
6.0566359932
 20
4.4715792507
 30
0.0
 10
6.0506011657
 20
4.4697014582
 30
0.0
 10
6.0444539698
 20
4.4682387544
 30
0.0
 10
6.0382238706
 20
4.4671886801
 30
0.0
 10
6.031939021
 20
4.4665478174
 30
0.0
 10
6.0256295888
 20
4.4663147239
 30
0.0
 10
6.0214228919
 20
4.4664312778
 30
0.0
 10
6.0193257643
 20
4.466557731
 30
0.0
 11
6.0681967498
 21
4.4766474707
 31
0.0
 11
6.06249704
 21
4.4739415938
 31
0.0
 11
6.0566117641
 21
4.4716483793
 31
0.0
 11
6.0505812598
 21
4.4697703167
 31
0.0
 11
6.0444400088
 21
4.4683074885
 31
0.0
 11
6.0382150846
 21
4.4672569323
 31
0.0
 11
6.0319335182
 21
4.4666156997
 31
0.0
 11
6.025626143
 21
4.4663826834
 31
0.0
 11
6.0193257643
 21
4.466557731
 31
0.0
  0
SPLINE
  5
246
100
AcDbEntity
  8
0
100
AcDbSpline
 62
6
  6
CONTINUOUS
 70
0
 71
3
 72
47
 73
43
 74
41
 42
0.0000001
 43
0.0000001
 44
0.0000000001
 12
0.1505680069
 22
-0.0642633407
 32
0.0
 13
-0.1452155194
 23
-0.0755840895
 33
0.0
 40
0.0
 40
0.0
 40
0.0
 40
0.0
 40
0.0620573658
 40
0.0930680658
 40
0.1240506234
 40
0.1550056761
 40
0.1859349833
 40
0.2168466828
 40
0.2477587787
 40
0.2786920034
 40
0.3096445928
 40
0.3406197284
 40
0.3716358338
 40
0.4027004857
 40
0.4182512232
 40
0.4338132691
 40
0.4493890214
 40
0.4649819537
 40
0.4805922564
 40
0.4962182223
 40
0.527506627
 40
0.543175883
 40
0.5588606448
 40
0.5902635015
 40
0.6059847081
 40
0.6217146245
 40
0.6374522923
 40
0.6531976688
 40
0.6689510744
 40
0.6847118388
 40
0.7004783211
 40
0.7162480802
 40
0.7320181065
 40
0.7477875379
 40
0.7793243809
 40
0.8108642609
 40
0.8423930208
 40
0.8739184318
 40
0.9054489457
 40
0.9369802677
 40
0.968503804
 40
1.0
 40
1.0
 40
1.0
 40
1.0
 10
6.0564185741
 20
4.6035068867
 30
0.0
 10
6.0595331921
 20
4.6021775488
 30
0.0
 10
6.0641083968
 20
4.5999454954
 30
0.0
 10
6.069940643
 20
4.5965045502
 30
0.0
 10
6.0741654879
 20
4.5936929296
 30
0.0
 10
6.0782233815
 20
4.5906528629
 30
0.0
 10
6.0820974997
 20
4.5873874724
 30
0.0
 10
6.0857702763
 20
4.5839003215
 30
0.0
 10
6.08922375
 20
4.5801952904
 30
0.0
 10
6.0924386221
 20
4.5762782578
 30
0.0
 10
6.0953939699
 20
4.5721573659
 30
0.0
 10
6.0980670554
 20
4.5678422969
 30
0.0
 10
6.1004336591
 20
4.5633447196
 30
0.0
 10
6.1021301458
 20
4.5594582826
 30
0.0
 10
6.1033097866
 20
4.5562762216
 30
0.0
 10
6.1041029613
 20
4.5538543591
 30
0.0
 10
6.1048009981
 20
4.5514009866
 30
0.0
 10
6.1054004799
 20
4.5489189647
 30
0.0
 10
6.1058994529
 20
4.5464119386
 30
0.0
 10
6.1064288435
 20
4.5430406079
 30
0.0
 10
6.1067504592
 20
4.5396359408
 30
0.0
 10
6.1068578418
 20
4.5362184228
 30
0.0
 10
6.1068202417
 20
4.5327931887
 30
0.0
 10
6.1065647708
 20
4.5293703605
 30
0.0
 10
6.1060922857
 20
4.5259723612
 30
0.0
 10
6.1056290432
 20
4.5234384499
 30
0.0
 10
6.1050570408
 20
4.5209255514
 30
0.0
 10
6.1043766314
 20
4.5184384774
 30
0.0
 10
6.1035907353
 20
4.5159814061
 30
0.0
 10
6.102701994
 20
4.5135584252
 30
0.0
 10
6.1017131001
 20
4.5111736146
 30
0.0
 10
6.1006267747
 20
4.5088310443
 30
0.0
 10
6.0994454833
 20
4.5065346838
 30
0.0
 10
6.0977480158
 20
4.5035394239
 30
0.0
 10
6.0954055088
 20
4.4999247365
 30
0.0
 10
6.0922727326
 20
4.4958153857
 30
0.0
 10
6.0888448728
 20
4.4919497504
 30
0.0
 10
6.0851498235
 20
4.4883399101
 30
0.0
 10
6.0812142661
 20
4.4849940916
 30
0.0
 10
6.0770633499
 20
4.4819200342
 30
0.0
 10
6.0727244141
 20
4.479121933
 30
0.0
 10
6.0697213286
 20
4.4774410078
 30
0.0
 10
6.0681967498
 20
4.4766474707
 30
0.0
 11
6.0564185741
 21
4.6035068867
 31
0.0
 11
6.0655458961
 21
4.5990455135
 31
0.0
 11
6.0699177459
 21
4.596464817
 31
0.0
 11
6.0741394937
 21
4.5936535623
 31
0.0
 11
6.0781943583
 21
4.5906140355
 31
0.0
 11
6.0820649548
 21
4.5873496162
 31
0.0
 11
6.0857336932
 21
4.5838640564
 31
0.0
 11
6.089182983
 21
4.5801611082
 31
0.0
 11
6.0923943756
 21
4.5762455747
 31
0.0
 11
6.0953458303
 21
4.5721266575
 31
0.0
 11
6.0980143661
 21
4.567814709
 31
0.0
 11
6.1003769646
 21
4.5633202482
 31
0.0
 11
6.1024095332
 21
4.5586585439
 31
0.0
 11
6.103294155
 21
4.5562713934
 31
0.0
 11
6.1040867749
 21
4.55385019
 31
0.0
 11
6.1047842229
 21
4.5513975431
 31
0.0
 11
6.1053834261
 21
4.5489161691
 31
0.0
 11
6.1058822149
 21
4.5464097777
 31
0.0
 11
6.1062789105
 21
4.5438826187
 31
0.0
 11
6.1067593269
 21
4.5387830174
 31
0.0
 11
6.1068396999
 21
4.536219085
 31
0.0
 11
6.1068115387
 21
4.5336515093
 31
0.0
 11
6.1064287956
 21
4.5285248594
 31
0.0
 11
6.1060742799
 21
4.5259756964
 31
0.0
 11
6.1056110455
 21
4.5234425818
 31
0.0
 11
6.1050391271
 21
4.5209304708
 31
0.0
 11
6.1043592346
 21
4.5184440994
 31
0.0
 11
6.1035737867
 21
4.5159876494
 31
0.0
 11
6.1026854688
 21
4.5135652164
 31
0.0
 11
6.1016969663
 21
4.5111808959
 31
0.0
 11
6.1006109646
 21
4.5088387834
 31
0.0
 11
6.0994301574
 21
4.5065429587
 31
0.0
 11
6.0981576269
 21
4.5042967886
 31
0.0
 11
6.0953519217
 21
4.4999628459
 31
0.0
 11
6.0922230987
 21
4.4958554573
 31
0.0
 11
6.0888001602
 21
4.4919921852
 31
0.0
 11
6.0851099628
 21
4.4883841161
 31
0.0
 11
6.0811783917
 21
4.485039405
 31
0.0
 11
6.0770314024
 21
4.4819656144
 31
0.0
 11
6.0726953558
 21
4.4791671769
 31
0.0
 11
6.0681967498
 21
4.4766474707
 31
0.0
  0
SPLINE
  5
247
100
AcDbEntity
  8
0
100
AcDbSpline
 62
6
  6
CONTINUOUS
 70
0
 71
3
 72
72
 73
68
 74
66
 42
0.0000001
 43
0.0000001
 44
0.0000000001
 12
0.3368495972
 22
0.000007674
 32
0.0
 13
-0.3368495973
 23
-0.0000001343
 33
0.0
 40
0.0
 40
0.0
 40
0.0
 40
0.0
 40
0.0316293691
 40
0.0474473037
 40
0.0632460781
 40
0.079012279
 40
0.0947390025
 40
0.1104238675
 40
0.1260644915
 40
0.1416585749
 40
0.1572045247
 40
0.1727023759
 40
0.1881527103
 40
0.2035565682
 40
0.2189156851
 40
0.2342337117
 40
0.2495160698
 40
0.2647688856
 40
0.2799990867
 40
0.2952141187
 40
0.3104203993
 40
0.3256251248
 40
0.340837175
 40
0.3560671507
 40
0.3713232605
 40
0.3866104291
 40
0.401935245
 40
0.4173064759
 40
0.432730565
 40
0.4482071659
 40
0.4637369622
 40
0.4715234597
 40
0.4793244848
 40
0.4949660397
 40
0.5106561586
 40
0.5263880922
 40
0.534268824
 40
0.5421579444
 40
0.5579557432
 40
0.5737744499
 40
0.5896048355
 40
0.6054391353
 40
0.6212733091
 40
0.637102215
 40
0.6450133711
 40
0.6529206274
 40
0.6687222963
 40
0.6845113931
 40
0.7002886417
 40
0.7160523614
 40
0.731802416
 40
0.7475438947
 40
0.7632808009
 40
0.7790154302
 40
0.7947493607
 40
0.8104861965
 40
0.8262289619
 40
0.8419792476
 40
0.857737478
 40
0.8735048648
 40
0.8892838214
 40
0.9050760357
 40
0.920882508
 40
0.936703249
 40
0.9525336082
 40
0.9683662055
 40
1.0
 40
1.0
 40
1.0
 40
1.0
 10
6.0193257643
 20
4.6390908347
 30
0.0
 10
6.0228772111
 20
4.6390909156
 30
0.0
 10
6.0282085053
 20
4.6388590188
 30
0.0
 10
6.0352699474
 20
4.6380924794
 30
0.0
 10
6.0405312274
 20
4.6372900046
 30
0.0
 10
6.0457423086
 20
4.6362609477
 30
0.0
 10
6.0508910305
 20
4.6350080491
 30
0.0
 10
6.0559665514
 20
4.6335353735
 30
0.0
 10
6.0609585942
 20
4.6318465484
 30
0.0
 10
6.0658569289
 20
4.6299452458
 30
0.0
 10
6.0706514942
 20
4.6278350959
 30
0.0
 10
6.075332827
 20
4.6255205731
 30
0.0
 10
6.0798916383
 20
4.6230060188
 30
0.0
 10
6.0843186953
 20
4.6202958027
 30
0.0
 10
6.0886047759
 20
4.6173940837
 30
0.0
 10
6.0927412248
 20
4.6143054788
 30
0.0
 10
6.096720077
 20
4.611035064
 30
0.0
 10
6.1005334046
 20
4.6075877045
 30
0.0
 10
6.1041732584
 20
4.6039683215
 30
0.0
 10
6.1076315273
 20
4.6001820693
 30
0.0
 10
6.1108994821
 20
4.5962340225
 30
0.0
 10
6.1139680768
 20
4.5921294471
 30
0.0
 10
6.1168282367
 20
4.5878737099
 30
0.0
 10
6.1194704935
 20
4.5834725481
 30
0.0
 10
6.1218854836
 20
4.5789330694
 30
0.0
 10
6.1240639099
 20
4.5742636155
 30
0.0
 10
6.1259960457
 20
4.5694729566
 30
0.0
 10
6.1276718134
 20
4.5645703797
 30
0.0
 10
6.1290815566
 20
4.5595669986
 30
0.0
 10
6.1302171647
 20
4.5544761483
 30
0.0
 10
6.1309270938
 20
4.5501760661
 30
0.0
 10
6.1313494667
 20
4.5467073237
 30
0.0
 10
6.1316737204
 20
4.5432154351
 30
0.0
 10
6.1318922532
 20
4.5388243145
 30
0.0
 10
6.1318534402
 20
4.5335372663
 30
0.0
 10
6.1315681759
 20
4.5291307784
 30
0.0
 10
6.1311868282
 20
4.5256138451
 30
0.0
 10
6.130702772
 20
4.5221021044
 30
0.0
 10
6.1299075169
 20
4.517735469
 30
0.0
 10
6.1286546108
 20
4.5125545059
 30
0.0
 10
6.1271073374
 20
4.5074493217
 30
0.0
 10
6.1252705243
 20
4.5024392197
 30
0.0
 10
6.1231555723
 20
4.4975404083
 30
0.0
 10
6.121169825
 20
4.4935625362
 30
0.0
 10
6.1194528303
 20
4.4904509865
 30
0.0
 10
6.1176526657
 20
4.4873903445
 30
0.0
 10
6.1152487606
 20
4.4836606109
 30
0.0
 10
6.1121319153
 20
4.4793479877
 30
0.0
 10
6.1087966324
 20
4.4752074681
 30
0.0
 10
6.1052559139
 20
4.4712471977
 30
0.0
 10
6.1015219923
 20
4.4674742837
 30
0.0
 10
6.097607085
 20
4.4638940898
 30
0.0
 10
6.0935227015
 20
4.4605113316
 30
0.0
 10
6.0892802385
 20
4.457330574
 30
0.0
 10
6.0848906666
 20
4.4543562343
 30
0.0
 10
6.0803653652
 20
4.4515911506
 30
0.0
 10
6.075715315
 20
4.4490377256
 30
0.0
 10
6.0709513813
 20
4.4466983064
 30
0.0
 10
6.0660842108
 20
4.4445752102
 30
0.0
 10
6.0611241291
 20
4.4426704082
 30
0.0
 10
6.056081173
 20
4.4409853303
 30
0.0
 10
6.0509651141
 20
4.4395213657
 30
0.0
 10
6.0457857489
 20
4.438279868
 30
0.0
 10
6.0405534611
 20
4.4372624136
 30
0.0
 10
6.0352793075
 20
4.4364697273
 30
0.0
 10
6.0282110405
 20
4.4357137194
 30
0.0
 10
6.022877708
 20
4.435485394
 30
0.0
 10
6.0193257643
 20
4.4354853925
 30
0.0
 11
6.0193257643
 21
4.6390908347
 31
0.0
 11
6.0299701009
 21
4.6386292454
 31
0.0
 11
6.0352672373
 21
4.6380541345
 31
0.0
 11
6.0405281441
 21
4.6372513083
 31
0.0
 11
6.0457383256
 21
4.6362222247
 31
0.0
 11
6.0508856424
 21
4.6349696014
 31
0.0
 11
6.0559597458
 21
4.6334971143
 31
0.0
 11
6.0609503319
 21
4.6318084634
 31
0.0
 11
6.0658470968
 21
4.6299073483
 31
0.0
 11
6.0706399537
 21
4.6277976103
 31
0.0
 11
6.0753194927
 21
4.6254835316
 31
0.0
 11
6.079876436
 21
4.6229694808
 31
0.0
 11
6.0843015059
 21
4.620259826
 31
0.0
 11
6.0885854526
 21
4.6173589468
 31
0.0
 11
6.0927196804
 21
4.6142714834
 31
0.0
 11
6.0966962507
 21
4.611002338
 31
0.0
 11
6.1005072539
 21
4.6075564243
 31
0.0
 11
6.10414478
 21
4.6039386558
 31
0.0
 11
6.1076007707
 21
4.6001540063
 31
0.0
 11
6.1108664038
 21
4.5962077579
 31
0.0
 11
6.1139326128
 21
4.5921052915
 31
0.0
 11
6.1167903314
 21
4.5878519877
 31
0.0
 11
6.1194304841
 21
4.5834532765
 31
0.0
 11
6.1218437121
 21
4.5789161187
 31
0.0
 11
6.1240203248
 21
4.5742492711
 31
0.0
 11
6.1259506124
 21
4.5694615927
 31
0.0
 11
6.1276248684
 21
4.5645619593
 31
0.0
 11
6.1290336996
 21
4.5595610159
 31
0.0
 11
6.1301682949
 21
4.5544726908
 31
0.0
 11
6.1310199065
 21
4.5493112694
 31
0.0
 11
6.1313368597
 21
4.5467076119
 31
0.0
 11
6.1315798545
 21
4.544091099
 31
0.0
 11
6.1318419356
 21
4.5388287697
 31
0.0
 11
6.1318030712
 21
4.5335437024
 31
0.0
 11
6.1314603827
 21
4.5282554988
 31
0.0
 11
6.1311742157
 21
4.5256163469
 31
0.0
 11
6.1308114409
 21
4.5229837779
 31
0.0
 11
6.1298583946
 21
4.5177483338
 31
0.0
 11
6.1286060648
 21
4.5125690627
 31
0.0
 11
6.1270593061
 21
4.5074658621
 31
0.0
 11
6.1252241478
 21
4.502457731
 31
0.0
 11
6.1231105986
 21
4.4975606258
 31
0.0
 11
6.1207295088
 21
4.4927898591
 31
0.0
 11
6.1194420269
 21
4.4904566379
 31
0.0
 11
6.1180917379
 21
4.4881607175
 31
0.0
 11
6.1152089559
 21
4.4836861654
 31
0.0
 11
6.1120942704
 21
4.4793750497
 31
0.0
 11
6.1087609364
 21
4.4752357949
 31
0.0
 11
6.1052222049
 21
4.4712768168
 31
0.0
 11
6.1014907749
 21
4.4675053855
 31
0.0
 11
6.0975782358
 21
4.4639264669
 31
0.0
 11
6.0934960442
 21
4.4605447513
 31
0.0
 11
6.0892556567
 21
4.4573649288
 31
0.0
 11
6.084868449
 21
4.4543913669
 31
0.0
 11
6.0803454156
 21
4.4516269128
 31
0.0
 11
6.0756974394
 21
4.4490739666
 31
0.0
 11
6.070935403
 21
4.4467349284
 31
0.0
 11
6.066070174
 21
4.4446121846
 31
0.0
 11
6.0611121387
 21
4.442707681
 31
0.0
 11
6.0560711102
 21
4.4410228388
 31
0.0
 11
6.0509568679
 21
4.4395590488
 31
0.0
 11
6.0457791915
 21
4.4383177015
 31
0.0
 11
6.0405480288
 21
4.4373001461
 31
0.0
 11
6.0352748407
 21
4.4365073591
 31
0.0
 11
6.0299718883
 21
4.4359401196
 31
0.0
 11
6.0193257643
 21
4.4354853925
 31
0.0
  0
SPLINE
  5
248
100
AcDbEntity
  8
0
100
AcDbSpline
 62
6
  6
CONTINUOUS
 70
0
 71
3
 72
73
 73
69
 74
67
 42
0.0000001
 43
0.0000001
 44
0.0000000001
 12
-0.3368446333
 22
-0.0000973879
 32
0.0
 13
0.3368446472
 23
0.0000103651
 33
0.0
 40
0.0
 40
0.0
 40
0.0
 40
0.0
 40
0.0158140086
 40
0.0316412793
 40
0.0474741567
 40
0.0633049531
 40
0.0791262118
 40
0.0949331606
 40
0.110725744
 40
0.1265049368
 40
0.1422724401
 40
0.1580307239
 40
0.1895158966
 40
0.2209788767
 40
0.2524420665
 40
0.2681836771
 40
0.2839337099
 40
0.2996974711
 40
0.3154750268
 40
0.3312646514
 40
0.3470668706
 40
0.3549743096
 40
0.362885584
 40
0.378714648
 40
0.3945490308
 40
0.4103837789
 40
0.4262149753
 40
0.4420345034
 40
0.4578327244
 40
0.4657218436
 40
0.4736024217
 40
0.4814738088
 40
0.4893354934
 40
0.5050254801
 40
0.5206676146
 40
0.5284691711
 40
0.5362562255
 40
0.5517868359
 40
0.5672636266
 40
0.5826873743
 40
0.5903798961
 40
0.5980595242
 40
0.6133838968
 40
0.6286709137
 40
0.643927146
 40
0.659157264
 40
0.674369239
 40
0.6895736848
 40
0.704779584
 40
0.7199943106
 40
0.7352244858
 40
0.7504775169
 40
0.7657602228
 40
0.7810786338
 40
0.7964380864
 40
0.8118422044
 40
0.8272927993
 40
0.8427909637
 40
0.8583372969
 40
0.8739317932
 40
0.8895727818
 40
0.9052579462
 40
0.9209849396
 40
0.9288639018
 40
0.9367524009
 40
0.9525515307
 40
0.9683698677
 40
1.0
 40
1.0
 40
1.0
 40
1.0
 10
6.0193257643
 20
4.4354853925
 30
0.0
 10
6.017550143
 20
4.4354848792
 30
0.0
 10
6.0139969234
 20
4.4355602686
 30
0.0
 10
6.0086758155
 20
4.4359010481
 30
0.0
 10
6.0033720952
 20
4.4364685386
 30
0.0
 10
5.9980981019
 20
4.4372616853
 30
0.0
 10
5.9928657691
 20
4.4382795373
 30
0.0
 10
5.9876863751
 20
4.4395211682
 30
0.0
 10
5.9825702642
 20
4.4409851399
 30
0.0
 10
5.9775273152
 20
4.4426701658
 30
0.0
 10
5.9725671833
 20
4.4445750192
 30
0.0
 10
5.9660806777
 20
4.4474047517
 30
0.0
 10
5.9582263677
 20
4.4514846309
 30
0.0
 10
5.9492985465
 20
4.4572276642
 30
0.0
 10
5.9423469642
 20
4.4627017155
 30
0.0
 10
5.9371281922
 20
4.4674728978
 30
0.0
 10
5.9333939407
 20
4.4712455544
 30
0.0
 10
5.9298535329
 20
4.4752060288
 30
0.0
 10
5.9265189559
 20
4.4793471604
 30
0.0
 10
5.9234029883
 20
4.4836605123
 30
0.0
 10
5.9209997647
 20
4.4873907707
 30
0.0
 10
5.9191999815
 20
4.4904516855
 30
0.0
 10
5.9174832654
 20
4.4935633869
 30
0.0
 10
5.91549764
 20
4.4975412998
 30
0.0
 10
5.913382433
 20
4.5024400071
 30
0.0
 10
5.9115449083
 20
4.5074499298
 30
0.0
 10
5.9099964728
 20
4.5125549203
 30
0.0
 10
5.908742426
 20
4.5177357652
 30
0.0
 10
5.9079465848
 20
4.5221023923
 30
0.0
 10
5.9074625179
 20
4.5256140909
 30
0.0
 10
5.9071766009
 20
4.528253496
 30
0.0
 10
5.9069677481
 20
4.5308970177
 30
0.0
 10
5.9067913889
 20
4.5344212457
 30
0.0
 10
5.9067606252
 20
4.5388244384
 30
0.0
 10
5.9069802938
 20
4.5432154486
 30
0.0
 10
5.9073047275
 20
4.5467074625
 30
0.0
 10
5.9077267293
 20
4.5501764045
 30
0.0
 10
5.908435468
 20
4.5544767968
 30
0.0
 10
5.9095692001
 20
4.559568001
 30
0.0
 10
5.9107438462
 20
4.5637415317
 30
0.0
 10
5.9118171584
 20
4.5670289349
 30
0.0
 10
5.9129761764
 20
4.5702752645
 30
0.0
 10
5.9145857813
 20
4.5742643962
 30
0.0
 10
5.9167654273
 20
4.5789330808
 30
0.0
 10
5.9191816767
 20
4.5834718299
 30
0.0
 10
5.9218246813
 20
4.587872461
 30
0.0
 10
5.9246849951
 20
4.5921279655
 30
0.0
 10
5.9277533676
 20
4.5962325027
 30
0.0
 10
5.9310208842
 20
4.6001806697
 30
0.0
 10
5.934478675
 20
4.6039671481
 30
0.0
 10
5.9381181507
 20
4.6075867876
 30
0.0
 10
5.9419312171
 20
4.6110344153
 30
0.0
 10
5.9459099218
 20
4.6143050607
 30
0.0
 10
5.9500463234
 20
4.617393807
 30
0.0
 10
5.9543324579
 20
4.6202955118
 30
0.0
 10
5.9587596178
 20
4.6230056
 30
0.0
 10
5.9633185365
 20
4.6255199945
 30
0.0
 10
5.9679999546
 20
4.6278344106
 30
0.0
 10
5.9727945571
 20
4.6299445878
 30
0.0
 10
5.9776928408
 20
4.6318461533
 30
0.0
 10
5.9826848042
 20
4.6335353742
 30
0.0
 10
5.987760202
 20
4.6350084512
 30
0.0
 10
5.9920482191
 20
4.6360520944
 30
0.0
 10
5.9955099739
 20
4.6367753116
 30
0.0
 10
5.9989946857
 20
4.6374239923
 30
0.0
 10
6.003381424
 20
4.6380928947
 30
0.0
 10
6.0104429324
 20
4.6388589792
 30
0.0
 10
6.015774284
 20
4.6390907254
 30
0.0
 10
6.0193257643
 20
4.6390908347
 30
0.0
 11
6.0193257643
 21
4.4354853925
 31
0.0
 11
6.0140000935
 21
4.4355981398
 31
0.0
 11
6.0086796543
 21
4.435938759
 31
0.0
 11
6.0033767071
 21
4.4365061981
 31
0.0
 11
5.9981035125
 21
4.4372994054
 31
0.0
 11
5.9928723235
 21
4.4383173282
 31
0.0
 11
5.9876946007
 21
4.4395588347
 31
0.0
 11
5.9825803161
 21
4.441022645
 31
0.0
 11
5.9775392778
 21
4.4427074623
 31
0.0
 11
5.9725812934
 21
4.4446119902
 31
0.0
 11
5.9677162002
 21
4.4467348953
 31
0.0
 11
5.9583065073
 21
4.4516274081
 31
0.0
 11
5.9493960492
 21
4.4573653724
 31
0.0
 11
5.9410724015
 21
4.463925775
 31
0.0
 11
5.9371593764
 21
4.4675041125
 31
0.0
 11
5.9334277634
 21
4.4712752428
 31
0.0
 11
5.9298893204
 21
4.4752343928
 31
0.0
 11
5.92655665
 21
4.4793742144
 31
0.0
 11
5.9234427856
 21
4.4836860461
 31
0.0
 11
5.9205607643
 21
4.4881612157
 31
0.0
 11
5.9192107656
 21
4.4904573328
 31
0.0
 11
5.9179234925
 21
4.49279067
 31
0.0
 11
5.9155425509
 21
4.4975614826
 31
0.0
 11
5.9134287477
 21
4.5024584695
 31
0.0
 11
5.911592881
 21
4.5074664183
 31
0.0
 11
5.9100450226
 21
4.512569489
 31
0.0
 11
5.9087916094
 21
4.5177487021
 31
0.0
 11
5.9078379443
 21
4.5229840986
 31
0.0
 11
5.9074751745
 21
4.5256166284
 31
0.0
 11
5.9071893012
 21
4.5282557208
 31
0.0
 11
5.9069803909
 21
4.5308989124
 31
0.0
 11
5.9068479933
 21
4.5335437671
 31
0.0
 11
5.9068108582
 21
4.5388287246
 31
0.0
 11
5.9070741407
 21
4.5440911119
 31
0.0
 11
5.907317265
 21
4.5467077538
 31
0.0
 11
5.9076339644
 21
4.5493115924
 31
0.0
 11
5.9084842784
 21
4.5544734276
 31
0.0
 11
5.9096171544
 21
4.5595621229
 31
0.0
 11
5.9110246021
 21
4.5645632571
 31
0.0
 11
5.9118287901
 21
4.5670264908
 31
0.0
 11
5.9126985012
 21
4.5694627486
 31
0.0
 11
5.9146294243
 21
4.574249928
 31
0.0
 11
5.9168071881
 21
4.5789160986
 31
0.0
 11
5.9192216001
 21
4.5834525876
 31
0.0
 11
5.9218625051
 21
4.5878508152
 31
0.0
 11
5.9247204154
 21
4.592103869
 31
0.0
 11
5.9277864196
 21
4.596206277
 31
0.0
 11
5.9310516254
 21
4.6001526144
 31
0.0
 11
5.9345071407
 21
4.6039374566
 31
0.0
 11
5.9381442927
 21
4.607555482
 31
0.0
 11
5.9419550456
 21
4.6110016681
 31
0.0
 11
5.9459314781
 21
4.6142710464
 31
0.0
 11
5.9500656695
 21
4.6173586483
 31
0.0
 11
5.9543496645
 21
4.6202595222
 31
0.0
 11
5.9587748211
 21
4.6229690572
 31
0.0
 11
5.9633318598
 21
4.6254829584
 31
0.0
 11
5.9680114775
 21
4.6277969429
 31
0.0
 11
5.9728043708
 21
4.6299067277
 31
0.0
 11
5.9777011053
 21
4.6318080923
 31
0.0
 11
5.9826916123
 21
4.6334971184
 31
0.0
 11
5.9877656314
 21
4.6349699793
 31
0.0
 11
5.9929129018
 21
4.636222848
 31
0.0
 11
5.9955108
 21
4.6367655895
 31
0.0
 11
5.9981231131
 21
4.6372519276
 31
0.0
 11
6.0033840972
 21
4.638054523
 31
0.0
 11
6.0086813229
 21
4.6386293409
 31
0.0
 11
6.0193257643
 21
4.6390908347
 31
0.0
  0
SPLINE
  5
249
100
AcDbEntity
  8
0
100
AcDbSpline
 62
6
  6
CONTINUOUS
 70
0
 71
3
 72
13
 73
9
 74
7
 42
0.0000001
 43
0.0000001
 44
0.0000000001
 12
-0.0239566956
 22
-0.0074509934
 32
0.0
 13
-0.0224969496
 23
-0.0111053061
 33
0.0
 40
0.0
 40
0.0
 40
0.0
 40
0.0
 40
0.249463994
 40
0.3743228649
 40
0.4992640896
 40
0.6242958378
 40
0.7494296934
 40
1.0
 40
1.0
 40
1.0
 40
1.0
 10
5.9476421839
 20
4.5520638649
 30
0.0
 10
5.9456500729
 20
4.5514442801
 30
0.0
 10
5.9426770542
 20
4.5504612391
 30
0.0
 10
5.9387505163
 20
4.5490411156
 30
0.0
 10
5.9358231636
 20
4.547919487
 30
0.0
 10
5.9329160054
 20
4.5467403202
 30
0.0
 10
5.9290674482
 20
4.5450892566
 30
0.0
 10
5.9262185886
 20
4.543761103
 30
0.0
 10
5.9243395661
 20
4.5428335497
 30
0.0
 11
5.9476421839
 21
4.5520638649
 31
0.0
 11
5.9417003161
 21
4.5500977186
 31
0.0
 11
5.9387545887
 21
4.5490321185
 31
0.0
 11
5.9358275901
 21
4.5479103159
 31
0.0
 11
5.9329208218
 21
4.5467310348
 31
0.0
 11
5.9300358242
 21
4.5454929427
 31
0.0
 11
5.9243395661
 21
4.5428335497
 31
0.0
  0
SPLINE
  5
24A
100
AcDbEntity
  8
0
100
AcDbSpline
 62
6
  6
CONTINUOUS
 70
0
 71
3
 72
19
 73
15
 74
13
 42
0.0000001
 43
0.0000001
 44
0.0000000001
 12
-0.0463732425
 22
0.006835599
 32
0.0
 13
-0.04658986
 23
0.0051563536
 33
0.0
 40
0.0
 40
0.0
 40
0.0
 40
0.0
 40
0.1284328984
 40
0.1922582984
 40
0.2558076544
 40
0.3190836488
 40
0.3820960092
 40
0.4448546884
 40
0.5073698684
 40
0.6317114006
 40
0.7552067104
 40
0.8166647377
 40
0.8779438485
 40
1.0
 40
1.0
 40
1.0
 40
1.0
 10
6.0193257638
 20
4.6175696005
 30
0.0
 10
6.0173404805
 20
4.6178622391
 30
0.0
 10
6.0143701276
 20
4.6183106608
 30
0.0
 10
6.0104194011
 20
4.6189166777
 30
0.0
 10
6.0074752292
 20
4.6193700585
 30
0.0
 10
6.0045434896
 20
4.6198207018
 30
0.0
 10
6.0016234729
 20
4.6202662896
 30
0.0
 10
5.998714335
 20
4.6207043402
 30
0.0
 10
5.9948561166
 20
4.6212749709
 30
0.0
 10
5.9900558397
 20
4.6219622173
 30
0.0
 10
5.9852665448
 20
4.6226086844
 30
0.0
 10
5.981450387
 20
4.6230975291
 30
0.0
 10
5.9776542664
 20
4.623565449
 30
0.0
 10
5.9748086685
 20
4.6238951569
 30
0.0
 10
5.9729131422
 20
4.6241049451
 30
0.0
 11
6.0193257638
 21
4.6175696005
 31
0.0
 11
6.0133724412
 21
4.6184644945
 31
0.0
 11
6.010415182
 21
4.6189176207
 31
0.0
 11
6.0074709871
 21
4.6193705737
 31
0.0
 11
6.0045393364
 21
4.6198207945
 31
0.0
 11
6.0016194082
 21
4.6202659244
 31
0.0
 11
5.998710383
 21
4.6207036342
 31
0.0
 11
5.9958115244
 21
4.6211321352
 31
0.0
 11
5.9900416681
 21
4.6219563384
 31
0.0
 11
5.9843048007
 21
4.6227297059
 31
0.0
 11
5.9814473291
 21
4.6230956129
 31
0.0
 11
5.9785964804
 21
4.6234469577
 31
0.0
 11
5.9729131422
 21
4.6241049451
 31
0.0
  0
SPLINE
  5
24B
100
AcDbEntity
  8
0
100
AcDbSpline
 62
6
  6
CONTINUOUS
 70
0
 71
3
 72
18
 73
14
 74
12
 42
0.0000001
 43
0.0000001
 44
0.0000000001
 12
-0.065842624
 22
0.0084966561
 32
0.0
 13
-0.0656779445
 23
0.0096877195
 33
0.0
 40
0.0
 40
0.0
 40
0.0
 40
0.0
 40
0.1221941271
 40
0.2455132929
 40
0.369965987
 40
0.49545178
 40
0.6217086897
 40
0.6849928037
 40
0.7482873814
 40
0.8115116072
 40
0.8745858386
 40
0.9374378431
 40
1.0
 40
1.0
 40
1.0
 40
1.0
 10
6.0852345228
 20
4.6096323367
 30
0.0
 10
6.0825526621
 20
4.6099784172
 30
0.0
 10
6.077160905
 20
4.6106480079
 30
0.0
 10
6.0690286377
 20
4.6115950245
 30
0.0
 10
6.0608192576
 20
4.612508401
 30
0.0
 10
6.0525434113
 20
4.6134119072
 30
0.0
 10
6.0456144909
 20
4.6141805059
 30
0.0
 10
6.0400564999
 20
4.6148242512
 30
0.0
 10
6.0358863233
 20
4.6153261113
 30
0.0
 10
6.0317235563
 20
4.6158502045
 30
0.0
 10
6.0275738311
 20
4.6163988653
 30
0.0
 10
6.0234421601
 20
4.6169716479
 30
0.0
 10
6.0206954151
 20
4.6173692554
 30
0.0
 10
6.0193257638
 20
4.6175712836
 30
0.0
 11
6.0852345228
 21
4.6096323367
 31
0.0
 11
6.0771843982
 21
4.6106347485
 31
0.0
 11
6.0690527715
 21
4.6115852057
 31
0.0
 11
6.060841674
 21
4.6125030629
 31
0.0
 11
6.0525606312
 21
4.613412438
 31
0.0
 11
6.0442304384
 21
4.6143430875
 31
0.0
 11
6.0400570951
 21
4.6148273255
 31
0.0
 11
6.0358852449
 21
4.6153301033
 31
0.0
 11
6.0317208192
 21
4.6158549346
 31
0.0
 11
6.0275695473
 21
4.6164038749
 31
0.0
 11
6.0234363936
 21
4.6169766718
 31
0.0
 11
6.0193257638
 21
4.6175712836
 31
0.0
  0
ENDSEC
  0
SECTION
  2
OBJECTS
  0
DICTIONARY
  5
C
100
AcDbDictionary
280
0
281
1
  3
ACAD_GROUP
350
D
  3
ACAD_MLINESTYLE
350
17
  3
ACAD_LAYOUT
350
1A
  3
ACAD_PLOTSETTINGS
350
19
  3
ACAD_PLOTSTYLENAME
350
E
  0
DICTIONARY
  5
D
102
{ACAD_REACTORS
330
C
102
}
100
AcDbDictionary
280
0
281
1
  0
ACDBDICTIONARYWDFLT
  5
E
102
{ACAD_REACTORS
330
C
102
}
100
AcDbDictionary
281
1
  3
Normal
350
F
100
AcDbDictionaryWithDefault
340
F
  0
DICTIONARY
  5
17
102
{ACAD_REACTORS
330
C
102
}
100
AcDbDictionary
280
0
281
1
  3
Standard
350
18
  0
DICTIONARY
  5
19
102
{ACAD_REACTORS
330
C
102
}
100
AcDbDictionary
281
1
  0
DICTIONARY
  5
1A
102
{ACAD_REACTORS
330
C
102
}
100
AcDbDictionary
281
1
  3
Model
350
24C
  3
Layout1
350
24D
  0
ACDBPLACEHOLDER
  5
F
102
{ACAD_REACTORS
330
E
102
}
  0
MLINESTYLE
  5
18
102
{ACAD_REACTORS
330
17
102
}
100
AcDbMlineStyle
  2
STANDARD
 70
0
  3

 62
256
 51
90.0
 52
90.0
 71
2
 49
0.5
 62
256
  6
BYLAYER
 49
-0.5
 62
256
  6
BYLAYER
  0
LAYOUT
  5
24C
102
{ACAD_REACTORS
330
1A
102
}
100
AcDbPlotSettings
  1

  2
none_device
  4
ISO_A4_(297.00_x_210.00_MM)
  6

 40
0.0
 41
0.0
 42
0.0
 43
0.0
 44
297.0
 45
210.0
 46
0.0
 47
0.0
 48
0.0
 49
0.0
140
0.0
141
0.0
142
1.0
143
1.0
 70
1024
 72
0
 73
0
 74
0
  7

 75
0
147
1.0
148
0.0
149
0.0
100
AcDbLayout
  1
Model
 70
0
 71
0
 10
0.0
 20
0.0
 11
11.6929133858
 21
8.2677165354
 12
0.0
 22
0.0
 32
0.0
 14
0.0
 24
0.0
 34
0.0
 15
0.0
 25
0.0
 35
0.0
146
0.0
 13
0.0
 23
0.0
 33
0.0
 16
1.0
 26
0.0
 36
0.0
 17
0.0
 27
1.0
 37
0.0
 76
0
330
204
345
0
346
0
  0
LAYOUT
  5
24D
102
{ACAD_REACTORS
330
1A
102
}
100
AcDbPlotSettings
  1

  2
none_device
  4
ISO_A4_(297.00_x_210.00_MM)
  6

 40
0.0
 41
0.0
 42
0.0
 43
0.0
 44
297.0
 45
210.0
 46
0.0
 47
0.0
 48
0.0
 49
0.0
140
0.0
141
0.0
142
1.0
143
1.0
 70
0
 72
0
 73
0
 74
0
  7

 75
0
147
1.0
148
0.0
149
0.0
100
AcDbLayout
  1
Layout1
 70
0
 71
1
 10
0.0
 20
0.0
 11
11.6929133858
 21
8.2677165354
 12
0.0
 22
0.0
 32
0.0
 14
0.0
 24
0.0
 34
0.0
 15
0.0
 25
0.0
 35
0.0
146
0.0
 13
0.0
 23
0.0
 33
0.0
 16
1.0
 26
0.0
 36
0.0
 17
0.0
 27
1.0
 37
0.0
 76
0
330
205
345
0
346
0
  0
ENDSEC
  0
EOF
