  0
SECTION
  2
HEADER
  9
$ACADVER
  1
AC1015
  9
$DWGCODEPAGE
  3
ANSI_1252
  9
$EXTMAX
 10
11.6929133858
 20
8.2677165354
 30
0.0
  9
$EXTMIN
 10
0.0
 20
0.0
 30
0.0
  9
$LIMMIN
 10
0.0
 20
0.0
  9
$LIMMAX
 10
11.6929133858
 20
8.2677165354
  9
$VIEWCTR
 10
5.8464566929
 20
4.1338582677
  9
$VIEWSIZE
 40
8.2677165354
  9
$CLAYER
  8
0
  9
$LTSCALE
 40
0.6431102362
  9
$CELTYPE
  6
BYLAYER
  9
$DIMSCALE
 40
1.0
  9
$DIMASZ
 40
0.1875
  9
$DIMEXO
 40
0.0730807087
  9
$DIMDLI
 40
0.4443307087
  9
$DIMEXE
 40
0.2104724409
  9
$DIMCEN
 40
0.1052362205
  9
$DIMLFAC
 40
1.0
  9
$DIMBLK
  1
_CLOSED
  9
$DIMTXT
 40
0.15625
  9
$DIMTOL
 70
0
  9
$DIMLIM
 70
0
  9
$DIMTFAC
 40
1.0
  9
$PDMODE
 70
3
  9
$PDSIZE
 40
0.3125
  9
$HANDSEED
  5
234
  9
$TILEMODE
 70
1
  9
$MEASUREMENT
 70
0
  9
$INSUNITS
 70
1
  0
ENDSEC
  0
SECTION
  2
CLASSES
  0
CLASS
  1
ACDBDICTIONARYWDFLT
  2
AcDbDictionaryWithDefault
  3
AutoCAD 2000
 90
0
280
0
281
0
  0
CLASS
  1
ACDBPLACEHOLDER
  2
AcDbPlaceHolder
  3
AutoCAD 2000
 90
0
280
0
281
0
  0
CLASS
  1
LAYOUT
  2
AcDbLayout
  3
AutoCAD 2000
 90
0
280
0
281
0
  0
ENDSEC
  0
SECTION
  2
TABLES
  0
TABLE
  2
VPORT
  5
8
100
AcDbSymbolTable
 70
2
  0
VPORT
  5
1F4
100
AcDbSymbolTableRecord
100
AcDbViewportTableRecord
  2
*ACTIVE
 70
0
 10
0.0
 20
0.0
 11
1.0
 21
1.0
 12
5.8464566929
 22
4.1338582677
 13
0.0
 23
0.0
 14
1.0
 24
1.0
 15
0.0
 25
0.0
 16
0.0
 26
0.0
 36
1.0
 17
0.0
 27
0.0
 37
0.0
 40
8.2677165354
 41
1.4142857143
 42
50.0
 43
0.0
 44
0.0
 50
0.0
 51
0.0
 71
0
 72
100
 73
1
 74
1
 75
0
 76
0
 77
0
 78
0
  0
ENDTAB
  0
TABLE
  2
LTYPE
  5
5
100
AcDbSymbolTable
 70
6
  0
LTYPE
  5
14
100
AcDbSymbolTableRecord
100
AcDbLinetypeTableRecord
  2
BYBLOCK
 70
0
  3

 72
65
 73
0
 40
0.0
  0
LTYPE
  5
15
100
AcDbSymbolTableRecord
100
AcDbLinetypeTableRecord
  2
BYLAYER
 70
0
  3

 72
65
 73
0
 40
0.0
  0
LTYPE
  5
16
100
AcDbSymbolTableRecord
100
AcDbLinetypeTableRecord
  2
CONTINUOUS
 70
64
  3
Solid line
 72
65
 73
0
 40
0.0
  0
LTYPE
  5
1F5
100
AcDbSymbolTableRecord
100
AcDbLinetypeTableRecord
  2
CENTER
 70
64
  3
____ _ ____ _ ____ _ ____ _ ____ _ ____ _ ____
 72
65
 73
4
 40
0.6
 49
0.375
 74
0
 49
-0.075
 74
0
 49
0.075
 74
0
 49
-0.075
 74
0
  0
LTYPE
  5
1F6
100
AcDbSymbolTableRecord
100
AcDbLinetypeTableRecord
  2
HIDDEN
 70
64
  3
- - - - - - - - - - - - - - - - - - - -
 72
65
 73
2
 40
0.2
 49
0.1
 74
0
 49
-0.1
 74
0
  0
LTYPE
  5
1F7
100
AcDbSymbolTableRecord
100
AcDbLinetypeTableRecord
  2
PHANTOM
 70
64
  3
_____ _ _ _____ _ _ _____ _ _ _____
 72
65
 73
6
 40
0.8
 49
0.45
 74
0
 49
-0.05
 74
0
 49
0.1
 74
0
 49
-0.05
 74
0
 49
0.1
 74
0
 49
-0.05
 74
0
  0
LTYPE
  5
1F8
100
AcDbSymbolTableRecord
100
AcDbLinetypeTableRecord
  2
DOT
 70
64
  3
. . . . . . . . . . . . . . . . . . . .
 72
65
 73
2
 40
0.2
 49
0.1
 74
0
 49
-0.1
 74
0
  0
LTYPE
  5
1F9
100
AcDbSymbolTableRecord
100
AcDbLinetypeTableRecord
  2
DASHED
 70
64
  3
- - - - - - - - - - - - - - - - - - - -
 72
65
 73
2
 40
0.2
 49
0.1
 74
0
 49
-0.1
 74
0
  0
ENDTAB
  0
TABLE
  2
LAYER
  5
2
100
AcDbSymbolTable
 70
36
  0
LAYER
  5
10
100
AcDbSymbolTableRecord
100
AcDbLayerTableRecord
  2
0
 70
0
 62
7
  6
CONTINUOUS
370
-3
390
F
  0
LAYER
  5
1FA
100
AcDbSymbolTableRecord
100
AcDbLayerTableRecord
  2
DEFAULT_1
 70
0
 62
7
  6
CENTER
370
-3
390
F
  0
LAYER
  5
1FB
100
AcDbSymbolTableRecord
100
AcDbLayerTableRecord
  2
DEFAULT_2
 70
0
 62
8
  6
HIDDEN
370
-3
390
F
  0
LAYER
  5
1FC
100
AcDbSymbolTableRecord
100
AcDbLayerTableRecord
  2
DEFAULT_3
 70
0
 62
7
  6
PHANTOM
370
-3
390
F
  0
LAYER
  5
1FD
100
AcDbSymbolTableRecord
100
AcDbLayerTableRecord
  2
DEFAULT_COORDINATE_SYSTEM
 70
0
 62
7
  6
CONTINUOUS
370
-3
390
F
  0
LAYER
  5
1FE
100
AcDbSymbolTableRecord
100
AcDbLayerTableRecord
  2
DEFAULT_DATUM_AXES
 70
0
 62
7
  6
CONTINUOUS
370
-3
390
F
  0
LAYER
  5
1FF
100
AcDbSymbolTableRecord
100
AcDbLayerTableRecord
  2
DEFAULT_DATUM_CURVES
 70
0
 62
7
  6
CONTINUOUS
370
-3
390
F
  0
LAYER
  5
200
100
AcDbSymbolTableRecord
100
AcDbLayerTableRecord
  2
DEFAULT_DATUM_PLANES
 70
0
 62
7
  6
CONTINUOUS
370
-3
390
F
  0
ENDTAB
  0
TABLE
  2
STYLE
  5
3
100
AcDbSymbolTable
 70
1
  0
STYLE
  5
11
100
AcDbSymbolTableRecord
100
AcDbTextStyleTableRecord
  2
STANDARD
 70
0
 40
0.0
 41
0.8
 50
0.0
 71
0
 42
0.2
  3
txt
  4

  0
STYLE
  5
201
100
AcDbSymbolTableRecord
100
AcDbTextStyleTableRecord
  2
TEXTSTYLE_1
 70
0
 40
0.0
 41
0.8
 50
0.0
 71
0
 42
0.2
  3
gdt
  4

  0
ENDTAB
  0
TABLE
  2
VIEW
  5
6
100
AcDbSymbolTable
 70
0
  0
ENDTAB
  0
TABLE
  2
UCS
  5
7
100
AcDbSymbolTable
 70
0
  0
ENDTAB
  0
TABLE
  2
APPID
  5
9
100
AcDbSymbolTable
 70
1
  0
APPID
  5
202
100
AcDbSymbolTableRecord
100
AcDbRegAppTableRecord
  2
ACAD
 70
0
  0
ENDTAB
  0
TABLE
  2
BLOCK_RECORD
  5
1
100
AcDbSymbolTable
 70
0
  0
BLOCK_RECORD
  5
203
100
AcDbSymbolTableRecord
100
AcDbBlockTableRecord
  2
*Model_Space
  0
BLOCK_RECORD
  5
204
100
AcDbSymbolTableRecord
100
AcDbBlockTableRecord
  2
*Paper_Space
  0
ENDTAB
  0
TABLE
  2
DIMSTYLE
  5
A
100
AcDbSymbolTable
 70
1
100
AcDbDimStyleTable
 71
0
  0
DIMSTYLE
105
205
100
AcDbSymbolTableRecord
100
AcDbDimStyleTableRecord
  2
STANDARD
 70
0
  3

  4

 40
1.0
 41
0.1875
 42
0.0625
 43
0.38
 44
0.18
 45
0.0
 46
0.0
 47
0.01
 48
0.01
140
0.15625
141
0.09
142
0.0
143
25.4
144
1.0
145
0.0
146
1.0
147
0.09
 71
0.0
 72
0.0
 73
1
 74
1
 75
0
 76
0
 77
0
 78
4
170
0
171
2
172
0
173
0
174
0
175
0
176
0
177
0
178
0
270
2
271
2
272
2
273
2
274
2
275
0
280
0
281
0
282
0
283
1
284
4
285
0
286
0
287
3
288
0
340
11
  0
ENDTAB
  0
ENDSEC
  0
SECTION
  2
BLOCKS
  0
BLOCK
  5
20
100
AcDbEntity
  8
0
100
AcDbBlockBegin
  2
*Model_Space
 70
0
 10
0.0
 20
0.0
 30
0.0
  3
*Model_Space
  1

  0
ENDBLK
  5
21
100
AcDbEntity
  8
0
100
AcDbBlockEnd
  0
BLOCK
  5
1C
100
AcDbEntity
  8
0
100
AcDbBlockBegin
  2
*Paper_Space
 70
0
 10
0.0
 20
0.0
 30
0.0
  3
*Paper_Space
  1

  0
ENDBLK
  5
1D
100
AcDbEntity
  8
0
100
AcDbBlockEnd
  0
ENDSEC
  0
SECTION
  2
ENTITIES
  0
LINE
  5
206
100
AcDbEntity
  8
0
100
AcDbLine
 62
9
  6
CONTINUOUS
 10
3.8497376847
 20
3.2864566341
 11
3.8497376847
 21
3.6614566341
  0
LINE
  5
207
100
AcDbEntity
  8
0
100
AcDbLine
 62
6
  6
CONTINUOUS
 10
4.2315005289
 20
5.9040869509
 11
4.2232376847
 21
5.9985316919
  0
LINE
  5
208
100
AcDbEntity
  8
0
100
AcDbLine
 62
6
  6
CONTINUOUS
 10
4.9534136316
 20
3.2864566341
 11
3.0399083921
 21
3.2864566341
  0
LINE
  5
209
100
AcDbEntity
  8
0
100
AcDbLine
 62
6
  6
CONTINUOUS
 10
6.0579044966
 20
3.2864566341
 11
8.5372376847
 21
3.2864566341
  0
LINE
  5
20A
100
AcDbEntity
  8
0
100
AcDbLine
 62
6
  6
CONTINUOUS
 10
4.9332376847
 20
5.3985316919
 11
4.9332376847
 21
5.2814519952
  0
LINE
  5
20B
100
AcDbEntity
  8
0
100
AcDbLine
 62
6
  6
CONTINUOUS
 10
4.9532573195
 20
3.6614566341
 11
3.0398527533
 21
3.6614566341
  0
LINE
  5
20C
100
AcDbEntity
  8
0
100
AcDbLine
 62
6
  6
CONTINUOUS
 10
6.0579044966
 20
3.6614566341
 11
8.5372376847
 21
3.6614566341
  0
LINE
  5
20D
100
AcDbEntity
  8
0
100
AcDbLine
 62
6
  6
CONTINUOUS
 10
5.8132376847
 20
3.9715316919
 11
5.1982376847
 21
3.9715316919
  0
LINE
  5
20E
100
AcDbEntity
  8
0
100
AcDbLine
 62
6
  6
CONTINUOUS
 10
5.1942376847
 20
3.9797908396
 11
5.8172376847
 21
3.9797908396
  0
LINE
  5
20F
100
AcDbEntity
  8
0
100
AcDbLine
 62
6
  6
CONTINUOUS
 10
5.1982376847
 20
3.9797908396
 11
5.1982376847
 21
3.9715316919
  0
LINE
  5
210
100
AcDbEntity
  8
0
100
AcDbLine
 62
6
  6
CONTINUOUS
 10
5.1942376847
 20
4.0417908396
 11
5.8172376847
 21
4.0417908396
  0
LINE
  5
211
100
AcDbEntity
  8
0
100
AcDbLine
 62
6
  6
CONTINUOUS
 10
5.8132376847
 20
3.9797908396
 11
5.8132376847
 21
3.9715316919
  0
LINE
  5
212
100
AcDbEntity
  8
0
100
AcDbLine
 62
7
  6
CONTINUOUS
 10
6.0579044966
 20
3.2809566341
 11
6.0579044966
 21
3.6669566341
  0
LINE
  5
213
100
AcDbEntity
  8
0
100
AcDbLine
 62
6
  6
CONTINUOUS
 10
6.0782376847
 20
5.3985316919
 11
6.0782376847
 21
5.2814519952
  0
LINE
  5
214
100
AcDbEntity
  8
0
100
AcDbLine
 62
9
  6
CONTINUOUS
 10
6.0687210151
 20
5.227799093
 11
4.9427543543
 21
5.227799093
  0
LINE
  5
215
100
AcDbEntity
  8
0
100
AcDbLine
 62
9
  6
CONTINUOUS
 10
6.0782376847
 20
5.2814519952
 11
4.9332376847
 21
5.2814519952
  0
LINE
  5
216
100
AcDbEntity
  8
0
100
AcDbLine
 62
6
  6
CONTINUOUS
 10
4.8407376847
 20
5.3985316919
 11
6.1707376847
 21
5.3985316919
  0
LINE
  5
217
100
AcDbEntity
  8
0
100
AcDbLine
 62
6
  6
CONTINUOUS
 10
6.7799748406
 20
5.9040869509
 11
6.7882376847
 21
5.9985316919
  0
LINE
  5
218
100
AcDbEntity
  8
0
100
AcDbLine
 62
9
  6
CONTINUOUS
 10
4.6621416182
 20
5.5535316919
 11
6.3493337513
 21
5.5535316919
  0
LINE
  5
219
100
AcDbEntity
  8
0
100
AcDbLine
 62
9
  6
CONTINUOUS
 10
4.4882520057
 20
5.6881893036
 11
6.5232233638
 21
5.6881893036
  0
LINE
  5
21A
100
AcDbEntity
  8
0
100
AcDbLine
 62
6
  6
CONTINUOUS
 10
4.4177889375
 20
5.7333850748
 11
6.593686432
 21
5.7333850748
  0
LINE
  5
21B
100
AcDbEntity
  8
0
100
AcDbLine
 62
9
  6
CONTINUOUS
 10
4.2315005289
 20
5.9040869509
 11
6.7799748406
 21
5.9040869509
  0
LINE
  5
21C
100
AcDbEntity
  8
0
100
AcDbLine
 62
6
  6
CONTINUOUS
 10
4.2232376847
 20
5.9985316919
 11
6.7882376847
 21
5.9985316919
  0
LINE
  5
21D
100
AcDbEntity
  8
0
100
AcDbLine
 62
9
  6
CONTINUOUS
 10
7.4747376847
 20
3.6614566341
 11
7.4747376847
 21
3.2864566341
  0
ARC
  5
21E
100
AcDbEntity
  8
0
100
AcDbCircle
 62
6
  6
CONTINUOUS
 10
0.8299531547
 20
3.7213906849
 40
4.38
100
AcDbArc
 50
4.1949779689
 51
20.1164231314
  0
CIRCLE
  5
21F
100
AcDbEntity
  8
0
100
AcDbCircle
 62
6
  6
CONTINUOUS
 10
2.7899636087
 20
3.4739566341
 40
0.3125
  0
ARC
  5
220
100
AcDbEntity
  8
0
100
AcDbCircle
 62
6
  6
CONTINUOUS
 10
5.1942376847
 20
4.0107908396
 40
0.031
100
AcDbArc
 50
90.0
 51
270.0
  0
ARC
  5
221
100
AcDbEntity
  8
0
100
AcDbCircle
 62
6
  6
CONTINUOUS
 10
4.4177889375
 20
5.9203850748
 40
0.187
100
AcDbArc
 50
185.0
 51
270.0
  0
ARC
  5
222
100
AcDbEntity
  8
0
100
AcDbCircle
 62
6
  6
CONTINUOUS
 10
4.6678021034
 20
5.7404460009
 40
0.187
100
AcDbArc
 50
196.2272372787
 51
268.2653932544
  0
ARC
  5
223
100
AcDbEntity
  8
0
100
AcDbCircle
 62
6
  6
CONTINUOUS
 10
4.6564811329
 20
5.3666173829
 40
0.187
100
AcDbArc
 50
9.8264714962
 51
88.2653932544
  0
ARC
  5
224
100
AcDbEntity
  8
0
100
AcDbCircle
 62
6
  6
CONTINUOUS
 10
5.0892376847
 20
5.2814519952
 40
0.156
100
AcDbArc
 50
180.0
 51
200.1164231315
  0
ARC
  5
225
100
AcDbEntity
  8
0
100
AcDbCircle
 62
6
  6
CONTINUOUS
 10
4.4277618658
 20
5.6705841061
 40
0.063
100
AcDbArc
 50
16.2272372787
 51
85.8835812399
  0
ARC
  5
226
100
AcDbEntity
  8
0
100
AcDbCircle
 62
6
  6
CONTINUOUS
 10
5.5057376847
 20
3.4739566341
 40
0.5849249423
100
AcDbArc
 50
121.7159497663
 51
340.7338426273
  0
ARC
  5
227
100
AcDbEntity
  8
0
100
AcDbCircle
 62
6
  6
CONTINUOUS
 10
5.5057376847
 20
3.4739566341
 40
0.5849249423
100
AcDbArc
 50
19.2661573727
 51
58.2840502337
  0
ARC
  5
228
100
AcDbEntity
  8
0
100
AcDbCircle
 62
6
  6
CONTINUOUS
 10
5.8172376847
 20
4.0107908396
 40
0.031
100
AcDbArc
 50
270.0
 51
90.0
  0
ARC
  5
229
100
AcDbEntity
  8
0
100
AcDbCircle
 62
6
  6
CONTINUOUS
 10
10.1815222148
 20
3.7213906849
 40
4.38
100
AcDbArc
 50
159.8835768686
 51
175.8050220311
  0
ARC
  5
22A
100
AcDbEntity
  8
0
100
AcDbCircle
 62
9
  6
CONTINUOUS
 10
8.5372376847
 20
3.4739566341
 40
0.1875
100
AcDbArc
 50
270.0
 51
90.0
  0
ARC
  5
22B
100
AcDbEntity
  8
0
100
AcDbCircle
 62
6
  6
CONTINUOUS
 10
6.593686432
 20
5.9203850748
 40
0.187
100
AcDbArc
 50
270.0
 51
355.0
  0
ARC
  5
22C
100
AcDbEntity
  8
0
100
AcDbCircle
 62
6
  6
CONTINUOUS
 10
6.3436732661
 20
5.7404460009
 40
0.187
100
AcDbArc
 50
271.7346067456
 51
343.7727627213
  0
ARC
  5
22D
100
AcDbEntity
  8
0
100
AcDbCircle
 62
6
  6
CONTINUOUS
 10
6.3549942365
 20
5.3666173829
 40
0.187
100
AcDbArc
 50
91.7346067456
 51
170.1735285038
  0
ARC
  5
22E
100
AcDbEntity
  8
0
100
AcDbCircle
 62
6
  6
CONTINUOUS
 10
5.9222376847
 20
5.2814519952
 40
0.156
100
AcDbArc
 50
339.8835768685
 51
360.0
  0
ARC
  5
22F
100
AcDbEntity
  8
0
100
AcDbCircle
 62
6
  6
CONTINUOUS
 10
6.5837135037
 20
5.6705841061
 40
0.063
100
AcDbArc
 50
94.1164187601
 51
163.7727627213
  0
SPLINE
  5
230
100
AcDbEntity
  8
0
100
AcDbSpline
 62
9
  6
CONTINUOUS
 70
0
 71
3
 72
44
 73
40
 74
38
 42
0.0000001
 43
0.0000001
 44
0.0000000001
 12
0.253221912
 22
0.0
 32
0.0
 13
-0.0
 23
0.253221912
 33
0.0
 40
0.0
 40
0.0
 40
0.0
 40
0.0
 40
0.0257066961
 40
0.0514742865
 40
0.0644018623
 40
0.0773675003
 40
0.090378715
 40
0.1034426277
 40
0.1297518126
 40
0.1563496067
 40
0.1697730919
 40
0.1832857946
 40
0.210596173
 40
0.2244068127
 40
0.2383261597
 40
0.2665031494
 40
0.295155077
 40
0.3243007587
 40
0.3539542003
 40
0.3841253895
 40
0.3994085087
 40
0.4148232076
 40
0.4460427555
 40
0.4777774204
 40
0.51001395
 40
0.5427357882
 40
0.5759238091
 40
0.6095569257
 40
0.643611538
 40
0.6780610729
 40
0.7128768297
 40
0.7480285576
 40
0.783484981
 40
0.8192121581
 40
0.8551604993
 40
0.8912724574
 40
0.9274892627
 40
0.9637515593
 40
1.0
 40
1.0
 40
1.0
 40
1.0
 10
3.0984367297
 20
3.2864598707
 30
0.0
 10
3.1006065626
 20
3.2864598707
 30
0.0
 10
3.1049527667
 20
3.2866103524
 30
0.0
 10
3.1103639621
 20
3.2871739958
 30
0.0
 10
3.1146726903
 20
3.2878489967
 30
0.0
 10
3.1178982226
 20
3.2884684834
 30
0.0
 10
3.1211118867
 20
3.2892005023
 30
0.0
 10
3.125388085
 20
3.2903279328
 30
0.0
 10
3.130698466
 20
3.2920178663
 30
0.0
 10
3.1359150327
 20
3.2940622714
 30
0.0
 10
3.1400393245
 20
3.295910101
 30
0.0
 10
3.1441574138
 20
3.2979132067
 30
0.0
 10
3.1482083552
 20
3.3001239951
 30
0.0
 10
3.1521817572
 20
3.3025324396
 30
0.0
 10
3.1561426481
 20
3.3050987413
 30
0.0
 10
3.1610081708
 20
3.3085673237
 30
0.0
 10
3.1666715669
 20
3.3131105898
 30
0.0
 10
3.1721707063
 20
3.3180400241
 30
0.0
 10
3.1774922929
 20
3.3233434824
 30
0.0
 10
3.1817498469
 20
3.3280446658
 30
0.0
 10
3.1850553564
 20
3.3319784862
 30
0.0
 10
3.1883187481
 20
3.3360612628
 30
0.0
 10
3.1922609328
 20
3.3413764875
 30
0.0
 10
3.1967457642
 20
3.3480463642
 30
0.0
 10
3.2009946623
 20
3.3550178565
 30
0.0
 10
3.2049973093
 20
3.3622738517
 30
0.0
 10
3.208743597
 20
3.3697973058
 30
0.0
 10
3.2122228072
 20
3.3775712595
 30
0.0
 10
3.2154271474
 20
3.3855771822
 30
0.0
 10
3.2183504517
 20
3.3937958773
 30
0.0
 10
3.2209861486
 20
3.402208298
 30
0.0
 10
3.2233277266
 20
3.4107953515
 30
0.0
 10
3.2253687311
 20
3.419537762
 30
0.0
 10
3.2271019342
 20
3.4284148398
 30
0.0
 10
3.2285249118
 20
3.4374028531
 30
0.0
 10
3.229635744
 20
3.4464763454
 30
0.0
 10
3.2304321515
 20
3.4556094345
 30
0.0
 10
3.2309119172
 20
3.4647760356
 30
0.0
 10
3.2310192512
 20
3.470897001
 30
0.0
 10
3.2310192512
 20
3.4739566341
 30
0.0
 11
3.0984367297
 21
3.2864598707
 31
0.0
 11
3.1049423342
 21
3.286685002
 31
0.0
 11
3.1114322036
 21
3.2873603958
 31
0.0
 11
3.1146663204
 21
3.2878669411
 31
0.0
 11
3.1178906029
 21
3.2884860513
 31
0.0
 11
3.1211031059
 21
3.2892175124
 31
0.0
 11
3.1243019348
 21
3.2900606102
 31
0.0
 11
3.1306510216
 21
3.2920785714
 31
0.0
 11
3.1369227658
 21
3.2945336465
 31
0.0
 11
3.1400249164
 21
3.2959231365
 31
0.0
 11
3.1431020696
 21
3.2974195468
 31
0.0
 11
3.1491738353
 21
3.3007299839
 31
0.0
 11
3.1521646734
 21
3.3025424386
 31
0.0
 11
3.1551229716
 21
3.3044586502
 31
0.0
 11
3.1609350011
 21
3.3085973678
 31
0.0
 11
3.1665965673
 21
3.313134546
 31
0.0
 11
3.1720944331
 21
3.3180582309
 31
0.0
 11
3.1774153613
 21
3.3233564684
 31
0.0
 11
3.1825461146
 21
3.3290173044
 31
0.0
 11
3.1850360391
 21
3.3319799613
 31
0.0
 11
3.1874735019
 21
3.3350287045
 31
0.0
 11
3.1921856524
 21
3.3413763143
 31
0.0
 11
3.1966721826
 21
3.3480431679
 31
0.0
 11
3.2009227881
 21
3.35501216
 31
0.0
 11
3.2049271648
 21
3.3622661852
 31
0.0
 11
3.2086750083
 21
3.3697881382
 31
0.0
 11
3.2121561761
 21
3.3775608252
 31
0.0
 11
3.21536263
 21
3.3855659007
 31
0.0
 11
3.2182878031
 21
3.3937842138
 31
0.0
 11
3.220925159
 21
3.4021965971
 31
0.0
 11
3.2232681609
 21
3.4107838834
 31
0.0
 11
3.2253102723
 21
3.4195269052
 31
0.0
 11
3.227045349
 21
3.4284058681
 31
0.0
 11
3.2284699822
 21
3.4373966049
 31
0.0
 11
3.2295819284
 21
3.4464730862
 31
0.0
 11
3.2303789482
 21
3.4556092757
 31
0.0
 11
3.2308588022
 21
3.4647791371
 31
0.0
 11
3.2310192512
 21
3.4739566341
 31
0.0
  0
SPLINE
  5
231
100
AcDbEntity
  8
0
100
AcDbSpline
 62
9
  6
CONTINUOUS
 70
0
 71
3
 72
44
 73
40
 74
38
 42
0.0000001
 43
0.0000001
 44
0.0000000001
 12
0.0
 22
0.253221912
 32
0.0
 13
-0.253221912
 23
0.0
 33
0.0
 40
0.0
 40
0.0
 40
0.0
 40
0.0
 40
0.0362484407
 40
0.0725107373
 40
0.1087275426
 40
0.1448395007
 40
0.1807878419
 40
0.216515019
 40
0.2519714424
 40
0.2871231703
 40
0.3219389271
 40
0.356388462
 40
0.3904430743
 40
0.4240761909
 40
0.4572642118
 40
0.48998605
 40
0.5222225796
 40
0.5539572445
 40
0.5851767924
 40
0.6005914913
 40
0.6158746105
 40
0.6460457997
 40
0.6756992413
 40
0.704844923
 40
0.7334968506
 40
0.7616738403
 40
0.7755931873
 40
0.789403827
 40
0.8167142054
 40
0.8302269081
 40
0.8436503933
 40
0.8702481874
 40
0.8965573723
 40
0.909621285
 40
0.9226324997
 40
0.9355981377
 40
0.9485257135
 40
0.9742933039
 40
1.0
 40
1.0
 40
1.0
 40
1.0
 10
3.2310192512
 20
3.4739566341
 30
0.0
 10
3.2310192512
 20
3.4770162673
 30
0.0
 10
3.2309119172
 20
3.4831372327
 30
0.0
 10
3.2304321515
 20
3.4923038338
 30
0.0
 10
3.229635744
 20
3.5014369229
 30
0.0
 10
3.2285249118
 20
3.5105104152
 30
0.0
 10
3.2271019342
 20
3.5194984285
 30
0.0
 10
3.2253687311
 20
3.5283755062
 30
0.0
 10
3.2233277266
 20
3.5371179168
 30
0.0
 10
3.2209861486
 20
3.5457049703
 30
0.0
 10
3.2183504517
 20
3.554117391
 30
0.0
 10
3.2154271474
 20
3.5623360861
 30
0.0
 10
3.2122228072
 20
3.5703420088
 30
0.0
 10
3.208743597
 20
3.5781159625
 30
0.0
 10
3.2049973093
 20
3.5856394166
 30
0.0
 10
3.2009946623
 20
3.5928954118
 30
0.0
 10
3.1967457642
 20
3.5998669041
 30
0.0
 10
3.1922609328
 20
3.6065367808
 30
0.0
 10
3.1883187481
 20
3.6118520055
 30
0.0
 10
3.1850553564
 20
3.615934782
 30
0.0
 10
3.1817498469
 20
3.6198686025
 30
0.0
 10
3.1774922929
 20
3.6245697859
 30
0.0
 10
3.1721707063
 20
3.6298732442
 30
0.0
 10
3.1666715669
 20
3.6348026785
 30
0.0
 10
3.1610081708
 20
3.6393459446
 30
0.0
 10
3.1561426481
 20
3.642814527
 30
0.0
 10
3.1521817572
 20
3.6453808287
 30
0.0
 10
3.1482083552
 20
3.6477892732
 30
0.0
 10
3.1441574138
 20
3.6500000616
 30
0.0
 10
3.1400393245
 20
3.6520031673
 30
0.0
 10
3.1359150327
 20
3.6538509969
 30
0.0
 10
3.130698466
 20
3.655895402
 30
0.0
 10
3.125388085
 20
3.6575853355
 30
0.0
 10
3.1211118867
 20
3.658712766
 30
0.0
 10
3.1178982226
 20
3.6594447849
 30
0.0
 10
3.1146726903
 20
3.6600642715
 30
0.0
 10
3.1103639621
 20
3.6607392725
 30
0.0
 10
3.1049527667
 20
3.6613029159
 30
0.0
 10
3.1006065626
 20
3.6614533976
 30
0.0
 10
3.0984367297
 20
3.6614533976
 30
0.0
 11
3.2310192512
 21
3.4739566341
 31
0.0
 11
3.2308588022
 21
3.4831341312
 31
0.0
 11
3.2303789482
 21
3.4923039926
 31
0.0
 11
3.2295819284
 21
3.5014401821
 31
0.0
 11
3.2284699822
 21
3.5105166634
 31
0.0
 11
3.227045349
 21
3.5195074002
 31
0.0
 11
3.2253102723
 21
3.5283863631
 31
0.0
 11
3.2232681609
 21
3.5371293849
 31
0.0
 11
3.220925159
 21
3.5457166712
 31
0.0
 11
3.2182878031
 21
3.5541290545
 31
0.0
 11
3.21536263
 21
3.5623473676
 31
0.0
 11
3.2121561761
 21
3.5703524431
 31
0.0
 11
3.2086750083
 21
3.5781251301
 31
0.0
 11
3.2049271648
 21
3.5856470831
 31
0.0
 11
3.2009227881
 21
3.5929011083
 31
0.0
 11
3.1966721826
 21
3.5998701004
 31
0.0
 11
3.1921856524
 21
3.606536954
 31
0.0
 11
3.1874735019
 21
3.6128845638
 31
0.0
 11
3.1850360391
 21
3.615933307
 31
0.0
 11
3.1825461146
 21
3.6188959639
 31
0.0
 11
3.1774153613
 21
3.6245567999
 31
0.0
 11
3.1720944331
 21
3.6298550374
 31
0.0
 11
3.1665965673
 21
3.6347787223
 31
0.0
 11
3.1609350011
 21
3.6393159005
 31
0.0
 11
3.1551229716
 21
3.6434546181
 31
0.0
 11
3.1521646734
 21
3.6453708297
 31
0.0
 11
3.1491738353
 21
3.6471832844
 31
0.0
 11
3.1431020696
 21
3.6504937215
 31
0.0
 11
3.1400249164
 21
3.6519901318
 31
0.0
 11
3.1369227658
 21
3.6533796218
 31
0.0
 11
3.1306510216
 21
3.6558346969
 31
0.0
 11
3.1243019348
 21
3.6578526581
 31
0.0
 11
3.1211031059
 21
3.6586957559
 31
0.0
 11
3.1178906029
 21
3.659427217
 31
0.0
 11
3.1146663204
 21
3.6600463272
 31
0.0
 11
3.1114322036
 21
3.6605528725
 31
0.0
 11
3.1049423342
 21
3.6612282663
 31
0.0
 11
3.0984367297
 21
3.6614533976
 31
0.0
  0
ENDSEC
  0
SECTION
  2
OBJECTS
  0
DICTIONARY
  5
C
100
AcDbDictionary
280
0
281
1
  3
ACAD_GROUP
350
D
  3
ACAD_MLINESTYLE
350
17
  3
ACAD_LAYOUT
350
1A
  3
ACAD_PLOTSETTINGS
350
19
  3
ACAD_PLOTSTYLENAME
350
E
  0
DICTIONARY
  5
D
102
{ACAD_REACTORS
330
C
102
}
100
AcDbDictionary
280
0
281
1
  0
ACDBDICTIONARYWDFLT
  5
E
102
{ACAD_REACTORS
330
C
102
}
100
AcDbDictionary
281
1
  3
Normal
350
F
100
AcDbDictionaryWithDefault
340
F
  0
DICTIONARY
  5
17
102
{ACAD_REACTORS
330
C
102
}
100
AcDbDictionary
280
0
281
1
  3
Standard
350
18
  0
DICTIONARY
  5
19
102
{ACAD_REACTORS
330
C
102
}
100
AcDbDictionary
281
1
  0
DICTIONARY
  5
1A
102
{ACAD_REACTORS
330
C
102
}
100
AcDbDictionary
281
1
  3
Model
350
232
  3
Layout1
350
233
  0
ACDBPLACEHOLDER
  5
F
102
{ACAD_REACTORS
330
E
102
}
  0
MLINESTYLE
  5
18
102
{ACAD_REACTORS
330
17
102
}
100
AcDbMlineStyle
  2
STANDARD
 70
0
  3

 62
256
 51
90.0
 52
90.0
 71
2
 49
0.5
 62
256
  6
BYLAYER
 49
-0.5
 62
256
  6
BYLAYER
  0
LAYOUT
  5
232
102
{ACAD_REACTORS
330
1A
102
}
100
AcDbPlotSettings
  1

  2
none_device
  4
ISO_A4_(297.00_x_210.00_MM)
  6

 40
0.0
 41
0.0
 42
0.0
 43
0.0
 44
297.0
 45
210.0
 46
0.0
 47
0.0
 48
0.0
 49
0.0
140
0.0
141
0.0
142
1.0
143
1.0
 70
1024
 72
0
 73
0
 74
0
  7

 75
0
147
1.0
148
0.0
149
0.0
100
AcDbLayout
  1
Model
 70
0
 71
0
 10
0.0
 20
0.0
 11
11.6929133858
 21
8.2677165354
 12
0.0
 22
0.0
 32
0.0
 14
0.0
 24
0.0
 34
0.0
 15
0.0
 25
0.0
 35
0.0
146
0.0
 13
0.0
 23
0.0
 33
0.0
 16
1.0
 26
0.0
 36
0.0
 17
0.0
 27
1.0
 37
0.0
 76
0
330
203
345
0
346
0
  0
LAYOUT
  5
233
102
{ACAD_REACTORS
330
1A
102
}
100
AcDbPlotSettings
  1

  2
none_device
  4
ISO_A4_(297.00_x_210.00_MM)
  6

 40
0.0
 41
0.0
 42
0.0
 43
0.0
 44
297.0
 45
210.0
 46
0.0
 47
0.0
 48
0.0
 49
0.0
140
0.0
141
0.0
142
1.0
143
1.0
 70
0
 72
0
 73
0
 74
0
  7

 75
0
147
1.0
148
0.0
149
0.0
100
AcDbLayout
  1
Layout1
 70
0
 71
1
 10
0.0
 20
0.0
 11
11.6929133858
 21
8.2677165354
 12
0.0
 22
0.0
 32
0.0
 14
0.0
 24
0.0
 34
0.0
 15
0.0
 25
0.0
 35
0.0
146
0.0
 13
0.0
 23
0.0
 33
0.0
 16
1.0
 26
0.0
 36
0.0
 17
0.0
 27
1.0
 37
0.0
 76
0
330
204
345
0
346
0
  0
ENDSEC
  0
EOF
