  0
SECTION
  2
HEADER
  9
$ACADVER
  1
AC1015
  9
$DWGCODEPAGE
  3
ANSI_1252
  9
$EXTMAX
 10
11.6929133858
 20
8.2677165354
 30
0.0
  9
$EXTMIN
 10
0.0
 20
0.0
 30
0.0
  9
$LIMMIN
 10
0.0
 20
0.0
  9
$LIMMAX
 10
11.6929133858
 20
8.2677165354
  9
$VIEWCTR
 10
5.8464566929
 20
4.1338582677
  9
$VIEWSIZE
 40
8.2677165354
  9
$CLAYER
  8
0
  9
$LTSCALE
 40
0.6431102362
  9
$CELTYPE
  6
BYLAYER
  9
$DIMSCALE
 40
1.0
  9
$DIMASZ
 40
0.1875
  9
$DIMEXO
 40
0.0730807087
  9
$DIMDLI
 40
0.4443307087
  9
$DIMEXE
 40
0.2104724409
  9
$DIMCEN
 40
0.1052362205
  9
$DIMLFAC
 40
1.0
  9
$DIMBLK
  1
_CLOSED
  9
$DIMTXT
 40
0.15625
  9
$DIMTOL
 70
0
  9
$DIMLIM
 70
0
  9
$DIMTFAC
 40
1.0
  9
$PDMODE
 70
3
  9
$PDSIZE
 40
0.3125
  9
$HANDSEED
  5
238
  9
$TILEMODE
 70
1
  9
$MEASUREMENT
 70
0
  9
$INSUNITS
 70
1
  0
ENDSEC
  0
SECTION
  2
CLASSES
  0
CLASS
  1
ACDBDICTIONARYWDFLT
  2
AcDbDictionaryWithDefault
  3
AutoCAD 2000
 90
0
280
0
281
0
  0
CLASS
  1
ACDBPLACEHOLDER
  2
AcDbPlaceHolder
  3
AutoCAD 2000
 90
0
280
0
281
0
  0
CLASS
  1
LAYOUT
  2
AcDbLayout
  3
AutoCAD 2000
 90
0
280
0
281
0
  0
ENDSEC
  0
SECTION
  2
TABLES
  0
TABLE
  2
VPORT
  5
8
100
AcDbSymbolTable
 70
2
  0
VPORT
  5
1F4
100
AcDbSymbolTableRecord
100
AcDbViewportTableRecord
  2
*ACTIVE
 70
0
 10
0.0
 20
0.0
 11
1.0
 21
1.0
 12
5.8464566929
 22
4.1338582677
 13
0.0
 23
0.0
 14
1.0
 24
1.0
 15
0.0
 25
0.0
 16
0.0
 26
0.0
 36
1.0
 17
0.0
 27
0.0
 37
0.0
 40
8.2677165354
 41
1.4142857143
 42
50.0
 43
0.0
 44
0.0
 50
0.0
 51
0.0
 71
0
 72
100
 73
1
 74
1
 75
0
 76
0
 77
0
 78
0
  0
ENDTAB
  0
TABLE
  2
LTYPE
  5
5
100
AcDbSymbolTable
 70
6
  0
LTYPE
  5
14
100
AcDbSymbolTableRecord
100
AcDbLinetypeTableRecord
  2
BYBLOCK
 70
0
  3

 72
65
 73
0
 40
0.0
  0
LTYPE
  5
15
100
AcDbSymbolTableRecord
100
AcDbLinetypeTableRecord
  2
BYLAYER
 70
0
  3

 72
65
 73
0
 40
0.0
  0
LTYPE
  5
16
100
AcDbSymbolTableRecord
100
AcDbLinetypeTableRecord
  2
CONTINUOUS
 70
64
  3
Solid line
 72
65
 73
0
 40
0.0
  0
LTYPE
  5
1F5
100
AcDbSymbolTableRecord
100
AcDbLinetypeTableRecord
  2
CENTER
 70
64
  3
____ _ ____ _ ____ _ ____ _ ____ _ ____ _ ____
 72
65
 73
4
 40
0.6
 49
0.375
 74
0
 49
-0.075
 74
0
 49
0.075
 74
0
 49
-0.075
 74
0
  0
LTYPE
  5
1F6
100
AcDbSymbolTableRecord
100
AcDbLinetypeTableRecord
  2
HIDDEN
 70
64
  3
- - - - - - - - - - - - - - - - - - - -
 72
65
 73
2
 40
0.2
 49
0.1
 74
0
 49
-0.1
 74
0
  0
LTYPE
  5
1F7
100
AcDbSymbolTableRecord
100
AcDbLinetypeTableRecord
  2
PHANTOM
 70
64
  3
_____ _ _ _____ _ _ _____ _ _ _____
 72
65
 73
6
 40
0.8
 49
0.45
 74
0
 49
-0.05
 74
0
 49
0.1
 74
0
 49
-0.05
 74
0
 49
0.1
 74
0
 49
-0.05
 74
0
  0
LTYPE
  5
1F8
100
AcDbSymbolTableRecord
100
AcDbLinetypeTableRecord
  2
DOT
 70
64
  3
. . . . . . . . . . . . . . . . . . . .
 72
65
 73
2
 40
0.2
 49
0.1
 74
0
 49
-0.1
 74
0
  0
LTYPE
  5
1F9
100
AcDbSymbolTableRecord
100
AcDbLinetypeTableRecord
  2
DASHED
 70
64
  3
- - - - - - - - - - - - - - - - - - - -
 72
65
 73
2
 40
0.2
 49
0.1
 74
0
 49
-0.1
 74
0
  0
ENDTAB
  0
TABLE
  2
LAYER
  5
2
100
AcDbSymbolTable
 70
36
  0
LAYER
  5
10
100
AcDbSymbolTableRecord
100
AcDbLayerTableRecord
  2
0
 70
0
 62
7
  6
CONTINUOUS
370
-3
390
F
  0
LAYER
  5
1FA
100
AcDbSymbolTableRecord
100
AcDbLayerTableRecord
  2
DEFAULT_1
 70
0
 62
7
  6
CENTER
370
-3
390
F
  0
LAYER
  5
1FB
100
AcDbSymbolTableRecord
100
AcDbLayerTableRecord
  2
DEFAULT_2
 70
0
 62
8
  6
HIDDEN
370
-3
390
F
  0
LAYER
  5
1FC
100
AcDbSymbolTableRecord
100
AcDbLayerTableRecord
  2
DEFAULT_3
 70
0
 62
7
  6
PHANTOM
370
-3
390
F
  0
LAYER
  5
1FD
100
AcDbSymbolTableRecord
100
AcDbLayerTableRecord
  2
DEFAULT_COORDINATE_SYSTEM
 70
0
 62
7
  6
CONTINUOUS
370
-3
390
F
  0
LAYER
  5
1FE
100
AcDbSymbolTableRecord
100
AcDbLayerTableRecord
  2
DEFAULT_DATUM_AXES
 70
0
 62
7
  6
CONTINUOUS
370
-3
390
F
  0
LAYER
  5
1FF
100
AcDbSymbolTableRecord
100
AcDbLayerTableRecord
  2
DEFAULT_DATUM_CURVES
 70
0
 62
7
  6
CONTINUOUS
370
-3
390
F
  0
LAYER
  5
200
100
AcDbSymbolTableRecord
100
AcDbLayerTableRecord
  2
DEFAULT_DATUM_PLANES
 70
0
 62
7
  6
CONTINUOUS
370
-3
390
F
  0
ENDTAB
  0
TABLE
  2
STYLE
  5
3
100
AcDbSymbolTable
 70
1
  0
STYLE
  5
11
100
AcDbSymbolTableRecord
100
AcDbTextStyleTableRecord
  2
STANDARD
 70
0
 40
0.0
 41
0.8
 50
0.0
 71
0
 42
0.2
  3
txt
  4

  0
STYLE
  5
201
100
AcDbSymbolTableRecord
100
AcDbTextStyleTableRecord
  2
TEXTSTYLE_1
 70
0
 40
0.0
 41
0.8
 50
0.0
 71
0
 42
0.2
  3
gdt
  4

  0
ENDTAB
  0
TABLE
  2
VIEW
  5
6
100
AcDbSymbolTable
 70
0
  0
ENDTAB
  0
TABLE
  2
UCS
  5
7
100
AcDbSymbolTable
 70
0
  0
ENDTAB
  0
TABLE
  2
APPID
  5
9
100
AcDbSymbolTable
 70
1
  0
APPID
  5
202
100
AcDbSymbolTableRecord
100
AcDbRegAppTableRecord
  2
ACAD
 70
0
  0
ENDTAB
  0
TABLE
  2
BLOCK_RECORD
  5
1
100
AcDbSymbolTable
 70
0
  0
BLOCK_RECORD
  5
203
100
AcDbSymbolTableRecord
100
AcDbBlockTableRecord
  2
*Model_Space
  0
BLOCK_RECORD
  5
204
100
AcDbSymbolTableRecord
100
AcDbBlockTableRecord
  2
*Paper_Space
  0
ENDTAB
  0
TABLE
  2
DIMSTYLE
  5
A
100
AcDbSymbolTable
 70
1
100
AcDbDimStyleTable
 71
0
  0
DIMSTYLE
105
205
100
AcDbSymbolTableRecord
100
AcDbDimStyleTableRecord
  2
STANDARD
 70
0
  3

  4

 40
1.0
 41
0.1875
 42
0.0625
 43
0.38
 44
0.18
 45
0.0
 46
0.0
 47
0.01
 48
0.01
140
0.15625
141
0.09
142
0.0
143
25.4
144
1.0
145
0.0
146
1.0
147
0.09
 71
0.0
 72
0.0
 73
1
 74
1
 75
0
 76
0
 77
0
 78
4
170
0
171
2
172
0
173
0
174
0
175
0
176
0
177
0
178
0
270
2
271
2
272
2
273
2
274
2
275
0
280
0
281
0
282
0
283
1
284
4
285
0
286
0
287
3
288
0
340
11
  0
ENDTAB
  0
ENDSEC
  0
SECTION
  2
BLOCKS
  0
BLOCK
  5
20
100
AcDbEntity
  8
0
100
AcDbBlockBegin
  2
*Model_Space
 70
0
 10
0.0
 20
0.0
 30
0.0
  3
*Model_Space
  1

  0
ENDBLK
  5
21
100
AcDbEntity
  8
0
100
AcDbBlockEnd
  0
BLOCK
  5
1C
100
AcDbEntity
  8
0
100
AcDbBlockBegin
  2
*Paper_Space
 70
0
 10
0.0
 20
0.0
 30
0.0
  3
*Paper_Space
  1

  0
ENDBLK
  5
1D
100
AcDbEntity
  8
0
100
AcDbBlockEnd
  0
ENDSEC
  0
SECTION
  2
ENTITIES
  0
LINE
  5
206
100
AcDbEntity
  8
0
100
AcDbLine
 62
9
  6
CONTINUOUS
 10
3.1691257129
 20
4.4075054791
 11
3.1691257129
 21
5.1575054791
  0
LINE
  5
207
100
AcDbEntity
  8
0
100
AcDbLine
 62
9
  6
CONTINUOUS
 10
3.6169236199
 20
5.14638495
 11
3.616871647
 21
5.1464560002
  0
LINE
  5
208
100
AcDbEntity
  8
0
100
AcDbLine
 62
6
  6
CONTINUOUS
 10
3.6169207983
 20
5.1463830489
 11
3.616871647
 21
5.1464560002
  0
LWPOLYLINE
  5
209
100
AcDbEntity
  8
0
100
AcDbPolyline
 62
6
  6
CONTINUOUS
 90
12
 70
0
 10
3.616889856
 20
5.1464289741
 10
3.6136133818
 20
5.1507010963
 10
3.6100901959
 20
5.1548066215
 10
3.6064487967
 20
5.158539868
 10
3.6026449121
 20
5.1619159635
 10
3.5986487107
 20
5.1649257269
 10
3.5944603627
 20
5.167534528
 10
3.5901267322
 20
5.1696896016
 10
3.5857234951
 20
5.1713476847
 10
3.5813278588
 20
5.1724907856
 10
3.5770181116
 20
5.1731229513
 10
3.5736133962
 20
5.173277546
  0
LINE
  5
20A
100
AcDbEntity
  8
0
100
AcDbLine
 62
6
  6
CONTINUOUS
 10
5.4488888374
 20
5.1825054791
 11
5.4488888374
 21
4.3825054791
  0
LWPOLYLINE
  5
20B
100
AcDbEntity
  8
0
100
AcDbPolyline
 62
6
  6
CONTINUOUS
 90
8
 70
0
 10
8.1330164019
 20
4.3712311372
 10
8.1367988774
 20
4.3714113448
 10
8.1414864986
 20
4.3721295725
 10
8.1462470595
 20
4.373420005
 10
8.1510306061
 20
4.3753022183
 10
8.1557702365
 20
4.3777803362
 10
8.1603441084
 20
4.3808012318
 10
8.1624590332
 20
4.3825054791
  0
LWPOLYLINE
  5
20C
100
AcDbEntity
  8
0
100
AcDbPolyline
 62
6
  6
CONTINUOUS
 90
5
 70
0
 10
7.6530220446
 20
4.3800177615
 10
7.6568339656
 20
4.3801993705
 10
7.6615996159
 20
4.380932
 10
7.6664469914
 20
4.3822539647
 10
7.6670819386
 20
4.3825054791
  0
LWPOLYLINE
  5
20D
100
AcDbEntity
  8
0
100
AcDbPolyline
 62
6
  6
CONTINUOUS
 90
5
 70
0
 10
4.7725979725
 20
4.4042657229
 10
4.7764748704
 20
4.4044493221
 10
4.7813281472
 20
4.4051914395
 10
4.7862705449
 20
4.4065327417
 10
4.788737718
 20
4.4075054791
  0
LWPOLYLINE
  5
20E
100
AcDbEntity
  8
0
100
AcDbPolyline
 62
6
  6
CONTINUOUS
 90
7
 70
0
 10
4.2926001116
 20
4.3993319563
 10
4.2964587728
 20
4.3995147198
 10
4.3012889684
 20
4.4002533925
 10
4.3062066423
 20
4.4015880899
 10
4.3111326614
 20
4.4035303646
 10
4.3159858647
 20
4.4060699277
 10
4.3181620016
 20
4.4075054791
  0
LWPOLYLINE
  5
20F
100
AcDbEntity
  8
0
100
AcDbPolyline
 62
6
  6
CONTINUOUS
 90
8
 70
0
 10
3.8126020012
 20
4.3943981929
 10
3.8164271776
 20
4.3945786626
 10
3.8212187397
 20
4.3953087401
 10
3.8260962907
 20
4.3966278576
 10
3.8309804066
 20
4.3985466991
 10
3.8357898013
 20
4.4010539571
 10
3.8404406871
 20
4.404110117
 10
3.8446815577
 20
4.4075054791
  0
LWPOLYLINE
  5
210
100
AcDbEntity
  8
0
100
AcDbPolyline
 62
6
  6
CONTINUOUS
 90
19
 70
0
 10
3.486073679
 20
4.3898777504
 10
3.4878529912
 20
4.3899397058
 10
3.490240725
 20
4.3902147488
 10
3.4926666429
 20
4.3907179583
 10
3.4950768276
 20
4.3914455927
 10
3.497420455
 20
4.3923819284
 10
3.4996502514
 20
4.3935003116
 10
3.5017237409
 20
4.3947640126
 10
3.5036003079
 20
4.3961235435
 10
3.5052502105
 20
4.3975216207
 10
3.5066651593
 20
4.3989060218
 10
3.5078530848
 20
4.400233485
 10
3.5088373009
 20
4.401477628
 10
3.5096713227
 20
4.4026622122
 10
3.5104018492
 20
4.4038258533
 10
3.511056853
 20
4.404999042
 10
3.511638926
 20
4.4061738811
 10
3.5121413451
 20
4.4073165049
 10
3.5122152561
 20
4.4075054791
  0
LWPOLYLINE
  5
211
100
AcDbEntity
  8
0
100
AcDbPolyline
 62
6
  6
CONTINUOUS
 90
29
 70
0
 10
8.3605793375
 20
4.3648247679
 10
8.3623162243
 20
4.3648839247
 10
8.364688417
 20
4.3651531081
 10
8.3671146239
 20
4.3656518984
 10
8.3695289892
 20
4.3663768431
 10
8.3718700833
 20
4.3673086308
 10
8.3740819137
 20
4.3684137582
 10
8.3761211618
 20
4.3696498263
 10
8.377971075
 20
4.3709799329
 10
8.3796253114
 20
4.3723701616
 10
8.3810823757
 20
4.3737874552
 10
8.3823312815
 20
4.3751830263
 10
8.3833576016
 20
4.3764897578
 10
8.3841979055
 20
4.3776984786
 10
8.3849271015
 20
4.3788793776
 10
8.3855875902
 20
4.3800882134
 10
8.3861737005
 20
4.3813053773
 10
8.3866741433
 20
4.3824862421
 10
8.3870882323
 20
4.3835947233
 10
8.3874254859
 20
4.3846148557
 10
8.3876998217
 20
4.3855476952
 10
8.3879239138
 20
4.3863994778
 10
8.3881086842
 20
4.3871799526
 10
8.3882632827
 20
4.387901439
 10
8.3883948251
 20
4.3885759414
 10
8.3885086923
 20
4.3892141383
 10
8.3886089108
 20
4.3898251164
 10
8.3886984835
 20
4.3904163772
 10
8.3887797343
 20
4.3909945947
  0
LINE
  5
212
100
AcDbEntity
  8
0
100
AcDbLine
 62
6
  6
CONTINUOUS
 10
8.3344783763
 20
4.3825054791
 11
5.4488888374
 21
4.3825054791
  0
LINE
  5
213
100
AcDbEntity
  8
0
100
AcDbLine
 62
6
  6
CONTINUOUS
 10
5.4488888374
 20
4.4075054791
 11
3.1691257129
 21
4.4075054791
  0
LWPOLYLINE
  5
214
100
AcDbEntity
  8
0
100
AcDbPolyline
 62
6
  6
CONTINUOUS
 90
7
 70
0
 10
7.8930192851
 20
5.1893865063
 10
7.8893216211
 20
5.1892148854
 10
7.8845133761
 20
5.1884837665
 10
7.8795834471
 20
5.1871373478
 10
7.8746700663
 20
5.1851765352
 10
7.869901648
 20
5.182646661
 10
7.8696903483
 20
5.1825054791
  0
LWPOLYLINE
  5
215
100
AcDbEntity
  8
0
100
AcDbPolyline
 62
6
  6
CONTINUOUS
 90
15
 70
0
 10
8.3317596987
 20
5.1990837506
 10
8.3295054208
 20
5.1989906803
 10
8.3265480571
 20
5.1985905474
 10
8.3235963486
 20
5.1978774121
 10
8.3207611934
 20
5.1968884853
 10
8.3181370286
 20
5.1956902168
 10
8.3157479014
 20
5.1943390016
 10
8.3135599029
 20
5.1928554882
 10
8.3115464651
 20
5.1912498175
 10
8.3097141169
 20
5.1895522651
 10
8.3080819584
 20
5.1878138743
 10
8.3066448934
 20
5.1860722272
 10
8.3053778116
 20
5.1843423044
 10
8.3042488543
 20
5.1826223153
 10
8.3041795243
 20
5.1825054791
  0
LWPOLYLINE
  5
216
100
AcDbEntity
  8
0
100
AcDbPolyline
 62
6
  6
CONTINUOUS
 90
6
 70
0
 10
4.5325992093
 20
5.1632121199
 10
4.5288062417
 20
5.16303592
 10
4.5239660724
 20
5.1623046232
 10
4.5190373612
 20
5.1609763916
 10
4.5140978109
 20
5.1590388721
 10
4.5111551558
 20
5.1575054791
  0
LWPOLYLINE
  5
217
100
AcDbEntity
  8
0
100
AcDbPolyline
 62
6
  6
CONTINUOUS
 90
3
 70
0
 10
5.0125969778
 20
5.1582783518
 10
5.0088205985
 20
5.1581045339
 10
5.0048215592
 20
5.1575054791
  0
LWPOLYLINE
  5
218
100
AcDbEntity
  8
0
100
AcDbPolyline
 62
6
  6
CONTINUOUS
 90
8
 70
0
 10
4.0526010986
 20
5.1681458829
 10
4.0488601883
 20
5.1679736457
 10
4.04407953
 20
5.1672573753
 10
4.0392121368
 20
5.1659562799
 10
4.0343342498
 20
5.1640585456
 10
4.0295250093
 20
5.1615734003
 10
4.0248683894
 20
5.1585385521
 10
4.0235679457
 20
5.1575054791
  0
LWPOLYLINE
  5
219
100
AcDbEntity
  8
0
100
AcDbPolyline
 62
6
  6
CONTINUOUS
 90
10
 70
0
 10
3.5736134884
 20
5.173277546
 10
3.5701753231
 20
5.1731192381
 10
3.5658696214
 20
5.1724772992
 10
3.5615262211
 20
5.1713260275
 10
3.5571690432
 20
5.1696434918
 10
3.5528493655
 20
5.1674150747
 10
3.5486952641
 20
5.1646867635
 10
3.5448235417
 20
5.1615523065
 10
3.5412789095
 20
5.1580995096
 10
3.5407625359
 20
5.1575054791
  0
LINE
  5
21A
100
AcDbEntity
  8
0
100
AcDbLine
 62
6
  6
CONTINUOUS
 10
5.4488888374
 20
5.1575054791
 11
3.4950664352
 21
5.1575054791
  0
LINE
  5
21B
100
AcDbEntity
  8
0
100
AcDbLine
 62
6
  6
CONTINUOUS
 10
3.4434768304
 20
5.1575054791
 11
3.1691257129
 21
5.1575054791
  0
LINE
  5
21C
100
AcDbEntity
  8
0
100
AcDbLine
 62
6
  6
CONTINUOUS
 10
8.3485293805
 20
5.1825054791
 11
5.4488888374
 21
5.1825054791
  0
ARC
  5
21D
100
AcDbEntity
  8
0
100
AcDbCircle
 62
6
  6
CONTINUOUS
 10
2.6438888374
 20
4.7825054791
 40
1.2825
100
AcDbArc
 50
17.0141358196
 51
342.9858641804
  0
ARC
  5
21E
100
AcDbEntity
  8
0
100
AcDbCircle
 62
9
  6
CONTINUOUS
 10
2.6438888374
 20
4.7825054791
 40
1.2742371558
100
AcDbArc
 50
17.1294777704
 51
342.8705222296
  0
ARC
  5
21F
100
AcDbEntity
  8
0
100
AcDbCircle
 62
9
  6
CONTINUOUS
 10
2.6438888374
 20
4.7825054791
 40
1.0805451466
100
AcDbArc
 50
20.3070686971
 51
339.6929313029
  0
ARC
  5
220
100
AcDbEntity
  8
0
100
AcDbCircle
 62
9
  6
CONTINUOUS
 10
2.6438888374
 20
4.7825054791
 40
1.0174856791
100
AcDbArc
 50
22.5383343693
 51
338.3443240588
  0
ARC
  5
221
100
AcDbEntity
  8
0
100
AcDbCircle
 62
9
  6
CONTINUOUS
 10
2.6438888374
 20
4.7825054791
 40
0.8435960666
100
AcDbArc
 50
26.4412155763
 51
333.5587844237
  0
ARC
  5
222
100
AcDbEntity
  8
0
100
AcDbCircle
 62
6
  6
CONTINUOUS
 10
2.6438888374
 20
4.7825054791
 40
0.665
100
AcDbArc
 50
34.4080184477
 51
325.5919815523
  0
ARC
  5
223
100
AcDbEntity
  8
0
100
AcDbCircle
 62
6
  6
CONTINUOUS
 10
2.6438888374
 20
4.7825054791
 40
0.5849249423
100
AcDbArc
 50
37.3414054293
 51
322.6585945707
  0
ARC
  5
224
100
AcDbEntity
  8
0
100
AcDbCircle
 62
6
  6
CONTINUOUS
 10
3.1691257129
 20
4.5075054791
 40
0.1
100
AcDbArc
 50
232.9430495716
 51
270.0
  0
ARC
  5
225
100
AcDbEntity
  8
0
100
AcDbCircle
 62
6
  6
CONTINUOUS
 10
3.1691257129
 20
5.0575054791
 40
0.1
100
AcDbArc
 50
90.0
 51
127.0569504284
  0
ARC
  5
226
100
AcDbEntity
  8
0
100
AcDbCircle
 62
6
  6
CONTINUOUS
 10
3.468039402
 20
5.1457858995
 40
0.0298256654
100
AcDbArc
 50
63.9030703802
 51
64.566240791
  0
ARC
  5
227
100
AcDbEntity
  8
0
100
AcDbCircle
 62
9
  6
CONTINUOUS
 10
3.5961239471
 20
5.1315131549
 40
0.0255526185
100
AcDbArc
 50
35.7633767971
 51
36.0769848541
  0
ARC
  5
228
100
AcDbEntity
  8
0
100
AcDbCircle
 62
6
  6
CONTINUOUS
 10
8.8938888374
 20
4.7825054791
 40
1.2825
100
AcDbArc
 50
198.1929850148
 51
161.8070149852
  0
ARC
  5
229
100
AcDbEntity
  8
0
100
AcDbCircle
 62
9
  6
CONTINUOUS
 10
8.8938888374
 20
4.7825054791
 40
1.2742371558
100
AcDbArc
 50
198.3154785001
 51
161.6845214999
  0
ARC
  5
22A
100
AcDbEntity
  8
0
100
AcDbCircle
 62
9
  6
CONTINUOUS
 10
8.8938888374
 20
4.7825054791
 40
1.0805451466
100
AcDbArc
 50
201.7496199745
 51
157.8562987885
  0
ARC
  5
22B
100
AcDbEntity
  8
0
100
AcDbCircle
 62
9
  6
CONTINUOUS
 10
8.8938888374
 20
4.7825054791
 40
1.0174856791
100
AcDbArc
 50
203.164300095
 51
156.835699905
  0
ARC
  5
22C
100
AcDbEntity
  8
0
100
AcDbCircle
 62
9
  6
CONTINUOUS
 10
8.8938888374
 20
4.7825054791
 40
0.8435960666
100
AcDbArc
 50
208.734160445
 51
151.6576444753
  0
ARC
  5
22D
100
AcDbEntity
  8
0
100
AcDbCircle
 62
6
  6
CONTINUOUS
 10
8.8938888374
 20
4.7825054791
 40
0.665
100
AcDbArc
 50
218.5446964355
 51
143.1035374727
  0
ARC
  5
22E
100
AcDbEntity
  8
0
100
AcDbCircle
 62
6
  6
CONTINUOUS
 10
8.8938888374
 20
4.7825054791
 40
0.5849249423
100
AcDbArc
 50
217.6225156576
 51
142.3774843424
  0
ARC
  5
22F
100
AcDbEntity
  8
0
100
AcDbCircle
 62
6
  6
CONTINUOUS
 10
8.3485293805
 20
4.4825054791
 40
0.1
100
AcDbArc
 50
288.7465674946
 51
325.2206858507
  0
ARC
  5
230
100
AcDbEntity
  8
0
100
AcDbCircle
 62
6
  6
CONTINUOUS
 10
8.3485293805
 20
5.0825054791
 40
0.1
100
AcDbArc
 50
34.7793141493
 51
83.8247139095
  0
SPLINE
  5
231
100
AcDbEntity
  8
0
100
AcDbSpline
 62
6
  6
CONTINUOUS
 70
0
 71
3
 72
20
 73
16
 74
14
 42
0.0000001
 43
0.0000001
 44
0.0000000001
 12
-0.0334159278
 22
0.0
 32
0.0
 13
-0.0120024842
 23
-0.031185968
 33
0.0
 40
0.0
 40
0.0
 40
0.0
 40
0.0
 40
0.0620911235
 40
0.1243852838
 40
0.1868840601
 40
0.2495535524
 40
0.3750619586
 40
0.4378182216
 40
0.5004832504
 40
0.5630399336
 40
0.6254887883
 40
0.6878538022
 40
0.7501882702
 40
0.8749359355
 40
1.0
 40
1.0
 40
1.0
 40
1.0
 10
3.4688888374
 20
5.1755054791
 30
0.0
 10
3.4681972266
 20
5.1755054791
 30
0.0
 10
3.4668111222
 20
5.1754479673
 30
0.0
 10
3.464742735
 20
5.1751967377
 30
0.0
 10
3.4626930834
 20
5.1747871105
 30
0.0
 10
3.4600010889
 20
5.1740387164
 30
0.0
 10
3.4573940222
 20
5.1730000939
 30
0.0
 10
3.4549190135
 20
5.1716978169
 30
0.0
 10
3.4531383017
 20
5.170592754
 30
0.0
 10
3.4514448966
 20
5.1693640199
 30
0.0
 10
3.4498493116
 20
5.1680156849
 30
0.0
 10
3.4483622464
 20
5.1665517941
 30
0.0
 10
3.4465388709
 20
5.1644518441
 30
0.0
 10
3.4445846233
 20
5.1615578913
 30
0.0
 10
3.4433914123
 20
5.1590310076
 30
0.0
 10
3.4428910524
 20
5.1577309263
 30
0.0
 11
3.4688888374
 21
5.1755054791
 31
0.0
 11
3.4668157367
 21
5.1754207255
 31
0.0
 11
3.4647491693
 21
5.175170867
 31
0.0
 11
3.4627010277
 21
5.1747625063
 31
0.0
 11
3.4606832041
 21
5.1742022464
 31
0.0
 11
3.4567860809
 21
5.1726524407
 31
0.0
 11
3.4549303717
 21
5.1716757121
 31
0.0
 11
3.4531513776
 21
5.1705711497
 31
0.0
 11
3.4514598148
 21
5.1693430032
 31
0.0
 11
3.4498663996
 21
5.1679955219
 31
0.0
 11
3.4483818484
 21
5.1665329556
 31
0.0
 11
3.4470168774
 21
5.1649595537
 31
0.0
 11
3.4446790646
 21
5.1615082474
 31
0.0
 11
3.4428910524
 21
5.1577309263
 31
0.0
  0
SPLINE
  5
232
100
AcDbEntity
  8
0
100
AcDbSpline
 62
9
  6
CONTINUOUS
 70
0
 71
3
 72
36
 73
32
 74
30
 42
0.0000001
 43
0.0000001
 44
0.0000000001
 12
-0.0604435574
 22
0.0
 32
0.0
 13
0.0372394303
 23
-0.0476093316
 33
0.0
 40
0.0
 40
0.0
 40
0.0
 40
0.0
 40
0.0317605421
 40
0.0636014717
 40
0.0955170197
 40
0.1274863095
 40
0.1914128761
 40
0.223313307
 40
0.2551105729
 40
0.2867876461
 40
0.318334788
 40
0.3497512362
 40
0.3810474614
 40
0.4122474515
 40
0.4433853086
 40
0.4744803283
 40
0.5055384048
 40
0.5365576028
 40
0.5675307628
 40
0.5984481171
 40
0.6293008663
 40
0.6600986256
 40
0.6908635762
 40
0.7216155728
 40
0.7523732946
 40
0.7831559436
 40
0.8139849379
 40
0.875792262
 40
0.9377992958
 40
0.9688799057
 40
1.0
 40
1.0
 40
1.0
 40
1.0
 10
3.5938888374
 20
5.1580220713
 30
0.0
 10
3.5932489307
 20
5.1580220713
 30
0.0
 10
3.5919670293
 20
5.1579741565
 30
0.0
 10
3.5900525203
 20
5.1577646902
 30
0.0
 10
3.588152736
 20
5.1574230858
 30
0.0
 10
3.5856528798
 20
5.1567991321
 30
0.0
 10
3.5832191692
 20
5.1559330729
 30
0.0
 10
3.5808874919
 20
5.1548461126
 30
0.0
 10
3.5791994239
 20
5.1539250628
 30
0.0
 10
3.5775803441
 20
5.1529008944
 30
0.0
 10
3.5760384974
 20
5.1517765845
 30
0.0
 10
3.5745823399
 20
5.1505550973
 30
0.0
 10
3.5732202858
 20
5.1492394036
 30
0.0
 10
3.5719608999
 20
5.1478324638
 30
0.0
 10
3.5708130954
 20
5.1463381967
 30
0.0
 10
3.5697796166
 20
5.1447662305
 30
0.0
 10
3.5688633883
 20
5.1431259466
 30
0.0
 10
3.5680673589
 20
5.1414268315
 30
0.0
 10
3.5673945267
 20
5.1396783308
 30
0.0
 10
3.5668478067
 20
5.1378898862
 30
0.0
 10
3.566430423
 20
5.1360705247
 30
0.0
 10
3.5661439005
 20
5.1342291516
 30
0.0
 10
3.5659880559
 20
5.1323742096
 30
0.0
 10
3.5659629384
 20
5.1305137077
 30
0.0
 10
3.5660685251
 20
5.128655697
 30
0.0
 10
3.566304844
 20
5.1268080931
 30
0.0
 10
3.5667944919
 20
5.1243683419
 30
0.0
 10
3.5677334606
 20
5.1213858305
 30
0.0
 10
3.5690852272
 20
5.1185605073
 30
0.0
 10
3.5704020992
 20
5.1164304531
 30
0.0
 10
3.5711378211
 20
5.1154142063
 30
0.0
 10
3.5715241193
 20
5.1149203374
 30
0.0
 11
3.5938888374
 21
5.1580220713
 31
0.0
 11
3.5919704191
 21
5.1579513845
 31
0.0
 11
3.590057157
 21
5.1577429793
 31
0.0
 11
3.5881583813
 21
5.1574023386
 31
0.0
 11
3.5862834221
 21
5.1569349452
 31
0.0
 11
3.5826422737
 21
5.1556418322
 31
0.0
 11
3.5808947221
 21
5.1548270167
 31
0.0
 11
3.579207813
 21
5.153906044
 31
0.0
 11
3.5775899939
 21
5.152882012
 31
0.0
 11
3.5760496969
 21
5.1517579777
 31
0.0
 11
3.5745953542
 21
5.1505369979
 31
0.0
 11
3.573235398
 21
5.1492221296
 31
0.0
 11
3.5719782606
 21
5.1478164298
 31
0.0
 11
3.5708313705
 21
5.1463241568
 31
0.0
 11
3.5697985649
 21
5.1447538673
 31
0.0
 11
3.5688828782
 21
5.1431150795
 31
0.0
 11
3.5680873448
 21
5.1414173114
 31
0.0
 11
3.5674149987
 21
5.1396700811
 31
0.0
 11
3.5668688745
 21
5.1378829064
 31
0.0
 11
3.5664519236
 21
5.1360652659
 31
0.0
 11
3.5661655564
 21
5.1342258982
 31
0.0
 11
3.5660098199
 21
5.1323728881
 31
0.0
 11
3.5659847142
 21
5.1305142976
 31
0.0
 11
3.5660902391
 21
5.1286581887
 31
0.0
 11
3.5663263948
 21
5.1268126237
 31
0.0
 11
3.566693181
 21
5.1249856645
 31
0.0
 11
3.5678141697
 21
5.1214219594
 31
0.0
 11
3.569432574
 21
5.1180414691
 31
0.0
 11
3.5704207212
 21
5.1164437244
 31
0.0
 11
3.5715241193
 21
5.1149203374
 31
0.0
  0
SPLINE
  5
233
100
AcDbEntity
  8
0
100
AcDbSpline
 62
9
  6
CONTINUOUS
 70
0
 71
3
 72
18
 73
14
 74
12
 42
0.0000001
 43
0.0000001
 44
0.0000000001
 12
-0.0156080704
 22
0.0214220488
 32
0.0
 13
-0.026505019
 23
-0.0
 33
0.0
 40
0.0
 40
0.0
 40
0.0
 40
0.0
 40
0.0614576407
 40
0.1230215025
 40
0.1847437237
 40
0.2466636627
 40
0.3711142556
 40
0.4964295426
 40
0.5593853575
 40
0.6224633223
 40
0.7486583071
 40
0.8745888892
 40
1.0
 40
1.0
 40
1.0
 40
1.0
 10
3.6167762503
 20
5.14656037
 30
0.0
 10
3.6164565053
 20
5.1469992195
 30
0.0
 10
3.6157882344
 20
5.1478575361
 30
0.0
 10
3.6147032731
 20
5.1490783732
 30
0.0
 10
3.6135406058
 20
5.1502313144
 30
0.0
 10
3.6118919023
 20
5.1516774087
 30
0.0
 10
3.6096625933
 20
5.1533053088
 30
0.0
 10
3.6072562471
 20
5.1546749977
 30
0.0
 10
3.6052420727
 20
5.1556124071
 30
0.0
 10
3.6031726885
 20
5.1564417025
 30
0.0
 10
3.6005051325
 20
5.1572631732
 30
0.0
 10
3.5972196966
 20
5.1578781548
 30
0.0
 10
3.5949968454
 20
5.1580220713
 30
0.0
 10
3.5938888374
 20
5.1580220713
 30
0.0
 11
3.6167762503
 21
5.14656037
 31
0.0
 11
3.6157752826
 21
5.1478454754
 31
0.0
 11
3.6146917553
 21
5.1490655495
 31
0.0
 11
3.6135305139
 21
5.1502178718
 31
0.0
 11
3.6122970222
 21
5.1513004612
 31
0.0
 11
3.6096351423
 21
5.1532485188
 31
0.0
 11
3.6067498251
 21
5.1548938763
 31
0.0
 11
3.605237047
 21
5.155598063
 31
0.0
 11
3.6036850899
 21
5.1562198512
 31
0.0
 11
3.6004877777
 21
5.157202137
 31
0.0
 11
3.5972062388
 21
5.1578123508
 31
0.0
 11
3.5938888374
 21
5.1580220713
 31
0.0
  0
SPLINE
  5
234
100
AcDbEntity
  8
0
100
AcDbSpline
 62
9
  6
CONTINUOUS
 70
0
 71
3
 72
25
 73
21
 74
19
 42
0.0000001
 43
0.0000001
 44
0.0000000001
 12
-0.0396676774
 22
0.0
 32
0.0
 13
0.0013380285
 23
-0.0396451045
 33
0.0
 40
0.0
 40
0.0
 40
0.0
 40
0.0
 40
0.0697952341
 40
0.1395830449
 40
0.2090743806
 40
0.2779347903
 40
0.3120229999
 40
0.345820798
 40
0.4124073476
 40
0.4775009876
 40
0.5409635091
 40
0.6027498665
 40
0.6629380528
 40
0.7216805097
 40
0.7791276595
 40
0.8354384347
 40
0.8632378729
 40
0.8908307682
 40
0.9455514313
 40
1.0
 40
1.0
 40
1.0
 40
1.0
 10
8.3438888374
 20
5.1056991295
 30
0.0
 10
8.3429659658
 20
5.1056991295
 30
0.0
 10
8.3411194599
 20
5.1056190351
 30
0.0
 10
8.3383738507
 20
5.1052731861
 30
0.0
 10
8.3356761148
 20
5.1047149477
 30
0.0
 10
8.3334832091
 20
5.1040815836
 30
0.0
 10
8.3317777483
 20
5.1034797432
 30
0.0
 10
8.3301250028
 20
5.1028230006
 30
0.0
 10
8.3281408931
 20
5.1018943493
 30
0.0
 10
8.3259019823
 20
5.1006051709
 30
0.0
 10
8.3238414666
 20
5.099153357
 30
0.0
 10
8.3219843721
 20
5.0975453509
 30
0.0
 10
8.3203572049
 20
5.095788647
 30
0.0
 10
8.3189704575
 20
5.0939073666
 30
0.0
 10
8.3178331291
 20
5.0919245044
 30
0.0
 10
8.3170973761
 20
5.090198086
 30
0.0
 10
8.3166452531
 20
5.0887911168
 30
0.0
 10
8.3162865852
 20
5.0873791486
 30
0.0
 10
8.3160062644
 20
5.0855876904
 30
0.0
 10
8.3159640161
 20
5.084140396
 30
0.0
 10
8.3159883007
 20
5.0834208563
 30
0.0
 11
8.3438888374
 21
5.1056991295
 31
0.0
 11
8.34112273
 21
5.1055813262
 31
0.0
 11
8.3383759377
 21
5.1052367537
 31
0.0
 11
8.3356764631
 21
5.1046786685
 31
0.0
 11
8.3330523084
 21
5.103920327
 31
0.0
 11
8.3317772267
 21
5.1034702027
 31
0.0
 11
8.3305314139
 21
5.1029748506
 31
0.0
 11
8.3281403998
 21
5.1018524889
 31
0.0
 11
8.3259046225
 21
5.1005607419
 31
0.0
 11
8.3238493877
 21
5.0991069995
 31
0.0
 11
8.3220000009
 21
5.0974986513
 31
0.0
 11
8.3203789602
 21
5.0957457951
 31
0.0
 11
8.3189979662
 21
5.0938689414
 31
0.0
 11
8.3178661248
 21
5.0918911038
 31
0.0
 11
8.3169925417
 21
5.0898352956
 31
0.0
 11
8.3166554426
 21
5.0887853442
 31
0.0
 11
8.3163861173
 21
5.0877244508
 31
0.0
 11
8.316051312
 21
5.0855797852
 31
0.0
 11
8.3159883007
 21
5.0834208563
 31
0.0
  0
SPLINE
  5
235
100
AcDbEntity
  8
0
100
AcDbSpline
 62
9
  6
CONTINUOUS
 70
0
 71
3
 72
29
 73
25
 74
23
 42
0.0000001
 43
0.0000001
 44
0.0000000001
 12
-0.0012942482
 22
0.0384944493
 32
0.0
 13
-0.0385162006
 23
0.0
 33
0.0
 40
0.0
 40
0.0
 40
0.0
 40
0.0
 40
0.0271268505
 40
0.0543207381
 40
0.0816251031
 40
0.1090837717
 40
0.1645958309
 40
0.221103921
 40
0.2497938971
 40
0.2787912052
 40
0.3377557133
 40
0.3677797491
 40
0.3981822491
 40
0.4289794827
 40
0.4601797855
 40
0.5237703526
 40
0.5889063988
 40
0.6554439036
 40
0.6891836278
 40
0.7231912891
 40
0.7918314475
 40
0.8610448457
 40
0.9305231238
 40
1.0
 40
1.0
 40
1.0
 40
1.0
 10
8.3717894483
 20
5.0845771428
 30
0.0
 10
8.3717777454
 20
5.0849252205
 30
0.0
 10
8.3717330874
 20
5.0856217092
 30
0.0
 10
8.3716025782
 20
5.0866621241
 30
0.0
 10
8.3714084746
 20
5.0876969758
 30
0.0
 10
8.3710637834
 20
5.0890709226
 30
0.0
 10
8.3704711947
 20
5.0907655364
 30
0.0
 10
8.3696793648
 20
5.0923938751
 30
0.0
 10
8.3689295903
 20
5.0936545493
 30
0.0
 10
8.3680935064
 20
5.094897861
 30
0.0
 10
8.3671450119
 20
5.0960834882
 30
0.0
 10
8.3660943947
 20
5.0972003645
 30
0.0
 10
8.3652470464
 20
5.0980097302
 30
0.0
 10
8.3643475145
 20
5.0987839141
 30
0.0
 10
8.363074662
 20
5.0997745721
 30
0.0
 10
8.3613662356
 20
5.1009190957
 30
0.0
 10
8.3591681132
 20
5.1021302246
 30
0.0
 10
8.3572292849
 20
5.1030026393
 30
0.0
 10
8.3556189752
 20
5.1036194043
 30
0.0
 10
8.353961083
 20
5.1041840345
 30
0.0
 10
8.3518337056
 20
5.1047778092
 30
0.0
 10
8.3492211475
 20
5.1053007137
 30
0.0
 10
8.3465656219
 20
5.1056242975
 30
0.0
 10
8.3447808325
 20
5.1056991295
 30
0.0
 10
8.3438888374
 20
5.1056991295
 30
0.0
 11
8.3717894483
 21
5.0845771428
 31
0.0
 11
8.3717226198
 21
5.0856198266
 31
0.0
 11
8.3715923135
 21
5.0866590946
 31
0.0
 11
8.3713985293
 21
5.087692747
 31
0.0
 11
8.3711412673
 21
5.088718584
 31
0.0
 11
8.3704374969
 21
5.0907375533
 31
0.0
 11
8.3694876535
 21
5.0926958305
 31
0.0
 11
8.3689230237
 21
5.0936457157
 31
0.0
 11
8.3682999589
 21
5.0945726355
 31
0.0
 11
8.3668826353
 21
5.0963471884
 31
0.0
 11
8.366090432
 21
5.0971896267
 31
0.0
 11
8.3652439692
 21
5.0979987716
 31
0.0
 11
8.3643453199
 21
5.0987730337
 31
0.0
 11
8.3633973201
 21
5.0995115595
 31
0.0
 11
8.361364694
 21
5.1008780661
 31
0.0
 11
8.3591689408
 21
5.1020916189
 31
0.0
 11
8.3568329102
 21
5.1031455451
 31
0.0
 11
8.3556194324
 21
5.1036105608
 31
0.0
 11
8.3543795575
 21
5.1040329426
 31
0.0
 11
8.3518332006
 21
5.1047439446
 31
0.0
 11
8.3492191052
 21
5.105266623
 31
0.0
 11
8.3465625559
 21
5.1055890079
 31
0.0
 11
8.3438888374
 21
5.1056991295
 31
0.0
  0
ENDSEC
  0
SECTION
  2
OBJECTS
  0
DICTIONARY
  5
C
100
AcDbDictionary
280
0
281
1
  3
ACAD_GROUP
350
D
  3
ACAD_MLINESTYLE
350
17
  3
ACAD_LAYOUT
350
1A
  3
ACAD_PLOTSETTINGS
350
19
  3
ACAD_PLOTSTYLENAME
350
E
  0
DICTIONARY
  5
D
102
{ACAD_REACTORS
330
C
102
}
100
AcDbDictionary
280
0
281
1
  0
ACDBDICTIONARYWDFLT
  5
E
102
{ACAD_REACTORS
330
C
102
}
100
AcDbDictionary
281
1
  3
Normal
350
F
100
AcDbDictionaryWithDefault
340
F
  0
DICTIONARY
  5
17
102
{ACAD_REACTORS
330
C
102
}
100
AcDbDictionary
280
0
281
1
  3
Standard
350
18
  0
DICTIONARY
  5
19
102
{ACAD_REACTORS
330
C
102
}
100
AcDbDictionary
281
1
  0
DICTIONARY
  5
1A
102
{ACAD_REACTORS
330
C
102
}
100
AcDbDictionary
281
1
  3
Model
350
236
  3
Layout1
350
237
  0
ACDBPLACEHOLDER
  5
F
102
{ACAD_REACTORS
330
E
102
}
  0
MLINESTYLE
  5
18
102
{ACAD_REACTORS
330
17
102
}
100
AcDbMlineStyle
  2
STANDARD
 70
0
  3

 62
256
 51
90.0
 52
90.0
 71
2
 49
0.5
 62
256
  6
BYLAYER
 49
-0.5
 62
256
  6
BYLAYER
  0
LAYOUT
  5
236
102
{ACAD_REACTORS
330
1A
102
}
100
AcDbPlotSettings
  1

  2
none_device
  4
ISO_A4_(297.00_x_210.00_MM)
  6

 40
0.0
 41
0.0
 42
0.0
 43
0.0
 44
297.0
 45
210.0
 46
0.0
 47
0.0
 48
0.0
 49
0.0
140
0.0
141
0.0
142
1.0
143
1.0
 70
1024
 72
0
 73
0
 74
0
  7

 75
0
147
1.0
148
0.0
149
0.0
100
AcDbLayout
  1
Model
 70
0
 71
0
 10
0.0
 20
0.0
 11
11.6929133858
 21
8.2677165354
 12
0.0
 22
0.0
 32
0.0
 14
0.0
 24
0.0
 34
0.0
 15
0.0
 25
0.0
 35
0.0
146
0.0
 13
0.0
 23
0.0
 33
0.0
 16
1.0
 26
0.0
 36
0.0
 17
0.0
 27
1.0
 37
0.0
 76
0
330
203
345
0
346
0
  0
LAYOUT
  5
237
102
{ACAD_REACTORS
330
1A
102
}
100
AcDbPlotSettings
  1

  2
none_device
  4
ISO_A4_(297.00_x_210.00_MM)
  6

 40
0.0
 41
0.0
 42
0.0
 43
0.0
 44
297.0
 45
210.0
 46
0.0
 47
0.0
 48
0.0
 49
0.0
140
0.0
141
0.0
142
1.0
143
1.0
 70
0
 72
0
 73
0
 74
0
  7

 75
0
147
1.0
148
0.0
149
0.0
100
AcDbLayout
  1
Layout1
 70
0
 71
1
 10
0.0
 20
0.0
 11
11.6929133858
 21
8.2677165354
 12
0.0
 22
0.0
 32
0.0
 14
0.0
 24
0.0
 34
0.0
 15
0.0
 25
0.0
 35
0.0
146
0.0
 13
0.0
 23
0.0
 33
0.0
 16
1.0
 26
0.0
 36
0.0
 17
0.0
 27
1.0
 37
0.0
 76
0
330
204
345
0
346
0
  0
ENDSEC
  0
EOF
