  0
SECTION
  2
HEADER
  9
$ACADVER
  1
AC1015
  9
$DWGCODEPAGE
  3
ANSI_1252
  9
$EXTMAX
 10
11.6929133858
 20
8.2677165354
 30
0.0
  9
$EXTMIN
 10
0.0
 20
0.0
 30
0.0
  9
$LIMMIN
 10
0.0
 20
0.0
  9
$LIMMAX
 10
11.6929133858
 20
8.2677165354
  9
$VIEWCTR
 10
5.8464566929
 20
4.1338582677
  9
$VIEWSIZE
 40
8.2677165354
  9
$CLAYER
  8
0
  9
$LTSCALE
 40
0.6431102362
  9
$CELTYPE
  6
BYLAYER
  9
$DIMSCALE
 40
1.0
  9
$DIMASZ
 40
0.1875
  9
$DIMEXO
 40
0.0730807087
  9
$DIMDLI
 40
0.4443307087
  9
$DIMEXE
 40
0.2104724409
  9
$DIMCEN
 40
0.1052362205
  9
$DIMLFAC
 40
1.0
  9
$DIMBLK
  1
_CLOSED
  9
$DIMTXT
 40
0.15625
  9
$DIMTOL
 70
0
  9
$DIMLIM
 70
0
  9
$DIMTFAC
 40
1.0
  9
$PDMODE
 70
3
  9
$PDSIZE
 40
0.3125
  9
$HANDSEED
  5
26D
  9
$TILEMODE
 70
1
  9
$MEASUREMENT
 70
0
  9
$INSUNITS
 70
1
  0
ENDSEC
  0
SECTION
  2
CLASSES
  0
CLASS
  1
ACDBDICTIONARYWDFLT
  2
AcDbDictionaryWithDefault
  3
AutoCAD 2000
 90
0
280
0
281
0
  0
CLASS
  1
ACDBPLACEHOLDER
  2
AcDbPlaceHolder
  3
AutoCAD 2000
 90
0
280
0
281
0
  0
CLASS
  1
LAYOUT
  2
AcDbLayout
  3
AutoCAD 2000
 90
0
280
0
281
0
  0
ENDSEC
  0
SECTION
  2
TABLES
  0
TABLE
  2
VPORT
  5
8
100
AcDbSymbolTable
 70
2
  0
VPORT
  5
1F4
100
AcDbSymbolTableRecord
100
AcDbViewportTableRecord
  2
*ACTIVE
 70
0
 10
0.0
 20
0.0
 11
1.0
 21
1.0
 12
5.8464566929
 22
4.1338582677
 13
0.0
 23
0.0
 14
1.0
 24
1.0
 15
0.0
 25
0.0
 16
0.0
 26
0.0
 36
1.0
 17
0.0
 27
0.0
 37
0.0
 40
8.2677165354
 41
1.4142857143
 42
50.0
 43
0.0
 44
0.0
 50
0.0
 51
0.0
 71
0
 72
100
 73
1
 74
1
 75
0
 76
0
 77
0
 78
0
  0
ENDTAB
  0
TABLE
  2
LTYPE
  5
5
100
AcDbSymbolTable
 70
6
  0
LTYPE
  5
14
100
AcDbSymbolTableRecord
100
AcDbLinetypeTableRecord
  2
BYBLOCK
 70
0
  3

 72
65
 73
0
 40
0.0
  0
LTYPE
  5
15
100
AcDbSymbolTableRecord
100
AcDbLinetypeTableRecord
  2
BYLAYER
 70
0
  3

 72
65
 73
0
 40
0.0
  0
LTYPE
  5
16
100
AcDbSymbolTableRecord
100
AcDbLinetypeTableRecord
  2
CONTINUOUS
 70
64
  3
Solid line
 72
65
 73
0
 40
0.0
  0
LTYPE
  5
1F5
100
AcDbSymbolTableRecord
100
AcDbLinetypeTableRecord
  2
CENTER
 70
64
  3
____ _ ____ _ ____ _ ____ _ ____ _ ____ _ ____
 72
65
 73
4
 40
0.6
 49
0.375
 74
0
 49
-0.075
 74
0
 49
0.075
 74
0
 49
-0.075
 74
0
  0
LTYPE
  5
1F6
100
AcDbSymbolTableRecord
100
AcDbLinetypeTableRecord
  2
HIDDEN
 70
64
  3
- - - - - - - - - - - - - - - - - - - -
 72
65
 73
2
 40
0.2
 49
0.1
 74
0
 49
-0.1
 74
0
  0
LTYPE
  5
1F7
100
AcDbSymbolTableRecord
100
AcDbLinetypeTableRecord
  2
PHANTOM
 70
64
  3
_____ _ _ _____ _ _ _____ _ _ _____
 72
65
 73
6
 40
0.8
 49
0.45
 74
0
 49
-0.05
 74
0
 49
0.1
 74
0
 49
-0.05
 74
0
 49
0.1
 74
0
 49
-0.05
 74
0
  0
LTYPE
  5
1F8
100
AcDbSymbolTableRecord
100
AcDbLinetypeTableRecord
  2
DOT
 70
64
  3
. . . . . . . . . . . . . . . . . . . .
 72
65
 73
2
 40
0.2
 49
0.1
 74
0
 49
-0.1
 74
0
  0
LTYPE
  5
1F9
100
AcDbSymbolTableRecord
100
AcDbLinetypeTableRecord
  2
DASHED
 70
64
  3
- - - - - - - - - - - - - - - - - - - -
 72
65
 73
2
 40
0.2
 49
0.1
 74
0
 49
-0.1
 74
0
  0
ENDTAB
  0
TABLE
  2
LAYER
  5
2
100
AcDbSymbolTable
 70
36
  0
LAYER
  5
10
100
AcDbSymbolTableRecord
100
AcDbLayerTableRecord
  2
0
 70
0
 62
7
  6
CONTINUOUS
370
-3
390
F
  0
LAYER
  5
1FA
100
AcDbSymbolTableRecord
100
AcDbLayerTableRecord
  2
DEFAULT_1
 70
0
 62
7
  6
CENTER
370
-3
390
F
  0
LAYER
  5
1FB
100
AcDbSymbolTableRecord
100
AcDbLayerTableRecord
  2
DEFAULT_2
 70
0
 62
8
  6
HIDDEN
370
-3
390
F
  0
LAYER
  5
1FC
100
AcDbSymbolTableRecord
100
AcDbLayerTableRecord
  2
DEFAULT_3
 70
0
 62
7
  6
PHANTOM
370
-3
390
F
  0
LAYER
  5
1FD
100
AcDbSymbolTableRecord
100
AcDbLayerTableRecord
  2
DEFAULT_COORDINATE_SYSTEM
 70
0
 62
7
  6
CONTINUOUS
370
-3
390
F
  0
LAYER
  5
1FE
100
AcDbSymbolTableRecord
100
AcDbLayerTableRecord
  2
DEFAULT_DATUM_AXES
 70
0
 62
7
  6
CONTINUOUS
370
-3
390
F
  0
LAYER
  5
1FF
100
AcDbSymbolTableRecord
100
AcDbLayerTableRecord
  2
DEFAULT_DATUM_CURVES
 70
0
 62
7
  6
CONTINUOUS
370
-3
390
F
  0
LAYER
  5
200
100
AcDbSymbolTableRecord
100
AcDbLayerTableRecord
  2
DEFAULT_DATUM_PLANES
 70
0
 62
7
  6
CONTINUOUS
370
-3
390
F
  0
ENDTAB
  0
TABLE
  2
STYLE
  5
3
100
AcDbSymbolTable
 70
1
  0
STYLE
  5
11
100
AcDbSymbolTableRecord
100
AcDbTextStyleTableRecord
  2
STANDARD
 70
0
 40
0.0
 41
0.8
 50
0.0
 71
0
 42
0.2
  3
txt
  4

  0
STYLE
  5
201
100
AcDbSymbolTableRecord
100
AcDbTextStyleTableRecord
  2
TEXTSTYLE_1
 70
0
 40
0.0
 41
0.8
 50
0.0
 71
0
 42
0.2
  3
gdt
  4

  0
ENDTAB
  0
TABLE
  2
VIEW
  5
6
100
AcDbSymbolTable
 70
0
  0
ENDTAB
  0
TABLE
  2
UCS
  5
7
100
AcDbSymbolTable
 70
0
  0
ENDTAB
  0
TABLE
  2
APPID
  5
9
100
AcDbSymbolTable
 70
1
  0
APPID
  5
202
100
AcDbSymbolTableRecord
100
AcDbRegAppTableRecord
  2
ACAD
 70
0
  0
ENDTAB
  0
TABLE
  2
BLOCK_RECORD
  5
1
100
AcDbSymbolTable
 70
0
  0
BLOCK_RECORD
  5
203
100
AcDbSymbolTableRecord
100
AcDbBlockTableRecord
  2
*Model_Space
  0
BLOCK_RECORD
  5
204
100
AcDbSymbolTableRecord
100
AcDbBlockTableRecord
  2
*Paper_Space
  0
ENDTAB
  0
TABLE
  2
DIMSTYLE
  5
A
100
AcDbSymbolTable
 70
1
100
AcDbDimStyleTable
 71
0
  0
DIMSTYLE
105
205
100
AcDbSymbolTableRecord
100
AcDbDimStyleTableRecord
  2
STANDARD
 70
0
  3

  4

 40
1.0
 41
0.1875
 42
0.0625
 43
0.38
 44
0.18
 45
0.0
 46
0.0
 47
0.01
 48
0.01
140
0.15625
141
0.09
142
0.0
143
25.4
144
1.0
145
0.0
146
1.0
147
0.09
 71
0.0
 72
0.0
 73
1
 74
1
 75
0
 76
0
 77
0
 78
4
170
0
171
2
172
0
173
0
174
0
175
0
176
0
177
0
178
0
270
2
271
2
272
2
273
2
274
2
275
0
280
0
281
0
282
0
283
1
284
4
285
0
286
0
287
3
288
0
340
11
  0
ENDTAB
  0
ENDSEC
  0
SECTION
  2
BLOCKS
  0
BLOCK
  5
20
100
AcDbEntity
  8
0
100
AcDbBlockBegin
  2
*Model_Space
 70
0
 10
0.0
 20
0.0
 30
0.0
  3
*Model_Space
  1

  0
ENDBLK
  5
21
100
AcDbEntity
  8
0
100
AcDbBlockEnd
  0
BLOCK
  5
1C
100
AcDbEntity
  8
0
100
AcDbBlockBegin
  2
*Paper_Space
 70
0
 10
0.0
 20
0.0
 30
0.0
  3
*Paper_Space
  1

  0
ENDBLK
  5
1D
100
AcDbEntity
  8
0
100
AcDbBlockEnd
  0
ENDSEC
  0
SECTION
  2
ENTITIES
  0
LINE
  5
206
100
AcDbEntity
  8
0
100
AcDbLine
 62
6
  6
CONTINUOUS
 10
1.369738681
 20
5.7749521908
 11
1.3614758369
 21
5.8693969318
  0
LINE
  5
207
100
AcDbEntity
  8
0
100
AcDbLine
 62
6
  6
CONTINUOUS
 10
2.0714758369
 20
5.2693969318
 11
2.0714758369
 21
5.1523172351
  0
LINE
  5
208
100
AcDbEntity
  8
0
100
AcDbLine
 62
9
  6
CONTINUOUS
 10
3.1692127124
 20
2.9693969318
 11
3.1692127124
 21
3.7193969318
  0
LINE
  5
209
100
AcDbEntity
  8
0
100
AcDbLine
 62
6
  6
CONTINUOUS
 10
3.2164758369
 20
5.2693969318
 11
3.2164758369
 21
5.1523172351
  0
LINE
  5
20A
100
AcDbEntity
  8
0
100
AcDbLine
 62
6
  6
CONTINUOUS
 10
3.9182129927
 20
5.7749521908
 11
3.9264758369
 21
5.8693969318
  0
LWPOLYLINE
  5
20B
100
AcDbEntity
  8
0
100
AcDbPolyline
 62
6
  6
CONTINUOUS
 90
7
 70
0
 10
8.0131048307
 20
2.9353192481
 10
8.0169272836
 20
2.9355029227
 10
8.0217012222
 20
2.9362428283
 10
8.026555342
 20
2.9375772112
 10
8.0314027636
 20
2.9395127277
 10
8.0361561671
 20
2.9420314986
 10
8.0396969185
 20
2.9443969318
  0
LWPOLYLINE
  5
20C
100
AcDbEntity
  8
0
100
AcDbPolyline
 62
6
  6
CONTINUOUS
 90
9
 70
0
 10
3.69268945
 20
2.9550562035
 10
3.696557698
 20
2.9552409577
 10
3.7013802147
 20
2.9559834774
 10
3.7062860679
 20
2.9573224997
 10
3.711203591
 20
2.9592719567
 10
3.7160562242
 20
2.9618262932
 10
3.7207474033
 20
2.9649418676
 10
3.7251963821
 20
2.9685440333
 10
3.7260829499
 20
2.9693969318
  0
LWPOLYLINE
  5
20D
100
AcDbEntity
  8
0
100
AcDbPolyline
 62
6
  6
CONTINUOUS
 90
7
 70
0
 10
4.1726875632
 20
2.9599899685
 10
4.1765554127
 20
2.9601738188
 10
4.1813943286
 20
2.9609162928
 10
4.1863204296
 20
2.9622575776
 10
4.1912535744
 20
2.9642089308
 10
4.1961117613
 20
2.9667594359
 10
4.2000965655
 20
2.9693969318
  0
LWPOLYLINE
  5
20E
100
AcDbEntity
  8
0
100
AcDbPolyline
 62
6
  6
CONTINUOUS
 90
3
 70
0
 10
7.5331106223
 20
2.9441058683
 10
7.5368531805
 20
2.9442806186
 10
7.5376178522
 20
2.9443969318
  0
LWPOLYLINE
  5
20F
100
AcDbEntity
  8
0
100
AcDbPolyline
 62
6
  6
CONTINUOUS
 90
6
 70
0
 10
4.6526858181
 20
2.9649237329
 10
4.656276543
 20
2.965081515
 10
4.660813952
 20
2.965727596
 10
4.6654333458
 20
2.966896773
 10
4.6700811518
 20
2.9686048455
 10
4.6717068408
 20
2.9693969318
  0
LWPOLYLINE
  5
210
100
AcDbEntity
  8
0
100
AcDbPolyline
 62
6
  6
CONTINUOUS
 90
23
 70
0
 10
8.3506629098
 20
2.9270991537
 10
8.3524558088
 20
2.9271620605
 10
8.3548536411
 20
2.9274400018
 10
8.3572875076
 20
2.9279474973
 10
8.3597047946
 20
2.9286807357
 10
8.3620558693
 20
2.9296244009
 10
8.3642943986
 20
2.9307526372
 10
8.3663776287
 20
2.9320291844
 10
8.3682611291
 20
2.9334021716
 10
8.3699121279
 20
2.9348107293
 10
8.3713238628
 20
2.9362020539
 10
8.3725073072
 20
2.9375346835
 10
8.3734884323
 20
2.9387851748
 10
8.3743191983
 20
2.9399758473
 10
8.3750432666
 20
2.9411405355
 10
8.3756873804
 20
2.9423056697
 10
8.3762549428
 20
2.9434614285
 10
8.3767424086
 20
2.9445779264
 10
8.3771527949
 20
2.9456322364
 10
8.3774946912
 20
2.9466132294
 10
8.3777804063
 20
2.947524268
 10
8.3780210811
 20
2.9483728606
 10
8.3781492721
 20
2.9488702208
  0
LWPOLYLINE
  5
211
100
AcDbEntity
  8
0
100
AcDbPolyline
 62
6
  6
CONTINUOUS
 90
19
 70
0
 10
3.4763960646
 20
2.9515580357
 10
3.4781374205
 20
2.951617495
 10
3.4805179936
 20
2.9518884151
 10
3.4829542074
 20
2.9523909313
 10
3.4853779862
 20
2.9531213558
 10
3.4877259028
 20
2.9540594126
 10
3.4899403234
 20
2.9551700174
 10
3.4919775045
 20
2.9564092368
 10
3.4938227856
 20
2.9577402963
 10
3.4954720788
 20
2.9591303792
 10
3.4969255239
 20
2.9605479257
 10
3.4981715413
 20
2.9619438531
 10
3.4991944025
 20
2.9632494098
 10
3.500032741
 20
2.9644582078
 10
3.5007634233
 20
2.9656447001
 10
3.5014272657
 20
2.9668638926
 10
3.5020129169
 20
2.9680851253
 10
3.5025083477
 20
2.96925865
 10
3.5025598363
 20
2.9693969318
  0
LINE
  5
212
100
AcDbEntity
  8
0
100
AcDbLine
 62
6
  6
CONTINUOUS
 10
5.4489758369
 20
2.9443969318
 11
7.5286046231
 21
2.9443969318
  0
LINE
  5
213
100
AcDbEntity
  8
0
100
AcDbLine
 62
6
  6
CONTINUOUS
 10
7.5331105676
 20
2.9443969318
 11
8.3246577419
 21
2.9443969318
  0
LINE
  5
214
100
AcDbEntity
  8
0
100
AcDbLine
 62
6
  6
CONTINUOUS
 10
5.4489758369
 20
2.9693969318
 11
3.1692127124
 21
2.9693969318
  0
LINE
  5
215
100
AcDbEntity
  8
0
100
AcDbLine
 62
6
  6
CONTINUOUS
 10
3.496852312
 20
3.3443969318
 11
3.4410993617
 21
3.3443969318
  0
LWPOLYLINE
  5
216
100
AcDbEntity
  8
0
100
AcDbPolyline
 62
6
  6
CONTINUOUS
 90
6
 70
0
 10
7.7731078523
 20
3.7490813038
 10
7.7693199579
 20
3.7489015983
 10
7.7645063424
 20
3.7481600473
 10
7.7596118353
 20
3.7468164244
 10
7.7547213622
 20
3.7448626257
 10
7.753844083
 20
3.7443969318
  0
LWPOLYLINE
  5
217
100
AcDbEntity
  8
0
100
AcDbPolyline
 62
6
  6
CONTINUOUS
 90
6
 70
0
 10
8.2531209768
 20
3.7580300186
 10
8.2499302304
 20
3.7578972298
 10
8.245669025
 20
3.7573120273
 10
8.2412699084
 20
3.7562230219
 10
8.2368407627
 20
3.754622403
 10
8.2324857358
 20
3.75253637
  0
LWPOLYLINE
  5
218
100
AcDbEntity
  8
0
100
AcDbPolyline
 62
6
  6
CONTINUOUS
 90
19
 70
0
 10
8.3683264067
 20
3.7623719168
 10
8.3666330799
 20
3.7623156028
 10
8.364262704
 20
3.7620503181
 10
8.3618393613
 20
3.7615558236
 10
8.3594257189
 20
3.7608347645
 10
8.3570799929
 20
3.7599043941
 10
8.3548554865
 20
3.7587950496
 10
8.3527948672
 20
3.7575459347
 10
8.3509194171
 20
3.7561940727
 10
8.3492408606
 20
3.7547759098
 10
8.3477653022
 20
3.7533286752
 10
8.3464991392
 20
3.7518970861
 10
8.3454421327
 20
3.7505280547
 10
8.3445644348
 20
3.7492328347
 10
8.3438251341
 20
3.7479929085
 10
8.3431920731
 20
3.7467866551
 10
8.3426490312
 20
3.7456121827
 10
8.3421862399
 20
3.7444759036
 10
8.3421579231
 20
3.7443969318
  0
LINE
  5
219
100
AcDbEntity
  8
0
100
AcDbLine
 62
6
  6
CONTINUOUS
 10
5.4489758369
 20
3.7193969318
 11
3.1692127124
 21
3.7193969318
  0
LINE
  5
21A
100
AcDbEntity
  8
0
100
AcDbLine
 62
6
  6
CONTINUOUS
 10
5.4489758369
 20
2.9444078346
 11
5.4489758369
 21
3.744386029
  0
LWPOLYLINE
  5
21B
100
AcDbEntity
  8
0
100
AcDbPolyline
 62
6
  6
CONTINUOUS
 90
8
 70
0
 10
3.9326886462
 20
3.7312707766
 10
3.9288907565
 20
3.7310930671
 10
3.924068263
 20
3.7303605614
 10
3.9191621702
 20
3.7290332914
 10
3.9142387239
 20
3.7270951834
 10
3.9093710555
 20
3.7245480117
 10
3.9046599425
 20
3.7214349056
 10
3.9021316262
 20
3.7193969318
  0
LWPOLYLINE
  5
21C
100
AcDbEntity
  8
0
100
AcDbPolyline
 62
6
  6
CONTINUOUS
 90
7
 70
0
 10
4.4126867155
 20
3.7263370138
 10
4.4089078865
 20
3.7261619092
 10
4.4040855893
 20
3.7254351264
 10
4.3991755628
 20
3.7241152786
 10
4.3942536549
 20
3.7221896541
 10
4.3893989365
 20
3.7196664129
 10
4.3889879454
 20
3.7193969318
  0
LWPOLYLINE
  5
21D
100
AcDbEntity
  8
0
100
AcDbPolyline
 62
6
  6
CONTINUOUS
 90
4
 70
0
 10
4.8926844928
 20
3.7214032459
 10
4.8889109674
 20
3.7212294759
 10
4.8840886056
 20
3.7205068034
 10
4.8799376289
 20
3.7193969318
  0
LWPOLYLINE
  5
21E
100
AcDbEntity
  8
0
100
AcDbPolyline
 62
6
  6
CONTINUOUS
 90
16
 70
0
 10
3.5020698742
 20
3.7366813566
 10
3.5000574493
 20
3.7366057545
 10
3.4973313774
 20
3.7362654991
 10
3.494561469
 20
3.7356403282
 10
3.4918336601
 20
3.734741893
 10
3.4892304026
 20
3.7336061036
 10
3.4868236521
 20
3.7322894073
 10
3.4846669571
 20
3.7308615004
 10
3.4827611173
 20
3.7293709615
 10
3.4810521171
 20
3.7278151965
 10
3.4795005066
 20
3.7261821733
 10
3.4781132393
 20
3.7244988705
 10
3.4769083904
 20
3.7228182315
 10
3.4758825773
 20
3.721180593
 10
3.4750055516
 20
3.7195869654
 10
3.4749130373
 20
3.7193969318
  0
LINE
  5
21F
100
AcDbEntity
  8
0
100
AcDbLine
 62
6
  6
CONTINUOUS
 10
5.4489758369
 20
3.7443969318
 11
8.3486163799
 21
3.7443969318
  0
LINE
  5
220
100
AcDbEntity
  8
0
100
AcDbLine
 62
7
  6
CONTINUOUS
 10
9.2014758369
 20
3.8423969318
 11
8.5864758369
 21
3.8423969318
  0
LINE
  5
221
100
AcDbEntity
  8
0
100
AcDbLine
 62
7
  6
CONTINUOUS
 10
2.9514758369
 20
3.8423969318
 11
2.3364758369
 21
3.8423969318
  0
LINE
  5
222
100
AcDbEntity
  8
0
100
AcDbLine
 62
6
  6
CONTINUOUS
 10
2.3324758369
 20
3.8506560795
 11
2.9554758369
 21
3.8506560795
  0
LINE
  5
223
100
AcDbEntity
  8
0
100
AcDbLine
 62
6
  6
CONTINUOUS
 10
8.5824758369
 20
3.8506560795
 11
9.2054758369
 21
3.8506560795
  0
LINE
  5
224
100
AcDbEntity
  8
0
100
AcDbLine
 62
6
  6
CONTINUOUS
 10
2.3324758369
 20
3.9126560795
 11
2.9554758369
 21
3.9126560795
  0
LINE
  5
225
100
AcDbEntity
  8
0
100
AcDbLine
 62
6
  6
CONTINUOUS
 10
8.5824758369
 20
3.9126560795
 11
9.2054758369
 21
3.9126560795
  0
LINE
  5
226
100
AcDbEntity
  8
0
100
AcDbLine
 62
9
  6
CONTINUOUS
 10
9.4569591673
 20
5.0986643329
 11
8.3309925065
 21
5.0986643329
  0
LINE
  5
227
100
AcDbEntity
  8
0
100
AcDbLine
 62
9
  6
CONTINUOUS
 10
3.2069591673
 20
5.0986643329
 11
2.0809925065
 21
5.0986643329
  0
LINE
  5
228
100
AcDbEntity
  8
0
100
AcDbLine
 62
9
  6
CONTINUOUS
 10
9.4664758369
 20
5.1523172351
 11
8.3214758369
 21
5.1523172351
  0
LINE
  5
229
100
AcDbEntity
  8
0
100
AcDbLine
 62
9
  6
CONTINUOUS
 10
3.2164758369
 20
5.1523172351
 11
2.0714758369
 21
5.1523172351
  0
LINE
  5
22A
100
AcDbEntity
  8
0
100
AcDbLine
 62
6
  6
CONTINUOUS
 10
1.9789758369
 20
5.2693969318
 11
3.3089758369
 21
5.2693969318
  0
LINE
  5
22B
100
AcDbEntity
  8
0
100
AcDbLine
 62
6
  6
CONTINUOUS
 10
8.2289758369
 20
5.2693969318
 11
9.5589758369
 21
5.2693969318
  0
LINE
  5
22C
100
AcDbEntity
  8
0
100
AcDbLine
 62
9
  6
CONTINUOUS
 10
1.8003797703
 20
5.4243969318
 11
3.4875719035
 21
5.4243969318
  0
LINE
  5
22D
100
AcDbEntity
  8
0
100
AcDbLine
 62
9
  6
CONTINUOUS
 10
8.0503797703
 20
5.4243969318
 11
9.7375719035
 21
5.4243969318
  0
LINE
  5
22E
100
AcDbEntity
  8
0
100
AcDbLine
 62
9
  6
CONTINUOUS
 10
1.6264901578
 20
5.5590545435
 11
3.6614615159
 21
5.5590545435
  0
LINE
  5
22F
100
AcDbEntity
  8
0
100
AcDbLine
 62
9
  6
CONTINUOUS
 10
7.8764901578
 20
5.5590545435
 11
9.9114615159
 21
5.5590545435
  0
LINE
  5
230
100
AcDbEntity
  8
0
100
AcDbLine
 62
6
  6
CONTINUOUS
 10
1.5560270896
 20
5.6042503147
 11
3.7319245842
 21
5.6042503147
  0
LINE
  5
231
100
AcDbEntity
  8
0
100
AcDbLine
 62
6
  6
CONTINUOUS
 10
7.8060270896
 20
5.6042503147
 11
9.9819245842
 21
5.6042503147
  0
LINE
  5
232
100
AcDbEntity
  8
0
100
AcDbLine
 62
9
  6
CONTINUOUS
 10
1.369738681
 20
5.7749521908
 11
3.9182129927
 21
5.7749521908
  0
LINE
  5
233
100
AcDbEntity
  8
0
100
AcDbLine
 62
9
  6
CONTINUOUS
 10
7.619738681
 20
5.7749521908
 11
10.1682129927
 21
5.7749521908
  0
LINE
  5
234
100
AcDbEntity
  8
0
100
AcDbLine
 62
6
  6
CONTINUOUS
 10
1.3614758369
 20
5.8693969318
 11
3.9264758369
 21
5.8693969318
  0
LINE
  5
235
100
AcDbEntity
  8
0
100
AcDbLine
 62
6
  6
CONTINUOUS
 10
7.6114758369
 20
5.8693969318
 11
10.1764758369
 21
5.8693969318
  0
LWPOLYLINE
  5
236
100
AcDbEntity
  8
0
100
AcDbPolyline
 62
6
  6
CONTINUOUS
 90
3
 70
0
 10
8.2287055
 20
3.7502798815
 10
8.2238197412
 20
3.7467735793
 10
8.2211440635
 20
3.7443969318
  0
LINE
  5
237
100
AcDbEntity
  8
0
100
AcDbLine
 62
9
  6
CONTINUOUS
 10
8.228834301
 20
3.7503723165
 11
8.2285221659
 21
3.7501704461
  0
LINE
  5
238
100
AcDbEntity
  8
0
100
AcDbLine
 62
6
  6
CONTINUOUS
 10
8.2324857358
 20
3.75253637
 11
8.2285221659
 21
3.7501704461
  0
LINE
  5
239
100
AcDbEntity
  8
0
100
AcDbLine
 62
6
  6
CONTINUOUS
 10
7.619738681
 20
5.7749521908
 11
7.6114758369
 21
5.8693969318
  0
LWPOLYLINE
  5
23A
100
AcDbEntity
  8
0
100
AcDbPolyline
 62
6
  6
CONTINUOUS
 90
35
 70
0
 10
8.3967184786
 20
3.7324791706
 10
8.396671909
 20
3.7331084965
 10
8.3966242392
 20
3.73371059
 10
8.3965749778
 20
3.7342905742
 10
8.3965234794
 20
3.7348540833
 10
8.3964689126
 20
3.7354071727
 10
8.3964101695
 20
3.7359566858
 10
8.3963457384
 20
3.7365106328
 10
8.3962735267
 20
3.7370785547
 10
8.3961906082
 20
3.7376719053
 10
8.3960932846
 20
3.7383018379
 10
8.395977051
 20
3.738978267
 10
8.3958361601
 20
3.7397112942
 10
8.3956636401
 20
3.7405096838
 10
8.3954511215
 20
3.7413807473
 10
8.3951900091
 20
3.7423256248
 10
8.3948752014
 20
3.7433301613
 10
8.3945045877
 20
3.7443742445
 10
8.3940631686
 20
3.7454731915
 10
8.3935213738
 20
3.7466620162
 10
8.3928682843
 20
3.7479195859
 10
8.3921140728
 20
3.7491920571
 10
8.3912390315
 20
3.7504885734
 10
8.3901887323
 20
3.7518544022
 10
8.3889222826
 20
3.7532918819
 10
8.3874430763
 20
3.7547474643
 10
8.3857612209
 20
3.7561722758
 10
8.3838835775
 20
3.7575289212
 10
8.381822466
 20
3.7587811563
 10
8.3795996183
 20
3.7598923932
 10
8.3772573905
 20
3.7608242256
 10
8.3748483667
 20
3.7615470387
 10
8.3724298984
 20
3.7620440249
 10
8.3700637034
 20
3.7623126522
 10
8.3683264115
 20
3.7623719168
  0
LINE
  5
23B
100
AcDbEntity
  8
0
100
AcDbLine
 62
6
  6
CONTINUOUS
 10
8.3968034475
 20
3.7312195488
 11
8.3967184786
 21
3.7324791706
  0
LINE
  5
23C
100
AcDbEntity
  8
0
100
AcDbLine
 62
6
  6
CONTINUOUS
 10
8.3214758369
 20
5.2693969318
 11
8.3214758369
 21
5.1523172351
  0
LINE
  5
23D
100
AcDbEntity
  8
0
100
AcDbLine
 62
9
  6
CONTINUOUS
 10
8.3486163799
 20
3.3443969318
 11
8.3486163799
 21
3.7443969318
  0
LINE
  5
23E
100
AcDbEntity
  8
0
100
AcDbLine
 62
6
  6
CONTINUOUS
 10
9.4664758369
 20
5.2693969318
 11
9.4664758369
 21
5.1523172351
  0
LINE
  5
23F
100
AcDbEntity
  8
0
100
AcDbLine
 62
6
  6
CONTINUOUS
 10
10.1682129927
 20
5.7749521908
 11
10.1764758369
 21
5.8693969318
  0
ARC
  5
240
100
AcDbEntity
  8
0
100
AcDbCircle
 62
6
  6
CONTINUOUS
 10
-2.0318086932
 20
3.5922559248
 40
4.38
100
AcDbArc
 50
4.1949776483
 51
20.1164231314
  0
ARC
  5
241
100
AcDbEntity
  8
0
100
AcDbCircle
 62
6
  6
CONTINUOUS
 10
4.2181913068
 20
3.5922559248
 40
4.38
100
AcDbArc
 50
4.1949776483
 51
20.1164231314
  0
ARC
  5
242
100
AcDbEntity
  8
0
100
AcDbCircle
 62
6
  6
CONTINUOUS
 10
2.6439758369
 20
3.3448218741
 40
0.5849249423
100
AcDbArc
 50
121.7159497663
 51
322.6268213074
  0
ARC
  5
243
100
AcDbEntity
  8
0
100
AcDbCircle
 62
6
  6
CONTINUOUS
 10
2.6439758369
 20
3.3448218741
 40
0.5849249423
100
AcDbArc
 50
37.3084119978
 51
58.2840502337
  0
ARC
  5
244
100
AcDbEntity
  8
0
100
AcDbCircle
 62
6
  6
CONTINUOUS
 10
3.1692127124
 20
3.6193969318
 40
0.1
100
AcDbArc
 50
90.0
 51
126.8992111524
  0
ARC
  5
245
100
AcDbEntity
  8
0
100
AcDbCircle
 62
6
  6
CONTINUOUS
 10
3.1692127124
 20
3.0693969318
 40
0.1
100
AcDbArc
 50
231.9780662585
 51
270.0
  0
ARC
  5
246
100
AcDbEntity
  8
0
100
AcDbCircle
 62
6
  6
CONTINUOUS
 10
2.9554758369
 20
3.8816560795
 40
0.031
100
AcDbArc
 50
270.0
 51
90.0
  0
ARC
  5
247
100
AcDbEntity
  8
0
100
AcDbCircle
 62
6
  6
CONTINUOUS
 10
2.3324758369
 20
3.8816560795
 40
0.031
100
AcDbArc
 50
90.0
 51
270.0
  0
ARC
  5
248
100
AcDbEntity
  8
0
100
AcDbCircle
 62
6
  6
CONTINUOUS
 10
1.5560270896
 20
5.7912503147
 40
0.187
100
AcDbArc
 50
185.0
 51
270.0
  0
ARC
  5
249
100
AcDbEntity
  8
0
100
AcDbCircle
 62
6
  6
CONTINUOUS
 10
1.8060402555
 20
5.6113112408
 40
0.187
100
AcDbArc
 50
196.2272372787
 51
268.2653932544
  0
ARC
  5
24A
100
AcDbEntity
  8
0
100
AcDbCircle
 62
6
  6
CONTINUOUS
 10
1.7947192851
 20
5.2374826228
 40
0.187
100
AcDbArc
 50
9.8264714962
 51
88.2653932544
  0
ARC
  5
24B
100
AcDbEntity
  8
0
100
AcDbCircle
 62
6
  6
CONTINUOUS
 10
3.7319245842
 20
5.7912503147
 40
0.187
100
AcDbArc
 50
270.0
 51
355.0
  0
ARC
  5
24C
100
AcDbEntity
  8
0
100
AcDbCircle
 62
6
  6
CONTINUOUS
 10
3.4819114182
 20
5.6113112408
 40
0.187
100
AcDbArc
 50
271.7346067456
 51
343.7727627213
  0
ARC
  5
24D
100
AcDbEntity
  8
0
100
AcDbCircle
 62
6
  6
CONTINUOUS
 10
3.4932323887
 20
5.2374826228
 40
0.187
100
AcDbArc
 50
91.7346067456
 51
170.1735285038
  0
ARC
  5
24E
100
AcDbEntity
  8
0
100
AcDbCircle
 62
6
  6
CONTINUOUS
 10
2.2274758369
 20
5.1523172351
 40
0.156
100
AcDbArc
 50
180.0
 51
200.1164231315
  0
ARC
  5
24F
100
AcDbEntity
  8
0
100
AcDbCircle
 62
6
  6
CONTINUOUS
 10
3.0604758369
 20
5.1523172351
 40
0.156
100
AcDbArc
 50
339.8835768685
 51
360.0
  0
ARC
  5
250
100
AcDbEntity
  8
0
100
AcDbCircle
 62
6
  6
CONTINUOUS
 10
1.5660000179
 20
5.541449346
 40
0.063
100
AcDbArc
 50
16.2272372787
 51
85.8835812399
  0
ARC
  5
251
100
AcDbEntity
  8
0
100
AcDbCircle
 62
6
  6
CONTINUOUS
 10
3.7219516558
 20
5.541449346
 40
0.063
100
AcDbArc
 50
94.1164187601
 51
163.7727627213
  0
ARC
  5
252
100
AcDbEntity
  8
0
100
AcDbCircle
 62
6
  6
CONTINUOUS
 10
7.3197603669
 20
3.5922559248
 40
4.38
100
AcDbArc
 50
159.8835768686
 51
175.8050223517
  0
ARC
  5
253
100
AcDbEntity
  8
0
100
AcDbCircle
 62
6
  6
CONTINUOUS
 10
13.5697603669
 20
3.5922559248
 40
4.38
100
AcDbArc
 50
159.8835768686
 51
175.8050223517
  0
ARC
  5
254
100
AcDbEntity
  8
0
100
AcDbCircle
 62
6
  6
CONTINUOUS
 10
8.8939758369
 20
3.3448218741
 40
0.5849249423
100
AcDbArc
 50
217.6279910778
 51
58.2840502337
  0
ARC
  5
255
100
AcDbEntity
  8
0
100
AcDbCircle
 62
6
  6
CONTINUOUS
 10
8.8939758369
 20
3.3448218741
 40
0.5849249423
100
AcDbArc
 50
121.7159497663
 51
142.438326546
  0
ARC
  5
256
100
AcDbEntity
  8
0
100
AcDbCircle
 62
6
  6
CONTINUOUS
 10
8.3486163799
 20
3.6443969318
 40
0.1
100
AcDbArc
 50
34.952896825
 51
61.2152664262
  0
ARC
  5
257
100
AcDbEntity
  8
0
100
AcDbCircle
 62
6
  6
CONTINUOUS
 10
8.3486163799
 20
3.0443969318
 40
0.1
100
AcDbArc
 50
270.0
 51
325.7711336722
  0
ARC
  5
258
100
AcDbEntity
  8
0
100
AcDbCircle
 62
6
  6
CONTINUOUS
 10
9.2054758369
 20
3.8816560795
 40
0.031
100
AcDbArc
 50
270.0
 51
90.0
  0
ARC
  5
259
100
AcDbEntity
  8
0
100
AcDbCircle
 62
6
  6
CONTINUOUS
 10
8.5824758369
 20
3.8816560795
 40
0.031
100
AcDbArc
 50
90.0
 51
270.0
  0
ARC
  5
25A
100
AcDbEntity
  8
0
100
AcDbCircle
 62
6
  6
CONTINUOUS
 10
7.8060270896
 20
5.7912503147
 40
0.187
100
AcDbArc
 50
185.0
 51
270.0
  0
ARC
  5
25B
100
AcDbEntity
  8
0
100
AcDbCircle
 62
6
  6
CONTINUOUS
 10
8.0560402555
 20
5.6113112408
 40
0.187
100
AcDbArc
 50
196.2272372787
 51
268.2653932544
  0
ARC
  5
25C
100
AcDbEntity
  8
0
100
AcDbCircle
 62
6
  6
CONTINUOUS
 10
8.0447192851
 20
5.2374826228
 40
0.187
100
AcDbArc
 50
9.8264714962
 51
88.2653932544
  0
ARC
  5
25D
100
AcDbEntity
  8
0
100
AcDbCircle
 62
6
  6
CONTINUOUS
 10
9.9819245842
 20
5.7912503147
 40
0.187
100
AcDbArc
 50
270.0
 51
355.0
  0
ARC
  5
25E
100
AcDbEntity
  8
0
100
AcDbCircle
 62
6
  6
CONTINUOUS
 10
9.7319114182
 20
5.6113112408
 40
0.187
100
AcDbArc
 50
271.7346067456
 51
343.7727627213
  0
ARC
  5
25F
100
AcDbEntity
  8
0
100
AcDbCircle
 62
6
  6
CONTINUOUS
 10
9.7432323887
 20
5.2374826228
 40
0.187
100
AcDbArc
 50
91.7346067456
 51
170.1735285038
  0
ARC
  5
260
100
AcDbEntity
  8
0
100
AcDbCircle
 62
6
  6
CONTINUOUS
 10
8.4774758369
 20
5.1523172351
 40
0.156
100
AcDbArc
 50
180.0
 51
200.1164231315
  0
ARC
  5
261
100
AcDbEntity
  8
0
100
AcDbCircle
 62
6
  6
CONTINUOUS
 10
9.3104758369
 20
5.1523172351
 40
0.156
100
AcDbArc
 50
339.8835768685
 51
360.0
  0
ARC
  5
262
100
AcDbEntity
  8
0
100
AcDbCircle
 62
6
  6
CONTINUOUS
 10
7.8160000179
 20
5.541449346
 40
0.063
100
AcDbArc
 50
16.2272372787
 51
85.8835812399
  0
ARC
  5
263
100
AcDbEntity
  8
0
100
AcDbCircle
 62
6
  6
CONTINUOUS
 10
9.9719516558
 20
5.541449346
 40
0.063
100
AcDbArc
 50
94.1164187601
 51
163.7727627213
  0
SPLINE
  5
264
100
AcDbEntity
  8
0
100
AcDbSpline
 62
6
  6
CONTINUOUS
 70
0
 71
3
 72
27
 73
23
 74
21
 42
0.0000001
 43
0.0000001
 44
0.0000000001
 12
-0.0027416932
 22
0.0416673534
 32
0.0
 13
-0.0417574571
 23
0.0
 33
0.0
 40
0.0
 40
0.0
 40
0.0
 40
0.0
 40
0.0620525091
 40
0.0931146014
 40
0.1242045812
 40
0.1864388992
 40
0.2487152839
 40
0.3109800197
 40
0.3421078075
 40
0.3732266988
 40
0.4043409976
 40
0.4354610911
 40
0.4666036737
 40
0.4977822293
 40
0.5602631766
 40
0.6229530771
 40
0.6858367358
 40
0.7488604112
 40
0.8119001323
 40
0.8748223458
 40
0.9375334647
 40
1.0
 40
1.0
 40
1.0
 40
1.0
 10
8.396806893
 20
3.7312197958
 30
0.0
 10
8.3967501833
 20
3.7320816504
 30
0.0
 10
8.3966050008
 20
3.7333720434
 30
0.0
 10
8.3962919429
 20
3.7350727498
 30
0.0
 10
8.3958987309
 20
3.736759447
 30
0.0
 10
8.395258738
 20
3.7388321837
 30
0.0
 10
8.3942611389
 20
3.7412368731
 30
0.0
 10
8.3932432566
 20
3.7431538285
 30
0.0
 10
8.3923210049
 20
3.7446218348
 30
0.0
 10
8.3915760656
 20
3.7456873057
 30
0.0
 10
8.390778751
 20
3.7467140297
 30
0.0
 10
8.3899300322
 20
3.747699116
 30
0.0
 10
8.3890327978
 20
3.7486414571
 30
0.0
 10
8.3877747017
 20
3.7498401266
 30
0.0
 10
8.3860929823
 20
3.7512268948
 30
0.0
 10
8.3839259879
 20
3.7527013593
 30
0.0
 10
8.3816292571
 20
3.7539797821
 30
0.0
 10
8.379224959
 20
3.7550539551
 30
0.0
 10
8.3767349215
 20
3.7559127358
 30
0.0
 10
8.3741817241
 20
3.7565432009
 30
0.0
 10
8.3715888403
 20
3.7569323094
 30
0.0
 10
8.3698453181
 20
3.7570220912
 30
0.0
 10
8.3689758369
 20
3.7570220912
 30
0.0
 11
8.396806893
 21
3.7312197958
 31
0.0
 11
8.3965169282
 21
3.7337946753
 31
0.0
 11
8.3962820667
 21
3.7350703088
 31
0.0
 11
8.3959873264
 21
3.7363346471
 31
0.0
 11
8.3952207083
 21
3.7388177464
 31
0.0
 11
8.3942237822
 21
3.74121957
 31
0.0
 11
8.3930036188
 21
3.743515499
 31
0.0
 11
8.3923120326
 21
3.7446160595
 31
0.0
 11
8.3915672886
 21
3.7456809142
 31
0.0
 11
8.3907702707
 21
3.7467069861
 31
0.0
 11
8.3899222578
 21
3.7476916505
 31
0.0
 11
8.389025695
 21
3.7486336199
 31
0.0
 11
8.3880832422
 21
3.7495318533
 31
0.0
 11
8.3860713064
 21
3.7511929471
 31
0.0
 11
8.3839077294
 21
3.752666602
 31
0.0
 11
8.3816137904
 21
3.7539444883
 31
0.0
 11
8.3792109504
 21
3.755017917
 31
0.0
 11
8.3767221232
 21
3.7558753291
 31
0.0
 11
8.374170919
 21
3.7565037907
 31
0.0
 11
8.371580952
 21
3.7568903589
 31
0.0
 11
8.3689758369
 21
3.7570220912
 31
0.0
  0
SPLINE
  5
265
100
AcDbEntity
  8
0
100
AcDbSpline
 62
6
  6
CONTINUOUS
 70
0
 71
3
 72
28
 73
24
 74
22
 42
0.0000001
 43
0.0000001
 44
0.0000000001
 12
-0.0454503924
 22
0.0
 32
0.0
 13
0.0030128577
 23
-0.0453504229
 33
0.0
 40
0.0
 40
0.0
 40
0.0
 40
0.0
 40
0.0625136628
 40
0.1252930055
 40
0.1882877643
 40
0.2513746311
 40
0.2829099952
 40
0.3144076669
 40
0.3772376129
 40
0.4398427243
 40
0.4710725431
 40
0.5022560518
 40
0.5334060743
 40
0.5645409811
 40
0.5956774736
 40
0.6268226175
 40
0.6891216291
 40
0.7514339026
 40
0.8136954823
 40
0.8447947005
 40
0.8758665185
 40
0.9379420844
 40
1.0
 40
1.0
 40
1.0
 40
1.0
 10
8.3689758369
 20
3.7570220912
 30
0.0
 10
8.3680287467
 20
3.7570220912
 30
0.0
 10
8.3661290736
 20
3.7569155312
 30
0.0
 10
8.3633090103
 20
3.7564553358
 30
0.0
 10
8.3605412485
 20
3.7557117813
 30
0.0
 10
8.3583024911
 20
3.7548696644
 30
0.0
 10
8.3565663124
 20
3.7540703123
 30
0.0
 10
8.3548737396
 20
3.7531907297
 30
0.0
 10
8.3528452971
 20
3.7519429128
 30
0.0
 10
8.350952945
 20
3.7505031378
 30
0.0
 10
8.3495376383
 20
3.7492433559
 30
0.0
 10
8.3485291068
 20
3.748246309
 30
0.0
 10
8.3475762648
 20
3.7471978477
 30
0.0
 10
8.3466828708
 20
3.7460991749
 30
0.0
 10
8.3458514192
 20
3.744952981
 30
0.0
 10
8.344826601
 20
3.7433671449
 30
0.0
 10
8.3437050658
 20
3.7412855816
 30
0.0
 10
8.3426246943
 20
3.7386635869
 30
0.0
 10
8.3419517548
 20
3.7363984725
 30
0.0
 10
8.3415550156
 20
3.7345548039
 30
0.0
 10
8.3412533197
 20
3.7326960452
 30
0.0
 10
8.3410536011
 20
3.7303489998
 30
0.0
 10
8.3410836241
 20
3.7284649251
 30
0.0
 10
8.3411459479
 20
3.7275268076
 30
0.0
 11
8.3689758369
 21
3.7570220912
 31
0.0
 11
8.3661388544
 21
3.7568660513
 31
0.0
 11
8.363322339
 21
3.7564090797
 31
0.0
 11
8.3605568008
 21
3.7556678986
 31
0.0
 11
8.3578727501
 21
3.7546592301
 31
0.0
 11
8.3565708162
 21
3.7540598123
 31
0.0
 11
8.3553005801
 21
3.7533995655
 31
0.0
 11
8.3528690337
 21
3.7519021362
 31
0.0
 11
8.3506056327
 21
3.750177761
 31
0.0
 11
8.3495455782
 21
3.7492338319
 31
0.0
 11
8.3485378698
 21
3.7482372021
 31
0.0
 11
8.3475859443
 21
3.747189217
 31
0.0
 11
8.3466932004
 21
3.746091265
 31
0.0
 11
8.345861993
 21
3.7449459316
 31
0.0
 11
8.3450935234
 21
3.7437571247
 31
0.0
 11
8.3437493656
 21
3.7412649943
 31
0.0
 11
8.3426698623
 21
3.7386466816
 31
0.0
 11
8.3418641487
 21
3.7359339951
 31
0.0
 11
8.341566754
 21
3.7345521635
 31
0.0
 11
8.3413404335
 21
3.7331581899
 31
0.0
 11
8.3411010314
 21
3.7303470065
 31
0.0
 11
8.3411459479
 21
3.7275268076
 31
0.0
  0
SPLINE
  5
266
100
AcDbEntity
  8
0
100
AcDbSpline
 62
9
  6
CONTINUOUS
 70
0
 71
3
 72
30
 73
26
 74
24
 42
0.0000001
 43
0.0000001
 44
0.0000000001
 12
-0.0297597308
 22
-0.0
 32
0.0
 13
-0.00658731
 23
0.0290215251
 33
0.0
 40
0.0
 40
0.0
 40
0.0
 40
0.0
 40
0.0877207464
 40
0.1749780753
 40
0.2610413397
 40
0.3451753608
 40
0.4266440398
 40
0.5047403198
 40
0.578818148
 40
0.6482558315
 40
0.6810503056
 40
0.7124662801
 40
0.7709021668
 40
0.7978564853
 40
0.8232882401
 40
0.847197463
 40
0.8695908692
 40
0.8904840576
 40
0.9099045153
 40
0.9278957219
 40
0.9445227101
 40
0.9598796988
 40
0.9741079355
 40
0.987401918
 40
1.0
 40
1.0
 40
1.0
 40
1.0
 10
3.5939758369
 20
3.2377891009
 30
0.0
 10
3.5931056549
 20
3.2377891009
 30
0.0
 10
3.5913697963
 20
3.2378140757
 30
0.0
 10
3.5887822557
 20
3.2379223291
 30
0.0
 10
3.5862340305
 20
3.2380974574
 30
0.0
 10
3.5837485972
 20
3.2383355398
 30
0.0
 10
3.5813491173
 20
3.238632566
 30
0.0
 10
3.5790579734
 20
3.2389850031
 30
0.0
 10
3.5768969173
 20
3.2393906348
 30
0.0
 10
3.5751908044
 20
3.2397779737
 30
0.0
 10
3.573908641
 20
3.24011576
 30
0.0
 10
3.5727401937
 20
3.2404550306
 30
0.0
 10
3.5716406302
 20
3.2408233743
 30
0.0
 10
3.5706179529
 20
3.2412273039
 30
0.0
 10
3.5699248771
 20
3.2415318792
 30
0.0
 10
3.5692858362
 20
3.2418454593
 30
0.0
 10
3.5687017358
 20
3.2421672122
 30
0.0
 10
3.5681734782
 20
3.2424963176
 30
0.0
 10
3.5677019515
 20
3.2428319801
 30
0.0
 10
3.5672880434
 20
3.2431734467
 30
0.0
 10
3.5669326296
 20
3.243520015
 30
0.0
 10
3.5666366328
 20
3.2438711731
 30
0.0
 10
3.5664008156
 20
3.2442264863
 30
0.0
 10
3.5662255818
 20
3.2445851814
 30
0.0
 10
3.5661479188
 20
3.2448313013
 30
0.0
 10
3.5661202563
 20
3.2449531732
 30
0.0
 11
3.5939758369
 21
3.2377891009
 31
0.0
 11
3.5913655533
 21
3.237826102
 31
0.0
 11
3.5887710617
 21
3.2379344889
 31
0.0
 11
3.5862158859
 21
3.238110337
 31
0.0
 11
3.58372355
 21
3.2383497218
 31
0.0
 11
3.5813175719
 21
3.2386487232
 31
0.0
 11
3.5790207578
 21
3.2390039673
 31
0.0
 11
3.5768545273
 21
3.2394131436
 31
0.0
 11
3.5748401403
 21
3.2398740638
 31
0.0
 11
3.5738965319
 21
3.2401232442
 31
0.0
 11
3.572998857
 21
3.24038454
 31
0.0
 11
3.5713516928
 21
3.2409423009
 31
0.0
 11
3.5706058995
 21
3.2412376688
 31
0.0
 11
3.5699133493
 21
3.2415429298
 31
0.0
 11
3.5692749984
 21
3.2418572323
 31
0.0
 11
3.5686918033
 21
3.2421797248
 31
0.0
 11
3.5681647202
 21
3.2425095555
 31
0.0
 11
3.5676947053
 21
3.242845873
 31
0.0
 11
3.567282715
 21
3.2431878256
 31
0.0
 11
3.5669297055
 21
3.2435345617
 31
0.0
 11
3.5666366219
 21
3.2438852312
 31
0.0
 11
3.5664040031
 21
3.2442390393
 31
0.0
 11
3.5662318813
 21
3.2445952604
 31
0.0
 11
3.5661202563
 21
3.2449531732
 31
0.0
  0
SPLINE
  5
267
100
AcDbEntity
  8
0
100
AcDbSpline
 62
9
  6
CONTINUOUS
 70
0
 71
3
 72
28
 73
24
 74
22
 42
0.0000001
 43
0.0000001
 44
0.0000000001
 12
0.0010038981
 22
-0.0365543725
 32
0.0
 13
-0.036568155
 23
0.0
 33
0.0
 40
0.0
 40
0.0
 40
0.0
 40
0.0
 40
0.0239514819
 40
0.0479591074
 40
0.0721099548
 40
0.0964901444
 40
0.1211843067
 40
0.1462702951
 40
0.1978188629
 40
0.2515525246
 40
0.3077647981
 40
0.3666864266
 40
0.397230627
 40
0.4284975771
 40
0.4931336926
 40
0.5604337812
 40
0.6301214589
 40
0.6657605958
 40
0.7018619757
 40
0.7752005453
 40
0.8496535944
 40
0.9247381875
 40
1.0
 40
1.0
 40
1.0
 40
1.0
 10
8.371881841
 20
3.0988340074
 30
0.0
 10
8.371889856
 20
3.0985421636
 30
0.0
 10
8.3718834753
 20
3.0979569274
 30
0.0
 10
8.3718064704
 20
3.0970805116
 30
0.0
 10
8.3716620452
 20
3.096207311
 30
0.0
 10
8.3714502285
 20
3.0953393888
 30
0.0
 10
8.3711710121
 20
3.094478734
 30
0.0
 10
8.3707051679
 20
3.0933338296
 30
0.0
 10
8.3699513059
 20
3.0919288476
 30
0.0
 10
8.3688005432
 20
3.0903255846
 30
0.0
 10
8.3674045738
 20
3.0888066028
 30
0.0
 10
8.3660605905
 20
3.0876402464
 30
0.0
 10
8.3648765186
 20
3.0867654638
 30
0.0
 10
8.3635927394
 20
3.0859114892
 30
0.0
 10
8.3618611137
 20
3.084926591
 30
0.0
 10
8.3596309181
 20
3.0838884857
 30
0.0
 10
8.357661346
 20
3.0831425018
 30
0.0
 10
8.3560201525
 20
3.0826140459
 30
0.0
 10
8.3543196327
 20
3.0821276738
 30
0.0
 10
8.3521354105
 20
3.08161664
 30
0.0
 10
8.3494542766
 20
3.0811671325
 30
0.0
 10
8.3467264276
 20
3.0808887571
 30
0.0
 10
8.3448932321
 20
3.0808243444
 30
0.0
 10
8.3439758369
 20
3.0808243444
 30
0.0
 11
8.371881841
 21
3.0988340074
 31
0.0
 11
8.3718723005
 21
3.0979581979
 31
0.0
 11
8.3717955752
 21
3.0970836424
 31
0.0
 11
8.3716516653
 21
3.0962122945
 31
0.0
 11
8.3714405706
 21
3.0953461074
 31
0.0
 11
8.3711622915
 21
3.0944870348
 31
0.0
 11
8.3708170932
 21
3.0936371136
 31
0.0
 11
8.3699300412
 21
3.0919738339
 31
0.0
 11
8.3687882426
 21
3.0903746814
 31
0.0
 11
8.3674006501
 21
3.0888581087
 31
0.0
 11
8.3657762167
 21
3.0874425681
 31
0.0
 11
8.364878395
 21
3.0867781267
 31
0.0
 11
8.3639268617
 21
3.0861441787
 31
0.0
 11
8.3618751005
 21
3.0849707256
 31
0.0
 11
8.3596458133
 21
3.0839281341
 31
0.0
 11
8.3572638804
 21
3.0830223293
 31
0.0
 11
8.3560234469
 21
3.0826225736
 31
0.0
 11
8.3547542401
 21
3.0822593397
 31
0.0
 11
8.3521431155
 21
3.081647473
 31
0.0
 11
8.3494579857
 21
3.0811972654
 31
0.0
 11
8.3467263823
 21
3.0809193462
 31
0.0
 11
8.3439758369
 21
3.0808243444
 31
0.0
  0
SPLINE
  5
268
100
AcDbEntity
  8
0
100
AcDbSpline
 62
9
  6
CONTINUOUS
 70
0
 71
3
 72
11
 73
7
 74
5
 42
0.0000001
 43
0.0000001
 44
0.0000000001
 12
-0.0072744173
 22
-0.0047375852
 32
0.0
 13
-0.00544372
 23
-0.0067622314
 33
0.0
 40
0.0
 40
0.0
 40
0.0
 40
0.0
 40
0.250752682
 40
0.5009136926
 40
0.7505836456
 40
1.0
 40
1.0
 40
1.0
 40
1.0
 10
8.2285150164
 20
3.7501812766
 30
0.0
 10
8.2279069899
 20
3.7497852892
 30
0.0
 10
8.226721317
 20
3.7489486899
 30
0.0
 10
8.2250457698
 20
3.7475633543
 30
0.0
 10
8.2234869797
 20
3.7460532416
 30
0.0
 10
8.2225335188
 20
3.7449659037
 30
0.0
 10
8.2220809346
 20
3.7444037
 30
0.0
 11
8.2285150164
 21
3.7501812766
 31
0.0
 11
8.226736824
 21
3.7489256683
 31
0.0
 11
8.2250636859
 21
3.7475411849
 31
0.0
 11
8.2235076926
 21
3.7460323532
 31
0.0
 11
8.2220809346
 21
3.7444037
 31
0.0
  0
SPLINE
  5
269
100
AcDbEntity
  8
0
100
AcDbSpline
 62
9
  6
CONTINUOUS
 70
0
 71
3
 72
33
 73
29
 74
27
 42
0.0000001
 43
0.0000001
 44
0.0000000001
 12
0.0068630708
 22
-0.0299607351
 32
0.0
 13
-0.0307367433
 23
-0.0
 33
0.0
 40
0.0
 40
0.0
 40
0.0
 40
0.0
 40
0.0127815872
 40
0.025464731
 40
0.038438293
 40
0.0520664446
 40
0.0666647716
 40
0.0824911713
 40
0.0997367233
 40
0.1185253008
 40
0.1389394954
 40
0.1610327493
 40
0.1848374107
 40
0.210370527
 40
0.2376379764
 40
0.2666374192
 40
0.2973586474
 40
0.3297553483
 40
0.3637487123
 40
0.3992535921
 40
0.4361806547
 40
0.4744373607
 40
0.5545544999
 40
0.6388270668
 40
0.7264135233
 40
0.816409217
 40
0.9079057427
 40
1.0
 40
1.0
 40
1.0
 40
1.0
 10
3.6218304092
 20
3.2459232745
 30
0.0
 10
3.6218596496
 20
3.245795626
 30
0.0
 10
3.6218959411
 20
3.2455355754
 30
0.0
 10
3.6218777019
 20
3.2451400278
 30
0.0
 10
3.6217863284
 20
3.2447458775
 30
0.0
 10
3.6216225927
 20
3.2443548777
 30
0.0
 10
3.6213873797
 20
3.2439679589
 30
0.0
 10
3.6210813015
 20
3.2435858828
 30
0.0
 10
3.620705229
 20
3.2432092817
 30
0.0
 10
3.62026036
 20
3.2428386649
 30
0.0
 10
3.6197477836
 20
3.2424748886
 30
0.0
 10
3.6191686183
 20
3.2421188893
 30
0.0
 10
3.6185239829
 20
3.241771675
 30
0.0
 10
3.6178150177
 20
3.2414342866
 30
0.0
 10
3.6170428767
 20
3.241107797
 30
0.0
 10
3.6162087579
 20
3.2407932589
 30
0.0
 10
3.6153141454
 20
3.2404919958
 30
0.0
 10
3.6143614479
 20
3.2402045782
 30
0.0
 10
3.6133537911
 20
3.2399311525
 30
0.0
 10
3.6122945119
 20
3.2396721151
 30
0.0
 10
3.6111869768
 20
3.2394278083
 30
0.0
 10
3.6096262984
 20
3.239117428
 30
0.0
 10
3.6075785437
 20
3.2387717619
 30
0.0
 10
3.6050196243
 20
3.2384269234
 30
0.0
 10
3.6023507337
 20
3.2381496757
 30
0.0
 10
3.5996010679
 20
3.2379451839
 30
0.0
 10
3.5968005062
 20
3.2378184338
 30
0.0
 10
3.5949193961
 20
3.2377891009
 30
0.0
 10
3.5939758369
 20
3.2377891009
 30
0.0
 11
3.6218304092
 21
3.2459232745
 31
0.0
 11
3.621883894
 21
3.2455340679
 31
0.0
 11
3.6218662317
 21
3.2451446297
 31
0.0
 11
3.6217774223
 21
3.2447558799
 31
0.0
 11
3.6216174657
 21
3.2443687383
 31
0.0
 11
3.6213863621
 21
3.2439841251
 31
0.0
 11
3.6210841208
 21
3.2436029615
 31
0.0
 11
3.6207112238
 21
3.2432262331
 31
0.0
 11
3.6202688374
 21
3.2428550187
 31
0.0
 11
3.6197581811
 21
3.2424904044
 31
0.0
 11
3.6191804746
 21
3.2421334764
 31
0.0
 11
3.6185369375
 21
3.2417853208
 31
0.0
 11
3.6178287894
 21
3.2414470236
 31
0.0
 11
3.6170572501
 21
3.241119671
 31
0.0
 11
3.616223539
 21
3.2408043492
 31
0.0
 11
3.615328941
 21
3.240502122
 31
0.0
 11
3.6143758659
 21
3.2402136712
 31
0.0
 11
3.6133676731
 21
3.2399393557
 31
0.0
 11
3.6123077519
 21
3.2396795244
 31
0.0
 11
3.6111994916
 21
3.239434526
 31
0.0
 11
3.6100462815
 21
3.2392047095
 31
0.0
 11
3.607618569
 21
3.2387920173
 31
0.0
 11
3.6050517552
 21
3.2384442587
 31
0.0
 11
3.6023741419
 21
3.2381651351
 31
0.0
 11
3.5996156165
 21
3.2379595641
 31
0.0
 11
3.5968061809
 21
3.2378325509
 31
0.0
 11
3.5939758369
 21
3.2377891009
 31
0.0
  0
SPLINE
  5
26A
100
AcDbEntity
  8
0
100
AcDbSpline
 62
9
  6
CONTINUOUS
 70
0
 71
3
 72
29
 73
25
 74
23
 42
0.0000001
 43
0.0000001
 44
0.0000000001
 12
-0.035943355
 22
0.0
 32
0.0
 13
-0.0009842607
 23
0.0359298761
 33
0.0
 40
0.0
 40
0.0
 40
0.0
 40
0.0
 40
0.0748599742
 40
0.1495571572
 40
0.2236607454
 40
0.2967126672
 40
0.3327018048
 40
0.3682524265
 40
0.4378378435
 40
0.5051428518
 40
0.5698938848
 40
0.6012565375
 40
0.6319191875
 40
0.6618777834
 40
0.6911442364
 40
0.7476701514
 40
0.801725846
 40
0.8535726702
 40
0.8787841277
 40
0.903577786
 40
0.9280168586
 40
0.9521793828
 40
0.9761463559
 40
1.0
 40
1.0
 40
1.0
 40
1.0
 10
8.3439758369
 20
3.0808243444
 30
0.0
 10
8.3430789307
 20
3.0808243444
 30
0.0
 10
8.3412865388
 20
3.0808859215
 30
0.0
 10
8.3386183624
 20
3.0811522846
 30
0.0
 10
8.3359936653
 20
3.0815827221
 30
0.0
 10
8.3338531086
 20
3.0820723127
 30
0.0
 10
8.3321843636
 20
3.0825384716
 30
0.0
 10
8.3305710638
 20
3.0830454138
 30
0.0
 10
8.3286311387
 20
3.0837612469
 30
0.0
 10
8.326427862
 20
3.0847573448
 30
0.0
 10
8.3247101465
 20
3.0857022612
 30
0.0
 10
8.3234306891
 20
3.0865217273
 30
0.0
 10
8.3225312236
 20
3.0871592896
 30
0.0
 10
8.3216847075
 20
3.087825887
 30
0.0
 10
8.3206416822
 20
3.0887406456
 30
0.0
 10
8.3194722884
 20
3.0899459442
 30
0.0
 10
8.3182852318
 20
3.0914936472
 30
0.0
 10
8.3174890729
 20
3.0928534782
 30
0.0
 10
8.3169820145
 20
3.0939643459
 30
0.0
 10
8.3166686481
 20
3.0948002327
 30
0.0
 10
8.3164196578
 20
3.0956443976
 30
0.0
 10
8.316235044
 20
3.0964948395
 30
0.0
 10
8.3161148563
 20
3.0973496273
 30
0.0
 10
8.3160776371
 20
3.0979219969
 30
0.0
 10
8.316069811
 20
3.0982076831
 30
0.0
 11
8.3439758369
 21
3.0808243444
 31
0.0
 11
8.3412866521
 21
3.0809151855
 31
0.0
 11
8.3386149843
 21
3.0811810874
 31
0.0
 11
8.3359865602
 21
3.0816121175
 31
0.0
 11
8.3334271065
 21
3.0821983436
 31
0.0
 11
8.3321812832
 21
3.0825465512
 31
0.0
 11
8.3309623259
 21
3.082929876
 31
0.0
 11
8.3286169128
 21
3.0837986139
 31
0.0
 11
8.326414211
 21
3.0847988528
 31
0.0
 11
8.3243774698
 21
3.0859250558
 31
0.0
 11
8.3234285997
 21
3.0865336637
 31
0.0
 11
8.3225299383
 21
3.0871716862
 31
0.0
 11
8.3216843502
 21
3.0878383989
 31
0.0
 11
8.3208937956
 21
3.0885323656
 31
0.0
 11
8.3194820788
 21
3.0899935249
 31
0.0
 11
8.3183031899
 21
3.0915379498
 31
0.0
 11
8.3173654946
 21
3.0931483976
 31
0.0
 11
8.316989709
 21
3.0939729915
 31
0.0
 11
8.3166773561
 21
3.0948076261
 31
0.0
 11
8.3164291465
 21
3.0956502515
 31
0.0
 11
8.3162451524
 21
3.0964990197
 31
0.0
 11
8.3161253739
 21
3.0973521054
 31
0.0
 11
8.316069811
 21
3.0982076831
 31
0.0
  0
ENDSEC
  0
SECTION
  2
OBJECTS
  0
DICTIONARY
  5
C
100
AcDbDictionary
280
0
281
1
  3
ACAD_GROUP
350
D
  3
ACAD_MLINESTYLE
350
17
  3
ACAD_LAYOUT
350
1A
  3
ACAD_PLOTSETTINGS
350
19
  3
ACAD_PLOTSTYLENAME
350
E
  0
DICTIONARY
  5
D
102
{ACAD_REACTORS
330
C
102
}
100
AcDbDictionary
280
0
281
1
  0
ACDBDICTIONARYWDFLT
  5
E
102
{ACAD_REACTORS
330
C
102
}
100
AcDbDictionary
281
1
  3
Normal
350
F
100
AcDbDictionaryWithDefault
340
F
  0
DICTIONARY
  5
17
102
{ACAD_REACTORS
330
C
102
}
100
AcDbDictionary
280
0
281
1
  3
Standard
350
18
  0
DICTIONARY
  5
19
102
{ACAD_REACTORS
330
C
102
}
100
AcDbDictionary
281
1
  0
DICTIONARY
  5
1A
102
{ACAD_REACTORS
330
C
102
}
100
AcDbDictionary
281
1
  3
Model
350
26B
  3
Layout1
350
26C
  0
ACDBPLACEHOLDER
  5
F
102
{ACAD_REACTORS
330
E
102
}
  0
MLINESTYLE
  5
18
102
{ACAD_REACTORS
330
17
102
}
100
AcDbMlineStyle
  2
STANDARD
 70
0
  3

 62
256
 51
90.0
 52
90.0
 71
2
 49
0.5
 62
256
  6
BYLAYER
 49
-0.5
 62
256
  6
BYLAYER
  0
LAYOUT
  5
26B
102
{ACAD_REACTORS
330
1A
102
}
100
AcDbPlotSettings
  1

  2
none_device
  4
ISO_A4_(297.00_x_210.00_MM)
  6

 40
0.0
 41
0.0
 42
0.0
 43
0.0
 44
297.0
 45
210.0
 46
0.0
 47
0.0
 48
0.0
 49
0.0
140
0.0
141
0.0
142
1.0
143
1.0
 70
1024
 72
0
 73
0
 74
0
  7

 75
0
147
1.0
148
0.0
149
0.0
100
AcDbLayout
  1
Model
 70
0
 71
0
 10
0.0
 20
0.0
 11
11.6929133858
 21
8.2677165354
 12
0.0
 22
0.0
 32
0.0
 14
0.0
 24
0.0
 34
0.0
 15
0.0
 25
0.0
 35
0.0
146
0.0
 13
0.0
 23
0.0
 33
0.0
 16
1.0
 26
0.0
 36
0.0
 17
0.0
 27
1.0
 37
0.0
 76
0
330
203
345
0
346
0
  0
LAYOUT
  5
26C
102
{ACAD_REACTORS
330
1A
102
}
100
AcDbPlotSettings
  1

  2
none_device
  4
ISO_A4_(297.00_x_210.00_MM)
  6

 40
0.0
 41
0.0
 42
0.0
 43
0.0
 44
297.0
 45
210.0
 46
0.0
 47
0.0
 48
0.0
 49
0.0
140
0.0
141
0.0
142
1.0
143
1.0
 70
0
 72
0
 73
0
 74
0
  7

 75
0
147
1.0
148
0.0
149
0.0
100
AcDbLayout
  1
Layout1
 70
0
 71
1
 10
0.0
 20
0.0
 11
11.6929133858
 21
8.2677165354
 12
0.0
 22
0.0
 32
0.0
 14
0.0
 24
0.0
 34
0.0
 15
0.0
 25
0.0
 35
0.0
146
0.0
 13
0.0
 23
0.0
 33
0.0
 16
1.0
 26
0.0
 36
0.0
 17
0.0
 27
1.0
 37
0.0
 76
0
330
204
345
0
346
0
  0
ENDSEC
  0
EOF
