999
DXF file: 8-009_front.dxf
999
Pro/ENGINEER 2018400 by Parametric Technology Corporation
  0
SECTION
  2
HEADER
  9
$ACADVER
  1
AC1027
  9
$DWGCODEPAGE
  3
ANSI_1252
  9
$EXTMAX
 10
11.0
 20
8.5
 30
0.0
  9
$EXTMIN
 10
0.0
 20
0.0
 30
0.0
  9
$LIMMIN
 10
0.0
 20
0.0
  9
$LIMMAX
 10
11.0
 20
8.5
  9
$VIEWCTR
 10
5.5
 20
4.25
  9
$VIEWSIZE
 40
8.5
  9
$CLAYER
  8
0
  9
$LTSCALE
 40
0.605
  9
$CELTYPE
  6
BYLAYER
  9
$DIMSCALE
 40
1.0
  9
$DIMASZ
 40
0.1
  9
$DIMEXO
 40
0.0625
  9
$DIMDLI
 40
0.418
  9
$DIMEXE
 40
0.125
  9
$DIMCEN
 40
0.099
  9
$DIMLFAC
 40
1.0
  9
$DIMBLK
  1
_FILLED
  9
$DIMALT
 70
1
  9
$DIMALTD
 70
2
  9
$DIMALTTD
 70
2
  9
$DIMALTF
 40
25.4
  9
$DIMTXT
 40
0.08
  9
$DIMTOL
 70
1
  9
$DIMLIM
 70
0
  9
$DIMTFAC
 40
1.0
  9
$DIMTP
 40
0.001
  9
$DIMTM
 40
0.001
  9
$DIMGAP
 40
0.09
  9
$DIMDSEP
 70
46
  9
$AUNITS
 70
0
  9
$PDMODE
 70
3
  9
$PDSIZE
 40
0.3125
  9
$HANDSEED
  5
32F
  9
$TILEMODE
 70
1
  9
$MEASUREMENT
 70
0
  9
$INSUNITS
 70
1
  0
ENDSEC
  0
SECTION
  2
CLASSES
  0
CLASS
  1
ACDBDICTIONARYWDFLT
  2
AcDbDictionaryWithDefault
  3
AutoCAD 2000
 90
0
 91
1
280
0
281
0
  0
CLASS
  1
ACDBPLACEHOLDER
  2
AcDbPlaceHolder
  3
AutoCAD 2000
 90
0
 91
1
280
0
281
0
  0
CLASS
  1
LAYOUT
  2
AcDbLayout
  3
AutoCAD 2000
 90
0
 91
0
280
0
281
0
  0
ENDSEC
  0
SECTION
  2
TABLES
  0
TABLE
  2
VPORT
  5
8
100
AcDbSymbolTable
 70
2
  0
VPORT
  5
1F4
100
AcDbSymbolTableRecord
100
AcDbViewportTableRecord
  2
*ACTIVE
 70
0
 10
0.0
 20
0.0
 11
1.0
 21
1.0
 12
5.5
 22
4.25
 13
0.0
 23
0.0
 14
1.0
 24
1.0
 15
0.0
 25
0.0
 16
0.0
 26
0.0
 36
1.0
 17
0.0
 27
0.0
 37
0.0
 40
8.5
 41
1.2941176471
 42
50.0
 43
0.0
 44
0.0
 50
0.0
 51
0.0
 71
0
 72
100
 73
1
 74
1
 75
0
 76
0
 77
0
 78
0
  0
ENDTAB
  0
TABLE
  2
LTYPE
  5
5
100
AcDbSymbolTable
 70
6
  0
LTYPE
  5
14
100
AcDbSymbolTableRecord
100
AcDbLinetypeTableRecord
  2
BYBLOCK
 70
0
  3

 72
65
 73
0
 40
0.0
  0
LTYPE
  5
15
100
AcDbSymbolTableRecord
100
AcDbLinetypeTableRecord
  2
BYLAYER
 70
0
  3

 72
65
 73
0
 40
0.0
  0
LTYPE
  5
16
100
AcDbSymbolTableRecord
100
AcDbLinetypeTableRecord
  2
CONTINUOUS
 70
64
  3
Solid line
 72
65
 73
0
 40
0.0
  0
LTYPE
  5
1F5
100
AcDbSymbolTableRecord
100
AcDbLinetypeTableRecord
  2
CENTER
 70
64
  3
____ _ ____ _ ____ _ ____ _ ____ _ ____ _ ____
 72
65
 73
4
 40
0.6
 49
0.375
 74
0
 49
-0.075
 74
0
 49
0.075
 74
0
 49
-0.075
 74
0
  0
LTYPE
  5
1F6
100
AcDbSymbolTableRecord
100
AcDbLinetypeTableRecord
  2
HIDDEN
 70
64
  3
- - - - - - - - - - - - - - - - - - - -
 72
65
 73
2
 40
0.2
 49
0.1
 74
0
 49
-0.1
 74
0
  0
LTYPE
  5
1F7
100
AcDbSymbolTableRecord
100
AcDbLinetypeTableRecord
  2
PHANTOM
 70
64
  3
_____ _ _ _____ _ _ _____ _ _ _____
 72
65
 73
6
 40
0.8
 49
0.45
 74
0
 49
-0.05
 74
0
 49
0.1
 74
0
 49
-0.05
 74
0
 49
0.1
 74
0
 49
-0.05
 74
0
  0
LTYPE
  5
1F8
100
AcDbSymbolTableRecord
100
AcDbLinetypeTableRecord
  2
DOT
 70
64
  3
. . . . . . . . . . . . . . . . . . . .
 72
65
 73
2
 40
0.2
 49
0.1
 74
0
 49
-0.1
 74
0
  0
LTYPE
  5
1F9
100
AcDbSymbolTableRecord
100
AcDbLinetypeTableRecord
  2
DASHED
 70
64
  3
- - - - - - - - - - - - - - - - - - - -
 72
65
 73
2
 40
0.2
 49
0.1
 74
0
 49
-0.1
 74
0
  0
ENDTAB
  0
TABLE
  2
LAYER
  5
2
100
AcDbSymbolTable
 70
36
  0
LAYER
  5
10
100
AcDbSymbolTableRecord
100
AcDbLayerTableRecord
  2
0
 70
0
 62
7
  6
CONTINUOUS
370
-3
390
F
  0
LAYER
  5
1FA
100
AcDbSymbolTableRecord
100
AcDbLayerTableRecord
  2
DEFAULT_1
 70
0
 62
7
  6
CENTER
370
-3
390
F
  0
LAYER
  5
1FB
100
AcDbSymbolTableRecord
100
AcDbLayerTableRecord
  2
DEFAULT_2
 70
0
 62
8
  6
HIDDEN
370
-3
390
F
  0
LAYER
  5
1FC
100
AcDbSymbolTableRecord
100
AcDbLayerTableRecord
  2
DEFAULT_3
 70
0
 62
7
  6
PHANTOM
370
-3
390
F
  0
LAYER
  5
1FD
100
AcDbSymbolTableRecord
100
AcDbLayerTableRecord
  2
ALL_ASSEMBLY_MEMBERS
 70
0
 62
7
  6
CONTINUOUS
370
-3
390
F
  0
LAYER
  5
1FE
100
AcDbSymbolTableRecord
100
AcDbLayerTableRecord
  2
ALL_FEATURES
 70
0
 62
7
  6
CONTINUOUS
370
-3
390
F
  0
LAYER
  5
1FF
100
AcDbSymbolTableRecord
100
AcDbLayerTableRecord
  2
AXES_FEATURES
 70
0
 62
7
  6
CONTINUOUS
370
-3
390
F
  0
LAYER
  5
200
100
AcDbSymbolTableRecord
100
AcDbLayerTableRecord
  2
CHAMFER_FEATURES
 70
0
 62
7
  6
CONTINUOUS
370
-3
390
F
  0
LAYER
  5
201
100
AcDbSymbolTableRecord
100
AcDbLayerTableRecord
  2
COORDINATE_SYSTEMS
 70
0
 62
7
  6
CONTINUOUS
370
-3
390
F
  0
LAYER
  5
202
100
AcDbSymbolTableRecord
100
AcDbLayerTableRecord
  2
CUT_FEATURES
 70
0
 62
7
  6
CONTINUOUS
370
-3
390
F
  0
LAYER
  5
203
100
AcDbSymbolTableRecord
100
AcDbLayerTableRecord
  2
DATUM_CURVES
 70
0
 62
7
  6
CONTINUOUS
370
-3
390
F
  0
LAYER
  5
204
100
AcDbSymbolTableRecord
100
AcDbLayerTableRecord
  2
DATUM_PLANES
 70
0
 62
7
  6
CONTINUOUS
370
-3
390
F
  0
LAYER
  5
205
100
AcDbSymbolTableRecord
100
AcDbLayerTableRecord
  2
DATUM_POINTS
 70
0
 62
7
  6
CONTINUOUS
370
-3
390
F
  0
LAYER
  5
206
100
AcDbSymbolTableRecord
100
AcDbLayerTableRecord
  2
DEFAULT_COORDINATE_SYSTEM
 70
0
 62
7
  6
CONTINUOUS
370
-3
390
F
  0
LAYER
  5
207
100
AcDbSymbolTableRecord
100
AcDbLayerTableRecord
  2
DEFAULT_DATUM_AXES
 70
0
 62
7
  6
CONTINUOUS
370
-3
390
F
  0
LAYER
  5
208
100
AcDbSymbolTableRecord
100
AcDbLayerTableRecord
  2
DEFAULT_DATUM_PLANES
 70
0
 62
7
  6
CONTINUOUS
370
-3
390
F
  0
LAYER
  5
209
100
AcDbSymbolTableRecord
100
AcDbLayerTableRecord
  2
DIMENSIONS
 70
0
 62
7
  6
CONTINUOUS
370
-3
390
F
  0
LAYER
  5
20A
100
AcDbSymbolTableRecord
100
AcDbLayerTableRecord
  2
HOLE_FEATURES
 70
0
 62
7
  6
CONTINUOUS
370
-3
390
F
  0
LAYER
  5
20B
100
AcDbSymbolTableRecord
100
AcDbLayerTableRecord
  2
POINTS
 70
0
 62
7
  6
CONTINUOUS
370
-3
390
F
  0
LAYER
  5
20C
100
AcDbSymbolTableRecord
100
AcDbLayerTableRecord
  2
PROTRUSION_FEATURES
 70
0
 62
7
  6
CONTINUOUS
370
-3
390
F
  0
LAYER
  5
20D
100
AcDbSymbolTableRecord
100
AcDbLayerTableRecord
  2
QUILTS
 70
0
 62
7
  6
CONTINUOUS
370
-3
390
F
  0
LAYER
  5
20E
100
AcDbSymbolTableRecord
100
AcDbLayerTableRecord
  2
ROUND_FEATURES
 70
0
 62
7
  6
CONTINUOUS
370
-3
390
F
  0
LAYER
  5
20F
100
AcDbSymbolTableRecord
100
AcDbLayerTableRecord
  2
SHELL_FEATURES
 70
0
 62
7
  6
CONTINUOUS
370
-3
390
F
  0
LAYER
  5
210
100
AcDbSymbolTableRecord
100
AcDbLayerTableRecord
  2
SURFACE_FEATURES
 70
0
 62
7
  6
CONTINUOUS
370
-3
390
F
  0
ENDTAB
  0
TABLE
  2
STYLE
  5
3
100
AcDbSymbolTable
 70
1
  0
STYLE
  5
11
100
AcDbSymbolTableRecord
100
AcDbTextStyleTableRecord
  2
STANDARD
 70
0
 40
0.0
 41
0.8
 50
0.0
 71
0
 42
0.2
  3
txt
  4

  0
STYLE
  5
211
100
AcDbSymbolTableRecord
100
AcDbTextStyleTableRecord
  2
TEXTSTYLE_1
 70
0
 40
0.0
 41
0.8
 50
0.0
 71
0
 42
0.2
  3
gdt
  4

  0
ENDTAB
  0
TABLE
  2
VIEW
  5
6
100
AcDbSymbolTable
 70
0
  0
ENDTAB
  0
TABLE
  2
UCS
  5
7
100
AcDbSymbolTable
 70
0
  0
ENDTAB
  0
TABLE
  2
APPID
  5
9
100
AcDbSymbolTable
 70
1
  0
APPID
  5
212
100
AcDbSymbolTableRecord
100
AcDbRegAppTableRecord
  2
ACAD
 70
0
  0
ENDTAB
  0
TABLE
  2
BLOCK_RECORD
  5
1
100
AcDbSymbolTable
 70
0
  0
BLOCK_RECORD
  5
213
100
AcDbSymbolTableRecord
100
AcDbBlockTableRecord
  2
*Model_Space
  0
BLOCK_RECORD
  5
214
100
AcDbSymbolTableRecord
100
AcDbBlockTableRecord
  2
*Paper_Space
  0
BLOCK_RECORD
  5
215
100
AcDbSymbolTableRecord
100
AcDbBlockTableRecord
  2
_FILLED
  0
ENDTAB
  0
TABLE
  2
DIMSTYLE
  5
A
100
AcDbSymbolTable
 70
1
100
AcDbDimStyleTable
 71
0
  0
DIMSTYLE
105
216
100
AcDbSymbolTableRecord
100
AcDbDimStyleTableRecord
  2
STANDARD
 70
0
  3

  4

 40
1.0
 41
0.1
 42
0.0625
 43
0.38
 44
0.125
 45
0.0
 46
0.0
 47
0.001
 48
0.001
140
0.08
141
0.09
142
0.0
143
25.4
144
1.0
145
0.0
146
1.0
147
0.09
 71
1.0
 72
0.0
 73
1
 74
1
 75
0
 76
0
 77
0
 78
4
 79
1
170
1
171
2
172
0
173
0
174
0
175
0
176
0
177
0
178
0
270
2
179
3
271
3
272
3
273
2
274
2
275
0
280
0
281
0
282
0
283
1
284
4
285
0
286
0
287
3
288
0
340
11
278
46
341
215
342
215
343
215
344
215
  0
ENDTAB
  0
ENDSEC
  0
SECTION
  2
BLOCKS
  0
BLOCK
  5
20
100
AcDbEntity
  8
0
100
AcDbBlockBegin
  2
*Model_Space
 70
0
 10
0.0
 20
0.0
 30
0.0
  3
*Model_Space
  1

  0
ENDBLK
  5
21
100
AcDbEntity
  8
0
100
AcDbBlockEnd
  0
BLOCK
  5
1C
100
AcDbEntity
  8
0
100
AcDbBlockBegin
  2
*Paper_Space
 70
0
 10
0.0
 20
0.0
 30
0.0
  3
*Paper_Space
  1

  0
ENDBLK
  5
1D
100
AcDbEntity
  8
0
100
AcDbBlockEnd
  0
BLOCK
  5
217
100
AcDbEntity
  8
0
100
AcDbBlockBegin
  2
_FILLED
 70
64
 10
0.0
 20
0.0
  3
_FILLED
  1

  0
SOLID
  5
218
100
AcDbEntity
  8
0
  6
BYBLOCK
 62
0
100
AcDbTrace
 10
0.0
 20
0.0
 11
-1.0
 21
0.2
 12
-1.0
 22
-0.2
 13
-1.0
 23
-0.2
  0
ENDBLK
  5
219
100
AcDbEntity
  8
0
  6
BYBLOCK
 62
0
100
AcDbBlockEnd
  0
ENDSEC
  0
SECTION
  2
ENTITIES
  0
MTEXT
  5
21A
100
AcDbEntity
  8
0
100
AcDbMText
 62
2
  6
CONTINUOUS
  7
STANDARD
 71
3
 72
1
 10
5.3155279503
 20
2.4474566088
 30
0.0
 11
1.0
 21
0.0
 31
0.0
 73
2
 44
0.9
  1
SCALE  .500
 40
0.08
 41
0.704
  0
LINE
  5
21B
100
AcDbEntity
  8
0
100
AcDbLine
 62
7
  6
CONTINUOUS
 10
0.0
 20
0.0
 11
0.0
 21
8.5
  0
LINE
  5
21C
100
AcDbEntity
  8
0
100
AcDbLine
 62
7
  6
CONTINUOUS
 10
0.0
 20
0.0
 11
11.0
 21
0.0
  0
LINE
  5
21D
100
AcDbEntity
  8
0
100
AcDbLine
 62
7
  6
CONTINUOUS
 10
0.0
 20
8.5
 11
11.0
 21
8.5
  0
LINE
  5
21E
100
AcDbEntity
  8
0
100
AcDbLine
 62
7
  6
CONTINUOUS
 10
11.0
 20
0.0
 11
11.0
 21
8.5
  0
LINE
  5
21F
100
AcDbEntity
  8
ALL_ASSEMBLY_MEMBERS
100
AcDbLine
 62
7
  6
CONTINUOUS
 10
5.530450141
 20
3.6262302592
 11
4.4549537582
 21
3.6262302592
  0
LINE
  5
220
100
AcDbEntity
  8
ALL_ASSEMBLY_MEMBERS
100
AcDbLine
 62
7
  6
CONTINUOUS
 10
5.630405268
 20
3.7262302592
 11
5.601419315
 21
3.7262302592
  0
LINE
  5
221
100
AcDbEntity
  8
ALL_ASSEMBLY_MEMBERS
100
AcDbLine
 62
7
  6
CONTINUOUS
 10
4.3839846143
 20
3.7262302592
 11
4.3549986312
 21
3.7262302592
  0
LINE
  5
222
100
AcDbEntity
  8
ALL_ASSEMBLY_MEMBERS
100
AcDbLine
 62
7
  6
CONTINUOUS
 10
5.2490191934
 20
3.9023122536
 11
4.7363847058
 21
3.9023122536
  0
LINE
  5
223
100
AcDbEntity
  8
ALL_ASSEMBLY_MEMBERS
100
AcDbLine
 62
7
  6
CONTINUOUS
 10
5.3490335121
 20
4.0023122536
 11
5.3462739592
 21
4.0023122536
  0
LINE
  5
224
100
AcDbEntity
  8
ALL_ASSEMBLY_MEMBERS
100
AcDbLine
 62
7
  6
CONTINUOUS
 10
4.63912994
 20
4.0023122536
 11
4.6363703871
 21
4.0023122536
  0
LINE
  5
225
100
AcDbEntity
  8
ALL_ASSEMBLY_MEMBERS
100
AcDbLine
 62
7
  6
CONTINUOUS
 10
5.2087294637
 20
4.0072557088
 11
4.7766744355
 21
4.0072557088
  0
LINE
  5
226
100
AcDbEntity
  8
ALL_ASSEMBLY_MEMBERS
100
AcDbLine
 62
7
  6
CONTINUOUS
 10
5.3094284477
 20
4.0331376133
 11
5.3071914388
 21
4.0331376133
  0
LINE
  5
227
100
AcDbEntity
  8
ALL_ASSEMBLY_MEMBERS
100
AcDbLine
 62
7
  6
CONTINUOUS
 10
4.6782125612
 20
4.0331376133
 11
4.6759754514
 21
4.0331376133
  0
LINE
  5
228
100
AcDbEntity
  8
ALL_ASSEMBLY_MEMBERS
100
AcDbLine
 62
7
  6
CONTINUOUS
 10
4.6769866963
 20
4.1754880881
 11
4.6775317669
 21
4.1754880881
  0
LINE
  5
229
100
AcDbEntity
  8
ALL_ASSEMBLY_MEMBERS
100
AcDbLine
 62
7
  6
CONTINUOUS
 10
5.3078728026
 20
4.1754880881
 11
5.3084172029
 21
4.1754880881
  0
LINE
  5
22A
100
AcDbEntity
  8
ALL_ASSEMBLY_MEMBERS
100
AcDbLine
 62
7
  6
CONTINUOUS
 10
4.7768601071
 20
4.2013699926
 11
5.2085437921
 21
4.2013699926
  0
LINE
  5
22B
100
AcDbEntity
  8
ALL_ASSEMBLY_MEMBERS
100
AcDbLine
 62
7
  6
CONTINUOUS
 10
5.34813443
 20
4.6309615175
 11
5.3482270109
 21
4.6309746575
  0
LINE
  5
22C
100
AcDbEntity
  8
ALL_ASSEMBLY_MEMBERS
100
AcDbLine
 62
7
  6
CONTINUOUS
 10
5.3461775885
 20
4.6307611478
 11
5.3467713517
 21
4.6308097656
  0
LINE
  5
22D
100
AcDbEntity
  8
ALL_ASSEMBLY_MEMBERS
100
AcDbLine
 62
7
  6
CONTINUOUS
 10
5.3461746912
 20
4.6307816289
 11
5.3467713517
 21
4.6308097656
  0
LINE
  5
22E
100
AcDbEntity
  8
ALL_ASSEMBLY_MEMBERS
100
AcDbLine
 62
7
  6
CONTINUOUS
 10
4.6372698612
 20
4.6309615169
 11
4.6371772753
 21
4.6309746569
  0
LINE
  5
22F
100
AcDbEntity
  8
ALL_ASSEMBLY_MEMBERS
100
AcDbLine
 62
7
  6
CONTINUOUS
 10
4.31268048
 20
3.7693176586
 11
4.31268048
 21
4.8429221287
  0
LINE
  5
230
100
AcDbEntity
  8
ALL_ASSEMBLY_MEMBERS
100
AcDbLine
 62
7
  6
CONTINUOUS
 10
4.41268048
 20
3.6693091909
 11
4.41268048
 21
3.6970133186
  0
LINE
  5
231
100
AcDbEntity
  8
ALL_ASSEMBLY_MEMBERS
100
AcDbLine
 62
7
  6
CONTINUOUS
 10
4.41268048
 20
4.915671308
 11
4.41268048
 21
4.9428952118
  0
LINE
  5
232
100
AcDbEntity
  8
ALL_ASSEMBLY_MEMBERS
100
AcDbLine
 62
7
  6
CONTINUOUS
 10
4.5784227741
 20
4.0611320986
 11
4.5784227741
 21
4.5719847763
  0
LINE
  5
233
100
AcDbEntity
  8
ALL_ASSEMBLY_MEMBERS
100
AcDbLine
 62
7
  6
CONTINUOUS
 10
4.6177019496
 20
4.0483234976
 11
4.6177019496
 21
4.1601719085
  0
LINE
  5
234
100
AcDbEntity
  8
ALL_ASSEMBLY_MEMBERS
100
AcDbLine
 62
7
  6
CONTINUOUS
 10
4.356668361
 20
4.8862731985
 11
4.3828671431
 21
4.8862731985
  0
LINE
  5
235
100
AcDbEntity
  8
ALL_ASSEMBLY_MEMBERS
100
AcDbLine
 62
7
  6
CONTINUOUS
 10
5.6025367541
 20
4.8862731985
 11
5.6287355382
 21
4.8862731985
  0
LINE
  5
236
100
AcDbEntity
  8
ALL_ASSEMBLY_MEMBERS
100
AcDbLine
 62
7
  6
CONTINUOUS
 10
4.7154689333
 20
4.9862731985
 11
4.456667084
 21
4.9862731985
  0
LINE
  5
237
100
AcDbEntity
  8
ALL_ASSEMBLY_MEMBERS
100
AcDbLine
 62
7
  6
CONTINUOUS
 10
5.2699502523
 20
4.9862731985
 11
5.5287368151
 21
4.9862731985
  0
LWPOLYLINE
  5
238
100
AcDbEntity
  8
ALL_ASSEMBLY_MEMBERS
100
AcDbPolyline
 62
7
  6
CONTINUOUS
 90
6
 70
0
 10
5.3469926922
 20
4.6303044749
 10
5.3460559033
 20
4.6308509199
 10
5.3423960174
 20
4.6335936291
 10
5.3369749448
 20
4.6389788253
 10
5.3305641495
 20
4.6470345867
 10
5.3249918789
 20
4.6554742812
  0
LINE
  5
239
100
AcDbEntity
  8
ALL_ASSEMBLY_MEMBERS
100
AcDbLine
 62
7
  6
CONTINUOUS
 10
5.346700331
 20
4.001565315
 11
5.3462739592
 21
4.0023122536
  0
LINE
  5
23A
100
AcDbEntity
  8
ALL_ASSEMBLY_MEMBERS
100
AcDbLine
 62
7
  6
CONTINUOUS
 10
5.306980909
 20
3.9611380962
 11
5.3076020461
 21
3.9600404665
  0
LINE
  5
23B
100
AcDbEntity
  8
ALL_ASSEMBLY_MEMBERS
100
AcDbLine
 62
7
  6
CONTINUOUS
 10
5.306981125
 20
3.9624276561
 11
5.3065546367
 21
3.9631831448
  0
LINE
  5
23C
100
AcDbEntity
  8
ALL_ASSEMBLY_MEMBERS
100
AcDbLine
 62
7
  6
CONTINUOUS
 10
5.306981125
 20
3.9611467754
 11
5.3076018385
 21
3.9600321005
  0
LINE
  5
23D
100
AcDbEntity
  8
ALL_ASSEMBLY_MEMBERS
100
AcDbLine
 62
7
  6
CONTINUOUS
 10
5.2483942016
 20
3.9034498006
 11
5.2490191934
 21
3.9023122536
  0
LINE
  5
23E
100
AcDbEntity
  8
ALL_ASSEMBLY_MEMBERS
100
AcDbLine
 62
7
  6
CONTINUOUS
 10
5.2484481113
 20
3.9034508611
 11
5.2489649586
 21
3.9023111946
  0
LINE
  5
23F
100
AcDbEntity
  8
ALL_ASSEMBLY_MEMBERS
100
AcDbLine
 62
7
  6
CONTINUOUS
 10
4.6784227741
 20
3.9611467754
 11
4.6784227741
 21
3.9624279889
  0
LINE
  5
240
100
AcDbEntity
  8
ALL_ASSEMBLY_MEMBERS
100
AcDbLine
 62
7
  6
CONTINUOUS
 10
4.7177019496
 20
4.0224236346
 11
4.7177019496
 21
4.0228699708
  0
LINE
  5
241
100
AcDbEntity
  8
ALL_ASSEMBLY_MEMBERS
100
AcDbLine
 62
7
  6
CONTINUOUS
 10
4.7177019496
 20
4.1858647782
 11
4.7177019496
 21
4.1860906571
  0
LINE
  5
242
100
AcDbEntity
  8
ALL_ASSEMBLY_MEMBERS
100
AcDbLine
 62
7
  6
CONTINUOUS
 10
4.7177093724
 20
4.1863639351
 11
4.7177019496
 21
4.1860906571
  0
LINE
  5
243
100
AcDbEntity
  8
ALL_ASSEMBLY_MEMBERS
100
AcDbLine
 62
7
  6
CONTINUOUS
 10
4.6177105414
 20
4.1604650043
 11
4.6177019496
 21
4.1601719085
  0
LINE
  5
244
100
AcDbEntity
  8
ALL_ASSEMBLY_MEMBERS
100
AcDbLine
 62
7
  6
CONTINUOUS
 10
4.6267433293
 20
4.2787390853
 11
4.6177128312
 21
4.1604649941
  0
LINE
  5
245
100
AcDbEntity
  8
ALL_ASSEMBLY_MEMBERS
100
AcDbLine
 62
7
  6
CONTINUOUS
 10
4.6345111711
 20
4.3750215371
 11
4.6267433293
 21
4.2787390853
  0
LINE
  5
246
100
AcDbEntity
  8
ALL_ASSEMBLY_MEMBERS
100
AcDbLine
 62
7
  6
CONTINUOUS
 10
4.6420205364
 20
4.4630334532
 11
4.6345111711
 21
4.3750215371
  0
LINE
  5
247
100
AcDbEntity
  8
ALL_ASSEMBLY_MEMBERS
100
AcDbLine
 62
7
  6
CONTINUOUS
 10
4.6478359385
 20
4.5275611658
 11
4.6420205364
 21
4.4630334532
  0
LINE
  5
248
100
AcDbEntity
  8
ALL_ASSEMBLY_MEMBERS
100
AcDbLine
 62
7
  6
CONTINUOUS
 10
4.653482532
 20
4.5870137409
 11
4.6478359385
 21
4.5275611658
  0
LINE
  5
249
100
AcDbEntity
  8
ALL_ASSEMBLY_MEMBERS
100
AcDbLine
 62
7
  6
CONTINUOUS
 10
4.6589620882
 20
4.6415717203
 11
4.653482532
 21
4.5870137409
  0
LINE
  5
24A
100
AcDbEntity
  8
ALL_ASSEMBLY_MEMBERS
100
AcDbLine
 62
7
  6
CONTINUOUS
 10
4.6629629503
 20
4.6794082008
 11
4.6589620882
 21
4.6415717203
  0
LINE
  5
24B
100
AcDbEntity
  8
ALL_ASSEMBLY_MEMBERS
100
AcDbLine
 62
7
  6
CONTINUOUS
 10
4.6668720172
 20
4.7147032403
 11
4.6629629503
 21
4.6794082008
  0
LINE
  5
24C
100
AcDbEntity
  8
ALL_ASSEMBLY_MEMBERS
100
AcDbLine
 62
7
  6
CONTINUOUS
 10
4.6706908996
 20
4.7475385842
 11
4.6668720172
 21
4.7147032403
  0
LINE
  5
24D
100
AcDbEntity
  8
ALL_ASSEMBLY_MEMBERS
100
AcDbLine
 62
7
  6
CONTINUOUS
 10
4.6744218953
 20
4.7779926311
 11
4.6706908996
 21
4.7475385842
  0
LINE
  5
24E
100
AcDbEntity
  8
ALL_ASSEMBLY_MEMBERS
100
AcDbLine
 62
7
  6
CONTINUOUS
 10
4.6768615337
 20
4.7970075331
 11
4.6744218953
 21
4.7779926311
  0
LINE
  5
24F
100
AcDbEntity
  8
ALL_ASSEMBLY_MEMBERS
100
AcDbLine
 62
7
  6
CONTINUOUS
 10
4.6792634638
 20
4.8150129766
 11
4.6768615337
 21
4.7970075331
  0
LINE
  5
250
100
AcDbEntity
  8
ALL_ASSEMBLY_MEMBERS
100
AcDbLine
 62
7
  6
CONTINUOUS
 10
4.6816274989
 20
4.8320221241
 11
4.6792634638
 21
4.8150129766
  0
LINE
  5
251
100
AcDbEntity
  8
ALL_ASSEMBLY_MEMBERS
100
AcDbLine
 62
7
  6
CONTINUOUS
 10
4.6839539594
 20
4.8480516873
 11
4.6816274989
 21
4.8320221241
  0
LINE
  5
252
100
AcDbEntity
  8
ALL_ASSEMBLY_MEMBERS
100
AcDbLine
 62
7
  6
CONTINUOUS
 10
4.6862435609
 20
4.8631200037
 11
4.6839539594
 21
4.8480516873
  0
LWPOLYLINE
  5
253
100
AcDbEntity
  8
ALL_ASSEMBLY_MEMBERS
100
AcDbPolyline
 62
7
  6
CONTINUOUS
 90
39
 70
0
 10
4.7761990983
 20
5.0278463986
 10
4.7699744087
 20
5.027535859
 10
4.7627296528
 20
5.0263757198
 10
4.7556037345
 20
5.0243518413
 10
4.7488031096
 20
5.0215241295
 10
4.7427101017
 20
5.0181428274
 10
4.7373845356
 20
5.0144149133
 10
4.732718121
 20
5.0104348642
 10
4.7287370488
 20
5.0063954618
 10
4.7254118997
 20
5.0024637412
 10
4.7226070939
 20
4.9986655479
 10
4.7201854909
 20
4.994959439
 10
4.7181003346
 20
4.9913936367
 10
4.7162943775
 20
4.9879812046
 10
4.7146590968
 20
4.9845974875
 10
4.7131640352
 20
4.9812329941
 10
4.7117958879
 20
4.9779073128
 10
4.7105012378
 20
4.9745277032
 10
4.7092647379
 20
4.9710769856
 10
4.7080831211
 20
4.9675671997
 10
4.7069334994
 20
4.963946949
 10
4.7058088602
 20
4.9602046527
 10
4.7047074211
 20
4.95634403
 10
4.7036192331
 20
4.9523379351
 10
4.7025414656
 20
4.9481812287
 10
4.7014725776
 20
4.9438727882
 10
4.7004068655
 20
4.9393930864
 10
4.699342797
 20
4.9347376914
 10
4.6982796309
 20
4.9299051192
 10
4.6972139575
 20
4.9248808544
 10
4.6961448082
 20
4.9196604806
 10
4.6950718659
 20
4.9142424661
 10
4.6939932482
 20
4.9086169186
 10
4.6929083981
 20
4.9027800552
 10
4.6918171409
 20
4.8967299711
 10
4.6907184716
 20
4.8904599188
 10
4.6896120745
 20
4.883966836
 10
4.688497791
 20
4.877248679
 10
4.6862435609
 20
4.8631200037
  0
LINE
  5
254
100
AcDbEntity
  8
ALL_ASSEMBLY_MEMBERS
100
AcDbLine
 62
7
  6
CONTINUOUS
 10
5.2083023093
 20
5.0278462683
 11
5.2083424297
 21
5.0278465113
  0
LINE
  5
255
100
AcDbEntity
  8
ALL_ASSEMBLY_MEMBERS
100
AcDbLine
 62
7
  6
CONTINUOUS
 10
4.7770605215
 20
5.0278465112
 11
4.7761815454
 21
5.0278464688
  0
LINE
  5
256
100
AcDbEntity
  8
ALL_ASSEMBLY_MEMBERS
100
AcDbLine
 62
7
  6
CONTINUOUS
 10
5.2092302365
 20
5.0278464684
 11
5.2083424297
 21
5.0278465113
  0
LINE
  5
257
100
AcDbEntity
  8
ALL_ASSEMBLY_MEMBERS
100
AcDbLine
 62
7
  6
CONTINUOUS
 10
4.7771020698
 20
5.0278462506
 11
4.7770605215
 21
5.0278465112
  0
LINE
  5
258
100
AcDbEntity
  8
ALL_ASSEMBLY_MEMBERS
100
AcDbLine
 62
7
  6
CONTINUOUS
 10
5.2092854377
 20
5.0278465413
 11
5.2092395667
 21
5.0278469496
  0
LINE
  5
259
100
AcDbEntity
  8
ALL_ASSEMBLY_MEMBERS
100
AcDbLine
 62
7
  6
CONTINUOUS
 10
5.2083307107
 20
5.027846231
 11
5.2037705501
 21
5.0281322646
  0
LINE
  5
25A
100
AcDbEntity
  8
ALL_ASSEMBLY_MEMBERS
100
AcDbLine
 62
7
  6
CONTINUOUS
 10
5.2092766328
 20
5.0278387003
 11
5.2092302365
 21
5.0278464684
  0
LWPOLYLINE
  5
25B
100
AcDbEntity
  8
ALL_ASSEMBLY_MEMBERS
100
AcDbPolyline
 62
7
  6
CONTINUOUS
 90
6
 70
0
 10
5.2037705501
 20
5.0281322646
 10
5.1985101672
 20
5.0291836658
 10
5.1936906501
 20
5.030891491
 10
5.1894741204
 20
5.0330750185
 10
5.1861224795
 20
5.0353886509
 10
5.1851985349
 20
5.0361885273
  0
LINE
  5
25C
100
AcDbEntity
  8
ALL_ASSEMBLY_MEMBERS
100
AcDbLine
 62
7
  6
CONTINUOUS
 10
5.4069797098
 20
4.0610699319
 11
5.4076073
 21
4.0600829461
  0
LINE
  5
25D
100
AcDbEntity
  8
ALL_ASSEMBLY_MEMBERS
100
AcDbLine
 62
7
  6
CONTINUOUS
 10
5.3466987993
 20
4.0015652778
 11
5.346275669
 21
4.0023122952
  0
LINE
  5
25E
100
AcDbEntity
  8
ALL_ASSEMBLY_MEMBERS
100
AcDbLine
 62
7
  6
CONTINUOUS
 10
5.406981125
 20
4.0611320986
 11
5.4076059021
 21
4.0600211605
  0
LINE
  5
25F
100
AcDbEntity
  8
ALL_ASSEMBLY_MEMBERS
100
AcDbLine
 62
7
  6
CONTINUOUS
 10
5.3484017362
 20
4.0034491721
 11
5.3490391267
 21
4.0023123903
  0
LINE
  5
260
100
AcDbEntity
  8
ALL_ASSEMBLY_MEMBERS
100
AcDbLine
 62
7
  6
CONTINUOUS
 10
5.3484075771
 20
4.0034493159
 11
5.3490335121
 21
4.0023122536
  0
LINE
  5
261
100
AcDbEntity
  8
ALL_ASSEMBLY_MEMBERS
100
AcDbLine
 62
7
  6
CONTINUOUS
 10
4.7177019496
 20
4.1858647782
 11
4.7176938603
 21
4.1856799925
  0
LINE
  5
262
100
AcDbEntity
  8
ALL_ASSEMBLY_MEMBERS
100
AcDbLine
 62
7
  6
CONTINUOUS
 10
4.7356071068
 20
4.4328670034
 11
4.7177114056
 21
4.1863639267
  0
LINE
  5
263
100
AcDbEntity
  8
ALL_ASSEMBLY_MEMBERS
100
AcDbLine
 62
7
  6
CONTINUOUS
 10
4.8047702745
 20
4.5897057226
 11
4.8049031915
 21
4.5914183798
  0
LINE
  5
264
100
AcDbEntity
  8
ALL_ASSEMBLY_MEMBERS
100
AcDbLine
 62
7
  6
CONTINUOUS
 10
4.7488090321
 20
4.5972030384
 11
4.7356071068
 21
4.4328670034
  0
LINE
  5
265
100
AcDbEntity
  8
ALL_ASSEMBLY_MEMBERS
100
AcDbLine
 62
7
  6
CONTINUOUS
 10
4.7586457165
 20
4.707802759
 11
4.7488090321
 21
4.5972030384
  0
LINE
  5
266
100
AcDbEntity
  8
ALL_ASSEMBLY_MEMBERS
100
AcDbLine
 62
7
  6
CONTINUOUS
 10
4.7627317705
 20
4.7504750367
 11
4.7586457165
 21
4.707802759
  0
LINE
  5
267
100
AcDbEntity
  8
ALL_ASSEMBLY_MEMBERS
100
AcDbLine
 62
7
  6
CONTINUOUS
 10
4.7667305079
 20
4.7902989779
 11
4.7627317705
 21
4.7504750367
  0
LINE
  5
268
100
AcDbEntity
  8
ALL_ASSEMBLY_MEMBERS
100
AcDbLine
 62
7
  6
CONTINUOUS
 10
4.7706366017
 20
4.8272874477
 11
4.7667305079
 21
4.7902989779
  0
LINE
  5
269
100
AcDbEntity
  8
ALL_ASSEMBLY_MEMBERS
100
AcDbLine
 62
7
  6
CONTINUOUS
 10
4.7744461055
 20
4.8614725633
 11
4.7706366017
 21
4.8272874477
  0
LINE
  5
26A
100
AcDbEntity
  8
ALL_ASSEMBLY_MEMBERS
100
AcDbLine
 62
7
  6
CONTINUOUS
 10
4.7769307243
 20
4.8827267425
 11
4.7744461055
 21
4.8614725633
  0
LINE
  5
26B
100
AcDbEntity
  8
ALL_ASSEMBLY_MEMBERS
100
AcDbLine
 62
7
  6
CONTINUOUS
 10
4.7793707105
 20
4.9027704628
 11
4.7769307243
 21
4.8827267425
  0
LINE
  5
26C
100
AcDbEntity
  8
ALL_ASSEMBLY_MEMBERS
100
AcDbLine
 62
7
  6
CONTINUOUS
 10
4.7817663496
 20
4.921624797
 11
4.7793707105
 21
4.9027704628
  0
LINE
  5
26D
100
AcDbEntity
  8
ALL_ASSEMBLY_MEMBERS
100
AcDbLine
 62
7
  6
CONTINUOUS
 10
4.784118402
 20
4.9393134823
 11
4.7817663496
 21
4.921624797
  0
LINE
  5
26E
100
AcDbEntity
  8
ALL_ASSEMBLY_MEMBERS
100
AcDbLine
 62
7
  6
CONTINUOUS
 10
4.7864281592
 20
4.9558635537
 11
4.784118402
 21
4.9393134823
  0
LINE
  5
26F
100
AcDbEntity
  8
ALL_ASSEMBLY_MEMBERS
100
AcDbLine
 62
7
  6
CONTINUOUS
 10
4.7886975115
 20
4.9713050612
 11
4.7864281592
 21
4.9558635537
  0
LWPOLYLINE
  5
270
100
AcDbEntity
  8
ALL_ASSEMBLY_MEMBERS
100
AcDbPolyline
 62
7
  6
CONTINUOUS
 90
10
 70
0
 10
4.7994839125
 20
5.0328316966
 10
4.7984417858
 20
5.0277813132
 10
4.7973932279
 20
5.0225012601
 10
4.7963372012
 20
5.0169841719
 10
4.7952733931
 20
5.011226113
 10
4.7942009464
 20
5.0052199864
 10
4.7931193093
 20
4.998959988
 10
4.7920282594
 20
4.9924420084
 10
4.7909277566
 20
4.9856629929
 10
4.7886975115
 20
4.9713050612
  0
LWPOLYLINE
  5
271
100
AcDbEntity
  8
ALL_ASSEMBLY_MEMBERS
100
AcDbPolyline
 62
7
  6
CONTINUOUS
 90
28
 70
0
 10
4.8760086933
 20
5.127851721
 10
4.8690263459
 20
5.1274607645
 10
4.8615747614
 20
5.1261578174
 10
4.854271058
 20
5.1239390681
 10
4.8473394034
 20
5.1208773265
 10
4.8411902201
 20
5.1172610098
 10
4.8358830448
 20
5.11332721
 10
4.8312865077
 20
5.1091761335
 10
4.8274087924
 20
5.1050086855
 10
4.8242141969
 20
5.1010071274
 10
4.8215524068
 20
5.0971905914
 10
4.8192643013
 20
5.0934857537
 10
4.8172994508
 20
5.0899332327
 10
4.8156052414
 20
5.0865509394
 10
4.8140708082
 20
5.0831986237
 10
4.8126659325
 20
5.0798620668
 10
4.8113799589
 20
5.0765639477
 10
4.8101609525
 20
5.0732068793
 10
4.8089945887
 20
5.06977274
 10
4.8078780824
 20
5.0662730707
 10
4.8067885314
 20
5.0626509592
 10
4.8057193912
 20
5.0588930644
 10
4.8046691305
 20
5.0550016215
 10
4.8036270271
 20
5.0509422007
 10
4.8025899381
 20
5.0467048508
 10
4.8015568097
 20
5.042287121
 10
4.8005220918
 20
5.0376658611
 10
4.7994839125
 20
5.0328316966
  0
LINE
  5
272
100
AcDbEntity
  8
ALL_ASSEMBLY_MEMBERS
100
AcDbLine
 62
7
  6
CONTINUOUS
 10
5.1094218428
 20
5.1278496144
 11
4.8759880286
 21
5.1278496138
  0
LINE
  5
273
100
AcDbEntity
  8
ALL_ASSEMBLY_MEMBERS
100
AcDbLine
 62
7
  6
CONTINUOUS
 10
4.9927019496
 20
5.1278461886
 11
4.9927019496
 21
4.2013699926
  0
LWPOLYLINE
  5
274
100
AcDbEntity
  8
ALL_ASSEMBLY_MEMBERS
100
AcDbPolyline
 62
7
  6
CONTINUOUS
 90
3
 70
0
 10
4.6604136361
 20
4.6554895293
 10
4.6550117236
 20
4.6472729926
 10
4.6485804859
 20
4.6391494631
  0
LWPOLYLINE
  5
275
100
AcDbEntity
  8
ALL_ASSEMBLY_MEMBERS
100
AcDbPolyline
 62
7
  6
CONTINUOUS
 90
7
 70
0
 10
4.8002061252
 20
5.0361945985
 10
4.7989816832
 20
5.0351566831
 10
4.7955391248
 20
5.0328414018
 10
4.7912268854
 20
5.0306833791
 10
4.7863263028
 20
5.0290311332
 10
4.781010886
 20
5.0280597673
 10
4.7770744128
 20
5.0278463287
  0
LWPOLYLINE
  5
276
100
AcDbEntity
  8
ALL_ASSEMBLY_MEMBERS
100
AcDbPolyline
 62
7
  6
CONTINUOUS
 90
28
 70
0
 10
5.1857001591
 20
5.0338717251
 10
5.1846889575
 20
5.0385420627
 10
5.1836757855
 20
5.0430332068
 10
5.1826591964
 20
5.047349747
 10
5.1816339221
 20
5.0515108272
 10
5.1805985312
 20
5.0555177305
 10
5.1795501861
 20
5.0593764492
 10
5.1784793025
 20
5.0631146957
 10
5.1773841926
 20
5.066728783
 10
5.1762580606
 20
5.0702306954
 10
5.1750786855
 20
5.0736728163
 10
5.1738427641
 20
5.0770433524
 10
5.1725354235
 20
5.0803597242
 10
5.171104822
 20
5.0837158622
 10
5.169539349
 20
5.0870893038
 10
5.1678075815
 20
5.0904940961
 10
5.1657977411
 20
5.0940670025
 10
5.1634545924
 20
5.0977910379
 10
5.1607273175
 20
5.1016225672
 10
5.1574604581
 20
5.1056248248
 10
5.1535028381
 20
5.1097768777
 10
5.1488223811
 20
5.1138936721
 10
5.1434431624
 20
5.1177658853
 10
5.1372475424
 20
5.1212909311
 10
5.1302953906
 20
5.1242436431
 10
5.1229919733
 20
5.1263512268
 10
5.1155585903
 20
5.1275476748
 10
5.1093954264
 20
5.1278517769
  0
LINE
  5
277
100
AcDbEntity
  8
ALL_ASSEMBLY_MEMBERS
100
AcDbLine
 62
7
  6
CONTINUOUS
 10
5.3251255559
 20
4.6542101372
 11
5.3210178209
 21
4.6924523953
  0
LINE
  5
278
100
AcDbEntity
  8
ALL_ASSEMBLY_MEMBERS
100
AcDbLine
 62
7
  6
CONTINUOUS
 10
5.2177291323
 20
4.7994164674
 11
5.2140786031
 21
4.8336078862
  0
LINE
  5
279
100
AcDbEntity
  8
ALL_ASSEMBLY_MEMBERS
100
AcDbLine
 62
7
  6
CONTINUOUS
 10
5.3293329158
 20
4.613177129
 11
5.3251255559
 21
4.6542101372
  0
LINE
  5
27A
100
AcDbEntity
  8
ALL_ASSEMBLY_MEMBERS
100
AcDbLine
 62
7
  6
CONTINUOUS
 10
5.2214644477
 20
4.7627073582
 11
5.2177291323
 21
4.7994164674
  0
LINE
  5
27B
100
AcDbEntity
  8
ALL_ASSEMBLY_MEMBERS
100
AcDbLine
 62
7
  6
CONTINUOUS
 10
5.2265773885
 20
4.7097323783
 11
5.2214644477
 21
4.7627073582
  0
LINE
  5
27C
100
AcDbEntity
  8
ALL_ASSEMBLY_MEMBERS
100
AcDbLine
 62
7
  6
CONTINUOUS
 10
5.2318400096
 20
4.6520246476
 11
5.2265773885
 21
4.7097323783
  0
LINE
  5
27D
100
AcDbEntity
  8
ALL_ASSEMBLY_MEMBERS
100
AcDbLine
 62
7
  6
CONTINUOUS
 10
5.2386267601
 20
4.5730334818
 11
5.2318400096
 21
4.6520246476
  0
LINE
  5
27E
100
AcDbEntity
  8
ALL_ASSEMBLY_MEMBERS
100
AcDbLine
 62
7
  6
CONTINUOUS
 10
5.2559099976
 20
4.3514229873
 11
5.2386267601
 21
4.5730334818
  0
LINE
  5
27F
100
AcDbEntity
  8
ALL_ASSEMBLY_MEMBERS
100
AcDbLine
 62
7
  6
CONTINUOUS
 10
5.2676924854
 20
4.1863639639
 11
5.2559099976
 21
4.3514229873
  0
LINE
  5
280
100
AcDbEntity
  8
ALL_ASSEMBLY_MEMBERS
100
AcDbLine
 62
7
  6
CONTINUOUS
 10
5.2677105492
 20
4.1856800225
 11
5.2677019496
 21
4.1858647981
  0
LINE
  5
281
100
AcDbEntity
  8
ALL_ASSEMBLY_MEMBERS
100
AcDbLine
 62
7
  6
CONTINUOUS
 10
5.2677019496
 20
4.1860906571
 11
5.2676951909
 21
4.1863639747
  0
LWPOLYLINE
  5
282
100
AcDbEntity
  8
ALL_ASSEMBLY_MEMBERS
100
AcDbPolyline
 62
7
  6
CONTINUOUS
 90
6
 70
0
 10
4.6485804859
 20
4.6391494631
 10
4.6431292697
 20
4.6336982708
 10
4.6394213127
 20
4.6308969249
 10
4.6381238505
 20
4.6301464791
 10
4.6394747169
 20
4.6304446958
 10
4.6420779035
 20
4.6306503133
  0
LWPOLYLINE
  5
283
100
AcDbEntity
  8
ALL_ASSEMBLY_MEMBERS
100
AcDbPolyline
 62
7
  6
CONTINUOUS
 90
36
 70
0
 10
5.2960367701
 20
4.8825046116
 10
5.2948902033
 20
4.8892697988
 10
5.2937520969
 20
4.8957952898
 10
5.2926215046
 20
4.9020878965
 10
5.2914982684
 20
4.9081496709
 10
5.2903818821
 20
4.9139844351
 10
5.2892705845
 20
4.9196020163
 10
5.2881640624
 20
4.9250042248
 10
5.2870614329
 20
4.9301954635
 10
5.2859595512
 20
4.9351897972
 10
5.2848578004
 20
4.939988576
 10
5.2837546479
 20
4.9445969956
 10
5.2826445536
 20
4.9490353624
 10
5.2815259987
 20
4.9533055119
 10
5.2803964556
 20
4.9574124039
 10
5.2792467168
 20
4.9613824644
 10
5.2780752064
 20
4.9652121932
 10
5.2768753316
 20
4.9689133571
 10
5.2756254413
 20
4.9725369813
 10
5.2743227791
 20
4.9760708817
 10
5.272952346
 20
4.9795337297
 10
5.2714617636
 20
4.9830212213
 10
5.2698396593
 20
4.9865111364
 10
5.2680544093
 20
4.9900185991
 10
5.2659924751
 20
4.9936839916
 10
5.2635972371
 20
4.9974922335
 10
5.2608176596
 20
5.0013990366
 10
5.2574972946
 20
5.005467908
 10
5.253481429
 20
5.0096801041
 10
5.2487379696
 20
5.0138479695
 10
5.2432966615
 20
5.0177568229
 10
5.237043669
 20
5.0213028769
 10
5.2300367291
 20
5.0242640473
 10
5.2226796701
 20
5.0263697461
 10
5.2151939822
 20
5.0275546803
 10
5.2091952053
 20
5.0278426086
  0
LWPOLYLINE
  5
284
100
AcDbEntity
  8
ALL_ASSEMBLY_MEMBERS
100
AcDbPolyline
 62
7
  6
CONTINUOUS
 90
9
 70
0
 10
5.1938873421
 20
4.9893155023
 10
5.1928449539
 20
4.9956378509
 10
5.1918095117
 20
5.0017344958
 10
5.1907799782
 20
5.0076128747
 10
5.1897561839
 20
5.013275028
 10
5.1887376102
 20
5.0187248024
 10
5.1877223959
 20
5.0239726053
 10
5.1867102143
 20
5.0290201239
 10
5.1857001591
 20
5.0338717251
  0
LINE
  5
285
100
AcDbEntity
  8
ALL_ASSEMBLY_MEMBERS
100
AcDbLine
 62
7
  6
CONTINUOUS
 10
5.2983562348
 20
4.8682430974
 11
5.2960367701
 21
4.8825046116
  0
LINE
  5
286
100
AcDbEntity
  8
ALL_ASSEMBLY_MEMBERS
100
AcDbLine
 62
7
  6
CONTINUOUS
 10
5.1959939541
 20
4.9759810026
 11
5.1938873421
 21
4.9893155023
  0
LINE
  5
287
100
AcDbEntity
  8
ALL_ASSEMBLY_MEMBERS
100
AcDbLine
 62
7
  6
CONTINUOUS
 10
5.3007128974
 20
4.8529832494
 11
5.2983562348
 21
4.8682430974
  0
LINE
  5
288
100
AcDbEntity
  8
ALL_ASSEMBLY_MEMBERS
100
AcDbLine
 62
7
  6
CONTINUOUS
 10
5.1981316491
 20
4.9617033635
 11
5.1959939541
 21
4.9759810026
  0
LINE
  5
289
100
AcDbEntity
  8
ALL_ASSEMBLY_MEMBERS
100
AcDbLine
 62
7
  6
CONTINUOUS
 10
5.3031083707
 20
4.8367012102
 11
5.3007128974
 21
4.8529832494
  0
LINE
  5
28A
100
AcDbEntity
  8
ALL_ASSEMBLY_MEMBERS
100
AcDbLine
 62
7
  6
CONTINUOUS
 10
5.2003023047
 20
4.9464592874
 11
5.1981316491
 21
4.9617033635
  0
LINE
  5
28B
100
AcDbEntity
  8
ALL_ASSEMBLY_MEMBERS
100
AcDbLine
 62
7
  6
CONTINUOUS
 10
5.3055439195
 20
4.8193741106
 11
5.3031083707
 21
4.8367012102
  0
LINE
  5
28C
100
AcDbEntity
  8
ALL_ASSEMBLY_MEMBERS
100
AcDbLine
 62
7
  6
CONTINUOUS
 10
5.2025076635
 20
4.930225482
 11
5.2003023047
 21
4.9464592874
  0
LINE
  5
28D
100
AcDbEntity
  8
ALL_ASSEMBLY_MEMBERS
100
AcDbLine
 62
7
  6
CONTINUOUS
 10
5.3080200255
 20
4.8009837159
 11
5.3055439195
 21
4.8193741106
  0
LINE
  5
28E
100
AcDbEntity
  8
ALL_ASSEMBLY_MEMBERS
100
AcDbLine
 62
7
  6
CONTINUOUS
 10
5.2047487798
 20
4.9129824175
 11
5.2025076635
 21
4.930225482
  0
LINE
  5
28F
100
AcDbEntity
  8
ALL_ASSEMBLY_MEMBERS
100
AcDbLine
 62
7
  6
CONTINUOUS
 10
5.3105369377
 20
4.7815130705
 11
5.3080200255
 21
4.8009837159
  0
LINE
  5
290
100
AcDbEntity
  8
ALL_ASSEMBLY_MEMBERS
100
AcDbLine
 62
7
  6
CONTINUOUS
 10
5.2070263016
 20
4.8947130198
 11
5.2047487798
 21
4.9129824175
  0
LINE
  5
291
100
AcDbEntity
  8
ALL_ASSEMBLY_MEMBERS
100
AcDbLine
 62
7
  6
CONTINUOUS
 10
5.3130942337
 20
4.7609498495
 11
5.3105369377
 21
4.7815130705
  0
LINE
  5
292
100
AcDbEntity
  8
ALL_ASSEMBLY_MEMBERS
100
AcDbLine
 62
7
  6
CONTINUOUS
 10
5.2093405497
 20
4.8754023557
 11
5.2070263016
 21
4.8947130198
  0
LINE
  5
293
100
AcDbEntity
  8
ALL_ASSEMBLY_MEMBERS
100
AcDbLine
 62
7
  6
CONTINUOUS
 10
5.3170081181
 20
4.7280015085
 11
5.3130942337
 21
4.7609498495
  0
LINE
  5
294
100
AcDbEntity
  8
ALL_ASSEMBLY_MEMBERS
100
AcDbLine
 62
7
  6
CONTINUOUS
 10
5.3210178209
 20
4.6924523953
 11
5.3170081181
 21
4.7280015085
  0
LWPOLYLINE
  5
295
100
AcDbEntity
  8
ALL_ASSEMBLY_MEMBERS
100
AcDbPolyline
 62
7
  6
CONTINUOUS
 90
3
 70
0
 10
5.2140786031
 20
4.8336078862
 10
5.2128802966
 20
4.8444585227
 10
5.2093405497
 20
4.8754023557
  0
LINE
  5
296
100
AcDbEntity
  8
ALL_ASSEMBLY_MEMBERS
100
AcDbLine
 62
7
  6
CONTINUOUS
 10
5.3350990218
 20
4.5539523052
 11
5.3293329158
 21
4.613177129
  0
LINE
  5
297
100
AcDbEntity
  8
ALL_ASSEMBLY_MEMBERS
100
AcDbLine
 62
7
  6
CONTINUOUS
 10
5.341045145
 20
4.4893686635
 11
5.3350990218
 21
4.5539523052
  0
LINE
  5
298
100
AcDbEntity
  8
ALL_ASSEMBLY_MEMBERS
100
AcDbLine
 62
7
  6
CONTINUOUS
 10
5.3487341765
 20
4.4008448251
 11
5.341045145
 21
4.4893686635
  0
LINE
  5
299
100
AcDbEntity
  8
ALL_ASSEMBLY_MEMBERS
100
AcDbLine
 62
7
  6
CONTINUOUS
 10
5.3567039372
 20
4.3034765492
 11
5.3487341765
 21
4.4008448251
  0
LWPOLYLINE
  5
29A
100
AcDbEntity
  8
ALL_ASSEMBLY_MEMBERS
100
AcDbPolyline
 62
7
  6
CONTINUOUS
 90
3
 70
0
 10
5.367691067
 20
4.1604650206
 10
5.3665989801
 20
4.1751225964
 10
5.3567039372
 20
4.3034765492
  0
LINE
  5
29B
100
AcDbEntity
  8
ALL_ASSEMBLY_MEMBERS
100
AcDbLine
 62
7
  6
CONTINUOUS
 10
5.3677019496
 20
4.1601719085
 11
5.3676940683
 21
4.1604650335
  0
LINE
  5
29C
100
AcDbEntity
  8
ALL_ASSEMBLY_MEMBERS
100
AcDbLine
 62
7
  6
CONTINUOUS
 10
5.2677019496
 20
4.1860906571
 11
5.2677019496
 21
4.1858647981
  0
LINE
  5
29D
100
AcDbEntity
  8
ALL_ASSEMBLY_MEMBERS
100
AcDbLine
 62
7
  6
CONTINUOUS
 10
5.2677019496
 20
4.0228699648
 11
5.2677019496
 21
4.0224236346
  0
LINE
  5
29E
100
AcDbEntity
  8
ALL_ASSEMBLY_MEMBERS
100
AcDbLine
 62
7
  6
CONTINUOUS
 10
5.306981125
 20
3.962427656
 11
5.306981125
 21
3.9611467754
  0
LINE
  5
29F
100
AcDbEntity
  8
ALL_ASSEMBLY_MEMBERS
100
AcDbLine
 62
7
  6
CONTINUOUS
 10
5.3677019496
 20
4.1601719085
 11
5.3677019496
 21
4.0483234976
  0
LINE
  5
2A0
100
AcDbEntity
  8
ALL_ASSEMBLY_MEMBERS
100
AcDbLine
 62
7
  6
CONTINUOUS
 10
4.7369557952
 20
3.903450861
 11
4.7364389479
 21
3.9023111944
  0
LINE
  5
2A1
100
AcDbEntity
  8
ALL_ASSEMBLY_MEMBERS
100
AcDbLine
 62
7
  6
CONTINUOUS
 10
4.6369963221
 20
4.0034493159
 11
4.6363703871
 21
4.0023122536
  0
LINE
  5
2A2
100
AcDbEntity
  8
ALL_ASSEMBLY_MEMBERS
100
AcDbLine
 62
7
  6
CONTINUOUS
 10
4.637002163
 20
4.0034491721
 11
4.6363647725
 21
4.0023123903
  0
LINE
  5
2A3
100
AcDbEntity
  8
ALL_ASSEMBLY_MEMBERS
100
AcDbLine
 62
7
  6
CONTINUOUS
 10
4.5784227741
 20
4.0611320986
 11
4.5777979971
 21
4.0600211605
  0
LINE
  5
2A4
100
AcDbEntity
  8
ALL_ASSEMBLY_MEMBERS
100
AcDbLine
 62
7
  6
CONTINUOUS
 10
4.6391282302
 20
4.0023122952
 11
4.6387173207
 21
4.0015867682
  0
LINE
  5
2A5
100
AcDbEntity
  8
ALL_ASSEMBLY_MEMBERS
100
AcDbLine
 62
7
  6
CONTINUOUS
 10
4.5784241894
 20
4.0610699319
 11
4.5777965992
 21
4.0600829461
  0
LINE
  5
2A6
100
AcDbEntity
  8
ALL_ASSEMBLY_MEMBERS
100
AcDbLine
 62
7
  6
CONTINUOUS
 10
5.406981125
 20
4.5719847763
 11
5.406981125
 21
4.0611320986
  0
LINE
  5
2A7
100
AcDbEntity
  8
ALL_ASSEMBLY_MEMBERS
100
AcDbLine
 62
7
  6
CONTINUOUS
 10
4.7370096976
 20
3.9034498006
 11
4.7363847058
 21
3.9023122536
  0
LINE
  5
2A8
100
AcDbEntity
  8
ALL_ASSEMBLY_MEMBERS
100
AcDbLine
 62
7
  6
CONTINUOUS
 10
4.6784227741
 20
3.9611467754
 11
4.6778020607
 21
3.9600321005
  0
LINE
  5
2A9
100
AcDbEntity
  8
ALL_ASSEMBLY_MEMBERS
100
AcDbLine
 62
7
  6
CONTINUOUS
 10
4.6784228408
 20
3.9624249799
 11
4.6788504273
 21
3.9631883013
  0
LINE
  5
2AA
100
AcDbEntity
  8
ALL_ASSEMBLY_MEMBERS
100
AcDbLine
 62
7
  6
CONTINUOUS
 10
4.6784229901
 20
3.9611380973
 11
4.6778018531
 21
3.9600404676
  0
LINE
  5
2AB
100
AcDbEntity
  8
ALL_ASSEMBLY_MEMBERS
100
AcDbLine
 62
7
  6
CONTINUOUS
 10
5.5727234192
 20
4.9428952118
 11
5.5727234192
 21
4.9156712805
  0
LINE
  5
2AC
100
AcDbEntity
  8
ALL_ASSEMBLY_MEMBERS
100
AcDbLine
 62
7
  6
CONTINUOUS
 10
5.5727234192
 20
3.6970132775
 11
5.5727234192
 21
3.6693091909
  0
LINE
  5
2AD
100
AcDbEntity
  8
ALL_ASSEMBLY_MEMBERS
100
AcDbLine
 62
7
  6
CONTINUOUS
 10
5.6727234192
 20
4.8429221287
 11
5.6727234192
 21
3.7693176586
  0
ARC
  5
2AE
100
AcDbEntity
  8
ALL_ASSEMBLY_MEMBERS
100
AcDbCircle
 62
7
  6
CONTINUOUS
 10
-48.9400592585
 20
0.5165654225
 40
54.2738333044
100
AcDbArc
 50
3.8929677214
 51
4.248314407
  0
ARC
  5
2AF
100
AcDbEntity
  8
ALL_ASSEMBLY_MEMBERS
100
AcDbCircle
 62
7
  6
CONTINUOUS
 10
29.830388794
 20
2.5052899673
 40
25.1687220933
100
AcDbArc
 50
175.4079075958
 51
175.9167459807
  0
ARC
  5
2B0
100
AcDbEntity
  8
ALL_ASSEMBLY_MEMBERS
100
AcDbCircle
 62
7
  6
CONTINUOUS
 10
-19.8073183001
 20
2.5082700452
 40
25.1309381946
100
AcDbArc
 50
4.0863463351
 51
4.5905025378
  0
ARC
  5
2B1
100
AcDbEntity
  8
ALL_ASSEMBLY_MEMBERS
100
AcDbCircle
 62
7
  6
CONTINUOUS
 10
6.3011471277
 20
4.6802688618
 40
1.5724708689
100
AcDbArc
 50
170.0095610546
 51
171.2151293656
  0
ARC
  5
2B2
100
AcDbEntity
  8
ALL_ASSEMBLY_MEMBERS
100
AcDbCircle
 62
7
  6
CONTINUOUS
 10
6.4439824015
 20
4.4155269458
 40
1.303386079
100
AcDbArc
 50
198.2562884993
 51
198.4494793656
  0
ARC
  5
2B3
100
AcDbEntity
  8
ALL_ASSEMBLY_MEMBERS
100
AcDbCircle
 62
7
  6
CONTINUOUS
 10
3.9425879513
 20
4.3140580152
 40
0.816878594
100
AcDbArc
 50
339.4007866887
 51
339.6093071107
  0
ARC
  5
2B4
100
AcDbEntity
  8
ALL_ASSEMBLY_MEMBERS
100
AcDbCircle
 62
7
  6
CONTINUOUS
 10
6.0428140508
 20
4.314057722
 40
0.8168765707
100
AcDbArc
 50
200.3907303084
 51
200.599215128
  0
ARC
  5
2B5
100
AcDbEntity
  8
ALL_ASSEMBLY_MEMBERS
100
AcDbCircle
 62
7
  6
CONTINUOUS
 10
3.9449563293
 20
4.3121664149
 40
0.8143499762
100
AcDbArc
 50
339.1852575112
 51
339.6701090614
  0
ARC
  5
2B6
100
AcDbEntity
  8
ALL_ASSEMBLY_MEMBERS
100
AcDbCircle
 62
7
  6
CONTINUOUS
 10
6.0403997962
 20
4.3121498299
 40
0.8142989844
100
AcDbArc
 50
200.3301195816
 51
200.8154108859
  0
ARC
  5
2B7
100
AcDbEntity
  8
ALL_ASSEMBLY_MEMBERS
100
AcDbCircle
 62
7
  6
CONTINUOUS
 10
4.3821419921
 20
4.7920233381
 40
0.3170428055
100
AcDbArc
 50
329.0931133939
 51
330.6341487969
  0
ARC
  5
2B8
100
AcDbEntity
  8
ALL_ASSEMBLY_MEMBERS
100
AcDbCircle
 62
7
  6
CONTINUOUS
 10
4.4191695881
 20
4.7700233855
 40
0.2739728959
100
AcDbArc
 50
327.9859173206
 51
329.0632104964
  0
ARC
  5
2B9
100
AcDbEntity
  8
ALL_ASSEMBLY_MEMBERS
100
AcDbCircle
 62
7
  6
CONTINUOUS
 10
5.343271863
 20
4.6698143941
 40
0.0391613006
100
AcDbArc
 50
275.1268407742
 51
276.0418136899
  0
ARC
  5
2BA
100
AcDbEntity
  8
ALL_ASSEMBLY_MEMBERS
100
AcDbCircle
 62
7
  6
CONTINUOUS
 10
4.6421320157
 20
4.6698141488
 40
0.0391610551
100
AcDbArc
 50
263.9581781899
 51
264.8732010724
  0
ARC
  5
2BB
100
AcDbEntity
  8
ALL_ASSEMBLY_MEMBERS
100
AcDbCircle
 62
7
  6
CONTINUOUS
 10
4.6380806355
 20
4.669463825
 40
0.0385932796
100
AcDbArc
 50
269.9038967914
 51
272.1345677351
  0
ARC
  5
2BC
100
AcDbEntity
  8
ALL_ASSEMBLY_MEMBERS
100
AcDbCircle
 62
7
  6
CONTINUOUS
 10
5.3473232404
 20
4.6694618002
 40
0.0385912548
100
AcDbArc
 50
267.8835619948
 51
270.0961424127
  0
ARC
  5
2BD
100
AcDbEntity
  8
ALL_ASSEMBLY_MEMBERS
100
AcDbCircle
 62
7
  6
CONTINUOUS
 10
5.3467034175
 20
4.6692621402
 40
0.0384518282
100
AcDbArc
 50
269.0211412186
 51
270.1013239544
  0
ARC
  5
2BE
100
AcDbEntity
  8
ALL_ASSEMBLY_MEMBERS
100
AcDbCircle
 62
7
  6
CONTINUOUS
 10
4.6387004848
 20
4.6692614343
 40
0.0384511224
100
AcDbArc
 50
269.898668975
 51
270.9727530067
  0
ARC
  5
2BF
100
AcDbEntity
  8
ALL_ASSEMBLY_MEMBERS
100
AcDbCircle
 62
7
  6
CONTINUOUS
 10
4.5770634792
 20
4.6074530661
 40
0.0355684201
100
AcDbArc
 50
272.1902428028
 51
273.5928768406
  0
ARC
  5
2C0
100
AcDbEntity
  8
ALL_ASSEMBLY_MEMBERS
100
AcDbCircle
 62
7
  6
CONTINUOUS
 10
5.4083404202
 20
4.6074530633
 40
0.0355684201
100
AcDbArc
 50
266.4071227002
 51
267.8097567409
  0
ARC
  5
2C1
100
AcDbEntity
  8
ALL_ASSEMBLY_MEMBERS
100
AcDbCircle
 62
7
  6
CONTINUOUS
 10
4.6403491651
 20
4.6529788026
 40
0.0222315692
100
AcDbArc
 50
262.0383465652
 51
263.9609750343
  0
ARC
  5
2C2
100
AcDbEntity
  8
ALL_ASSEMBLY_MEMBERS
100
AcDbCircle
 62
7
  6
CONTINUOUS
 10
5.3450573406
 20
4.6529627449
 40
0.0222153613
100
AcDbArc
 50
276.0375641597
 51
277.9617324835
  0
SPLINE
  5
2C3
100
AcDbEntity
  8
ALL_ASSEMBLY_MEMBERS
100
AcDbSpline
 62
7
  6
CONTINUOUS
 70
0
 71
3
 72
17
 73
13
 74
0
 42
0.0000001
 43
0.0000001
 44
0.0000000001
 40
0.0
 40
0.0
 40
0.0
 40
0.0
 40
0.1249488046
 40
0.2499595479
 40
0.3125100004
 40
0.3751093604
 40
0.437701985
 40
0.5002898666
 40
0.6252485984
 40
0.7501851228
 40
0.8751003029
 40
1.0
 40
1.0
 40
1.0
 40
1.0
 10
4.41268048
 20
3.6970133186
 30
0.0
 10
4.41268048
 20
3.6989381803
 30
0.0
 10
4.4124242718
 20
3.7027954046
 30
0.0
 10
4.4113278455
 20
3.7075117556
 30
0.0
 10
4.4099168242
 20
3.7111045525
 30
0.0
 10
4.4085768621
 20
3.7136741181
 30
0.0
 10
4.406958972
 20
3.7160802568
 30
0.0
 10
4.4044394293
 20
3.7190061292
 30
0.0
 10
4.4006556131
 20
3.7220629362
 30
0.0
 10
4.3954031854
 20
3.7245709215
 30
0.0
 10
4.3897653262
 20
3.7259583843
 30
0.0
 10
4.3859087195
 20
3.7262302592
 30
0.0
 10
4.3839846143
 20
3.7262302592
 30
0.0
  0
SPLINE
  5
2C4
100
AcDbEntity
  8
ALL_ASSEMBLY_MEMBERS
100
AcDbSpline
 62
7
  6
CONTINUOUS
 70
0
 71
3
 72
19
 73
15
 74
0
 42
0.0000001
 43
0.0000001
 44
0.0000000001
 40
0.0
 40
0.0
 40
0.0
 40
0.0
 40
0.1817597754
 40
0.3571990399
 40
0.5197476162
 40
0.6638360213
 40
0.7274376659
 40
0.7848057452
 40
0.8356295432
 40
0.8797888973
 40
0.9174558431
 40
0.949140977
 40
0.9759927742
 40
1.0
 40
1.0
 40
1.0
 40
1.0
 10
4.6782125612
 20
4.0331376133
 30
0.0
 10
4.680789141
 20
4.0331376133
 30
0.0
 10
4.6858536291
 20
4.0330120201
 30
0.0
 10
4.6932036137
 20
4.032449757
 30
0.0
 10
4.69997957
 20
4.0315324992
 30
0.0
 10
4.7051257748
 20
4.030467586
 30
0.0
 10
4.7087407204
 20
4.0294368024
 30
0.0
 10
4.7110418388
 20
4.0286346079
 30
0.0
 10
4.7130274487
 20
4.0277792128
 30
0.0
 10
4.7146813124
 20
4.0268772174
 30
0.0
 10
4.715993577
 20
4.0259366106
 30
0.0
 10
4.7169557897
 20
4.0249569364
 30
0.0
 10
4.7175581428
 20
4.0239358228
 30
0.0
 10
4.7177019496
 20
4.023210291
 30
0.0
 10
4.7177019496
 20
4.0228699708
 30
0.0
  0
SPLINE
  5
2C5
100
AcDbEntity
  8
ALL_ASSEMBLY_MEMBERS
100
AcDbSpline
 62
7
  6
CONTINUOUS
 70
0
 71
3
 72
20
 73
16
 74
0
 42
0.0000001
 43
0.0000001
 44
0.0000000001
 40
0.0
 40
0.0
 40
0.0
 40
0.0
 40
0.0118536909
 40
0.0240998166
 40
0.0509630437
 40
0.0826490341
 40
0.1203095302
 40
0.1644540657
 40
0.2152104034
 40
0.2725193325
 40
0.3360879649
 40
0.4800376685
 40
0.6425976709
 40
0.8182106947
 40
1.0
 40
1.0
 40
1.0
 40
1.0
 10
4.6177019496
 20
4.0483234976
 30
0.0
 10
4.6177017826
 20
4.0480754601
 30
0.0
 10
4.6177494895
 20
4.0475699726
 30
0.0
 10
4.6180413402
 20
4.0465390674
 30
0.0
 10
4.6188031266
 20
4.0452413345
 30
0.0
 10
4.6202210628
 20
4.043794663
 30
0.0
 10
4.622156021
 20
4.0424032385
 30
0.0
 10
4.6245946074
 20
4.0410710111
 30
0.0
 10
4.627520998
 20
4.03980519
 30
0.0
 10
4.6309136613
 20
4.0386194769
 30
0.0
 10
4.6362440695
 20
4.0370959081
 30
0.0
 10
4.6438353548
 20
4.0355161644
 30
0.0
 10
4.6538379019
 20
4.0341574836
 30
0.0
 10
4.6646915494
 20
4.0333247084
 30
0.0
 10
4.6721715243
 20
4.0331376324
 30
0.0
 10
4.6759754514
 20
4.0331376133
 30
0.0
  0
SPLINE
  5
2C6
100
AcDbEntity
  8
ALL_ASSEMBLY_MEMBERS
100
AcDbSpline
 62
7
  6
CONTINUOUS
 70
0
 71
3
 72
19
 73
15
 74
0
 42
0.0000001
 43
0.0000001
 44
0.0000000001
 40
0.0
 40
0.0
 40
0.0
 40
0.0
 40
0.1818065242
 40
0.3574380036
 40
0.5200180876
 40
0.6639823059
 40
0.7275569951
 40
0.7848727924
 40
0.8356355356
 40
0.87978376
 40
0.9174436159
 40
0.949126938
 40
0.9759919099
 40
1.0
 40
1.0
 40
1.0
 40
1.0
 10
5.3094284477
 20
4.0331376133
 30
0.0
 10
5.3132323366
 20
4.0331376138
 30
0.0
 10
5.3207122758
 20
4.0333247282
 30
0.0
 10
5.3315659399
 20
4.0341576026
 30
0.0
 10
5.3415685475
 20
4.035516222
 30
0.0
 10
5.3491598733
 20
4.0370959805
 30
0.0
 10
5.3544902645
 20
4.0386195777
 30
0.0
 10
5.3578829602
 20
4.0398052948
 30
0.0
 10
5.3608094079
 20
4.041070982
 30
0.0
 10
5.3632478992
 20
4.0424033751
 30
0.0
 10
5.3651826819
 20
4.0437940809
 30
0.0
 10
5.3665998713
 20
4.0452429506
 30
0.0
 10
5.3674885533
 20
4.0467502325
 30
0.0
 10
5.3677017173
 20
4.0478211829
 30
0.0
 10
5.3677019496
 20
4.0483234976
 30
0.0
  0
SPLINE
  5
2C7
100
AcDbEntity
  8
ALL_ASSEMBLY_MEMBERS
100
AcDbSpline
 62
7
  6
CONTINUOUS
 70
0
 71
3
 72
21
 73
17
 74
0
 42
0.0000001
 43
0.0000001
 44
0.0000000001
 40
0.0
 40
0.0
 40
0.0
 40
0.0
 40
0.1809230044
 40
0.3556872999
 40
0.5179011426
 40
0.5925810663
 40
0.66211901
 40
0.7259380875
 40
0.7836046656
 40
0.8347758735
 40
0.879281885
 40
0.9172378806
 40
0.9491005037
 40
0.9759819094
 40
0.9881939184
 40
1.0
 40
1.0
 40
1.0
 40
1.0
 10
5.2087294637
 20
4.0072557088
 30
0.0
 10
5.2125542969
 20
4.0072557214
 30
0.0
 10
5.2200752851
 20
4.0074410531
 30
0.0
 10
5.2309972352
 20
4.0082701544
 30
0.0
 10
5.2396299958
 20
4.0094229947
 30
0.0
 10
5.2459972811
 20
4.0106239191
 30
0.0
 10
5.2502844386
 20
4.01161147
 30
0.0
 10
5.2541743549
 20
4.0127028784
 30
0.0
 10
5.2576299332
 20
4.0138856777
 30
0.0
 10
5.2606192895
 20
4.0151485986
 30
0.0
 10
5.2631157323
 20
4.016481455
 30
0.0
 10
5.2651015792
 20
4.017873579
 30
0.0
 10
5.2665624054
 20
4.019321588
 30
0.0
 10
5.2673501816
 20
4.0206267867
 30
0.0
 10
5.2676523489
 20
4.0216650586
 30
0.0
 10
5.2677019434
 20
4.0221740462
 30
0.0
 10
5.2677019496
 20
4.0224236346
 30
0.0
  0
SPLINE
  5
2C8
100
AcDbEntity
  8
ALL_ASSEMBLY_MEMBERS
100
AcDbSpline
 62
7
  6
CONTINUOUS
 70
0
 71
3
 72
21
 73
17
 74
0
 42
0.0000001
 43
0.0000001
 44
0.0000000001
 40
0.0
 40
0.0
 40
0.0
 40
0.0
 40
0.0118060527
 40
0.0240179886
 40
0.0508992863
 40
0.0827621921
 40
0.1207188129
 40
0.1652254548
 40
0.2163972071
 40
0.2740644694
 40
0.3378839199
 40
0.4074219851
 40
0.4821018132
 40
0.6443135257
 40
0.8190764241
 40
1.0
 40
1.0
 40
1.0
 40
1.0
 10
4.7177019496
 20
4.0224236346
 30
0.0
 10
4.7177019543
 20
4.0221740468
 30
0.0
 10
4.7177515446
 20
4.021665061
 30
0.0
 10
4.7180537042
 20
4.0206267913
 30
0.0
 10
4.7188414844
 20
4.0193215904
 30
0.0
 10
4.7203023383
 20
4.0178735852
 30
0.0
 10
4.7222882134
 20
4.0164814467
 30
0.0
 10
4.7247846866
 20
4.015148566
 30
0.0
 10
4.7277740786
 20
4.0138856275
 30
0.0
 10
4.7312296952
 20
4.0127028351
 30
0.0
 10
4.7351196361
 20
4.0116114231
 30
0.0
 10
4.7394068035
 20
4.0106238767
 30
0.0
 10
4.7457740481
 20
4.0094229774
 30
0.0
 10
4.7544067296
 20
4.0082701268
 30
0.0
 10
4.7653286198
 20
4.0074410519
 30
0.0
 10
4.7728495902
 20
4.0072557229
 30
0.0
 10
4.7766744355
 20
4.0072557088
 30
0.0
  0
SPLINE
  5
2C9
100
AcDbEntity
  8
ALL_ASSEMBLY_MEMBERS
100
AcDbSpline
 62
7
  6
CONTINUOUS
 70
0
 71
3
 72
20
 73
16
 74
0
 42
0.0000001
 43
0.0000001
 44
0.0000000001
 40
0.0
 40
0.0
 40
0.0
 40
0.0
 40
0.1248337752
 40
0.2498042538
 40
0.3123425991
 40
0.3748794853
 40
0.4374995279
 40
0.5001141604
 40
0.5626726739
 40
0.6252442317
 40
0.6878243639
 40
0.7503108274
 40
0.8127789729
 40
0.8752464835
 40
1.0
 40
1.0
 40
1.0
 40
1.0
 10
4.4549537582
 20
3.6262302592
 30
0.0
 10
4.4521114513
 20
3.6262302688
 30
0.0
 10
4.4464133295
 20
3.6266121007
 30
0.0
 10
4.4394531984
 20
3.628275924
 30
0.0
 10
4.4341708286
 20
3.6304256395
 30
0.0
 10
4.4304086136
 20
3.6324737923
 30
0.0
 10
4.4269170851
 20
3.6349587123
 30
0.0
 10
4.4237463552
 20
3.6378432718
 30
0.0
 10
4.4209615386
 20
3.6411012649
 30
0.0
 10
4.4185962812
 20
3.6446727834
 30
0.0
 10
4.416647659
 20
3.6484843859
 30
0.0
 10
4.4151174913
 20
3.6524786689
 30
0.0
 10
4.413982814
 20
3.6565988844
 30
0.0
 10
4.4129542106
 20
3.6621954188
 30
0.0
 10
4.4126801982
 20
3.6664687114
 30
0.0
 10
4.41268048
 20
3.6693091909
 30
0.0
  0
SPLINE
  5
2CA
100
AcDbEntity
  8
ALL_ASSEMBLY_MEMBERS
100
AcDbSpline
 62
7
  6
CONTINUOUS
 70
0
 71
3
 72
20
 73
16
 74
0
 42
0.0000001
 43
0.0000001
 44
0.0000000001
 40
0.0
 40
0.0
 40
0.0
 40
0.0
 40
0.1248278853
 40
0.2497895372
 40
0.3123211293
 40
0.3748489148
 40
0.4374659856
 40
0.5000762268
 40
0.562635799
 40
0.6252126673
 40
0.687799957
 40
0.7502965244
 40
0.812771239
 40
0.8752474683
 40
1.0
 40
1.0
 40
1.0
 40
1.0
 10
5.5727234192
 20
3.6693091909
 30
0.0
 10
5.5727234091
 20
3.6664669746
 30
0.0
 10
5.5723606897
 20
3.6607703921
 30
0.0
 10
5.5707889793
 20
3.653794196
 30
0.0
 10
5.5687509198
 20
3.6484692777
 30
0.0
 10
5.5668027554
 20
3.6446556626
 30
0.0
 10
5.5644248458
 20
3.641091333
 30
0.0
 10
5.5616437266
 20
3.637829927
 30
0.0
 10
5.5584781
 20
3.6349400624
 30
0.0
 10
5.5549779851
 20
3.6324687119
 30
0.0
 10
5.5512177769
 20
3.6304200182
 30
0.0
 10
5.5472553369
 20
3.6288053504
 30
0.0
 10
5.5431519698
 20
3.6276062258
 30
0.0
 10
5.5375654924
 20
3.6265187233
 30
0.0
 10
5.5332906415
 20
3.6262298935
 30
0.0
 10
5.530450141
 20
3.6262302592
 30
0.0
  0
SPLINE
  5
2CB
100
AcDbEntity
  8
ALL_ASSEMBLY_MEMBERS
100
AcDbSpline
 62
7
  6
CONTINUOUS
 70
0
 71
3
 72
19
 73
15
 74
0
 42
0.0000001
 43
0.0000001
 44
0.0000000001
 40
0.0
 40
0.0
 40
0.0
 40
0.0
 40
0.1247815511
 40
0.2496407744
 40
0.3121344856
 40
0.3747210408
 40
0.4373115947
 40
0.4998724294
 40
0.5624745516
 40
0.6250900122
 40
0.6876308909
 40
0.7501676545
 40
0.8751443671
 40
1.0
 40
1.0
 40
1.0
 40
1.0
 10
5.6727234192
 20
3.7693176586
 30
0.0
 10
5.6727235376
 20
3.7664751898
 30
0.0
 10
5.6723584585
 20
3.7607796385
 30
0.0
 10
5.67078946
 20
3.7538038223
 30
0.0
 10
5.6687471399
 20
3.7484793646
 30
0.0
 10
5.6667933912
 20
3.7446669766
 30
0.0
 10
5.6644227042
 20
3.741096057
 30
0.0
 10
5.6616360998
 20
3.7378366769
 30
0.0
 10
5.6584613909
 20
3.7349537408
 30
0.0
 10
5.6549658621
 20
3.732471584
 30
0.0
 10
5.6512010406
 20
3.7304242018
 30
0.0
 10
5.645915154
 20
3.7282754029
 30
0.0
 10
5.6389508692
 20
3.7266122207
 30
0.0
 10
5.6332494244
 20
3.7262302629
 30
0.0
 10
5.630405268
 20
3.7262302592
 30
0.0
  0
SPLINE
  5
2CC
100
AcDbEntity
  8
ALL_ASSEMBLY_MEMBERS
100
AcDbSpline
 62
7
  6
CONTINUOUS
 70
0
 71
3
 72
19
 73
15
 74
0
 42
0.0000001
 43
0.0000001
 44
0.0000000001
 40
0.0
 40
0.0
 40
0.0
 40
0.0
 40
0.1248553722
 40
0.2498480749
 40
0.3123993378
 40
0.3749349617
 40
0.4375540019
 40
0.5001770224
 40
0.5627481025
 40
0.6253214418
 40
0.6879072585
 40
0.7504123361
 40
0.8752350951
 40
1.0
 40
1.0
 40
1.0
 40
1.0
 10
5.6287355382
 20
4.8862731985
 30
0.0
 10
5.6316409399
 20
4.8862731783
 30
0.0
 10
5.637464701
 20
4.885891983
 30
0.0
 10
5.6445893172
 20
4.8842502086
 30
0.0
 10
5.6500198727
 20
4.8821335847
 30
0.0
 10
5.6539060925
 20
4.8801191186
 30
0.0
 10
5.6575350992
 20
4.8776675173
 30
0.0
 10
5.6608544378
 20
4.8748086024
 30
0.0
 10
5.6637994449
 20
4.8715654401
 30
0.0
 10
5.6663204393
 20
4.8679850522
 30
0.0
 10
5.6684138022
 20
4.8641418554
 30
0.0
 10
5.6706192085
 20
4.8587497252
 30
0.0
 10
5.6723251061
 20
4.8516436882
 30
0.0
 10
5.6727235035
 20
4.8458254251
 30
0.0
 10
5.6727234192
 20
4.8429221287
 30
0.0
  0
SPLINE
  5
2CD
100
AcDbEntity
  8
ALL_ASSEMBLY_MEMBERS
100
AcDbSpline
 62
7
  6
CONTINUOUS
 70
0
 71
3
 72
19
 73
15
 74
0
 42
0.0000001
 43
0.0000001
 44
0.0000000001
 40
0.0
 40
0.0
 40
0.0
 40
0.0
 40
0.124855423
 40
0.2498480506
 40
0.3123992142
 40
0.3749350359
 40
0.4375540923
 40
0.5001769225
 40
0.5627478941
 40
0.6253212633
 40
0.6879069566
 40
0.7504118316
 40
0.8752348694
 40
1.0
 40
1.0
 40
1.0
 40
1.0
 10
5.5287368151
 20
4.9862731985
 30
0.0
 10
5.5316430132
 20
4.9862731858
 30
0.0
 10
5.5374683963
 20
4.9858914095
 30
0.0
 10
5.5445945872
 20
4.9842471683
 30
0.0
 10
5.5500257543
 20
4.982127677
 30
0.0
 10
5.5539120348
 20
4.9801106946
 30
0.0
 10
5.5575406956
 20
4.9776564345
 30
0.0
 10
5.5608593517
 20
4.9747948974
 30
0.0
 10
5.563803353
 20
4.9715492217
 30
0.0
 10
5.5663233309
 20
4.9679666781
 30
0.0
 10
5.5684157458
 20
4.9641216239
 30
0.0
 10
5.5706200987
 20
4.9587273623
 30
0.0
 10
5.5723252728
 20
4.9516191626
 30
0.0
 10
5.5727234792
 20
4.9457993082
 30
0.0
 10
5.5727234192
 20
4.9428952118
 30
0.0
  0
SPLINE
  5
2CE
100
AcDbEntity
  8
ALL_ASSEMBLY_MEMBERS
100
AcDbSpline
 62
7
  6
CONTINUOUS
 70
0
 71
3
 72
19
 73
15
 74
0
 42
0.0000001
 43
0.0000001
 44
0.0000000001
 40
0.0
 40
0.0
 40
0.0
 40
0.0
 40
0.1247786483
 40
0.2496295111
 40
0.3121329494
 40
0.3747229859
 40
0.4373098003
 40
0.4998740201
 40
0.5624772797
 40
0.6250876168
 40
0.6876206675
 40
0.750159911
 40
0.8751411945
 40
1.0
 40
1.0
 40
1.0
 40
1.0
 10
4.41268048
 20
4.9428952118
 30
0.0
 10
4.4126803749
 20
4.9457996253
 30
0.0
 10
4.4130785654
 20
4.9516205237
 30
0.0
 10
4.4147848709
 20
4.9587293249
 30
0.0
 10
4.4169886463
 20
4.9641246305
 30
0.0
 10
4.4190829222
 20
4.9679692175
 30
0.0
 10
4.4216040231
 20
4.9715510739
 30
0.0
 10
4.4245454795
 20
4.9747986731
 30
0.0
 10
4.4278647462
 20
4.9776585135
 30
0.0
 10
4.4314936694
 20
4.9801109175
 30
0.0
 10
4.4353791658
 20
4.9821281767
 30
0.0
 10
4.4408098601
 20
4.9842473173
 30
0.0
 10
4.4479356091
 20
4.9858912815
 30
0.0
 10
4.4537608047
 20
4.9862731876
 30
0.0
 10
4.456667084
 20
4.9862731985
 30
0.0
  0
SPLINE
  5
2CF
100
AcDbEntity
  8
ALL_ASSEMBLY_MEMBERS
100
AcDbSpline
 62
7
  6
CONTINUOUS
 70
0
 71
3
 72
19
 73
15
 74
0
 42
0.0000001
 43
0.0000001
 44
0.0000000001
 40
0.0
 40
0.0
 40
0.0
 40
0.0
 40
0.1247784198
 40
0.2496290311
 40
0.3121326166
 40
0.3747228464
 40
0.4373096511
 40
0.4998739178
 40
0.562477357
 40
0.6250877732
 40
0.6876206706
 40
0.7501599923
 40
0.8751412923
 40
1.0
 40
1.0
 40
1.0
 40
1.0
 10
4.31268048
 20
4.8429221287
 30
0.0
 10
4.3126802836
 20
4.8458257412
 30
0.0
 10
4.3130786754
 20
4.8516450564
 30
0.0
 10
4.3147857727
 20
4.8587516725
 30
0.0
 10
4.3169906264
 20
4.8641448356
 30
0.0
 10
4.3190858688
 20
4.8679875528
 30
0.0
 10
4.3216079732
 20
4.8715672598
 30
0.0
 10
4.3245504274
 20
4.8748123531
 30
0.0
 10
4.327870378
 20
4.8776695669
 30
0.0
 10
4.3314996352
 20
4.8801193302
 30
0.0
 10
4.3353850631
 20
4.8821340927
 30
0.0
 10
4.340815136
 20
4.8842503854
 30
0.0
 10
4.3479393107
 20
4.8858918728
 30
0.0
 10
4.3537628801
 20
4.8862731731
 30
0.0
 10
4.356668361
 20
4.8862731985
 30
0.0
  0
SPLINE
  5
2D0
100
AcDbEntity
  8
ALL_ASSEMBLY_MEMBERS
100
AcDbSpline
 62
7
  6
CONTINUOUS
 70
0
 71
3
 72
19
 73
15
 74
0
 42
0.0000001
 43
0.0000001
 44
0.0000000001
 40
0.0
 40
0.0
 40
0.0
 40
0.0
 40
0.1248490169
 40
0.2498351664
 40
0.3123815853
 40
0.3749255363
 40
0.4375528147
 40
0.5001753501
 40
0.5627415448
 40
0.6253198054
 40
0.6879072234
 40
0.7504015684
 40
0.8752320197
 40
1.0
 40
1.0
 40
1.0
 40
1.0
 10
4.3549986312
 20
3.7262302592
 30
0.0
 10
4.3521546306
 20
3.7262302637
 30
0.0
 10
4.3464531248
 20
3.7266121086
 30
0.0
 10
4.3394885819
 20
3.7282754768
 30
0.0
 10
4.3342022608
 20
3.7304244386
 30
0.0
 10
4.330436716
 20
3.7324717405
 30
0.0
 10
4.32694158
 20
3.7349559521
 30
0.0
 10
4.3237669679
 20
3.73784
 30
0.0
 10
4.3209778805
 20
3.741097692
 30
0.0
 10
4.3186086525
 20
3.7446695792
 30
0.0
 10
4.3166562749
 20
3.7484822745
 30
0.0
 10
4.3146134684
 20
3.7538058623
 30
0.0
 10
4.3130455643
 20
3.7607809943
 30
0.0
 10
4.3126803822
 20
3.766475504
 30
0.0
 10
4.31268048
 20
3.7693176586
 30
0.0
  0
SPLINE
  5
2D1
100
AcDbEntity
  8
ALL_ASSEMBLY_MEMBERS
100
AcDbSpline
 62
7
  6
CONTINUOUS
 70
0
 71
3
 72
18
 73
14
 74
0
 42
0.0000001
 43
0.0000001
 44
0.0000000001
 40
0.0
 40
0.0
 40
0.0
 40
0.0
 40
0.1248876282
 40
0.2498014226
 40
0.3747213559
 40
0.43728024
 40
0.4998638124
 40
0.5624373609
 40
0.6250021704
 40
0.6875777661
 40
0.7501090034
 40
0.87507731
 40
1.0
 40
1.0
 40
1.0
 40
1.0
 10
5.601419315
 20
3.7262302592
 30
0.0
 10
5.5994949668
 20
3.7262302592
 30
0.0
 10
5.5956375223
 20
3.7259579427
 30
0.0
 10
5.5899997222
 20
3.7245717569
 30
0.0
 10
5.5856186418
 20
3.7224754169
 30
0.0
 10
5.582476857
 20
3.7202311104
 30
0.0
 10
5.5803363266
 20
3.7182751657
 30
0.0
 10
5.5784433486
 20
3.7160789459
 30
0.0
 10
5.576826142
 20
3.7136730661
 30
0.0
 10
5.5754868927
 20
3.7111035817
 30
0.0
 10
5.5740758126
 20
3.7075113348
 30
0.0
 10
5.5729796918
 20
3.7027951679
 30
0.0
 10
5.5727234192
 20
3.6989381659
 30
0.0
 10
5.5727234192
 20
3.6970132775
 30
0.0
  0
SPLINE
  5
2D2
100
AcDbEntity
  8
ALL_ASSEMBLY_MEMBERS
100
AcDbSpline
 62
7
  6
CONTINUOUS
 70
0
 71
3
 72
19
 73
15
 74
0
 42
0.0000001
 43
0.0000001
 44
0.0000000001
 40
0.0
 40
0.0
 40
0.0
 40
0.0
 40
0.0240070666
 40
0.0508585608
 40
0.0825437817
 40
0.1202112387
 40
0.1643712277
 40
0.2151957239
 40
0.2725646589
 40
0.3361667298
 40
0.4802548978
 40
0.6428015079
 40
0.8182397178
 40
1.0
 40
1.0
 40
1.0
 40
1.0
 10
5.2677019496
 20
4.0228699648
 30
0.0
 10
5.2677019496
 20
4.0232102836
 30
0.0
 10
5.2678457455
 20
4.0239358117
 30
0.0
 10
5.2684480919
 20
4.0249569288
 30
0.0
 10
5.2694103209
 20
4.0259365982
 30
0.0
 10
5.2707226036
 20
4.0268772152
 30
0.0
 10
5.2723764924
 20
4.0277792292
 30
0.0
 10
5.2743621365
 20
4.0286346378
 30
0.0
 10
5.2766632917
 20
4.0294368305
 30
0.0
 10
5.2802782612
 20
4.0304676178
 30
0.0
 10
5.2854244575
 20
4.0315325124
 30
0.0
 10
5.2922003842
 20
4.0324497688
 30
0.0
 10
5.2995503528
 20
4.0330120159
 30
0.0
 10
5.3046148453
 20
4.0331376133
 30
0.0
 10
5.3071914388
 20
4.0331376133
 30
0.0
  0
SPLINE
  5
2D3
100
AcDbEntity
  8
ALL_ASSEMBLY_MEMBERS
100
AcDbSpline
 62
7
  6
CONTINUOUS
 70
0
 71
3
 72
11
 73
7
 74
0
 42
0.0000001
 43
0.0000001
 44
0.0000000001
 40
0.0
 40
0.0
 40
0.0
 40
0.0
 40
0.2696531941
 40
0.5279280525
 40
0.7721707688
 40
1.0
 40
1.0
 40
1.0
 40
1.0
 10
5.2646721655
 20
4.2294489921
 30
0.0
 10
5.2620274602
 20
4.2670137947
 30
0.0
 10
5.256748434
 20
4.3405512422
 30
0.0
 10
5.2486628973
 20
4.4480836552
 30
0.0
 10
5.2405779361
 20
4.5497579363
 30
0.0
 10
5.2349902464
 20
4.6154473526
 30
0.0
 10
5.2321764271
 20
4.6471396429
 30
0.0
  0
LINE
  5
2D4
100
AcDbEntity
  8
ALL_ASSEMBLY_MEMBERS
100
AcDbLine
 62
7
  6
CONTINUOUS
 10
5.2597318362
 20
4.2990944373
 11
5.2608043747
 21
4.2841290457
  0
LINE
  5
2D5
100
AcDbEntity
  8
ALL_ASSEMBLY_MEMBERS
100
AcDbLine
 62
7
  6
CONTINUOUS
 10
5.2608043747
 20
4.2841290457
 11
5.2614653252
 21
4.2748627875
  0
SPLINE
  5
2D6
100
AcDbEntity
  8
ALL_ASSEMBLY_MEMBERS
100
AcDbSpline
 62
7
  6
CONTINUOUS
 70
0
 71
3
 72
18
 73
14
 74
0
 42
0.0000001
 43
0.0000001
 44
0.0000000001
 40
0.0
 40
0.0
 40
0.0
 40
0.0
 40
0.1249225229
 40
0.2498794937
 40
0.3124129222
 40
0.3749805925
 40
0.4375356658
 40
0.5001017174
 40
0.5626685771
 40
0.6252177092
 40
0.7501301016
 40
0.8750799791
 40
1.0
 40
1.0
 40
1.0
 40
1.0
 10
5.5727234192
 20
4.9156712805
 30
0.0
 10
5.5727234192
 20
4.9137043961
 30
0.0
 10
5.5730026501
 20
4.9097625483
 30
0.0
 10
5.5741893809
 20
4.904956612
 30
0.0
 10
5.575705037
 20
4.9013156584
 30
0.0
 10
5.5771342878
 20
4.8987225929
 30
0.0
 10
5.5788497882
 20
4.8963080033
 30
0.0
 10
5.5808425417
 20
4.8941164069
 30
0.0
 10
5.5830795285
 20
4.8921746938
 30
0.0
 10
5.586343022
 20
4.8899592748
 30
0.0
 10
5.5908551364
 20
4.8878999504
 30
0.0
 10
5.5966279415
 20
4.8865409139
 30
0.0
 10
5.6005699091
 20
4.8862731985
 30
0.0
 10
5.6025367541
 20
4.8862731985
 30
0.0
  0
SPLINE
  5
2D7
100
AcDbEntity
  8
ALL_ASSEMBLY_MEMBERS
100
AcDbSpline
 62
7
  6
CONTINUOUS
 70
0
 71
3
 72
11
 73
7
 74
0
 42
0.0000001
 43
0.0000001
 44
0.0000000001
 40
0.0
 40
0.0
 40
0.0
 40
0.0
 40
0.2696473124
 40
0.5279190051
 40
0.7721640062
 40
1.0
 40
1.0
 40
1.0
 40
1.0
 10
4.7207638907
 20
4.2299070707
 30
0.0
 10
4.7234065602
 20
4.2674363879
 30
0.0
 10
4.7286814604
 20
4.3409047158
 30
0.0
 10
4.7367607091
 20
4.448336951
 30
0.0
 10
4.7448392772
 20
4.5499182275
 30
0.0
 10
4.7504223664
 20
4.6155482988
 30
0.0
 10
4.7532339488
 20
4.6472122847
 30
0.0
  0
LINE
  5
2D8
100
AcDbEntity
  8
ALL_ASSEMBLY_MEMBERS
100
AcDbLine
 62
7
  6
CONTINUOUS
 10
4.7255540519
 20
4.2974518979
 11
4.7247045816
 21
4.2855991819
  0
LINE
  5
2D9
100
AcDbEntity
  8
ALL_ASSEMBLY_MEMBERS
100
AcDbLine
 62
7
  6
CONTINUOUS
 10
4.7247045816
 20
4.2855991819
 11
4.7239562694
 21
4.2751120669
  0
SPLINE
  5
2DA
100
AcDbEntity
  8
ALL_ASSEMBLY_MEMBERS
100
AcDbSpline
 62
7
  6
CONTINUOUS
 70
0
 71
3
 72
17
 73
13
 74
0
 42
0.0000001
 43
0.0000001
 44
0.0000000001
 40
0.0
 40
0.0
 40
0.0
 40
0.0
 40
0.1249516258
 40
0.2499695801
 40
0.312522354
 40
0.3751222775
 40
0.437719516
 40
0.5003064313
 40
0.6252692383
 40
0.750201758
 40
0.875107663
 40
1.0
 40
1.0
 40
1.0
 40
1.0
 10
4.3828671431
 20
4.8862731985
 30
0.0
 10
4.3848340378
 20
4.8862731985
 30
0.0
 10
4.3887757831
 20
4.8865399633
 30
0.0
 10
4.3935918568
 20
4.8876766858
 30
0.0
 10
4.3972572496
 20
4.8891336326
 30
0.0
 10
4.3998768939
 20
4.8905145219
 30
0.0
 10
4.4023284087
 20
4.8921782364
 30
0.0
 10
4.4053088686
 20
4.894763495
 30
0.0
 10
4.4084218908
 20
4.8986373204
 30
0.0
 10
4.4109808131
 20
4.9040051513
 30
0.0
 10
4.4124010046
 20
4.9097648655
 30
0.0
 10
4.41268048
 20
4.9137053466
 30
0.0
 10
4.41268048
 20
4.915671308
 30
0.0
  0
SPLINE
  5
2DB
100
AcDbEntity
  8
ALL_ASSEMBLY_MEMBERS
100
AcDbSpline
 62
7
  6
CONTINUOUS
 70
0
 71
3
 72
11
 73
7
 74
0
 42
0.0000001
 43
0.0000001
 44
0.0000000001
 40
0.0
 40
0.0
 40
0.0
 40
0.0
 40
0.1918360319
 40
0.4134653712
 40
0.6803575276
 40
1.0
 40
1.0
 40
1.0
 40
1.0
 10
4.7176955034
 20
4.1856799848
 30
0.0
 10
4.7176695128
 20
4.1853072187
 30
0.0
 10
4.7174359125
 20
4.1845123856
 30
0.0
 10
4.7166496606
 20
4.1834255058
 30
0.0
 10
4.7154537767
 20
4.1823878471
 30
0.0
 10
4.714480584
 20
4.1817822494
 30
0.0
 10
4.7139358806
 20
4.1814806618
 30
0.0
  0
SPLINE
  5
2DC
100
AcDbEntity
  8
ALL_ASSEMBLY_MEMBERS
100
AcDbSpline
 62
7
  6
CONTINUOUS
 70
0
 71
3
 72
14
 73
10
 74
0
 42
0.0000001
 43
0.0000001
 44
0.0000000001
 40
0.0
 40
0.0
 40
0.0
 40
0.0
 40
0.0820983146
 40
0.179936846
 40
0.2923384579
 40
0.4175541576
 40
0.5534270054
 40
0.6976041688
 40
1.0
 40
1.0
 40
1.0
 40
1.0
 10
4.7139358806
 20
4.1814806618
 30
0.0
 10
4.7130458372
 20
4.1809878686
 30
0.0
 10
4.7110054228
 20
4.1800704056
 30
0.0
 10
4.7075649622
 20
4.1789252466
 30
0.0
 10
4.7035298768
 20
4.177912148
 30
0.0
 10
4.6989800266
 20
4.1770524729
 30
0.0
 10
4.6940034761
 20
4.1763641522
 30
0.0
 10
4.6868164523
 20
4.1756841338
 30
0.0
 10
4.6812790491
 20
4.1754880881
 30
0.0
 10
4.6775317669
 20
4.1754880881
 30
0.0
  0
SPLINE
  5
2DD
100
AcDbEntity
  8
ALL_ASSEMBLY_MEMBERS
100
AcDbSpline
 62
7
  6
CONTINUOUS
 70
0
 71
3
 72
20
 73
16
 74
0
 42
0.0000001
 43
0.0000001
 44
0.0000000001
 40
0.0
 40
0.0
 40
0.0
 40
0.0
 40
0.0241320409
 40
0.0516147659
 40
0.0842223751
 40
0.1228881601
 40
0.1679784725
 40
0.2195613033
 40
0.2774457759
 40
0.341300565
 40
0.4107066829
 40
0.4851120328
 40
0.6464782966
 40
0.8201862364
 40
1.0
 40
1.0
 40
1.0
 40
1.0
 10
5.3676909639
 20
4.1604650179
 30
0.0
 10
5.3676528195
 20
4.1609742058
 30
0.0
 10
5.3673499755
 20
4.1620518598
 30
0.0
 10
5.3663394952
 20
4.1635442183
 30
0.0
 10
5.3648014509
 20
4.1649768836
 30
0.0
 10
5.3627513152
 20
4.166353105
 30
0.0
 10
5.3602040297
 20
4.1676714003
 30
0.0
 10
5.3571780535
 20
4.1689198588
 30
0.0
 10
5.3536998598
 20
4.1700892968
 30
0.0
 10
5.3498002448
 20
4.171168301
 30
0.0
 10
5.345514826
 20
4.1721452688
 30
0.0
 10
5.3391664613
 20
4.1733336286
 30
0.0
 10
5.3305715214
 20
4.1744774903
 30
0.0
 10
5.3197036538
 20
4.1753027345
 30
0.0
 10
5.3122219179
 20
4.1754881005
 30
0.0
 10
5.3084172029
 20
4.1754880881
 30
0.0
  0
SPLINE
  5
2DE
100
AcDbEntity
  8
ALL_ASSEMBLY_MEMBERS
100
AcDbSpline
 62
7
  6
CONTINUOUS
 70
0
 71
3
 72
13
 73
9
 74
0
 42
0.0000001
 43
0.0000001
 44
0.0000000001
 40
0.0
 40
0.0
 40
0.0
 40
0.0
 40
0.0899649466
 40
0.1917225612
 40
0.3043873705
 40
0.4270521653
 40
0.698740606
 40
1.0
 40
1.0
 40
1.0
 40
1.0
 10
5.3107651596
 20
4.7794262172
 30
0.0
 10
5.3173011377
 20
4.7856301543
 30
0.0
 10
5.3311704961
 20
4.7989137002
 30
0.0
 10
5.3531131605
 20
4.820082933
 30
0.0
 10
5.3774008688
 20
4.843539053
 30
0.0
 10
5.4139938679
 20
4.878755993
 30
0.0
 10
5.4644666417
 20
4.9267934775
 30
0.0
 10
5.5064968024
 20
4.9658751253
 30
0.0
 10
5.5287348071
 20
4.9862731985
 30
0.0
  0
LINE
  5
2DF
100
AcDbEntity
  8
ALL_ASSEMBLY_MEMBERS
100
AcDbLine
 62
7
  6
CONTINUOUS
 10
5.1846493552
 20
4.5371249648
 11
5.184093718
 21
4.54449325
  0
LINE
  5
2E0
100
AcDbEntity
  8
ALL_ASSEMBLY_MEMBERS
100
AcDbLine
 62
7
  6
CONTINUOUS
 10
5.184093718
 20
4.54449325
 11
5.183008363
 21
4.5588024761
  0
SPLINE
  5
2E1
100
AcDbEntity
  8
ALL_ASSEMBLY_MEMBERS
100
AcDbSpline
 62
7
  6
CONTINUOUS
 70
0
 71
3
 72
34
 73
30
 74
0
 42
0.0000001
 43
0.0000001
 44
0.0000000001
 40
0.0
 40
0.0
 40
0.0
 40
0.0
 40
0.2162217784
 40
0.3165178132
 40
0.4111253534
 40
0.4996960294
 40
0.5818974048
 40
0.6574140358
 40
0.7259434816
 40
0.7872248534
 40
0.8410122489
 40
0.8650281661
 40
0.8870937291
 40
0.9071863636
 40
0.9252866557
 40
0.9413859009
 40
0.9554811013
 40
0.9675744291
 40
0.9728739845
 40
0.9776786648
 40
0.9819928983
 40
0.9858234827
 40
0.9891809199
 40
0.9906874287
 40
0.9920826155
 40
0.9945535969
 40
0.9966395367
 40
0.9984154984
 40
1.0
 40
1.0
 40
1.0
 40
1.0
 10
5.183008363
 20
4.5588024761
 30
0.0
 10
5.1798517759
 20
4.6002545776
 30
0.0
 10
5.1750767756
 20
4.6609233022
 30
0.0
 10
5.168353428
 20
4.7396825781
 30
0.0
 10
5.1634408746
 20
4.7939634986
 30
0.0
 10
5.1585365885
 20
4.8447511122
 30
0.0
 10
5.1536523738
 20
4.8918519698
 30
0.0
 10
5.148809485
 20
4.9350818306
 30
0.0
 10
5.1440263169
 20
4.9742693224
 30
0.0
 10
5.1393209199
 20
5.0092549986
 30
0.0
 10
5.1353431369
 20
5.0357004994
 30
0.0
 10
5.1321791406
 20
5.0546398247
 30
0.0
 10
5.1299273275
 20
5.0671623949
 30
0.0
 10
5.1277091711
 20
5.0785342543
 30
0.0
 10
5.1255271769
 20
5.0887428701
 30
0.0
 10
5.123385043
 20
5.0977788858
 30
0.0
 10
5.1212858827
 20
5.1056349603
 30
0.0
 10
5.1195064986
 20
5.1114241031
 30
0.0
 10
5.1180871959
 20
5.1154496417
 30
0.0
 10
5.1170822073
 20
5.118033842
 30
0.0
 10
5.1160897888
 20
5.1203181306
 30
0.0
 10
5.1151102135
 20
5.1223019505
 30
0.0
 10
5.114277332
 20
5.1237532599
 30
0.0
 10
5.1136122032
 20
5.1247567193
 30
0.0
 10
5.112999861
 20
5.125588941
 30
0.0
 10
5.1122473792
 20
5.1264555936
 30
0.0
 10
5.1113107181
 20
5.1272441728
 30
0.0
 10
5.1103725925
 20
5.127733683
 30
0.0
 10
5.1097233183
 20
5.1278509367
 30
0.0
 10
5.1094186723
 20
5.1278509435
 30
0.0
  0
SPLINE
  5
2E2
100
AcDbEntity
  8
ALL_ASSEMBLY_MEMBERS
100
AcDbSpline
 62
7
  6
CONTINUOUS
 70
0
 71
3
 72
22
 73
18
 74
0
 42
0.0000001
 43
0.0000001
 44
0.0000000001
 40
0.0
 40
0.0
 40
0.0
 40
0.0
 40
0.0116727526
 40
0.0247170162
 40
0.0392107365
 40
0.0552095651
 40
0.0917186088
 40
0.1339592503
 40
0.1817064431
 40
0.2347826997
 40
0.2929362095
 40
0.3558986095
 40
0.4233987452
 40
0.4951609796
 40
0.6503413445
 40
0.8192922985
 40
1.0
 40
1.0
 40
1.0
 40
1.0
 10
5.322442691
 20
4.6792338958
 30
0.0
 10
5.3235500837
 20
4.6801143706
 30
0.0
 10
5.3258436679
 20
4.6820433988
 30
0.0
 10
5.3293702853
 20
4.685229839
 30
0.0
 10
5.3332012725
 20
4.6888590512
 30
0.0
 10
5.339016633
 20
4.6945273864
 30
0.0
 10
5.3471239152
 20
4.7026614226
 30
0.0
 10
5.3577816595
 20
4.7136834484
 30
0.0
 10
5.3697074552
 20
4.7262709884
 30
0.0
 10
5.3828719554
 20
4.7403410982
 30
0.0
 10
5.3972393106
 20
4.7558109544
 30
0.0
 10
5.4127662039
 20
4.7725896947
 30
0.0
 10
5.4294047943
 20
4.7905869569
 30
0.0
 10
5.4536464597
 20
4.81677685
 30
0.0
 10
5.4863261278
 20
4.8519114379
 30
0.0
 10
5.5282580358
 20
4.896472495
 30
0.0
 10
5.5575296119
 20
4.9271194273
 30
0.0
 10
5.5727234192
 20
4.9428945055
 30
0.0
  0
SPLINE
  5
2E3
100
AcDbEntity
  8
ALL_ASSEMBLY_MEMBERS
100
AcDbSpline
 62
7
  6
CONTINUOUS
 70
0
 71
3
 72
20
 73
16
 74
0
 42
0.0000001
 43
0.0000001
 44
0.0000000001
 40
0.0
 40
0.0
 40
0.0
 40
0.0
 40
0.1825608607
 40
0.3524911611
 40
0.5078781443
 40
0.6467770195
 40
0.7094488201
 40
0.7672917633
 40
0.8200491596
 40
0.867426135
 40
0.909132562
 40
0.9450534407
 40
0.9752863971
 40
0.9883128723
 40
1.0
 40
1.0
 40
1.0
 40
1.0
 10
5.5727234192
 20
4.9156712028
 30
0.0
 10
5.5572714596
 20
4.9014058551
 30
0.0
 10
5.5275885223
 20
4.8736970098
 30
0.0
 10
5.4852454569
 20
4.8333237733
 30
0.0
 10
5.446887562
 20
4.7960633411
 30
0.0
 10
5.4175745957
 20
4.7672261491
 30
0.0
 10
5.3962995603
 20
4.7462411185
 30
0.0
 10
5.3820757158
 20
4.7322380545
 30
0.0
 10
5.3690683037
 20
4.7195108121
 30
0.0
 10
5.3573197681
 20
4.7081552313
 30
0.0
 10
5.3468635704
 20
4.6982538191
 30
0.0
 10
5.3376963979
 20
4.68986592
 30
0.0
 10
5.3307951254
 20
4.6838979228
 30
0.0
 10
5.3258562598
 20
4.6799382791
 30
0.0
 10
5.3235791956
 20
4.67822809
 30
0.0
 10
5.3224831644
 20
4.6774462791
 30
0.0
  0
SPLINE
  5
2E4
100
AcDbEntity
  8
ALL_ASSEMBLY_MEMBERS
100
AcDbSpline
 62
7
  6
CONTINUOUS
 70
0
 71
3
 72
11
 73
7
 74
0
 42
0.0000001
 43
0.0000001
 44
0.0000000001
 40
0.0
 40
0.0
 40
0.0
 40
0.0
 40
0.2060240991
 40
0.4332403617
 40
0.6949859519
 40
1.0
 40
1.0
 40
1.0
 40
1.0
 10
4.7770657581
 20
5.027838117
 30
0.0
 10
4.7767193001
 20
5.0278365742
 30
0.0
 10
4.7759879887
 20
5.0277134371
 30
0.0
 10
4.774924339
 20
5.0272030669
 30
0.0
 10
4.7738628955
 20
5.0263813279
 30
0.0
 10
4.773206561
 20
5.0256858505
 30
0.0
 10
4.7728747002
 20
5.0252947445
 30
0.0
  0
SPLINE
  5
2E5
100
AcDbEntity
  8
ALL_ASSEMBLY_MEMBERS
100
AcDbSpline
 62
7
  6
CONTINUOUS
 70
0
 71
3
 72
9
 73
5
 74
0
 42
0.0000001
 43
0.0000001
 44
0.0000000001
 40
0.0
 40
0.0
 40
0.0
 40
0.0
 40
0.4518164115
 40
1.0
 40
1.0
 40
1.0
 40
1.0
 10
4.7728747002
 20
5.0252947445
 30
0.0
 10
4.7722921371
 20
5.0246081799
 30
0.0
 10
4.7711420672
 20
5.0229710816
 30
0.0
 10
4.7701807089
 20
5.0212227766
 30
0.0
 10
4.7696884969
 20
5.0202474777
 30
0.0
  0
SPLINE
  5
2E6
100
AcDbEntity
  8
ALL_ASSEMBLY_MEMBERS
100
AcDbSpline
 62
7
  6
CONTINUOUS
 70
0
 71
3
 72
26
 73
22
 74
0
 42
0.0000001
 43
0.0000001
 44
0.0000000001
 40
0.0
 40
0.0
 40
0.0
 40
0.0
 40
0.2026141886
 40
0.3883920969
 40
0.4740481441
 40
0.5543832554
 40
0.6290261816
 40
0.6976124492
 40
0.759774347
 40
0.8151031449
 40
0.8631689347
 40
0.8843759875
 40
0.9036995461
 40
0.9211517048
 40
0.9367483154
 40
0.9505156892
 40
0.962593709
 40
0.9732492299
 40
0.9827911047
 40
0.9915749713
 40
1.0
 40
1.0
 40
1.0
 40
1.0
 10
5.602536722
 20
4.8862731985
 30
0.0
 10
5.5853523043
 20
4.8689332033
 30
0.0
 10
5.5526165117
 20
4.8354902478
 30
0.0
 10
5.5130970331
 20
4.7942507487
 30
0.0
 10
5.4839607453
 20
4.7634692775
 30
0.0
 10
5.4640964686
 20
4.7423495024
 30
0.0
 10
5.4456823593
 20
4.7226893953
 30
0.0
 10
5.4287669199
 20
4.7046257457
 30
0.0
 10
5.4134026976
 20
4.688297646
 30
0.0
 10
5.399654079
 20
4.6738446648
 30
0.0
 10
5.3892070527
 20
4.6630619639
 30
0.0
 10
5.3816805635
 20
4.6554917382
 30
0.0
 10
5.376693917
 20
4.6505984258
 30
0.0
 10
5.3721154542
 20
4.646255343
 30
0.0
 10
5.3679325146
 20
4.6424699253
 30
0.0
 10
5.364124568
 20
4.6392382054
 30
0.0
 10
5.3606403142
 20
4.636550739
 30
0.0
 10
5.3574000021
 20
4.6343928539
 30
0.0
 10
5.3543145283
 20
4.6327425831
 30
0.0
 10
5.3512970486
 20
4.6315830741
 30
0.0
 10
5.3492658037
 20
4.631124695
 30
0.0
 10
5.348261784
 20
4.6309749867
 30
0.0
  0
SPLINE
  5
2E7
100
AcDbEntity
  8
ALL_ASSEMBLY_MEMBERS
100
AcDbSpline
 62
7
  6
CONTINUOUS
 70
0
 71
3
 72
20
 73
16
 74
0
 42
0.0000001
 43
0.0000001
 44
0.0000000001
 40
0.0
 40
0.0
 40
0.0
 40
0.0
 40
0.0241145205
 40
0.0515517392
 40
0.0841022501
 40
0.1227126555
 40
0.1677567289
 40
0.2193072383
 40
0.2771753
 40
0.3410288866
 40
0.4104479217
 40
0.4848778071
 40
0.6463153481
 40
0.8201056532
 40
1.0
 40
1.0
 40
1.0
 40
1.0
 10
5.2676923882
 20
4.1863639615
 30
0.0
 10
5.2676568602
 20
4.1868720318
 30
0.0
 10
5.2673601835
 20
4.187947995
 30
0.0
 10
5.2663581522
 20
4.1894392617
 30
0.0
 10
5.2648286361
 20
4.1908706963
 30
0.0
 10
5.2627870443
 20
4.1922456382
 30
0.0
 10
5.2602481944
 20
4.1935627368
 30
0.0
 10
5.2572303713
 20
4.1948100606
 30
0.0
 10
5.2537599896
 20
4.1959784088
 30
0.0
 10
5.2498678572
 20
4.1970563738
 30
0.0
 10
5.2455896522
 20
4.1980322988
 30
0.0
 10
5.239250705
 20
4.1992192948
 30
0.0
 10
5.2306677157
 20
4.2003614293
 30
0.0
 10
5.2198147498
 20
4.2011850788
 30
0.0
 10
5.2123432524
 20
4.2013699894
 30
0.0
 10
5.2085437921
 20
4.2013699926
 30
0.0
  0
LINE
  5
2E8
100
AcDbEntity
  8
ALL_ASSEMBLY_MEMBERS
100
AcDbLine
 62
7
  6
CONTINUOUS
 10
5.348261784
 20
4.6309749867
 11
5.3515094313
 21
4.631659152
  0
SPLINE
  5
2E9
100
AcDbEntity
  8
ALL_ASSEMBLY_MEMBERS
100
AcDbSpline
 62
7
  6
CONTINUOUS
 70
0
 71
3
 72
24
 73
20
 74
0
 42
0.0000001
 43
0.0000001
 44
0.0000000001
 40
0.0
 40
0.0
 40
0.0
 40
0.0
 40
0.018732398
 40
0.0294715082
 40
0.041459858
 40
0.0549578018
 40
0.0701963746
 40
0.087280936
 40
0.1061914383
 40
0.1493730274
 40
0.1994500289
 40
0.2560729167
 40
0.3188825704
 40
0.3875155381
 40
0.4615966181
 40
0.5407415788
 40
0.6245780152
 40
0.8049479149
 40
1.0
 40
1.0
 40
1.0
 40
1.0
 10
5.3515094313
 20
4.631659152
 30
0.0
 10
5.3537770397
 20
4.6322927819
 30
0.0
 10
5.3572166818
 20
4.6337669843
 30
0.0
 10
5.3616903774
 20
4.6364404791
 30
0.0
 10
5.3654317757
 20
4.6390417886
 30
0.0
 10
5.3694911423
 20
4.642161204
 30
0.0
 10
5.3739514468
 20
4.645805629
 30
0.0
 10
5.3788563327
 20
4.6499785826
 30
0.0
 10
5.3863320135
 20
4.6565480125
 30
0.0
 10
5.3967419312
 20
4.6660575931
 30
0.0
 10
5.4104621902
 20
4.6789671258
 30
0.0
 10
5.4258564177
 20
4.6936964777
 30
0.0
 10
5.4428638392
 20
4.7101129151
 30
0.0
 10
5.4614214081
 20
4.7280829146
 30
0.0
 10
5.4814617843
 20
4.7474731114
 30
0.0
 10
5.5029152597
 20
4.7681509276
 30
0.0
 10
5.5340813338
 20
4.798002237
 30
0.0
 10
5.5760167204
 20
4.8376707631
 30
0.0
 10
5.6106451387
 20
4.8697266527
 30
0.0
 10
5.6287351587
 20
4.8862731985
 30
0.0
  0
SPLINE
  5
2EA
100
AcDbEntity
  8
ALL_ASSEMBLY_MEMBERS
100
AcDbSpline
 62
7
  6
CONTINUOUS
 70
0
 71
3
 72
14
 73
10
 74
0
 42
0.0000001
 43
0.0000001
 44
0.0000000001
 40
0.0
 40
0.0
 40
0.0
 40
0.0
 40
0.3580110759
 40
0.5063361486
 40
0.6352428321
 40
0.7461124064
 40
0.8411777542
 40
0.9240395164
 40
1.0
 40
1.0
 40
1.0
 40
1.0
 10
5.2157107007
 20
5.0202564014
 30
0.0
 10
5.2151861358
 20
5.0213732881
 30
0.0
 10
5.2144018234
 20
5.0229360054
 30
0.0
 10
5.2132473842
 20
5.0247981667
 30
0.0
 10
5.2124535712
 20
5.0258771724
 30
0.0
 10
5.2116702642
 20
5.0267289199
 30
0.0
 10
5.2108879504
 20
5.0273531836
 30
0.0
 10
5.2100957295
 20
5.0277446193
 30
0.0
 10
5.2095472049
 20
5.0278418558
 30
0.0
 10
5.2092854377
 20
5.0278465413
 30
0.0
  0
SPLINE
  5
2EB
100
AcDbEntity
  8
ALL_ASSEMBLY_MEMBERS
100
AcDbSpline
 62
7
  6
CONTINUOUS
 70
0
 71
3
 72
16
 73
12
 74
0
 42
0.0000001
 43
0.0000001
 44
0.0000000001
 40
0.0
 40
0.0
 40
0.0
 40
0.0
 40
0.041233073
 40
0.0858403262
 40
0.1847220097
 40
0.2957449387
 40
0.418052455
 40
0.550838477
 40
0.6930476775
 40
0.8433462073
 40
1.0
 40
1.0
 40
1.0
 40
1.0
 10
5.2435186992
 20
4.8840927877
 30
0.0
 10
5.2448388909
 20
4.8744015943
 30
0.0
 10
5.2474846135
 20
4.8542120989
 30
0.0
 10
5.2528220574
 20
4.8107209988
 30
0.0
 10
5.2595323321
 20
4.7507217961
 30
0.0
 10
5.267485172
 20
4.672320726
 30
0.0
 10
5.2755513447
 20
4.585850552
 30
0.0
 10
5.2836678116
 20
4.4919578293
 30
0.0
 10
5.2918066872
 20
4.3914043518
 30
0.0
 10
5.2999333883
 20
4.2851709874
 30
0.0
 10
5.3052262646
 20
4.2125527644
 30
0.0
 10
5.307873694
 20
4.1754880881
 30
0.0
  0
SPLINE
  5
2EC
100
AcDbEntity
  8
ALL_ASSEMBLY_MEMBERS
100
AcDbSpline
 62
7
  6
CONTINUOUS
 70
0
 71
3
 72
18
 73
14
 74
0
 42
0.0000001
 43
0.0000001
 44
0.0000000001
 40
0.0
 40
0.0
 40
0.0
 40
0.0
 40
0.1566412553
 40
0.3069256664
 40
0.4491192413
 40
0.5818910981
 40
0.644401339
 40
0.7041893499
 40
0.7611595031
 40
0.8152087738
 40
0.8662297294
 40
0.9141149828
 40
1.0
 40
1.0
 40
1.0
 40
1.0
 10
5.3084163475
 20
4.1754880881
 30
0.0
 10
5.3058089152
 20
4.2125567975
 30
0.0
 10
5.3005821085
 20
4.2851816655
 30
0.0
 10
5.2925592441
 20
4.3914248447
 30
0.0
 10
5.2845182485
 20
4.4919870915
 30
0.0
 10
5.2776622346
 20
4.5717537217
 30
0.0
 10
5.2721176883
 20
4.6320100875
 30
0.0
 10
5.2680488096
 20
4.6743432915
 30
0.0
 10
5.2640049431
 20
4.7146621156
 30
0.0
 10
5.2599701039
 20
4.7528911303
 30
0.0
 10
5.2559116929
 20
4.7889498209
 30
0.0
 10
5.2506014866
 20
4.8324659732
 30
0.0
 10
5.246358131
 20
4.8639169462
 30
0.0
 10
5.2435186992
 20
4.8840927877
 30
0.0
  0
SPLINE
  5
2ED
100
AcDbEntity
  8
ALL_ASSEMBLY_MEMBERS
100
AcDbSpline
 62
7
  6
CONTINUOUS
 70
0
 71
3
 72
21
 73
17
 74
0
 42
0.0000001
 43
0.0000001
 44
0.0000000001
 40
0.0
 40
0.0
 40
0.0
 40
0.0
 40
0.0294400758
 40
0.0592983964
 40
0.0916171314
 40
0.1280838617
 40
0.1700052661
 40
0.2176852484
 40
0.2711608382
 40
0.3304806217
 40
0.3956405294
 40
0.4665474572
 40
0.5430456649
 40
0.6249194227
 40
0.8036398702
 40
1.0
 40
1.0
 40
1.0
 40
1.0
 10
5.4076059021
 20
4.0600211605
 30
0.0
 10
5.4095115071
 20
4.0566576026
 30
0.0
 10
5.4135019782
 20
4.0499664585
 30
0.0
 10
5.4202523704
 20
4.0400001736
 30
0.0
 10
5.4281170216
 20
4.0297004058
 30
0.0
 10
5.4374645585
 20
4.0185620598
 30
0.0
 10
5.4485261944
 20
4.0062433079
 30
0.0
 10
5.4613719643
 20
3.9925320388
 30
0.0
 10
5.4759792855
 20
3.977343644
 30
0.0
 10
5.4922800092
 20
3.9606002474
 30
0.0
 10
5.510204202
 20
3.9422429012
 30
0.0
 10
5.5296745336
 20
3.9222425171
 30
0.0
 10
5.5505967962
 20
3.9005927742
 30
0.0
 10
5.5811942185
 20
3.8686058502
 30
0.0
 10
5.6222629097
 20
3.8248559928
 30
0.0
 10
5.6554688046
 20
3.7884773854
 30
0.0
 10
5.6727234192
 20
3.769316925
 30
0.0
  0
SPLINE
  5
2EE
100
AcDbEntity
  8
ALL_ASSEMBLY_MEMBERS
100
AcDbSpline
 62
7
  6
CONTINUOUS
 70
0
 71
3
 72
26
 73
22
 74
0
 42
0.0000001
 43
0.0000001
 44
0.0000000001
 40
0.0
 40
0.0
 40
0.0
 40
0.0
 40
0.0084169898
 40
0.0171931064
 40
0.0267075202
 40
0.0373042528
 40
0.0492829376
 40
0.0629054656
 40
0.0784031486
 40
0.0958824056
 40
0.1153278062
 40
0.1367143471
 40
0.1851643763
 40
0.2408614063
 40
0.3034035173
 40
0.3723787551
 40
0.4473655861
 40
0.5279282715
 40
0.613636162
 40
0.7988874877
 40
1.0
 40
1.0
 40
1.0
 40
1.0
 10
5.406981125
 20
4.5719847763
 30
0.0
 10
5.4080400041
 20
4.5721280636
 30
0.0
 10
5.4101849955
 20
4.5725775554
 30
0.0
 10
5.413379674
 20
4.5737423507
 30
0.0
 10
5.4166475538
 20
4.5754239332
 30
0.0
 10
5.4200687772
 20
4.5776447241
 30
0.0
 10
5.4237282235
 20
4.5804290785
 30
0.0
 10
5.4277091414
 20
4.5838040973
 30
0.0
 10
5.4320841045
 20
4.5877872131
 30
0.0
 10
5.4368974254
 20
4.5923835565
 30
0.0
 10
5.4421627446
 20
4.5975872132
 30
0.0
 10
5.4501277251
 20
4.6056512615
 30
0.0
 10
5.4611769175
 20
4.617136147
 30
0.0
 10
5.4756850692
 20
4.6325410649
 30
0.0
 10
5.4918655404
 20
4.6499494955
 30
0.0
 10
5.5096556892
 20
4.6692047497
 30
0.0
 10
5.5289850951
 20
4.6901524986
 30
0.0
 10
5.5497749149
 20
4.7126430192
 30
0.0
 10
5.5801368475
 20
4.7453475054
 30
0.0
 10
5.6211232297
 20
4.7890703089
 30
0.0
 10
5.6549956441
 20
4.8245459524
 30
0.0
 10
5.6727234192
 20
4.842918794
 30
0.0
  0
SPLINE
  5
2EF
100
AcDbEntity
  8
ALL_ASSEMBLY_MEMBERS
100
AcDbSpline
 62
7
  6
CONTINUOUS
 70
0
 71
3
 72
13
 73
9
 74
0
 42
0.0000001
 43
0.0000001
 44
0.0000000001
 40
0.0
 40
0.0
 40
0.0
 40
0.0
 40
0.2812110201
 40
0.5432606338
 40
0.6663625013
 40
0.7837961635
 40
0.8951568448
 40
1.0
 40
1.0
 40
1.0
 40
1.0
 10
5.3676997058
 20
4.1545662276
 30
0.0
 10
5.3707852819
 20
4.1455685024
 30
0.0
 10
5.3769547156
 20
4.1282564414
 30
0.0
 10
5.3851891143
 20
4.1072684382
 30
0.0
 10
5.3918900532
 20
4.0916432706
 30
0.0
 10
5.3968368808
 20
4.080815392
 30
0.0
 10
5.401808981
 20
4.0706825676
 30
0.0
 10
5.4052484449
 20
4.0642263735
 30
0.0
 10
5.406981125
 20
4.0611320986
 30
0.0
  0
SPLINE
  5
2F0
100
AcDbEntity
  8
ALL_ASSEMBLY_MEMBERS
100
AcDbSpline
 62
7
  6
CONTINUOUS
 70
0
 71
3
 72
9
 73
5
 74
0
 42
0.0000001
 43
0.0000001
 44
0.0000000001
 40
0.0
 40
0.0
 40
0.0
 40
0.0
 40
0.2570544513
 40
1.0
 40
1.0
 40
1.0
 40
1.0
 10
5.326954649
 20
4.6365548307
 30
0.0
 10
5.3276205855
 20
4.6353718456
 30
0.0
 10
5.330238665
 20
4.6307853394
 30
0.0
 10
5.3329724124
 20
4.6262642704
 30
0.0
 10
5.3350817193
 20
4.622955867
 30
0.0
  0
SPLINE
  5
2F1
100
AcDbEntity
  8
ALL_ASSEMBLY_MEMBERS
100
AcDbSpline
 62
7
  6
CONTINUOUS
 70
0
 71
3
 72
17
 73
13
 74
0
 42
0.0000001
 43
0.0000001
 44
0.0000000001
 40
0.0
 40
0.0
 40
0.0
 40
0.0
 40
0.158023011
 40
0.3056849426
 40
0.4439492717
 40
0.5726120822
 40
0.6916241268
 40
0.8014063534
 40
0.853249152
 40
0.9033789262
 40
0.9521572765
 40
1.0
 40
1.0
 40
1.0
 40
1.0
 10
5.3350817193
 20
4.622955867
 30
0.0
 10
5.3376778857
 20
4.6188838348
 30
0.0
 10
5.3429307565
 20
4.6111489204
 30
0.0
 10
5.3513925632
 20
4.6005234768
 30
0.0
 10
5.3601988089
 20
4.5913835213
 30
0.0
 10
5.3692895791
 20
4.5838250491
 30
0.0
 10
5.3785390329
 20
4.5779515393
 30
0.0
 10
5.3864321359
 20
4.5744828285
 30
0.0
 10
5.3926710732
 20
4.5727302472
 30
0.0
 10
5.3972164242
 20
4.5719294767
 30
0.0
 10
5.4016987466
 20
4.5716200834
 30
0.0
 10
5.404656217
 20
4.5717414023
 30
0.0
 10
5.4061114087
 20
4.5718832604
 30
0.0
  0
SPLINE
  5
2F2
100
AcDbEntity
  8
ALL_ASSEMBLY_MEMBERS
100
AcDbSpline
 62
7
  6
CONTINUOUS
 70
0
 71
3
 72
21
 73
17
 74
0
 42
0.0000001
 43
0.0000001
 44
0.0000000001
 40
0.0
 40
0.0
 40
0.0
 40
0.0
 40
0.0292309715
 40
0.0587675486
 40
0.0906544316
 40
0.1266210156
 40
0.1680456848
 40
0.2153186813
 40
0.2685051914
 40
0.3276617526
 40
0.3927944362
 40
0.4638124462
 40
0.540552928
 40
0.6227847205
 40
0.8024818495
 40
1.0
 40
1.0
 40
1.0
 40
1.0
 10
5.3490335121
 20
4.0023122536
 30
0.0
 10
5.350907722
 20
3.9989502791
 30
0.0
 10
5.3548521447
 20
3.9922860075
 30
0.0
 10
5.3616357143
 20
3.9824512519
 30
0.0
 10
5.3696507662
 20
3.9724286883
 30
0.0
 10
5.3792650867
 20
3.9617150229
 30
0.0
 10
5.3907166898
 20
3.9499495792
 30
0.0
 10
5.404083357
 20
3.9368945941
 30
0.0
 10
5.4193461415
 20
3.9224437738
 30
0.0
 10
5.4364688499
 20
3.9065388163
 30
0.0
 10
5.4554016875
 20
3.8891332139
 30
0.0
 10
5.4760756755
 20
3.870200495
 30
0.0
 10
5.4984040883
 20
3.8497404738
 30
0.0
 10
5.5312267245
 20
3.8195504301
 30
0.0
 10
5.5755556967
 20
3.7783777427
 30
0.0
 10
5.6116212645
 20
3.7442218863
 30
0.0
 10
5.6304033208
 20
3.7262302592
 30
0.0
  0
SPLINE
  5
2F3
100
AcDbEntity
  8
ALL_ASSEMBLY_MEMBERS
100
AcDbSpline
 62
7
  6
CONTINUOUS
 70
0
 71
3
 72
22
 73
18
 74
0
 42
0.0000001
 43
0.0000001
 44
0.0000000001
 40
0.0
 40
0.0
 40
0.0
 40
0.0
 40
0.1982005257
 40
0.2903527322
 40
0.37736779
 40
0.5351443267
 40
0.6055588994
 40
0.6701885686
 40
0.7289666629
 40
0.781871415
 40
0.8290381458
 40
0.8505260273
 40
0.8706490254
 40
0.9070126935
 40
0.9394478122
 40
0.9698198487
 40
1.0
 40
1.0
 40
1.0
 40
1.0
 10
5.6014186732
 20
3.7262302592
 30
0.0
 10
5.5847462347
 20
3.7446091611
 30
0.0
 10
5.5601014412
 20
3.771334403
 30
0.0
 10
5.5276549528
 20
3.8056771873
 30
0.0
 10
5.4984506068
 20
3.836118899
 30
0.0
 10
5.4708452189
 20
3.8643214299
 30
0.0
 10
5.4450024306
 20
3.8903244835
 30
0.0
 10
5.4278663162
 20
3.9075059876
 30
0.0
 10
5.4123103129
 20
3.9231673444
 30
0.0
 10
5.3983971792
 20
3.9373784469
 30
0.0
 10
5.3878957908
 20
3.9483951609
 30
0.0
 10
5.3803657816
 20
3.9565710959
 30
0.0
 10
5.3738538891
 20
3.96384441
 30
0.0
 10
5.3666388022
 20
3.9723272043
 30
0.0
 10
5.359059301
 20
3.9821688412
 30
0.0
 10
5.3524925719
 20
3.9917896887
 30
0.0
 10
5.3485781504
 20
3.9982864562
 30
0.0
 10
5.346700331
 20
4.001565315
 30
0.0
  0
SPLINE
  5
2F4
100
AcDbEntity
  8
ALL_ASSEMBLY_MEMBERS
100
AcDbSpline
 62
7
  6
CONTINUOUS
 70
0
 71
3
 72
9
 73
5
 74
0
 42
0.0000001
 43
0.0000001
 44
0.0000000001
 40
0.0
 40
0.0
 40
0.0
 40
0.0
 40
0.4784446945
 40
1.0
 40
1.0
 40
1.0
 40
1.0
 10
5.3462739592
 20
4.0023122536
 30
0.0
 10
5.3434789244
 20
4.007214696
 30
0.0
 10
5.3379830582
 20
4.0176596679
 30
0.0
 10
5.3330114133
 20
4.0283597337
 30
0.0
 10
5.3305238609
 20
4.0339860866
 30
0.0
  0
SPLINE
  5
2F5
100
AcDbEntity
  8
ALL_ASSEMBLY_MEMBERS
100
AcDbSpline
 62
7
  6
CONTINUOUS
 70
0
 71
3
 72
9
 73
5
 74
0
 42
0.0000001
 43
0.0000001
 44
0.0000000001
 40
0.0
 40
0.0
 40
0.0
 40
0.0
 40
0.5212139104
 40
1.0
 40
1.0
 40
1.0
 40
1.0
 10
5.333442194
 20
4.0344244292
 30
0.0
 10
5.3358287857
 20
4.0289432698
 30
0.0
 10
5.3405764079
 20
4.0184993159
 30
0.0
 10
5.3457729229
 20
4.0082676045
 30
0.0
 10
5.3484075771
 20
4.0034493159
 30
0.0
  0
SPLINE
  5
2F6
100
AcDbEntity
  8
ALL_ASSEMBLY_MEMBERS
100
AcDbSpline
 62
7
  6
CONTINUOUS
 70
0
 71
3
 72
22
 73
18
 74
0
 42
0.0000001
 43
0.0000001
 44
0.0000000001
 40
0.0
 40
0.0
 40
0.0
 40
0.0
 40
0.199025795
 40
0.291537575
 40
0.378857397
 40
0.5370280681
 40
0.607510113
 40
0.6721104606
 40
0.7307624977
 40
0.7834416299
 40
0.8303133873
 40
0.8516446716
 40
0.8716145337
 40
0.9076847319
 40
0.939821895
 40
0.9699489405
 40
1.0
 40
1.0
 40
1.0
 40
1.0
 10
5.5727234192
 20
3.6970136217
 30
0.0
 10
5.5549821702
 20
3.7145789685
 30
0.0
 10
5.5288205411
 20
3.7401343615
 30
0.0
 10
5.4945082406
 20
3.7730161173
 30
0.0
 10
5.4637245268
 20
3.8021720028
 30
0.0
 10
5.4347538706
 20
3.8292222763
 30
0.0
 10
5.4077867747
 20
3.8542415448
 30
0.0
 10
5.3899847661
 20
3.8707848437
 30
0.0
 10
5.3738840189
 20
3.8858781991
 30
0.0
 10
5.3595301185
 20
3.8995823792
 30
0.0
 10
5.3487301729
 20
3.9102280713
 30
0.0
 10
5.3410095512
 20
3.9181486419
 30
0.0
 10
5.3343486547
 20
3.9252079091
 30
0.0
 10
5.326990822
 20
3.9334725337
 30
0.0
 10
5.3193117455
 20
3.9431359988
 30
0.0
 10
5.3127196177
 20
3.9526669548
 30
0.0
 10
5.3088368551
 20
3.959146461
 30
0.0
 10
5.306981125
 20
3.962427656
 30
0.0
  0
SPLINE
  5
2F7
100
AcDbEntity
  8
ALL_ASSEMBLY_MEMBERS
100
AcDbSpline
 62
7
  6
CONTINUOUS
 70
0
 71
3
 72
23
 73
19
 74
0
 42
0.0000001
 43
0.0000001
 44
0.0000000001
 40
0.0
 40
0.0
 40
0.0
 40
0.0
 40
0.0293879543
 40
0.0441357509
 40
0.0592464294
 40
0.0915854737
 40
0.1281456175
 40
0.1700842389
 40
0.2177573533
 40
0.2712205922
 40
0.3305218819
 40
0.3956557071
 40
0.4665349466
 40
0.5430137984
 40
0.6248758499
 40
0.7118472696
 40
0.8036042179
 40
1.0
 40
1.0
 40
1.0
 40
1.0
 10
5.3076018385
 20
3.9600321005
 30
0.0
 10
5.3094893094
 20
3.9566659705
 30
0.0
 10
5.3124466208
 20
3.9516768862
 30
0.0
 10
5.3167148605
 20
3.9451708248
 30
0.0
 10
5.3213999113
 20
3.9384789804
 30
0.0
 10
5.3281117547
 20
3.9297170515
 30
0.0
 10
5.3374615541
 20
3.9185579061
 30
0.0
 10
5.3485184519
 20
3.9062153563
 30
0.0
 10
5.3613582723
 20
3.8924975746
 30
0.0
 10
5.3759677028
 20
3.8773166536
 30
0.0
 10
5.3922723423
 20
3.8605859871
 30
0.0
 10
5.4101991158
 20
3.8422427441
 30
0.0
 10
5.4296715127
 20
3.8222559452
 30
0.0
 10
5.4505959906
 20
3.8006171128
 30
0.0
 10
5.4728681832
 20
3.7773424139
 30
0.0
 10
5.496374216
 20
3.7524722671
 30
0.0
 10
5.5299651452
 20
3.7164401888
 30
0.0
 10
5.5554735626
 20
3.688488289
 30
0.0
 10
5.5727234192
 20
3.6693156201
 30
0.0
  0
SPLINE
  5
2F8
100
AcDbEntity
  8
ALL_ASSEMBLY_MEMBERS
100
AcDbSpline
 62
7
  6
CONTINUOUS
 70
0
 71
3
 72
11
 73
7
 74
0
 42
0.0000001
 43
0.0000001
 44
0.0000000001
 40
0.0
 40
0.0
 40
0.0
 40
0.0
 40
0.2181479663
 40
0.4585277265
 40
0.7196732324
 40
1.0
 40
1.0
 40
1.0
 40
1.0
 10
5.3065518949
 20
3.9630735767
 30
0.0
 10
5.3040831032
 20
3.9674990652
 30
0.0
 10
5.299168277
 20
3.9769549316
 30
0.0
 10
5.292108994
 20
3.9921133103
 30
0.0
 10
5.2850233534
 20
4.0088397805
 30
0.0
 10
5.280456125
 20
4.0205614202
 30
0.0
 10
5.2781650102
 20
4.0266569974
 30
0.0
  0
SPLINE
  5
2F9
100
AcDbEntity
  8
ALL_ASSEMBLY_MEMBERS
100
AcDbSpline
 62
7
  6
CONTINUOUS
 70
0
 71
3
 72
11
 73
7
 74
0
 42
0.0000001
 43
0.0000001
 44
0.0000000001
 40
0.0
 40
0.0
 40
0.0
 40
0.0
 40
0.2801652036
 40
0.5412101333
 40
0.7816207626
 40
1.0
 40
1.0
 40
1.0
 40
1.0
 10
5.2792500013
 20
4.0227818536
 30
0.0
 10
5.2814908669
 20
4.0168888977
 30
0.0
 10
5.2859568345
 20
4.0055564848
 30
0.0
 10
5.2928813872
 20
3.9893845776
 30
0.0
 10
5.2997777054
 20
3.9747233335
 30
0.0
 10
5.3045755418
 20
3.9655757754
 30
0.0
 10
5.3069847543
 20
3.9612926081
 30
0.0
  0
SPLINE
  5
2FA
100
AcDbEntity
  8
ALL_ASSEMBLY_MEMBERS
100
AcDbSpline
 62
7
  6
CONTINUOUS
 70
0
 71
3
 72
21
 73
17
 74
0
 42
0.0000001
 43
0.0000001
 44
0.0000000001
 40
0.0
 40
0.0
 40
0.0
 40
0.0
 40
0.029157334
 40
0.0586779289
 40
0.0905626732
 40
0.1266960882
 40
0.1681071148
 40
0.2153546668
 40
0.2685413813
 40
0.3276853315
 40
0.3927835078
 40
0.4637716192
 40
0.5404852421
 40
0.62269709
 40
0.8023995559
 40
1.0
 40
1.0
 40
1.0
 40
1.0
 10
4.7363847058
 20
3.9023122536
 30
0.0
 10
4.734520745
 20
3.8989551707
 30
0.0
 10
4.7305824401
 20
3.89229949
 30
0.0
 10
4.7237958965
 20
3.8824798386
 30
0.0
 10
4.7157638633
 20
3.8724440887
 30
0.0
 10
4.7061356037
 20
3.8617142699
 30
0.0
 10
4.6946895427
 20
3.8499175561
 30
0.0
 10
4.6813350089
 20
3.8368541435
 30
0.0
 10
4.6660729462
 20
3.8224062785
 30
0.0
 10
4.64894644
 20
3.8065105433
 30
0.0
 10
4.6300100593
 20
3.7891194417
 30
0.0
 10
4.6093328649
 20
3.7702032792
 30
0.0
 10
4.5869993948
 20
3.7497586071
 30
0.0
 10
4.5541652645
 20
3.7195815927
 30
0.0
 10
4.5098161108
 20
3.6784073204
 30
0.0
 10
4.4737403407
 20
3.6442370728
 30
0.0
 10
4.4549537072
 20
3.6262302592
 30
0.0
  0
SPLINE
  5
2FB
100
AcDbEntity
  8
ALL_ASSEMBLY_MEMBERS
100
AcDbSpline
 62
7
  6
CONTINUOUS
 70
0
 71
3
 72
21
 73
17
 74
0
 42
0.0000001
 43
0.0000001
 44
0.0000000001
 40
0.0
 40
0.0
 40
0.0
 40
0.0
 40
0.0291596987
 40
0.0586835566
 40
0.0905884343
 40
0.1266516304
 40
0.1680912436
 40
0.2153503443
 40
0.2685207708
 40
0.3276571714
 40
0.3927612909
 40
0.4637460311
 40
0.5404627992
 40
0.6226798562
 40
0.8023929568
 40
1.0
 40
1.0
 40
1.0
 40
1.0
 10
5.2490191934
 20
3.9023122536
 30
0.0
 10
5.2508836411
 20
3.8989550847
 30
0.0
 10
5.2548206594
 20
3.8922977747
 30
0.0
 10
5.2616118608
 20
3.8824770379
 30
0.0
 10
5.2696433249
 20
3.8724488976
 30
0.0
 10
5.279265754
 20
3.8617177423
 30
0.0
 10
5.2907096309
 20
3.8499243377
 30
0.0
 10
5.3040634811
 20
3.8368557873
 30
0.0
 10
5.3193253094
 20
3.8224099699
 30
0.0
 10
5.3364515488
 20
3.8065174323
 30
0.0
 10
5.3553866535
 20
3.789125908
 30
0.0
 10
5.3760646387
 20
3.7702094922
 30
0.0
 10
5.3983982195
 20
3.7497639682
 30
0.0
 10
5.4312345268
 20
3.7195856246
 30
0.0
 10
5.4755855305
 20
3.6784089985
 30
0.0
 10
5.5116634022
 20
3.6442376684
 30
0.0
 10
5.5304506698
 20
3.6262302592
 30
0.0
  0
SPLINE
  5
2FC
100
AcDbEntity
  8
ALL_ASSEMBLY_MEMBERS
100
AcDbSpline
 62
7
  6
CONTINUOUS
 70
0
 71
3
 72
12
 73
8
 74
0
 42
0.0000001
 43
0.0000001
 44
0.0000000001
 40
0.0
 40
0.0
 40
0.0
 40
0.0
 40
0.2814946517
 40
0.5432776005
 40
0.7834241837
 40
0.8948376008
 40
1.0
 40
1.0
 40
1.0
 40
1.0
 10
4.7789535287
 20
4.0064679398
 30
0.0
 10
4.7756741562
 20
3.9965466682
 30
0.0
 10
4.7691208696
 20
3.9774712293
 30
0.0
 10
4.7588183706
 20
3.9502706099
 30
0.0
 10
4.7498823818
 20
3.9293189688
 30
0.0
 10
4.7425817843
 20
3.9140152484
 30
0.0
 10
4.7388795392
 20
3.9068765148
 30
0.0
 10
4.7370096976
 20
3.9034498006
 30
0.0
  0
SPLINE
  5
2FD
100
AcDbEntity
  8
ALL_ASSEMBLY_MEMBERS
100
AcDbSpline
 62
7
  6
CONTINUOUS
 70
0
 71
3
 72
12
 73
8
 74
0
 42
0.0000001
 43
0.0000001
 44
0.0000000001
 40
0.0
 40
0.0
 40
0.0
 40
0.0
 40
0.280951697
 40
0.5424766971
 40
0.7827769344
 40
0.8944464307
 40
1.0
 40
1.0
 40
1.0
 40
1.0
 10
5.2075863652
 20
4.0030465073
 30
0.0
 10
5.2107801541
 20
3.9934737633
 30
0.0
 10
5.217162791
 20
3.9750605562
 30
0.0
 10
5.2271928707
 20
3.9487885732
 30
0.0
 10
5.2358846708
 20
3.9285288302
 30
0.0
 10
5.2429809322
 20
3.9137039704
 30
0.0
 10
5.246578154
 20
3.9067779261
 30
0.0
 10
5.2483942016
 20
3.9034498006
 30
0.0
  0
SPLINE
  5
2FE
100
AcDbEntity
  8
ALL_ASSEMBLY_MEMBERS
100
AcDbSpline
 62
7
  6
CONTINUOUS
 70
0
 71
3
 72
22
 73
18
 74
0
 42
0.0000001
 43
0.0000001
 44
0.0000000001
 40
0.0
 40
0.0
 40
0.0
 40
0.0
 40
0.1990258493
 40
0.2915376655
 40
0.3788575355
 40
0.5370283026
 40
0.6075104258
 40
0.6721111127
 40
0.7307640353
 40
0.7834447608
 40
0.8303183447
 40
0.8516504147
 40
0.8716208556
 40
0.9076912486
 40
0.9398272608
 40
0.9699520327
 40
1.0
 40
1.0
 40
1.0
 40
1.0
 10
4.41268048
 20
3.6970137315
 30
0.0
 10
4.4304217553
 20
3.7145790369
 30
0.0
 10
4.4565834173
 20
3.7401343759
 30
0.0
 10
4.4908957454
 20
3.7730160805
 30
0.0
 10
4.521679478
 20
3.8021719364
 30
0.0
 10
4.550650138
 20
3.8292222062
 30
0.0
 10
4.5776172398
 20
3.8542415255
 30
0.0
 10
4.5954192561
 20
3.8707850317
 30
0.0
 10
4.6115199995
 20
3.8858788869
 30
0.0
 10
4.6258737887
 20
3.8995839477
 30
0.0
 10
4.6366736227
 20
3.9102304896
 30
0.0
 10
4.6443942105
 20
3.9181516408
 30
0.0
 10
4.651055025
 20
3.9252112447
 30
0.0
 10
4.6584127727
 20
3.9334758615
 30
0.0
 10
4.6660919181
 20
3.9431387319
 30
0.0
 10
4.6726841521
 20
3.9526686043
 30
0.0
 10
4.6765670179
 20
3.9591472573
 30
0.0
 10
4.6784227741
 20
3.9624279889
 30
0.0
  0
SPLINE
  5
2FF
100
AcDbEntity
  8
ALL_ASSEMBLY_MEMBERS
100
AcDbSpline
 62
7
  6
CONTINUOUS
 70
0
 71
3
 72
22
 73
18
 74
0
 42
0.0000001
 43
0.0000001
 44
0.0000000001
 40
0.0
 40
0.0
 40
0.0
 40
0.0
 40
0.0293863228
 40
0.0441343842
 40
0.0592401421
 40
0.0915567141
 40
0.12819115
 40
0.170093612
 40
0.2177564134
 40
0.271240889
 40
0.3305488754
 40
0.3956770544
 40
0.4665580242
 40
0.5430348132
 40
0.6248916388
 40
0.803608143
 40
1.0
 40
1.0
 40
1.0
 40
1.0
 10
4.6778020607
 20
3.9600321005
 30
0.0
 10
4.6759146296
 20
3.9566661794
 30
0.0
 10
4.672955933
 20
3.9516781305
 30
0.0
 10
4.6686898022
 20
3.9451716876
 30
0.0
 10
4.6640088885
 20
3.9384812138
 30
0.0
 10
4.6572884612
 20
3.9297179478
 30
0.0
 10
4.6479370212
 20
3.9185576804
 30
0.0
 10
4.6368844361
 20
3.9062061826
 30
0.0
 10
4.6240376956
 20
3.8924992686
 30
0.0
 10
4.6094314152
 20
3.8773121229
 30
0.0
 10
4.5931266606
 20
3.860577327
 30
0.0
 10
4.5751977274
 20
3.8422355797
 30
0.0
 10
4.5557255715
 20
3.8222495104
 30
0.0
 10
4.5348018302
 20
3.8006108391
 30
0.0
 10
4.5042002378
 20
3.7686325005
 30
0.0
 10
4.463131733
 20
3.7248762984
 30
0.0
 10
4.4299301155
 20
3.6884854087
 30
0.0
 10
4.41268048
 20
3.6693131211
 30
0.0
  0
SPLINE
  5
300
100
AcDbEntity
  8
ALL_ASSEMBLY_MEMBERS
100
AcDbSpline
 62
7
  6
CONTINUOUS
 70
0
 71
3
 72
11
 73
7
 74
0
 42
0.0000001
 43
0.0000001
 44
0.0000000001
 40
0.0
 40
0.0
 40
0.0
 40
0.0
 40
0.2801675319
 40
0.5412134662
 40
0.7816234269
 40
1.0
 40
1.0
 40
1.0
 40
1.0
 10
4.7061571637
 20
4.0227891982
 30
0.0
 10
4.703916046
 20
4.0168953699
 30
0.0
 10
4.6994495748
 20
4.0055613041
 30
0.0
 10
4.6925242194
 20
3.9893870869
 30
0.0
 10
4.6856270992
 20
3.974723856
 30
0.0
 10
4.6808286824
 20
3.9655751086
 30
0.0
 10
4.6784191746
 20
3.9612914136
 30
0.0
  0
SPLINE
  5
301
100
AcDbEntity
  8
ALL_ASSEMBLY_MEMBERS
100
AcDbSpline
 62
7
  6
CONTINUOUS
 70
0
 71
3
 72
11
 73
7
 74
0
 42
0.0000001
 43
0.0000001
 44
0.0000000001
 40
0.0
 40
0.0
 40
0.0
 40
0.0
 40
0.2181498483
 40
0.4585301491
 40
0.7196749788
 40
1.0
 40
1.0
 40
1.0
 40
1.0
 10
4.6788532524
 20
3.9630754025
 30
0.0
 10
4.6813219305
 20
3.9675007928
 30
0.0
 10
4.6862365333
 20
3.9769563994
 30
0.0
 10
4.6932955124
 20
3.9921142908
 30
0.0
 10
4.7003808433
 20
4.0088401243
 30
0.0
 10
4.7049478782
 20
4.0205612861
 30
0.0
 10
4.707238895
 20
4.026656603
 30
0.0
  0
SPLINE
  5
302
100
AcDbEntity
  8
ALL_ASSEMBLY_MEMBERS
100
AcDbSpline
 62
7
  6
CONTINUOUS
 70
0
 71
3
 72
22
 73
18
 74
0
 42
0.0000001
 43
0.0000001
 44
0.0000000001
 40
0.0
 40
0.0
 40
0.0
 40
0.0
 40
0.030188633
 40
0.0605646149
 40
0.0929989496
 40
0.1293568212
 40
0.1494754026
 40
0.1709583304
 40
0.2181148994
 40
0.2710115043
 40
0.3297856677
 40
0.3944148504
 40
0.4648307511
 40
0.6226113278
 40
0.7096296942
 40
0.8017866272
 40
1.0
 40
1.0
 40
1.0
 40
1.0
 10
4.6387158747
 20
4.0015868033
 30
0.0
 10
4.6368367219
 20
3.9983072116
 30
0.0
 10
4.63292002
 20
3.9918094561
 30
0.0
 10
4.6263510238
 20
3.982187532
 30
0.0
 10
4.6187712199
 20
3.9723455936
 30
0.0
 10
4.6115574921
 20
3.9638625567
 30
0.0
 10
4.6050476462
 20
3.9565891386
 30
0.0
 10
4.5975202553
 20
3.948413171
 30
0.0
 10
4.5870220746
 20
3.9373961018
 30
0.0
 10
4.5731115818
 20
3.923184559
 30
0.0
 10
4.5575560394
 20
3.9075230087
 30
0.0
 10
4.5404187664
 20
3.8903410596
 30
0.0
 10
4.5145731836
 20
3.8643366819
 30
0.0
 10
4.4869653183
 20
3.8361315894
 30
0.0
 10
4.4577581948
 20
3.8056867851
 30
0.0
 10
4.4253078498
 20
3.7713399752
 30
0.0
 10
4.4006599428
 20
3.7446115117
 30
0.0
 10
4.3839853872
 20
3.7262302592
 30
0.0
  0
SPLINE
  5
303
100
AcDbEntity
  8
ALL_ASSEMBLY_MEMBERS
100
AcDbSpline
 62
7
  6
CONTINUOUS
 70
0
 71
3
 72
21
 73
17
 74
0
 42
0.0000001
 43
0.0000001
 44
0.0000000001
 40
0.0
 40
0.0
 40
0.0
 40
0.0
 40
0.0292396736
 40
0.0587709671
 40
0.090600691
 40
0.1266063634
 40
0.1680609698
 40
0.215307965
 40
0.2684884165
 40
0.3276528795
 40
0.3927836774
 40
0.4638044281
 40
0.5405477787
 40
0.6227805252
 40
0.8024791003
 40
1.0
 40
1.0
 40
1.0
 40
1.0
 10
4.6363703871
 20
4.0023122536
 30
0.0
 10
4.6344959
 20
3.9989491129
 30
0.0
 10
4.6305498666
 20
3.9922851906
 30
0.0
 10
4.6237706134
 20
3.9824563039
 30
0.0
 10
4.6157653237
 20
3.9724298033
 30
0.0
 10
4.6061457378
 20
3.961718383
 30
0.0
 10
4.5946863607
 20
3.949952749
 30
0.0
 10
4.581322322
 20
3.9368954291
 30
0.0
 10
4.566061598
 20
3.9224469704
 30
0.0
 10
4.5489386166
 20
3.9065422564
 30
0.0
 10
4.5300049415
 20
3.8891357837
 30
0.0
 10
4.5093306716
 20
3.8702025646
 30
0.0
 10
4.4870014569
 20
3.8497420501
 30
0.0
 10
4.4541782916
 20
3.8195514252
 30
0.0
 10
4.4098487551
 20
3.7783781748
 30
0.0
 10
4.3737824245
 20
3.7442221761
 30
0.0
 10
4.3550000729
 20
3.7262302592
 30
0.0
  0
SPLINE
  5
304
100
AcDbEntity
  8
ALL_ASSEMBLY_MEMBERS
100
AcDbSpline
 62
7
  6
CONTINUOUS
 70
0
 71
3
 72
9
 73
5
 74
0
 42
0.0000001
 43
0.0000001
 44
0.0000000001
 40
0.0
 40
0.0
 40
0.0
 40
0.0
 40
0.5215639944
 40
1.0
 40
1.0
 40
1.0
 40
1.0
 10
4.6548841699
 20
4.033995836
 30
0.0
 10
4.6523959162
 20
4.028367672
 30
0.0
 10
4.6474229255
 20
4.0176643459
 30
0.0
 10
4.6419256375
 20
4.0072161414
 30
0.0
 10
4.6391299419
 20
4.0023122536
 30
0.0
  0
SPLINE
  5
305
100
AcDbEntity
  8
ALL_ASSEMBLY_MEMBERS
100
AcDbSpline
 62
7
  6
CONTINUOUS
 70
0
 71
3
 72
9
 73
5
 74
0
 42
0.0000001
 43
0.0000001
 44
0.0000000001
 40
0.0
 40
0.0
 40
0.0
 40
0.0
 40
0.5212216526
 40
1.0
 40
1.0
 40
1.0
 40
1.0
 10
4.6519638305
 20
4.0344293484
 30
0.0
 10
4.6495769316
 20
4.0289472101
 30
0.0
 10
4.6448287348
 20
4.0185015503
 30
0.0
 10
4.6396313461
 20
4.0082682762
 30
0.0
 10
4.6369963221
 20
4.0034493159
 30
0.0
  0
SPLINE
  5
306
100
AcDbEntity
  8
ALL_ASSEMBLY_MEMBERS
100
AcDbSpline
 62
7
  6
CONTINUOUS
 70
0
 71
3
 72
21
 73
17
 74
0
 42
0.0000001
 43
0.0000001
 44
0.0000000001
 40
0.0
 40
0.0
 40
0.0
 40
0.0
 40
0.0294511325
 40
0.0593032099
 40
0.0915592039
 40
0.1280723651
 40
0.1700196543
 40
0.2176732222
 40
0.271143981
 40
0.3304717887
 40
0.3956303835
 40
0.4665395408
 40
0.5430407852
 40
0.6249155867
 40
0.8036375056
 40
1.0
 40
1.0
 40
1.0
 40
1.0
 10
4.5777979971
 20
4.0600211605
 30
0.0
 10
4.5758919943
 20
4.0566561631
 30
0.0
 10
4.5719006925
 20
4.0499647654
 30
0.0
 10
4.5651548356
 20
4.0400046647
 30
0.0
 10
4.5572927173
 20
4.029706627
 30
0.0
 10
4.547940545
 20
4.0185705967
 30
0.0
 10
4.5368814277
 20
4.006241578
 30
0.0
 10
4.5240331132
 20
3.9925335557
 30
0.0
 10
4.5094266421
 20
3.9773486618
 30
0.0
 10
4.4931279014
 20
3.9606030057
 30
0.0
 10
4.4752022554
 20
3.9422454702
 30
0.0
 10
4.4557314121
 20
3.9222448913
 30
0.0
 10
4.4348087984
 20
3.9005943715
 30
0.0
 10
4.4042107817
 20
3.8686070598
 30
0.0
 10
4.3631417523
 20
3.8248567118
 30
0.0
 10
4.3299352959
 20
3.7884779924
 30
0.0
 10
4.31268048
 20
3.7693173249
 30
0.0
  0
SPLINE
  5
307
100
AcDbEntity
  8
ALL_ASSEMBLY_MEMBERS
100
AcDbSpline
 62
7
  6
CONTINUOUS
 70
0
 71
3
 72
25
 73
21
 74
0
 42
0.0000001
 43
0.0000001
 44
0.0000000001
 40
0.0
 40
0.0
 40
0.0
 40
0.0
 40
0.0084130734
 40
0.0171812007
 40
0.0266964997
 40
0.0373176259
 40
0.049336996
 40
0.0629718275
 40
0.0784096608
 40
0.0958179796
 40
0.13667146
 40
0.1851788914
 40
0.2408784697
 40
0.3034020655
 40
0.372376951
 40
0.4473713864
 40
0.527938616
 40
0.613651927
 40
0.7989079878
 40
1.0
 40
1.0
 40
1.0
 40
1.0
 10
4.5784227741
 20
4.5719847763
 30
0.0
 10
4.5773644576
 20
4.5721285159
 30
0.0
 10
4.5752208867
 20
4.5725767661
 30
0.0
 10
4.5720266719
 20
4.5737388628
 30
0.0
 10
4.5687563236
 20
4.5754206118
 30
0.0
 10
4.5653285616
 20
4.5776468337
 30
0.0
 10
4.5616627655
 20
4.5804390872
 30
0.0
 10
4.5576841959
 20
4.5838155776
 30
0.0
 10
4.5533252252
 20
4.5877939416
 30
0.0
 10
4.5465621355
 20
4.5942597648
 30
0.0
 10
4.5369909252
 20
4.6038594003
 30
0.0
 10
4.5242233588
 20
4.6171307025
 30
0.0
 10
4.5097179203
 20
4.6325455672
 30
0.0
 10
4.4935389382
 20
4.6499524994
 30
0.0
 10
4.4757475305
 20
4.6692046849
 30
0.0
 10
4.4564173908
 20
4.6901538113
 30
0.0
 10
4.435625796
 20
4.712645754
 30
0.0
 10
4.4052628492
 20
4.7453518793
 30
0.0
 10
4.3642771046
 20
4.7890735307
 30
0.0
 10
4.330406187
 20
4.8245478698
 30
0.0
 10
4.31268048
 20
4.842919111
 30
0.0
  0
SPLINE
  5
308
100
AcDbEntity
  8
ALL_ASSEMBLY_MEMBERS
100
AcDbSpline
 62
7
  6
CONTINUOUS
 70
0
 71
3
 72
13
 73
9
 74
0
 42
0.0000001
 43
0.0000001
 44
0.0000000001
 40
0.0
 40
0.0
 40
0.0
 40
0.0
 40
0.2812111183
 40
0.5432581702
 40
0.6663612043
 40
0.783797363
 40
0.8951576887
 40
1.0
 40
1.0
 40
1.0
 40
1.0
 10
4.6177044722
 20
4.1545670249
 30
0.0
 10
4.6146189334
 20
4.1455691994
 30
0.0
 10
4.6084495599
 20
4.1282570389
 30
0.0
 10
4.600214898
 20
4.1072689842
 30
0.0
 10
4.5935139417
 20
4.0916436316
 30
0.0
 10
4.5885671822
 20
4.0808154888
 30
0.0
 10
4.583594969
 20
4.070682564
 30
0.0
 10
4.5801554556
 20
4.064226374
 30
0.0
 10
4.5784227741
 20
4.0611320986
 30
0.0
  0
SPLINE
  5
309
100
AcDbEntity
  8
ALL_ASSEMBLY_MEMBERS
100
AcDbSpline
 62
7
  6
CONTINUOUS
 70
0
 71
3
 72
18
 73
14
 74
0
 42
0.0000001
 43
0.0000001
 44
0.0000000001
 40
0.0
 40
0.0
 40
0.0
 40
0.0
 40
0.1586166732
 40
0.3065996055
 40
0.4449991433
 40
0.5737215411
 40
0.6344315569
 40
0.6927329595
 40
0.8022926201
 40
0.8539627889
 40
0.9038814538
 40
0.9524181988
 40
1.0
 40
1.0
 40
1.0
 40
1.0
 10
4.6514760893
 20
4.6247827673
 30
0.0
 10
4.6488445952
 20
4.6205761431
 30
0.0
 10
4.6435230748
 20
4.6125870751
 30
0.0
 10
4.6349497557
 20
4.6015989783
 30
0.0
 10
4.626019962
 20
4.5921414542
 30
0.0
 10
4.6181784489
 20
4.5854897411
 30
0.0
 10
4.6117963273
 20
4.5810827043
 30
0.0
 10
4.6056401293
 20
4.577439201
 30
0.0
 10
4.5993379961
 20
4.5746122744
 30
0.0
 10
4.5929810732
 20
4.5727848639
 30
0.0
 10
4.5883511484
 20
4.5719469997
 30
0.0
 10
4.5837859256
 20
4.5716183559
 30
0.0
 10
4.5807739377
 20
4.5717388423
 30
0.0
 10
4.5792924905
 20
4.5718832604
 30
0.0
  0
SPLINE
  5
30A
100
AcDbEntity
  8
ALL_ASSEMBLY_MEMBERS
100
AcDbSpline
 62
7
  6
CONTINUOUS
 70
0
 71
3
 72
26
 73
22
 74
0
 42
0.0000001
 43
0.0000001
 44
0.0000000001
 40
0.0
 40
0.0
 40
0.0
 40
0.0
 40
0.2026135647
 40
0.3883907735
 40
0.4740465904
 40
0.5543818949
 40
0.6290253921
 40
0.6976121082
 40
0.7597738492
 40
0.8151013947
 40
0.8631640512
 40
0.8843686938
 40
0.9036896472
 40
0.9211394065
 40
0.9367342463
 40
0.9505009243
 40
0.9625795275
 40
0.9732368758
 40
0.9827817865
 40
0.9915698261
 40
1.0
 40
1.0
 40
1.0
 40
1.0
 10
4.3828671771
 20
4.8862731985
 30
0.0
 10
4.4000515996
 20
4.8689331887
 30
0.0
 10
4.4327874808
 20
4.8354903041
 30
0.0
 10
4.4723068467
 20
4.7942506667
 30
0.0
 10
4.5014430914
 20
4.7634690647
 30
0.0
 10
4.5213076624
 20
4.7423493336
 30
0.0
 10
4.5397223427
 20
4.7226894267
 30
0.0
 10
4.5566382762
 20
4.7046259737
 30
0.0
 10
4.5720025599
 20
4.6882979795
 30
0.0
 10
4.5857505418
 20
4.6738450493
 30
0.0
 10
4.5961962936
 20
4.663062184
 30
0.0
 10
4.6037211994
 20
4.6554917151
 30
0.0
 10
4.6087065584
 20
4.6505983304
 30
0.0
 10
4.6132838689
 20
4.646255185
 30
0.0
 10
4.6174659929
 20
4.6424697061
 30
0.0
 10
4.621273651
 20
4.6392379611
 30
0.0
 10
4.6247582098
 20
4.6365505137
 30
0.0
 10
4.6279993597
 20
4.6343926612
 30
0.0
 10
4.63108612
 20
4.6327424439
 30
0.0
 10
4.6341052365
 20
4.6315830045
 30
0.0
 10
4.6361376494
 20
4.6311246865
 30
0.0
 10
4.6371423009
 20
4.630974987
 30
0.0
  0
LINE
  5
30B
100
AcDbEntity
  8
ALL_ASSEMBLY_MEMBERS
100
AcDbLine
 62
7
  6
CONTINUOUS
 10
4.6371423009
 20
4.630974987
 11
4.633472776
 21
4.6317829757
  0
SPLINE
  5
30C
100
AcDbEntity
  8
ALL_ASSEMBLY_MEMBERS
100
AcDbSpline
 62
7
  6
CONTINUOUS
 70
0
 71
3
 72
24
 73
20
 74
0
 42
0.0000001
 43
0.0000001
 44
0.0000000001
 40
0.0
 40
0.0
 40
0.0
 40
0.0
 40
0.0188416176
 40
0.0297393418
 40
0.041921044
 40
0.0555876407
 40
0.0709188004
 40
0.0880754924
 40
0.1071056626
 40
0.1505609063
 40
0.2008174552
 40
0.257507116
 40
0.3203239646
 40
0.3889283108
 40
0.4629333449
 40
0.5419513331
 40
0.6256214609
 40
0.8055412361
 40
1.0
 40
1.0
 40
1.0
 40
1.0
 10
4.633472776
 20
4.6317829757
 30
0.0
 10
4.6312061254
 20
4.632459397
 30
0.0
 10
4.6277666139
 20
4.634001257
 30
0.0
 10
4.6232688033
 20
4.6367338253
 30
0.0
 10
4.6194889606
 20
4.6393847464
 30
0.0
 10
4.6153983864
 20
4.6425474286
 30
0.0
 10
4.6109283291
 20
4.6462354336
 30
0.0
 10
4.6060211482
 20
4.6504489442
 30
0.0
 10
4.5985241811
 20
4.6570648551
 30
0.0
 10
4.5880725752
 20
4.6666107556
 30
0.0
 10
4.5743189371
 20
4.6795480262
 30
0.0
 10
4.5589268136
 20
4.6942895546
 30
0.0
 10
4.5419401568
 20
4.7106958664
 30
0.0
 10
4.5234130293
 20
4.7286362641
 30
0.0
 10
4.5034157731
 20
4.7479822871
 30
0.0
 10
4.4820179937
 20
4.768600839
 30
0.0
 10
4.4509543077
 20
4.7983511204
 30
0.0
 10
4.4091766116
 20
4.8378670527
 30
0.0
 10
4.3746846903
 20
4.8697962704
 30
0.0
 10
4.3566708123
 20
4.8862731985
 30
0.0
  0
SPLINE
  5
30D
100
AcDbEntity
  8
ALL_ASSEMBLY_MEMBERS
100
AcDbSpline
 62
7
  6
CONTINUOUS
 70
0
 71
3
 72
11
 73
7
 74
0
 42
0.0000001
 43
0.0000001
 44
0.0000000001
 40
0.0
 40
0.0
 40
0.0
 40
0.0
 40
0.2475387848
 40
0.4976512931
 40
0.7491266042
 40
1.0
 40
1.0
 40
1.0
 40
1.0
 10
4.6784227741
 20
3.9624276561
 30
0.0
 10
4.6782977805
 20
3.9674675704
 30
0.0
 10
4.6760097592
 20
3.9776515296
 30
0.0
 10
4.6671132842
 20
3.9904834424
 30
0.0
 10
4.6540913777
 20
3.9992098086
 30
0.0
 10
4.6438114666
 20
4.0014423455
 30
0.0
 10
4.6387035686
 20
4.0015653157
 30
0.0
  0
SPLINE
  5
30E
100
AcDbEntity
  8
ALL_ASSEMBLY_MEMBERS
100
AcDbSpline
 62
7
  6
CONTINUOUS
 70
0
 71
3
 72
11
 73
7
 74
0
 42
0.0000001
 43
0.0000001
 44
0.0000000001
 40
0.0
 40
0.0
 40
0.0
 40
0.0
 40
0.247503675
 40
0.4976078017
 40
0.749099909
 40
1.0
 40
1.0
 40
1.0
 40
1.0
 10
4.6788492641
 20
3.9631831369
 30
0.0
 10
4.6787238374
 20
3.9682216243
 30
0.0
 10
4.6764348404
 20
3.978403032
 30
0.0
 10
4.6675379008
 20
3.991231218
 30
0.0
 10
4.6545166766
 20
3.9999556057
 30
0.0
 10
4.6442376573
 20
4.0021886189
 30
0.0
 10
4.6391299419
 20
4.0023122469
 30
0.0
  0
SPLINE
  5
30F
100
AcDbEntity
  8
ALL_ASSEMBLY_MEMBERS
100
AcDbSpline
 62
7
  6
CONTINUOUS
 70
0
 71
3
 72
15
 73
11
 74
0
 42
0.0000001
 43
0.0000001
 44
0.0000000001
 40
0.0
 40
0.0
 40
0.0
 40
0.0
 40
0.1885770087
 40
0.3553572537
 40
0.5014520073
 40
0.6284978492
 40
0.738994244
 40
0.8356252154
 40
0.921276973
 40
1.0
 40
1.0
 40
1.0
 40
1.0
 10
4.7696884969
 20
5.0202474777
 30
0.0
 10
4.7699676319
 20
5.0208418418
 30
0.0
 10
4.7705029585
 20
5.021957587
 30
0.0
 10
4.7713102345
 20
5.0235064733
 30
0.0
 10
4.7720924941
 20
5.0248248237
 30
0.0
 10
4.7728711063
 20
5.0259134127
 30
0.0
 10
4.7736694915
 20
5.0267661569
 30
0.0
 10
4.7744909584
 20
5.0273810397
 30
0.0
 10
4.7753271657
 20
5.0277582736
 30
0.0
 10
4.7759020863
 20
5.027846807
 30
0.0
 10
4.7761762089
 20
5.0278466937
 30
0.0
  0
SPLINE
  5
310
100
AcDbEntity
  8
ALL_ASSEMBLY_MEMBERS
100
AcDbSpline
 62
7
  6
CONTINUOUS
 70
0
 71
3
 72
15
 73
11
 74
0
 42
0.0000001
 43
0.0000001
 44
0.0000000001
 40
0.0
 40
0.0
 40
0.0
 40
0.0
 40
0.0889211383
 40
0.1898306081
 40
0.3019109103
 40
0.4244090556
 40
0.5565857631
 40
0.6974535993
 40
0.8457817421
 40
1.0
 40
1.0
 40
1.0
 40
1.0
 10
4.7390890463
 20
4.8630324874
 30
0.0
 10
4.7364661167
 20
4.8427384408
 30
0.0
 10
4.7312370148
 20
4.7993662961
 30
0.0
 10
4.7237392896
 20
4.7302941843
 30
0.0
 10
4.7161150924
 20
4.6534669957
 30
0.0
 10
4.7083956705
 20
4.5694211417
 30
0.0
 10
4.7006430993
 20
4.4787277061
 30
0.0
 10
4.6928733587
 20
4.3820713921
 30
0.0
 10
4.6851151795
 20
4.280326467
 30
0.0
 10
4.6800587035
 20
4.2108871513
 30
0.0
 10
4.6775302225
 20
4.1754880881
 30
0.0
  0
SPLINE
  5
311
100
AcDbEntity
  8
ALL_ASSEMBLY_MEMBERS
100
AcDbSpline
 62
7
  6
CONTINUOUS
 70
0
 71
3
 72
21
 73
17
 74
0
 42
0.0000001
 43
0.0000001
 44
0.0000000001
 40
0.0
 40
0.0
 40
0.0
 40
0.0
 40
0.1542143209
 40
0.3025502274
 40
0.4434132726
 40
0.5106493383
 40
0.575581301
 40
0.6380875087
 40
0.6980722393
 40
0.7554496477
 40
0.8101322135
 40
0.8620269199
 40
0.8868999775
 40
0.9110415635
 40
0.9570736255
 40
1.0
 40
1.0
 40
1.0
 40
1.0
 10
4.6769879899
 20
4.1754880881
 30
0.0
 10
4.6794784099
 20
4.2108930291
 30
0.0
 10
4.6844710074
 20
4.2803458869
 30
0.0
 10
4.6921315152
 20
4.3821097135
 30
0.0
 10
4.6986246966
 20
4.463886198
 30
0.0
 10
4.7038565698
 20
4.5265061961
 30
0.0
 10
4.7077302462
 20
4.5711427942
 30
0.0
 10
4.7116228822
 20
4.6141022786
 30
0.0
 10
4.7155158393
 20
4.6553156215
 30
0.0
 10
4.7193866785
 20
4.694722131
 30
0.0
 10
4.7232124314
 20
4.7322619667
 30
0.0
 10
4.7264649807
 20
4.7623402488
 30
0.0
 10
4.7291220282
 20
4.7854121415
 30
0.0
 10
4.7317473786
 20
4.8071291403
 30
0.0
 10
4.735065221
 20
4.8329471001
 30
0.0
 10
4.7377813666
 20
4.8532399099
 30
0.0
 10
4.7390890463
 20
4.8630324874
 30
0.0
  0
SPLINE
  5
312
100
AcDbEntity
  8
ALL_ASSEMBLY_MEMBERS
100
AcDbSpline
 62
7
  6
CONTINUOUS
 70
0
 71
3
 72
21
 73
17
 74
0
 42
0.0000001
 43
0.0000001
 44
0.0000000001
 40
0.0
 40
0.0
 40
0.0
 40
0.0
 40
0.1825620722
 40
0.3524934308
 40
0.507881366
 40
0.5795135215
 40
0.6467827804
 40
0.7094555527
 40
0.767298352
 40
0.8200547285
 40
0.8674304563
 40
0.909135794
 40
0.9450551648
 40
0.975286761
 40
0.9883128528
 40
1.0
 40
1.0
 40
1.0
 40
1.0
 10
4.41268048
 20
4.9156712019
 30
0.0
 10
4.42813246
 20
4.9014058429
 30
0.0
 10
4.4578152169
 20
4.8736967562
 30
0.0
 10
4.5001588212
 20
4.8333240128
 30
0.0
 10
4.5329576154
 20
4.8014618753
 30
0.0
 10
4.5571604594
 20
4.7777245484
 30
0.0
 10
4.5737037047
 20
4.7614304561
 30
0.0
 10
4.5891042435
 20
4.746239862
 30
0.0
 10
4.6033278385
 20
4.7322367352
 30
0.0
 10
4.616335398
 20
4.7195101836
 30
0.0
 10
4.6280841998
 20
4.7081555642
 30
0.0
 10
4.6385406675
 20
4.6982551979
 30
0.0
 10
4.6477079328
 20
4.6898681785
 30
0.0
 10
4.6546090964
 20
4.6839007138
 30
0.0
 10
4.6595477569
 20
4.6799411909
 30
0.0
 10
4.6618247058
 20
4.678230947
 30
0.0
 10
4.6629206877
 20
4.677449076
 30
0.0
  0
SPLINE
  5
313
100
AcDbEntity
  8
ALL_ASSEMBLY_MEMBERS
100
AcDbSpline
 62
7
  6
CONTINUOUS
 70
0
 71
3
 72
22
 73
18
 74
0
 42
0.0000001
 43
0.0000001
 44
0.0000000001
 40
0.0
 40
0.0
 40
0.0
 40
0.0
 40
0.0116715837
 40
0.0247169807
 40
0.0392126314
 40
0.0552082958
 40
0.0917129146
 40
0.1339567882
 40
0.1817024661
 40
0.2347774231
 40
0.2929323482
 40
0.3558962057
 40
0.4233970228
 40
0.4951600198
 40
0.650344652
 40
0.8192938904
 40
1.0
 40
1.0
 40
1.0
 40
1.0
 10
4.6629643338
 20
4.6792311517
 30
0.0
 10
4.6618570392
 20
4.6801115423
 30
0.0
 10
4.6595634457
 20
4.6820405878
 30
0.0
 10
4.6560361553
 20
4.6852266792
 30
0.0
 10
4.6522046395
 20
4.6888553978
 30
0.0
 10
4.6463911892
 20
4.6945248191
 30
0.0
 10
4.6382840151
 20
4.7026583262
 30
0.0
 10
4.6276251785
 20
4.7136790435
 30
0.0
 10
4.615700133
 20
4.7262675797
 30
0.0
 10
4.6025354038
 20
4.7403374721
 30
0.0
 10
4.5881676622
 20
4.7558074872
 30
0.0
 10
4.5726404701
 20
4.7725868138
 30
0.0
 10
4.5560015487
 20
4.7905845451
 30
0.0
 10
4.531758945
 20
4.8167749443
 30
0.0
 10
4.4990789911
 20
4.8519103945
 30
0.0
 10
4.4571466475
 20
4.8964719525
 30
0.0
 10
4.4278743134
 20
4.927118125
 30
0.0
 10
4.41268048
 20
4.9428931799
 30
0.0
  0
SPLINE
  5
314
100
AcDbEntity
  8
ALL_ASSEMBLY_MEMBERS
100
AcDbSpline
 62
7
  6
CONTINUOUS
 70
0
 71
3
 72
14
 73
10
 74
0
 42
0.0000001
 43
0.0000001
 44
0.0000000001
 40
0.0
 40
0.0
 40
0.0
 40
0.0
 40
0.0899551807
 40
0.1917105475
 40
0.3043736923
 40
0.4270389297
 40
0.5587836295
 40
0.6987339386
 40
1.0
 40
1.0
 40
1.0
 40
1.0
 10
4.6746577981
 20
4.7794076148
 30
0.0
 10
4.668122167
 20
4.7856117319
 30
0.0
 10
4.6542525263
 20
4.7988958602
 30
0.0
 10
4.6323083616
 20
4.8200657108
 30
0.0
 10
4.6080187686
 20
4.8435239609
 30
0.0
 10
4.5815230403
 20
4.8690224103
 30
0.0
 10
4.5529621302
 20
4.8963168412
 30
0.0
 10
4.5112775652
 20
4.9357739909
 30
0.0
 10
4.4789076724
 20
4.9658727908
 30
0.0
 10
4.4566670379
 20
4.9862731985
 30
0.0
  0
SPLINE
  5
315
100
AcDbEntity
  8
ALL_ASSEMBLY_MEMBERS
100
AcDbSpline
 62
7
  6
CONTINUOUS
 70
0
 71
3
 72
17
 73
13
 74
0
 42
0.0000001
 43
0.0000001
 44
0.0000000001
 40
0.0
 40
0.0
 40
0.0
 40
0.0
 40
0.1251256559
 40
0.1880499811
 40
0.2510026028
 40
0.3767461935
 40
0.5023864069
 40
0.6276681203
 40
0.752384865
 40
0.8146180143
 40
0.8767171673
 40
1.0
 40
1.0
 40
1.0
 40
1.0
 10
4.7370096976
 20
3.9034498005
 30
0.0
 10
4.7332351956
 20
3.9035416374
 30
0.0
 10
4.7275580042
 20
3.9042288182
 30
0.0
 10
4.720231436
 20
3.9061793043
 30
0.0
 10
4.713102322
 20
3.9088208539
 30
0.0
 10
4.704705337
 20
3.9133605016
 30
0.0
 10
4.6958453713
 20
3.9205841494
 30
0.0
 10
4.6885041636
 20
3.9293071852
 30
0.0
 10
4.6838826437
 20
3.9375887146
 30
0.0
 10
4.681196179
 20
3.9446185211
 30
0.0
 10
4.6792155363
 20
3.9518313174
 30
0.0
 10
4.6785161503
 20
3.957427935
 30
0.0
 10
4.6784227743
 20
3.9611467754
 30
0.0
  0
SPLINE
  5
316
100
AcDbEntity
  8
ALL_ASSEMBLY_MEMBERS
100
AcDbSpline
 62
7
  6
CONTINUOUS
 70
0
 71
3
 72
17
 73
13
 74
0
 42
0.0000001
 43
0.0000001
 44
0.0000000001
 40
0.0
 40
0.0
 40
0.0
 40
0.0
 40
0.1250993278
 40
0.1880107527
 40
0.2509514177
 40
0.3766759762
 40
0.5023067973
 40
0.6275910576
 40
0.7523229851
 40
0.8145681667
 40
0.8766819498
 40
1.0
 40
1.0
 40
1.0
 40
1.0
 10
4.7363847058
 20
3.9023124273
 30
0.0
 10
4.7326102557
 20
3.9024037875
 30
0.0
 10
4.7269330493
 20
3.9030905605
 30
0.0
 10
4.7196065699
 20
3.9050411115
 30
0.0
 10
4.7124774772
 20
3.9076831737
 30
0.0
 10
4.7040805323
 20
3.9122243268
 30
0.0
 10
4.6952209978
 20
3.9194508291
 30
0.0
 10
4.6878804604
 20
3.9281776691
 30
0.0
 10
4.6832597988
 20
3.9364628022
 30
0.0
 10
4.680574017
 20
3.9434957763
 30
0.0
 10
4.6785940079
 20
3.9507121842
 30
0.0
 10
4.6778952058
 20
3.9563114667
 30
0.0
 10
4.6778022065
 20
3.9600321005
 30
0.0
  0
SPLINE
  5
317
100
AcDbEntity
  8
ALL_ASSEMBLY_MEMBERS
100
AcDbSpline
 62
7
  6
CONTINUOUS
 70
0
 71
3
 72
11
 73
7
 74
0
 42
0.0000001
 43
0.0000001
 44
0.0000000001
 40
0.0
 40
0.0
 40
0.0
 40
0.0
 40
0.2641829434
 40
0.5202483047
 40
0.7661107872
 40
1.0
 40
1.0
 40
1.0
 40
1.0
 10
4.7768603646
 20
4.2013699926
 30
0.0
 10
4.7792096279
 20
4.2355749408
 30
0.0
 10
4.7838662784
 20
4.3029317431
 30
0.0
 10
4.7908524762
 20
4.4021115077
 30
0.0
 10
4.7977436899
 20
4.4973565749
 30
0.0
 10
4.8024228693
 20
4.5594426019
 30
0.0
 10
4.8047702745
 20
4.5897057226
 30
0.0
  0
SPLINE
  5
318
100
AcDbEntity
  8
ALL_ASSEMBLY_MEMBERS
100
AcDbSpline
 62
7
  6
CONTINUOUS
 70
0
 71
3
 72
32
 73
28
 74
0
 42
0.0000001
 43
0.0000001
 44
0.0000000001
 40
0.0
 40
0.0
 40
0.0
 40
0.0
 40
0.2170277847
 40
0.317527335
 40
0.4122295694
 40
0.5008019514
 40
0.5829333473
 40
0.6583223368
 40
0.7266886974
 40
0.7877876786
 40
0.8413864995
 40
0.865311312
 40
0.8872896977
 40
0.9073004517
 40
0.9253272715
 40
0.9413639181
 40
0.9554085162
 40
0.9674646283
 40
0.9775455461
 40
0.9818552894
 40
0.9856862643
 40
0.989049532
 40
0.9919623314
 40
0.9944522697
 40
0.9965649473
 40
0.9983754243
 40
1.0
 40
1.0
 40
1.0
 40
1.0
 10
4.8049031915
 20
4.5914183798
 30
0.0
 10
4.8079503958
 20
4.6306608065
 30
0.0
 10
4.8125701107
 20
4.6880633149
 30
0.0
 10
4.8190860515
 20
4.7625418035
 30
0.0
 10
4.8238410438
 20
4.8137877638
 30
0.0
 10
4.8285863078
 20
4.8616881706
 30
0.0
 10
4.8333056875
 20
4.9060702437
 30
0.0
 10
4.837981061
 20
4.9467703841
 30
0.0
 10
4.8425957615
 20
4.9836362555
 30
0.0
 10
4.8471336981
 20
5.0165265014
 30
0.0
 10
4.8509695965
 20
5.0413747227
 30
0.0
 10
4.8540197504
 20
5.0591613492
 30
0.0
 10
4.8561901988
 20
5.0709173281
 30
0.0
 10
4.8583283511
 20
5.0815903627
 30
0.0
 10
4.8604318013
 20
5.0911698371
 30
0.0
 10
4.8624973349
 20
5.0996477017
 30
0.0
 10
4.8645215147
 20
5.107018443
 30
0.0
 10
4.8665014932
 20
5.1132763527
 30
0.0
 10
4.8681869956
 20
5.1177711952
 30
0.0
 10
4.8695363346
 20
5.1207890391
 30
0.0
 10
4.8704826578
 20
5.1226496859
 30
0.0
 10
4.8714166192
 20
5.1242287719
 30
0.0
 10
4.8723387448
 20
5.1255268176
 30
0.0
 10
4.8732506076
 20
5.126545058
 30
0.0
 10
4.874157095
 20
5.1272841828
 30
0.0
 10
4.8750645104
 20
5.1277419715
 30
0.0
 10
4.8756904932
 20
5.1278510562
 30
0.0
 10
4.8759851292
 20
5.1278510558
 30
0.0
  0
SPLINE
  5
319
100
AcDbEntity
  8
ALL_ASSEMBLY_MEMBERS
100
AcDbSpline
 62
7
  6
CONTINUOUS
 70
0
 71
3
 72
20
 73
16
 74
0
 42
0.0000001
 43
0.0000001
 44
0.0000000001
 40
0.0
 40
0.0
 40
0.0
 40
0.0
 40
0.1798129914
 40
0.3535220244
 40
0.514890468
 40
0.5892960085
 40
0.6587020841
 40
0.7225566365
 40
0.7804405168
 40
0.8320228012
 40
0.8771124767
 40
0.9157776347
 40
0.9483849838
 40
0.9758678492
 40
1.0
 40
1.0
 40
1.0
 40
1.0
 10
4.6769866963
 20
4.1754880881
 30
0.0
 10
4.6731819978
 20
4.1754881064
 30
0.0
 10
4.6657002552
 20
4.1753027154
 30
0.0
 10
4.6548323394
 20
4.1744774319
 30
0.0
 10
4.6462373233
 20
4.1733335887
 30
0.0
 10
4.639888913
 20
4.1721452047
 30
0.0
 10
4.6356034984
 20
4.1711682288
 30
0.0
 10
4.6317039016
 20
4.1700892277
 30
0.0
 10
4.6282257411
 20
4.1689197831
 30
0.0
 10
4.6251998005
 20
4.1676713382
 30
0.0
 10
4.6226525469
 20
4.1663530651
 30
0.0
 10
4.6206024397
 20
4.1649768579
 30
0.0
 10
4.6190644174
 20
4.163544193
 30
0.0
 10
4.6180539332
 20
4.16205184
 30
0.0
 10
4.6177510778
 20
4.1609741825
 30
0.0
 10
4.6177129341
 20
4.1604649923
 30
0.0
  0
SPLINE
  5
31A
100
AcDbEntity
  8
ALL_ASSEMBLY_MEMBERS
100
AcDbSpline
 62
7
  6
CONTINUOUS
 70
0
 71
3
 72
20
 73
16
 74
0
 42
0.0000001
 43
0.0000001
 44
0.0000000001
 40
0.0
 40
0.0
 40
0.0
 40
0.0
 40
0.1798937354
 40
0.3536852245
 40
0.5151249226
 40
0.5895549687
 40
0.6589739284
 40
0.7228272382
 40
0.7806946685
 40
0.8322446102
 40
0.8772880352
 40
0.9158978033
 40
0.9484480384
 40
0.9758853773
 40
1.0
 40
1.0
 40
1.0
 40
1.0
 10
4.7768601071
 20
4.2013699926
 30
0.0
 10
4.7730606591
 20
4.2013699872
 30
0.0
 10
4.7655891482
 20
4.2011850681
 30
0.0
 10
4.7547361258
 20
4.200361386
 30
0.0
 10
4.7461530595
 20
4.1992192574
 30
0.0
 10
4.7398140677
 20
4.1980322348
 30
0.0
 10
4.7355358684
 20
4.1970563008
 30
0.0
 10
4.7316437561
 20
4.1959783378
 30
0.0
 10
4.7281734094
 20
4.1948099813
 30
0.0
 10
4.7251556234
 20
4.1935626697
 30
0.0
 10
4.7226168062
 20
4.1922455922
 30
0.0
 10
4.7205752439
 20
4.1908706635
 30
0.0
 10
4.7190457515
 20
4.1894392281
 30
0.0
 10
4.7180437193
 20
4.1879479652
 30
0.0
 10
4.7177470349
 20
4.1868719978
 30
0.0
 10
4.7177115091
 20
4.1863639251
 30
0.0
  0
SPLINE
  5
31B
100
AcDbEntity
  8
ALL_ASSEMBLY_MEMBERS
100
AcDbSpline
 62
7
  6
CONTINUOUS
 70
0
 71
3
 72
17
 73
13
 74
0
 42
0.0000001
 43
0.0000001
 44
0.0000000001
 40
0.0
 40
0.0
 40
0.0
 40
0.0
 40
0.1251165022
 40
0.1880396585
 40
0.2509931733
 40
0.3767433623
 40
0.5023932249
 40
0.6276836455
 40
0.7524042256
 40
0.814636267
 40
0.8767318888
 40
1.0
 40
1.0
 40
1.0
 40
1.0
 10
4.6369963221
 20
4.0034493159
 30
0.0
 10
4.6332235795
 20
4.0035429805
 30
0.0
 10
4.627549221
 20
4.0042324591
 30
0.0
 10
4.6202264633
 20
4.0061848804
 30
0.0
 10
4.6131007286
 20
4.0088277295
 30
0.0
 10
4.604707547
 20
4.0133676708
 30
0.0
 10
4.5958509319
 20
4.0205895676
 30
0.0
 10
4.5885114164
 20
4.0293090938
 30
0.0
 10
4.5838896177
 20
4.0375866283
 30
0.0
 10
4.5812019213
 20
4.0446128573
 30
0.0
 10
4.5792194605
 20
4.051821582
 30
0.0
 10
4.578517886
 20
4.0574151635
 30
0.0
 10
4.5784227742
 20
4.0611320986
 30
0.0
  0
SPLINE
  5
31C
100
AcDbEntity
  8
ALL_ASSEMBLY_MEMBERS
100
AcDbSpline
 62
7
  6
CONTINUOUS
 70
0
 71
3
 72
17
 73
13
 74
0
 42
0.0000001
 43
0.0000001
 44
0.0000000001
 40
0.0
 40
0.0
 40
0.0
 40
0.0
 40
0.1250896557
 40
0.1879993119
 40
0.2509401017
 40
0.3766694757
 40
0.5023083878
 40
0.6276005744
 40
0.7523367873
 40
0.8145816641
 40
0.8766931249
 40
1.0
 40
1.0
 40
1.0
 40
1.0
 10
4.6363703871
 20
4.0023126076
 30
0.0
 10
4.6325974113
 20
4.0024054389
 30
0.0
 10
4.6269225635
 20
4.0030940694
 30
0.0
 10
4.6195992467
 20
4.0050461862
 30
0.0
 10
4.6124729193
 20
4.0076893147
 30
0.0
 10
4.6040790519
 20
4.0122307409
 30
0.0
 10
4.5952221776
 20
4.0194558715
 30
0.0
 10
4.5878828897
 20
4.0281799258
 30
0.0
 10
4.5832618468
 20
4.0364618759
 30
0.0
 10
4.5805749106
 20
4.0434920054
 30
0.0
 10
4.5785932575
 20
4.0507051636
 30
0.0
 10
4.5778925332
 20
4.0563020323
 30
0.0
 10
4.5777980242
 20
4.0600211605
 30
0.0
  0
SPLINE
  5
31D
100
AcDbEntity
  8
ALL_ASSEMBLY_MEMBERS
100
AcDbSpline
 62
7
  6
CONTINUOUS
 70
0
 71
3
 72
11
 73
7
 74
0
 42
0.0000001
 43
0.0000001
 44
0.0000000001
 40
0.0
 40
0.0
 40
0.0
 40
0.0
 40
0.2508733958
 40
0.5023487069
 40
0.7524612152
 40
1.0
 40
1.0
 40
1.0
 40
1.0
 10
5.3467003306
 20
4.0015653157
 30
0.0
 10
5.3415924326
 20
4.0014423456
 30
0.0
 10
5.3313125215
 20
3.9992098086
 30
0.0
 10
5.3182906149
 20
3.9904834424
 30
0.0
 10
5.3093941399
 20
3.9776515297
 30
0.0
 10
5.3071061187
 20
3.9674675704
 30
0.0
 10
5.306981125
 20
3.9624276561
 30
0.0
  0
SPLINE
  5
31E
100
AcDbEntity
  8
ALL_ASSEMBLY_MEMBERS
100
AcDbSpline
 62
7
  6
CONTINUOUS
 70
0
 71
3
 72
11
 73
7
 74
0
 42
0.0000001
 43
0.0000001
 44
0.0000000001
 40
0.0
 40
0.0
 40
0.0
 40
0.0
 40
0.2509000905
 40
0.5023921986
 40
0.7524963262
 40
1.0
 40
1.0
 40
1.0
 40
1.0
 10
5.3462739592
 20
4.0023122441
 30
0.0
 10
5.3411662445
 20
4.0021886163
 30
0.0
 10
5.3308872265
 20
3.9999556043
 30
0.0
 10
5.317866003
 20
3.9912312195
 30
0.0
 10
5.3089690621
 20
3.9784030371
 30
0.0
 10
5.3066800628
 20
3.9682216314
 30
0.0
 10
5.3065546347
 20
3.9631831448
 30
0.0
  0
SPLINE
  5
31F
100
AcDbEntity
  8
ALL_ASSEMBLY_MEMBERS
100
AcDbSpline
 62
7
  6
CONTINUOUS
 70
0
 71
3
 72
17
 73
13
 74
0
 42
0.0000001
 43
0.0000001
 44
0.0000000001
 40
0.0
 40
0.0
 40
0.0
 40
0.0
 40
0.1243043467
 40
0.1867115067
 40
0.2491164022
 40
0.3738107022
 40
0.4987182547
 40
0.6238204552
 40
0.7490705983
 40
0.8118632878
 40
0.8747135041
 40
1.0
 40
1.0
 40
1.0
 40
1.0
 10
5.3484436682
 20
4.6309745327
 30
0.0
 10
5.3522606114
 20
4.6309666605
 30
0.0
 10
5.3580125848
 20
4.6303784281
 30
0.0
 10
5.365436135
 20
4.6284969643
 30
0.0
 10
5.3726505508
 20
4.6258847047
 30
0.0
 10
5.3811400759
 20
4.6213011487
 30
0.0
 10
5.3900538837
 20
4.6139119771
 30
0.0
 10
5.3973833867
 20
4.6049274183
 30
0.0
 10
5.4019266373
 20
4.5963778127
 30
0.0
 10
5.4045182655
 20
4.5891110234
 30
0.0
 10
5.4063870739
 20
4.5816270446
 30
0.0
 10
5.4069718232
 20
4.5758318753
 30
0.0
 10
5.4069808876
 20
4.5719847763
 30
0.0
  0
SPLINE
  5
320
100
AcDbEntity
  8
ALL_ASSEMBLY_MEMBERS
100
AcDbSpline
 62
7
  6
CONTINUOUS
 70
0
 71
3
 72
17
 73
13
 74
0
 42
0.0000001
 43
0.0000001
 44
0.0000000001
 40
0.0
 40
0.0
 40
0.0
 40
0.0
 40
0.1243174706
 40
0.1867293004
 40
0.2491337747
 40
0.3738117578
 40
0.4986999516
 40
0.6237893539
 40
0.7490352138
 40
0.8118308061
 40
0.8746880716
 40
1.0
 40
1.0
 40
1.0
 40
1.0
 10
5.3473939627
 20
4.6308706089
 30
0.0
 10
5.3512193808
 20
4.6308772369
 30
0.0
 10
5.3569863485
 20
4.6303078441
 30
0.0
 10
5.3644320474
 20
4.6284457078
 30
0.0
 10
5.3716689798
 20
4.625848965
 30
0.0
 10
5.3801868009
 20
4.6212764045
 30
0.0
 10
5.3891321044
 20
4.6138886223
 30
0.0
 10
5.3964879914
 20
4.6048948642
 30
0.0
 10
5.4010467277
 20
4.596330401
 30
0.0
 10
5.403646231
 20
4.5890488633
 30
0.0
 10
5.405519765
 20
4.5815480844
 30
0.0
 10
5.4061042133
 20
4.5757392784
 30
0.0
 10
5.4061114087
 20
4.5718832604
 30
0.0
  0
SPLINE
  5
321
100
AcDbEntity
  8
ALL_ASSEMBLY_MEMBERS
100
AcDbSpline
 62
7
  6
CONTINUOUS
 70
0
 71
3
 72
18
 73
14
 74
0
 42
0.0000001
 43
0.0000001
 44
0.0000000001
 40
0.0
 40
0.0
 40
0.0
 40
0.0
 40
0.1864210075
 40
0.3561128087
 40
0.5085784749
 40
0.6433798338
 40
0.7601734768
 40
0.8117253984
 40
0.8586696767
 40
0.9009790086
 40
0.9386352088
 40
0.971634981
 40
1.0
 40
1.0
 40
1.0
 40
1.0
 10
5.2435721589
 20
4.8841005112
 30
0.0
 10
5.2423871521
 20
4.8926744307
 30
0.0
 10
5.2400552125
 20
4.9090435928
 30
0.0
 10
5.236462418
 20
4.9323822801
 30
0.0
 10
5.2329256279
 20
4.9533028464
 30
0.0
 10
5.2294384638
 20
4.9717375255
 30
0.0
 10
5.2264737478
 20
4.9854992389
 30
0.0
 10
5.2241005694
 20
4.9952098478
 30
0.0
 10
5.2224123816
 20
5.001526269
 30
0.0
 10
5.2207442906
 20
5.0071783724
 30
0.0
 10
5.2190993328
 20
5.0121599277
 30
0.0
 10
5.2174809107
 20
5.016464563
 30
0.0
 10
5.2163362139
 20
5.019076251
 30
0.0
 10
5.2157594349
 20
5.0202602024
 30
0.0
  0
SPLINE
  5
322
100
AcDbEntity
  8
ALL_ASSEMBLY_MEMBERS
100
AcDbSpline
 62
7
  6
CONTINUOUS
 70
0
 71
3
 72
19
 73
15
 74
0
 42
0.0000001
 43
0.0000001
 44
0.0000000001
 40
0.0
 40
0.0
 40
0.0
 40
0.0
 40
0.1799144732
 40
0.3537061557
 40
0.5151258061
 40
0.6589392963
 40
0.7227926046
 40
0.7806620566
 40
0.8322160982
 40
0.8772653771
 40
0.9158815309
 40
0.9484384137
 40
0.97588233
 40
1.0
 40
1.0
 40
1.0
 40
1.0
 10
5.3078728026
 20
4.1754880881
 30
0.0
 10
5.3052925818
 20
4.1754880881
 30
0.0
 10
5.3002190415
 20
4.1756139798
 30
0.0
 10
5.2928491171
 20
4.1761733874
 30
0.0
 10
5.2860358008
 20
4.1770824187
 30
0.0
 10
5.2808417972
 20
4.1781346583
 30
0.0
 10
5.2771702364
 20
4.17915108
 30
0.0
 10
5.2748137399
 20
4.1799446239
 30
0.0
 10
5.2727644088
 20
4.1807915821
 30
0.0
 10
5.2710402033
 20
4.1816858654
 30
0.0
 10
5.2696535725
 20
4.1826194404
 30
0.0
 10
5.2686147343
 20
4.1835915399
 30
0.0
 10
5.2679340166
 20
4.1846042082
 30
0.0
 10
5.2677324537
 20
4.1853349697
 30
0.0
 10
5.2677083956
 20
4.1856800125
 30
0.0
  0
SPLINE
  5
323
100
AcDbEntity
  8
ALL_ASSEMBLY_MEMBERS
100
AcDbSpline
 62
7
  6
CONTINUOUS
 70
0
 71
3
 72
11
 73
7
 74
0
 42
0.0000001
 43
0.0000001
 44
0.0000000001
 40
0.0
 40
0.0
 40
0.0
 40
0.0
 40
0.2060873164
 40
0.4333357768
 40
0.6950627138
 40
1.0
 40
1.0
 40
1.0
 40
1.0
 10
5.2083371479
 20
5.0278380948
 30
0.0
 10
5.208683214
 20
5.0278365552
 30
0.0
 10
5.2094136314
 20
5.0277137252
 30
0.0
 10
5.2104761055
 20
5.027204564
 30
0.0
 10
5.2115364267
 20
5.0263847084
 30
0.0
 10
5.2121921329
 20
5.025690749
 30
0.0
 10
5.212523666
 20
5.0253005013
 30
0.0
  0
SPLINE
  5
324
100
AcDbEntity
  8
ALL_ASSEMBLY_MEMBERS
100
AcDbSpline
 62
7
  6
CONTINUOUS
 70
0
 71
3
 72
9
 73
5
 74
0
 42
0.0000001
 43
0.0000001
 44
0.0000000001
 40
0.0
 40
0.0
 40
0.0
 40
0.0
 40
0.4517918794
 40
1.0
 40
1.0
 40
1.0
 40
1.0
 10
5.212523666
 20
5.0253005013
 30
0.0
 10
5.2131063911
 20
5.0246145753
 30
0.0
 10
5.2142568027
 20
5.0229785954
 30
0.0
 10
5.2152183709
 20
5.0212312428
 30
0.0
 10
5.2157107007
 20
5.0202564014
 30
0.0
  0
SPLINE
  5
325
100
AcDbEntity
  8
ALL_ASSEMBLY_MEMBERS
100
AcDbSpline
 62
7
  6
CONTINUOUS
 70
0
 71
3
 72
17
 73
13
 74
0
 42
0.0000001
 43
0.0000001
 44
0.0000000001
 40
0.0
 40
0.0
 40
0.0
 40
0.0
 40
0.1252865314
 40
0.1881367836
 40
0.2509295142
 40
0.3761797356
 40
0.5012819925
 40
0.6261895579
 40
0.7508838175
 40
0.8132886755
 40
0.8756957881
 40
1.0
 40
1.0
 40
1.0
 40
1.0
 10
4.57842259
 20
4.5719847763
 30
0.0
 10
4.5784316425
 20
4.5758319043
 30
0.0
 10
4.5790163806
 20
4.5816271196
 30
0.0
 10
4.5808851867
 20
4.58911116
 30
0.0
 10
4.5834768218
 20
4.5963780113
 30
0.0
 10
4.588020098
 20
4.6049276895
 30
0.0
 10
4.5953496586
 20
4.6139123169
 30
0.0
 10
4.6042635465
 20
4.6213015269
 30
0.0
 10
4.6127531526
 20
4.6258850795
 30
0.0
 10
4.6199676343
 20
4.6284973099
 30
0.0
 10
4.627391247
 20
4.6303787255
 30
0.0
 10
4.6331432643
 20
4.6309669014
 30
0.0
 10
4.636960231
 20
4.6309747266
 30
0.0
  0
SPLINE
  5
326
100
AcDbEntity
  8
ALL_ASSEMBLY_MEMBERS
100
AcDbSpline
 62
7
  6
CONTINUOUS
 70
0
 71
3
 72
17
 73
13
 74
0
 42
0.0000001
 43
0.0000001
 44
0.0000000001
 40
0.0
 40
0.0
 40
0.0
 40
0.0
 40
0.1253119274
 40
0.1881691923
 40
0.2509647831
 40
0.3762106391
 40
0.5013000385
 40
0.6261882245
 40
0.7508662014
 40
0.813270681
 40
0.8756825202
 40
1.0
 40
1.0
 40
1.0
 40
1.0
 10
4.5792924905
 20
4.5718832604
 30
0.0
 10
4.5792996859
 20
4.5757392925
 30
0.0
 10
4.5798841384
 20
4.5815481197
 30
0.0
 10
4.5817576859
 20
4.5890489242
 30
0.0
 10
4.5843572077
 20
4.5963304852
 30
0.0
 10
4.5889159759
 20
4.6048949718
 30
0.0
 10
4.5962719125
 20
4.6138887443
 30
0.0
 10
4.6052172723
 20
4.6212765246
 30
0.0
 10
4.6137351426
 20
4.6258490686
 30
0.0
 10
4.6209721136
 20
4.6284457878
 30
0.0
 10
4.6284178496
 20
4.6303078945
 30
0.0
 10
4.6341848423
 20
4.6308772586
 30
0.0
 10
4.6380102746
 20
4.6308706082
 30
0.0
  0
SPLINE
  5
327
100
AcDbEntity
  8
ALL_ASSEMBLY_MEMBERS
100
AcDbSpline
 62
7
  6
CONTINUOUS
 70
0
 71
3
 72
14
 73
10
 74
0
 42
0.0000001
 43
0.0000001
 44
0.0000000001
 40
0.0
 40
0.0
 40
0.0
 40
0.0
 40
0.0734182578
 40
0.1616611801
 40
0.2647291079
 40
0.3825800349
 40
0.5151625303
 40
0.6623802759
 40
1.0
 40
1.0
 40
1.0
 40
1.0
 10
4.7696402096
 20
5.0202488498
 30
0.0
 10
4.768895683
 20
5.018720084
 30
0.0
 10
4.7674218502
 20
5.0152733683
 30
0.0
 10
4.7653597675
 20
5.009496854
 30
0.0
 10
4.7632680739
 20
5.0026464686
 30
0.0
 10
4.7611579783
 20
4.9947344316
 30
0.0
 10
4.7590225891
 20
4.9857746099
 30
0.0
 10
4.7559964159
 20
4.9717978191
 30
0.0
 10
4.7539014191
 20
4.9607637085
 30
0.0
 10
4.7525200806
 20
4.9530671441
 30
0.0
  0
SPLINE
  5
328
100
AcDbEntity
  8
ALL_ASSEMBLY_MEMBERS
100
AcDbSpline
 62
7
  6
CONTINUOUS
 70
0
 71
3
 72
9
 73
5
 74
0
 42
0.0000001
 43
0.0000001
 44
0.0000000001
 40
0.0
 40
0.0
 40
0.0
 40
0.0
 40
0.4760316764
 40
1.0
 40
1.0
 40
1.0
 40
1.0
 10
4.747123317
 20
4.9204242899
 30
0.0
 10
4.7456999104
 20
4.9113380932
 30
0.0
 10
4.7428774237
 20
4.8922243305
 30
0.0
 10
4.7403096937
 20
4.8730750712
 30
0.0
 10
4.7390169748
 20
4.8630347924
 30
0.0
  0
SPLINE
  5
329
100
AcDbEntity
  8
ALL_ASSEMBLY_MEMBERS
100
AcDbSpline
 62
7
  6
CONTINUOUS
 70
0
 71
3
 72
17
 73
13
 74
0
 42
0.0000001
 43
0.0000001
 44
0.0000000001
 40
0.0
 40
0.0
 40
0.0
 40
0.0
 40
0.1232828327
 40
0.1853819858
 40
0.247615135
 40
0.3723318798
 40
0.4976135931
 40
0.6232538065
 40
0.7489973972
 40
0.8119500189
 40
0.8748743441
 40
1.0
 40
1.0
 40
1.0
 40
1.0
 10
5.306981125
 20
3.9611467754
 30
0.0
 10
5.306887749
 20
3.957427935
 30
0.0
 10
5.306188363
 20
3.9518313174
 30
0.0
 10
5.3042077203
 20
3.9446185211
 30
0.0
 10
5.3015212556
 20
3.9375887146
 30
0.0
 10
5.2968997357
 20
3.9293071852
 30
0.0
 10
5.289558528
 20
3.9205841494
 30
0.0
 10
5.2806985622
 20
3.9133605016
 30
0.0
 10
5.2723015772
 20
3.908820854
 30
0.0
 10
5.2651724632
 20
3.9061793044
 30
0.0
 10
5.257845895
 20
3.9042288183
 30
0.0
 10
5.2521687035
 20
3.9035416375
 30
0.0
 10
5.2483942016
 20
3.9034498006
 30
0.0
  0
SPLINE
  5
32A
100
AcDbEntity
  8
ALL_ASSEMBLY_MEMBERS
100
AcDbSpline
 62
7
  6
CONTINUOUS
 70
0
 71
3
 72
17
 73
13
 74
0
 42
0.0000001
 43
0.0000001
 44
0.0000000001
 40
0.0
 40
0.0
 40
0.0
 40
0.0
 40
0.1233067031
 40
0.1854181154
 40
0.247662967
 40
0.3723991903
 40
0.4976914513
 40
0.6233304661
 40
0.7490599286
 40
0.8120007449
 40
0.8749104088
 40
1.0
 40
1.0
 40
1.0
 40
1.0
 10
5.4076063428
 20
4.0600211605
 30
0.0
 10
5.4075118377
 20
4.0563020144
 30
0.0
 10
5.4068111117
 20
4.0507051171
 30
0.0
 10
5.404829445
 20
4.0434919223
 30
0.0
 10
5.402142486
 20
4.0364617539
 30
0.0
 10
5.3975214
 20
4.0281797583
 30
0.0
 10
5.3901820432
 20
4.0194556622
 30
0.0
 10
5.381325088
 20
4.0122305059
 30
0.0
 10
5.3729311481
 20
4.0076890755
 30
0.0
 10
5.3658047635
 20
4.0050459557
 30
0.0
 10
5.3584813945
 20
4.0030938569
 30
0.0
 10
5.3528065097
 20
4.0024052486
 30
0.0
 10
5.3490335121
 20
4.0023124367
 30
0.0
  0
SPLINE
  5
32B
100
AcDbEntity
  8
ALL_ASSEMBLY_MEMBERS
100
AcDbSpline
 62
7
  6
CONTINUOUS
 70
0
 71
3
 72
17
 73
13
 74
0
 42
0.0000001
 43
0.0000001
 44
0.0000000001
 40
0.0
 40
0.0
 40
0.0
 40
0.0
 40
0.1232681112
 40
0.185363733
 40
0.2475957744
 40
0.3723163545
 40
0.4976067751
 40
0.6232566377
 40
0.7490068267
 40
0.8119603415
 40
0.8748834978
 40
1.0
 40
1.0
 40
1.0
 40
1.0
 10
5.406981125
 20
4.0611320986
 30
0.0
 10
5.4068860131
 20
4.0574151635
 30
0.0
 10
5.4061844387
 20
4.051821582
 30
0.0
 10
5.4042019779
 20
4.0446128573
 30
0.0
 10
5.4015142815
 20
4.0375866283
 30
0.0
 10
5.3968924827
 20
4.0293090938
 30
0.0
 10
5.3895529673
 20
4.0205895676
 30
0.0
 10
5.3806963522
 20
4.0133676708
 30
0.0
 10
5.3723031706
 20
4.0088277294
 30
0.0
 10
5.3651774359
 20
4.0061848803
 30
0.0
 10
5.3578546782
 20
4.0042324591
 30
0.0
 10
5.3521803197
 20
4.0035429805
 30
0.0
 10
5.3484075771
 20
4.0034493159
 30
0.0
  0
SPLINE
  5
32C
100
AcDbEntity
  8
ALL_ASSEMBLY_MEMBERS
100
AcDbSpline
 62
7
  6
CONTINUOUS
 70
0
 71
3
 72
17
 73
13
 74
0
 42
0.0000001
 43
0.0000001
 44
0.0000000001
 40
0.0
 40
0.0
 40
0.0
 40
0.0
 40
0.1233181162
 40
0.1854319167
 40
0.2476771071
 40
0.3724090278
 40
0.4976932612
 40
0.6233240482
 40
0.749048579
 40
0.8119892366
 40
0.8749006603
 40
1.0
 40
1.0
 40
1.0
 40
1.0
 10
5.3076017674
 20
3.9600321005
 30
0.0
 10
5.3075087734
 20
3.9563114552
 30
0.0
 10
5.3068099792
 20
3.9507121548
 30
0.0
 10
5.3048299781
 20
3.9434957222
 30
0.0
 10
5.3021442032
 20
3.9364627244
 30
0.0
 10
5.2975235464
 20
3.9281775619
 30
0.0
 10
5.2901830052
 20
3.9194506896
 30
0.0
 10
5.2813234563
 20
3.9122241625
 30
0.0
 10
5.2729264909
 20
3.9076829994
 30
0.0
 10
5.2657973784
 20
3.9050409379
 30
0.0
 10
5.2584708771
 20
3.9030903938
 30
0.0
 10
5.2527936537
 20
3.9024036333
 30
0.0
 10
5.2490191934
 20
3.902312285
 30
0.0
  0
ENDSEC
  0
SECTION
  2
OBJECTS
  0
DICTIONARY
  5
C
100
AcDbDictionary
280
0
281
1
  3
ACAD_GROUP
350
D
  3
ACAD_MLINESTYLE
350
17
  3
ACAD_LAYOUT
350
1A
  3
ACAD_PLOTSETTINGS
350
19
  3
ACAD_PLOTSTYLENAME
350
E
  0
DICTIONARY
  5
D
102
{ACAD_REACTORS
330
C
102
}
100
AcDbDictionary
280
0
281
1
  0
ACDBDICTIONARYWDFLT
  5
E
102
{ACAD_REACTORS
330
C
102
}
100
AcDbDictionary
281
1
  3
Normal
350
F
100
AcDbDictionaryWithDefault
340
F
  0
DICTIONARY
  5
17
102
{ACAD_REACTORS
330
C
102
}
100
AcDbDictionary
280
0
281
1
  3
Standard
350
18
  0
DICTIONARY
  5
19
102
{ACAD_REACTORS
330
C
102
}
100
AcDbDictionary
281
1
  0
DICTIONARY
  5
1A
102
{ACAD_REACTORS
330
C
102
}
100
AcDbDictionary
281
1
  3
Model
350
32D
  3
Layout1
350
32E
  0
ACDBPLACEHOLDER
  5
F
102
{ACAD_REACTORS
330
E
102
}
  0
MLINESTYLE
  5
18
102
{ACAD_REACTORS
330
17
102
}
100
AcDbMlineStyle
  2
STANDARD
 70
0
  3

 62
256
 51
90.0
 52
90.0
 71
2
 49
0.5
 62
256
  6
BYLAYER
 49
-0.5
 62
256
  6
BYLAYER
  0
LAYOUT
  5
32D
102
{ACAD_REACTORS
330
1A
102
}
100
AcDbPlotSettings
  1

  2
none_device
  4
ANSI_A_(11.00_x_8.50_Inches)
  6

 40
0.0
 41
0.0
 42
0.0
 43
0.0
 44
279.4
 45
215.9
 46
0.0
 47
0.0
 48
0.0
 49
0.0
140
0.0
141
0.0
142
1.0
143
1.0
 70
1024
 72
0
 73
0
 74
0
  7

 75
0
147
1.0
148
0.0
149
0.0
100
AcDbLayout
  1
Model
 70
0
 71
0
 10
0.0
 20
0.0
 11
11.0
 21
8.5
 12
0.0
 22
0.0
 32
0.0
 14
0.0
 24
0.0
 34
0.0
 15
0.0
 25
0.0
 35
0.0
146
0.0
 13
0.0
 23
0.0
 33
0.0
 16
1.0
 26
0.0
 36
0.0
 17
0.0
 27
1.0
 37
0.0
 76
0
330
213
345
0
346
0
  0
LAYOUT
  5
32E
102
{ACAD_REACTORS
330
1A
102
}
100
AcDbPlotSettings
  1

  2
none_device
  4
ANSI_A_(11.00_x_8.50_Inches)
  6

 40
0.0
 41
0.0
 42
0.0
 43
0.0
 44
279.4
 45
215.9
 46
0.0
 47
0.0
 48
0.0
 49
0.0
140
0.0
141
0.0
142
1.0
143
1.0
 70
0
 72
0
 73
0
 74
0
  7

 75
0
147
1.0
148
0.0
149
0.0
100
AcDbLayout
  1
Layout1
 70
0
 71
1
 10
0.0
 20
0.0
 11
11.0
 21
8.5
 12
0.0
 22
0.0
 32
0.0
 14
0.0
 24
0.0
 34
0.0
 15
0.0
 25
0.0
 35
0.0
146
0.0
 13
0.0
 23
0.0
 33
0.0
 16
1.0
 26
0.0
 36
0.0
 17
0.0
 27
1.0
 37
0.0
 76
0
330
214
345
0
346
0
  0
ENDSEC
  0
EOF
