999
DXF file: 8-009_right.dxf
999
Pro/ENGINEER 2018400 by Parametric Technology Corporation
  0
SECTION
  2
HEADER
  9
$ACADVER
  1
AC1027
  9
$DWGCODEPAGE
  3
ANSI_1252
  9
$EXTMAX
 10
11.0
 20
8.5
 30
0.0
  9
$EXTMIN
 10
0.0
 20
0.0
 30
0.0
  9
$LIMMIN
 10
0.0
 20
0.0
  9
$LIMMAX
 10
11.0
 20
8.5
  9
$VIEWCTR
 10
5.5
 20
4.25
  9
$VIEWSIZE
 40
8.5
  9
$CLAYER
  8
0
  9
$LTSCALE
 40
0.605
  9
$CELTYPE
  6
BYLAYER
  9
$DIMSCALE
 40
1.0
  9
$DIMASZ
 40
0.1
  9
$DIMEXO
 40
0.0625
  9
$DIMDLI
 40
0.418
  9
$DIMEXE
 40
0.125
  9
$DIMCEN
 40
0.099
  9
$DIMLFAC
 40
1.0
  9
$DIMBLK
  1
_FILLED
  9
$DIMALT
 70
1
  9
$DIMALTD
 70
2
  9
$DIMALTTD
 70
2
  9
$DIMALTF
 40
25.4
  9
$DIMTXT
 40
0.08
  9
$DIMTOL
 70
1
  9
$DIMLIM
 70
0
  9
$DIMTFAC
 40
1.0
  9
$DIMTP
 40
0.001
  9
$DIMTM
 40
0.001
  9
$DIMGAP
 40
0.09
  9
$DIMDSEP
 70
46
  9
$AUNITS
 70
0
  9
$PDMODE
 70
3
  9
$PDSIZE
 40
0.3125
  9
$HANDSEED
  5
3BF
  9
$TILEMODE
 70
1
  9
$MEASUREMENT
 70
0
  9
$INSUNITS
 70
1
  0
ENDSEC
  0
SECTION
  2
CLASSES
  0
CLASS
  1
ACDBDICTIONARYWDFLT
  2
AcDbDictionaryWithDefault
  3
AutoCAD 2000
 90
0
 91
1
280
0
281
0
  0
CLASS
  1
ACDBPLACEHOLDER
  2
AcDbPlaceHolder
  3
AutoCAD 2000
 90
0
 91
1
280
0
281
0
  0
CLASS
  1
LAYOUT
  2
AcDbLayout
  3
AutoCAD 2000
 90
0
 91
0
280
0
281
0
  0
ENDSEC
  0
SECTION
  2
TABLES
  0
TABLE
  2
VPORT
  5
8
100
AcDbSymbolTable
 70
2
  0
VPORT
  5
1F4
100
AcDbSymbolTableRecord
100
AcDbViewportTableRecord
  2
*ACTIVE
 70
0
 10
0.0
 20
0.0
 11
1.0
 21
1.0
 12
5.5
 22
4.25
 13
0.0
 23
0.0
 14
1.0
 24
1.0
 15
0.0
 25
0.0
 16
0.0
 26
0.0
 36
1.0
 17
0.0
 27
0.0
 37
0.0
 40
8.5
 41
1.2941176471
 42
50.0
 43
0.0
 44
0.0
 50
0.0
 51
0.0
 71
0
 72
100
 73
1
 74
1
 75
0
 76
0
 77
0
 78
0
  0
ENDTAB
  0
TABLE
  2
LTYPE
  5
5
100
AcDbSymbolTable
 70
6
  0
LTYPE
  5
14
100
AcDbSymbolTableRecord
100
AcDbLinetypeTableRecord
  2
BYBLOCK
 70
0
  3

 72
65
 73
0
 40
0.0
  0
LTYPE
  5
15
100
AcDbSymbolTableRecord
100
AcDbLinetypeTableRecord
  2
BYLAYER
 70
0
  3

 72
65
 73
0
 40
0.0
  0
LTYPE
  5
16
100
AcDbSymbolTableRecord
100
AcDbLinetypeTableRecord
  2
CONTINUOUS
 70
64
  3
Solid line
 72
65
 73
0
 40
0.0
  0
LTYPE
  5
1F5
100
AcDbSymbolTableRecord
100
AcDbLinetypeTableRecord
  2
CENTER
 70
64
  3
____ _ ____ _ ____ _ ____ _ ____ _ ____ _ ____
 72
65
 73
4
 40
0.6
 49
0.375
 74
0
 49
-0.075
 74
0
 49
0.075
 74
0
 49
-0.075
 74
0
  0
LTYPE
  5
1F6
100
AcDbSymbolTableRecord
100
AcDbLinetypeTableRecord
  2
HIDDEN
 70
64
  3
- - - - - - - - - - - - - - - - - - - -
 72
65
 73
2
 40
0.2
 49
0.1
 74
0
 49
-0.1
 74
0
  0
LTYPE
  5
1F7
100
AcDbSymbolTableRecord
100
AcDbLinetypeTableRecord
  2
PHANTOM
 70
64
  3
_____ _ _ _____ _ _ _____ _ _ _____
 72
65
 73
6
 40
0.8
 49
0.45
 74
0
 49
-0.05
 74
0
 49
0.1
 74
0
 49
-0.05
 74
0
 49
0.1
 74
0
 49
-0.05
 74
0
  0
LTYPE
  5
1F8
100
AcDbSymbolTableRecord
100
AcDbLinetypeTableRecord
  2
DOT
 70
64
  3
. . . . . . . . . . . . . . . . . . . .
 72
65
 73
2
 40
0.2
 49
0.1
 74
0
 49
-0.1
 74
0
  0
LTYPE
  5
1F9
100
AcDbSymbolTableRecord
100
AcDbLinetypeTableRecord
  2
DASHED
 70
64
  3
- - - - - - - - - - - - - - - - - - - -
 72
65
 73
2
 40
0.2
 49
0.1
 74
0
 49
-0.1
 74
0
  0
ENDTAB
  0
TABLE
  2
LAYER
  5
2
100
AcDbSymbolTable
 70
36
  0
LAYER
  5
10
100
AcDbSymbolTableRecord
100
AcDbLayerTableRecord
  2
0
 70
0
 62
7
  6
CONTINUOUS
370
-3
390
F
  0
LAYER
  5
1FA
100
AcDbSymbolTableRecord
100
AcDbLayerTableRecord
  2
DEFAULT_1
 70
0
 62
7
  6
CENTER
370
-3
390
F
  0
LAYER
  5
1FB
100
AcDbSymbolTableRecord
100
AcDbLayerTableRecord
  2
DEFAULT_2
 70
0
 62
8
  6
HIDDEN
370
-3
390
F
  0
LAYER
  5
1FC
100
AcDbSymbolTableRecord
100
AcDbLayerTableRecord
  2
DEFAULT_3
 70
0
 62
7
  6
PHANTOM
370
-3
390
F
  0
LAYER
  5
1FD
100
AcDbSymbolTableRecord
100
AcDbLayerTableRecord
  2
ALL_ASSEMBLY_MEMBERS
 70
0
 62
7
  6
CONTINUOUS
370
-3
390
F
  0
LAYER
  5
1FE
100
AcDbSymbolTableRecord
100
AcDbLayerTableRecord
  2
ALL_FEATURES
 70
0
 62
7
  6
CONTINUOUS
370
-3
390
F
  0
LAYER
  5
1FF
100
AcDbSymbolTableRecord
100
AcDbLayerTableRecord
  2
AXES_FEATURES
 70
0
 62
7
  6
CONTINUOUS
370
-3
390
F
  0
LAYER
  5
200
100
AcDbSymbolTableRecord
100
AcDbLayerTableRecord
  2
CHAMFER_FEATURES
 70
0
 62
7
  6
CONTINUOUS
370
-3
390
F
  0
LAYER
  5
201
100
AcDbSymbolTableRecord
100
AcDbLayerTableRecord
  2
COORDINATE_SYSTEMS
 70
0
 62
7
  6
CONTINUOUS
370
-3
390
F
  0
LAYER
  5
202
100
AcDbSymbolTableRecord
100
AcDbLayerTableRecord
  2
CUT_FEATURES
 70
0
 62
7
  6
CONTINUOUS
370
-3
390
F
  0
LAYER
  5
203
100
AcDbSymbolTableRecord
100
AcDbLayerTableRecord
  2
DATUM_CURVES
 70
0
 62
7
  6
CONTINUOUS
370
-3
390
F
  0
LAYER
  5
204
100
AcDbSymbolTableRecord
100
AcDbLayerTableRecord
  2
DATUM_PLANES
 70
0
 62
7
  6
CONTINUOUS
370
-3
390
F
  0
LAYER
  5
205
100
AcDbSymbolTableRecord
100
AcDbLayerTableRecord
  2
DATUM_POINTS
 70
0
 62
7
  6
CONTINUOUS
370
-3
390
F
  0
LAYER
  5
206
100
AcDbSymbolTableRecord
100
AcDbLayerTableRecord
  2
DEFAULT_COORDINATE_SYSTEM
 70
0
 62
7
  6
CONTINUOUS
370
-3
390
F
  0
LAYER
  5
207
100
AcDbSymbolTableRecord
100
AcDbLayerTableRecord
  2
DEFAULT_DATUM_AXES
 70
0
 62
7
  6
CONTINUOUS
370
-3
390
F
  0
LAYER
  5
208
100
AcDbSymbolTableRecord
100
AcDbLayerTableRecord
  2
DEFAULT_DATUM_PLANES
 70
0
 62
7
  6
CONTINUOUS
370
-3
390
F
  0
LAYER
  5
209
100
AcDbSymbolTableRecord
100
AcDbLayerTableRecord
  2
DIMENSIONS
 70
0
 62
7
  6
CONTINUOUS
370
-3
390
F
  0
LAYER
  5
20A
100
AcDbSymbolTableRecord
100
AcDbLayerTableRecord
  2
HOLE_FEATURES
 70
0
 62
7
  6
CONTINUOUS
370
-3
390
F
  0
LAYER
  5
20B
100
AcDbSymbolTableRecord
100
AcDbLayerTableRecord
  2
POINTS
 70
0
 62
7
  6
CONTINUOUS
370
-3
390
F
  0
LAYER
  5
20C
100
AcDbSymbolTableRecord
100
AcDbLayerTableRecord
  2
PROTRUSION_FEATURES
 70
0
 62
7
  6
CONTINUOUS
370
-3
390
F
  0
LAYER
  5
20D
100
AcDbSymbolTableRecord
100
AcDbLayerTableRecord
  2
QUILTS
 70
0
 62
7
  6
CONTINUOUS
370
-3
390
F
  0
LAYER
  5
20E
100
AcDbSymbolTableRecord
100
AcDbLayerTableRecord
  2
ROUND_FEATURES
 70
0
 62
7
  6
CONTINUOUS
370
-3
390
F
  0
LAYER
  5
20F
100
AcDbSymbolTableRecord
100
AcDbLayerTableRecord
  2
SHELL_FEATURES
 70
0
 62
7
  6
CONTINUOUS
370
-3
390
F
  0
LAYER
  5
210
100
AcDbSymbolTableRecord
100
AcDbLayerTableRecord
  2
SURFACE_FEATURES
 70
0
 62
7
  6
CONTINUOUS
370
-3
390
F
  0
ENDTAB
  0
TABLE
  2
STYLE
  5
3
100
AcDbSymbolTable
 70
1
  0
STYLE
  5
11
100
AcDbSymbolTableRecord
100
AcDbTextStyleTableRecord
  2
STANDARD
 70
0
 40
0.0
 41
0.8
 50
0.0
 71
0
 42
0.2
  3
txt
  4

  0
STYLE
  5
211
100
AcDbSymbolTableRecord
100
AcDbTextStyleTableRecord
  2
TEXTSTYLE_1
 70
0
 40
0.0
 41
0.8
 50
0.0
 71
0
 42
0.2
  3
gdt
  4

  0
ENDTAB
  0
TABLE
  2
VIEW
  5
6
100
AcDbSymbolTable
 70
0
  0
ENDTAB
  0
TABLE
  2
UCS
  5
7
100
AcDbSymbolTable
 70
0
  0
ENDTAB
  0
TABLE
  2
APPID
  5
9
100
AcDbSymbolTable
 70
1
  0
APPID
  5
212
100
AcDbSymbolTableRecord
100
AcDbRegAppTableRecord
  2
ACAD
 70
0
  0
ENDTAB
  0
TABLE
  2
BLOCK_RECORD
  5
1
100
AcDbSymbolTable
 70
0
  0
BLOCK_RECORD
  5
213
100
AcDbSymbolTableRecord
100
AcDbBlockTableRecord
  2
*Model_Space
  0
BLOCK_RECORD
  5
214
100
AcDbSymbolTableRecord
100
AcDbBlockTableRecord
  2
*Paper_Space
  0
BLOCK_RECORD
  5
215
100
AcDbSymbolTableRecord
100
AcDbBlockTableRecord
  2
_FILLED
  0
ENDTAB
  0
TABLE
  2
DIMSTYLE
  5
A
100
AcDbSymbolTable
 70
1
100
AcDbDimStyleTable
 71
0
  0
DIMSTYLE
105
216
100
AcDbSymbolTableRecord
100
AcDbDimStyleTableRecord
  2
STANDARD
 70
0
  3

  4

 40
1.0
 41
0.1
 42
0.0625
 43
0.38
 44
0.125
 45
0.0
 46
0.0
 47
0.001
 48
0.001
140
0.08
141
0.09
142
0.0
143
25.4
144
1.0
145
0.0
146
1.0
147
0.09
 71
1.0
 72
0.0
 73
1
 74
1
 75
0
 76
0
 77
0
 78
4
 79
1
170
1
171
2
172
0
173
0
174
0
175
0
176
0
177
0
178
0
270
2
179
3
271
3
272
3
273
2
274
2
275
0
280
0
281
0
282
0
283
1
284
4
285
0
286
0
287
3
288
0
340
11
278
46
341
215
342
215
343
215
344
215
  0
ENDTAB
  0
ENDSEC
  0
SECTION
  2
BLOCKS
  0
BLOCK
  5
20
100
AcDbEntity
  8
0
100
AcDbBlockBegin
  2
*Model_Space
 70
0
 10
0.0
 20
0.0
 30
0.0
  3
*Model_Space
  1

  0
ENDBLK
  5
21
100
AcDbEntity
  8
0
100
AcDbBlockEnd
  0
BLOCK
  5
1C
100
AcDbEntity
  8
0
100
AcDbBlockBegin
  2
*Paper_Space
 70
0
 10
0.0
 20
0.0
 30
0.0
  3
*Paper_Space
  1

  0
ENDBLK
  5
1D
100
AcDbEntity
  8
0
100
AcDbBlockEnd
  0
BLOCK
  5
217
100
AcDbEntity
  8
0
100
AcDbBlockBegin
  2
_FILLED
 70
64
 10
0.0
 20
0.0
  3
_FILLED
  1

  0
SOLID
  5
218
100
AcDbEntity
  8
0
  6
BYBLOCK
 62
0
100
AcDbTrace
 10
0.0
 20
0.0
 11
-1.0
 21
0.2
 12
-1.0
 22
-0.2
 13
-1.0
 23
-0.2
  0
ENDBLK
  5
219
100
AcDbEntity
  8
0
  6
BYBLOCK
 62
0
100
AcDbBlockEnd
  0
ENDSEC
  0
SECTION
  2
ENTITIES
  0
MTEXT
  5
21A
100
AcDbEntity
  8
0
100
AcDbMText
 62
2
  6
CONTINUOUS
  7
STANDARD
 71
3
 72
1
 10
5.8513021665
 20
2.4474566088
 30
0.0
 11
1.0
 21
0.0
 31
0.0
 73
2
 44
0.9
  1
SCALE  .500
 40
0.08
 41
0.704
  0
LINE
  5
21B
100
AcDbEntity
  8
0
100
AcDbLine
 62
7
  6
CONTINUOUS
 10
0.0
 20
0.0
 11
0.0
 21
8.5
  0
LINE
  5
21C
100
AcDbEntity
  8
0
100
AcDbLine
 62
7
  6
CONTINUOUS
 10
0.0
 20
0.0
 11
11.0
 21
0.0
  0
LINE
  5
21D
100
AcDbEntity
  8
0
100
AcDbLine
 62
7
  6
CONTINUOUS
 10
0.0
 20
8.5
 11
11.0
 21
8.5
  0
LINE
  5
21E
100
AcDbEntity
  8
0
100
AcDbLine
 62
7
  6
CONTINUOUS
 10
11.0
 20
0.0
 11
11.0
 21
8.5
  0
LINE
  5
21F
100
AcDbEntity
  8
ALL_ASSEMBLY_MEMBERS
100
AcDbLine
 62
7
  6
CONTINUOUS
 10
6.7963129558
 20
3.7737517289
 11
6.8013129558
 21
3.7737517289
  0
LINE
  5
220
100
AcDbEntity
  8
ALL_ASSEMBLY_MEMBERS
100
AcDbLine
 62
7
  6
CONTINUOUS
 10
3.1840907709
 20
4.2013699926
 11
3.9085351406
 21
4.0072557088
  0
LINE
  5
221
100
AcDbEntity
  8
ALL_ASSEMBLY_MEMBERS
100
AcDbLine
 62
7
  6
CONTINUOUS
 10
6.1234433712
 20
3.9034508611
 11
6.1289959797
 21
3.9022705238
  0
LINE
  5
222
100
AcDbEntity
  8
ALL_ASSEMBLY_MEMBERS
100
AcDbLine
 62
7
  6
CONTINUOUS
 10
3.811942558
 20
4.0331376133
 11
3.8122159405
 21
4.0359152475
  0
LINE
  5
223
100
AcDbEntity
  8
ALL_ASSEMBLY_MEMBERS
100
AcDbLine
 62
7
  6
CONTINUOUS
 10
3.8122619717
 20
4.035909944
 11
3.811942558
 21
4.0331376133
  0
LINE
  5
224
100
AcDbEntity
  8
ALL_ASSEMBLY_MEMBERS
100
AcDbLine
 62
7
  6
CONTINUOUS
 10
6.1287874176
 20
4.0610699319
 11
6.1339779287
 21
4.0600829461
  0
LINE
  5
225
100
AcDbEntity
  8
ALL_ASSEMBLY_MEMBERS
100
AcDbLine
 62
7
  6
CONTINUOUS
 10
6.1287991335
 20
4.0023122536
 11
6.1373852313
 21
4.0005392721
  0
LINE
  5
226
100
AcDbEntity
  8
ALL_ASSEMBLY_MEMBERS
100
AcDbLine
 62
7
  6
CONTINUOUS
 10
6.1287973206
 20
3.9611380962
 11
6.1340017065
 21
3.9600404665
  0
LINE
  5
227
100
AcDbEntity
  8
ALL_ASSEMBLY_MEMBERS
100
AcDbLine
 62
7
  6
CONTINUOUS
 10
6.1287991335
 20
3.9624276561
 11
6.1252192272
 21
3.9631831448
  0
LINE
  5
228
100
AcDbEntity
  8
ALL_ASSEMBLY_MEMBERS
100
AcDbLine
 62
7
  6
CONTINUOUS
 10
6.1373800542
 20
4.0005042211
 11
6.1234789266
 21
4.0034487269
  0
LINE
  5
229
100
AcDbEntity
  8
ALL_ASSEMBLY_MEMBERS
100
AcDbLine
 62
7
  6
CONTINUOUS
 10
6.1234773084
 20
4.0034493159
 11
6.1243649144
 21
4.0032587353
  0
LINE
  5
22A
100
AcDbEntity
  8
ALL_ASSEMBLY_MEMBERS
100
AcDbLine
 62
7
  6
CONTINUOUS
 10
6.1287991335
 20
4.0611320986
 11
6.1339664135
 21
4.0600211605
  0
LINE
  5
22B
100
AcDbEntity
  8
ALL_ASSEMBLY_MEMBERS
100
AcDbLine
 62
7
  6
CONTINUOUS
 10
6.1287991335
 20
4.0023122536
 11
6.1234954447
 21
4.0035284089
  0
LINE
  5
22C
100
AcDbEntity
  8
ALL_ASSEMBLY_MEMBERS
100
AcDbLine
 62
7
  6
CONTINUOUS
 10
5.9361919871
 20
3.9502340068
 11
5.9513081955
 21
3.945989081
  0
LINE
  5
22D
100
AcDbEntity
  8
ALL_ASSEMBLY_MEMBERS
100
AcDbLine
 62
7
  6
CONTINUOUS
 10
5.9110103315
 20
3.9574758448
 11
5.9361919871
 21
3.9502340068
  0
LINE
  5
22E
100
AcDbEntity
  8
ALL_ASSEMBLY_MEMBERS
100
AcDbLine
 62
7
  6
CONTINUOUS
 10
5.8864665671
 20
3.9647373535
 11
5.9110103315
 21
3.9574758448
  0
LINE
  5
22F
100
AcDbEntity
  8
ALL_ASSEMBLY_MEMBERS
100
AcDbLine
 62
7
  6
CONTINUOUS
 10
5.8615282362
 20
3.9723198884
 11
5.8864665671
 21
3.9647373535
  0
LINE
  5
230
100
AcDbEntity
  8
ALL_ASSEMBLY_MEMBERS
100
AcDbLine
 62
7
  6
CONTINUOUS
 10
5.8357853984
 20
3.9803596695
 11
5.8615282362
 21
3.9723198884
  0
LINE
  5
231
100
AcDbEntity
  8
ALL_ASSEMBLY_MEMBERS
100
AcDbLine
 62
7
  6
CONTINUOUS
 10
5.8095300573
 20
3.9887746678
 11
5.8357853984
 21
3.9803596695
  0
LINE
  5
232
100
AcDbEntity
  8
ALL_ASSEMBLY_MEMBERS
100
AcDbLine
 62
7
  6
CONTINUOUS
 10
5.7843182975
 20
3.9970529675
 11
5.8095300573
 21
3.9887746678
  0
LINE
  5
233
100
AcDbEntity
  8
ALL_ASSEMBLY_MEMBERS
100
AcDbLine
 62
7
  6
CONTINUOUS
 10
5.7603103767
 20
4.0051106648
 11
5.7843182975
 21
3.9970529675
  0
LINE
  5
234
100
AcDbEntity
  8
ALL_ASSEMBLY_MEMBERS
100
AcDbLine
 62
7
  6
CONTINUOUS
 10
5.7375165609
 20
4.0129143701
 11
5.7603103767
 21
4.0051106648
  0
LINE
  5
235
100
AcDbEntity
  8
ALL_ASSEMBLY_MEMBERS
100
AcDbLine
 62
7
  6
CONTINUOUS
 10
5.7155704632
 20
4.0205656828
 11
5.7375165609
 21
4.0129143701
  0
LINE
  5
236
100
AcDbEntity
  8
ALL_ASSEMBLY_MEMBERS
100
AcDbLine
 62
7
  6
CONTINUOUS
 10
5.6944411726
 20
4.0280567455
 11
5.7237858489
 21
4.0176858455
  0
LINE
  5
237
100
AcDbEntity
  8
ALL_ASSEMBLY_MEMBERS
100
AcDbLine
 62
7
  6
CONTINUOUS
 10
5.6738237062
 20
4.0354810536
 11
5.6944411726
 21
4.0280567455
  0
LINE
  5
238
100
AcDbEntity
  8
ALL_ASSEMBLY_MEMBERS
100
AcDbLine
 62
7
  6
CONTINUOUS
 10
5.6525055931
 20
4.0432736083
 11
5.6738237062
 21
4.0354810536
  0
LINE
  5
239
100
AcDbEntity
  8
ALL_ASSEMBLY_MEMBERS
100
AcDbLine
 62
7
  6
CONTINUOUS
 10
5.6319138782
 20
4.050909452
 11
5.6525055931
 21
4.0432736083
  0
LINE
  5
23A
100
AcDbEntity
  8
ALL_ASSEMBLY_MEMBERS
100
AcDbLine
 62
7
  6
CONTINUOUS
 10
5.6123516696
 20
4.0582597423
 11
5.6319138782
 21
4.050909452
  0
LINE
  5
23B
100
AcDbEntity
  8
ALL_ASSEMBLY_MEMBERS
100
AcDbLine
 62
7
  6
CONTINUOUS
 10
3.9085351406
 20
4.0072557088
 11
3.9090567054
 21
4.0099557115
  0
LINE
  5
23C
100
AcDbEntity
  8
ALL_ASSEMBLY_MEMBERS
100
AcDbLine
 62
7
  6
CONTINUOUS
 10
3.3947695703
 20
4.4578808068
 11
3.3907876129
 21
4.4510566169
  0
LINE
  5
23D
100
AcDbEntity
  8
ALL_ASSEMBLY_MEMBERS
100
AcDbLine
 62
7
  6
CONTINUOUS
 10
3.3907878681
 20
4.4510570581
 11
3.391551447
 21
4.4523185333
  0
LWPOLYLINE
  5
23E
100
AcDbEntity
  8
ALL_ASSEMBLY_MEMBERS
100
AcDbPolyline
 62
7
  6
CONTINUOUS
 90
3
 70
0
 10
3.4119197153
 20
4.4859680533
 10
3.4126172021
 20
4.4871203405
 10
3.4126906391
 20
4.4872306155
  0
LINE
  5
23F
100
AcDbEntity
  8
ALL_ASSEMBLY_MEMBERS
100
AcDbLine
 62
7
  6
CONTINUOUS
 10
3.4126881146
 20
4.4872322202
 11
3.4118981112
 21
4.4859816831
  0
LWPOLYLINE
  5
240
100
AcDbEntity
  8
ALL_ASSEMBLY_MEMBERS
100
AcDbPolyline
 62
7
  6
CONTINUOUS
 90
3
 70
0
 10
6.3244501684
 20
4.7502099661
 10
6.3237956797
 20
4.7500649151
 10
6.323365961
 20
4.74999036
  0
LINE
  5
241
100
AcDbEntity
  8
ALL_ASSEMBLY_MEMBERS
100
AcDbLine
 62
7
  6
CONTINUOUS
 10
6.3244530023
 20
4.7501957534
 11
6.3233680079
 21
4.7499800346
  0
LINE
  5
242
100
AcDbEntity
  8
ALL_ASSEMBLY_MEMBERS
100
AcDbLine
 62
7
  6
CONTINUOUS
 10
6.3148519195
 20
4.748330131
 11
6.3087215876
 21
4.7471896515
  0
LINE
  5
243
100
AcDbEntity
  8
ALL_ASSEMBLY_MEMBERS
100
AcDbLine
 62
7
  6
CONTINUOUS
 10
6.307543758
 20
4.7469752495
 11
6.3087238497
 21
4.7471901518
  0
LINE
  5
244
100
AcDbEntity
  8
ALL_ASSEMBLY_MEMBERS
100
AcDbLine
 62
7
  6
CONTINUOUS
 10
6.3086778049
 20
4.7474420051
 11
6.3078397823
 21
4.7472966105
  0
LWPOLYLINE
  5
245
100
AcDbEntity
  8
ALL_ASSEMBLY_MEMBERS
100
AcDbPolyline
 62
7
  6
CONTINUOUS
 90
5
 70
0
 10
4.6067291982
 20
4.5666636122
 10
4.6323877761
 20
4.559518897
 10
4.6574927789
 20
4.5511450867
 10
4.6821185552
 20
4.5414967283
 10
4.7062316024
 20
4.5305785619
  0
LINE
  5
246
100
AcDbEntity
  8
ALL_ASSEMBLY_MEMBERS
100
AcDbLine
 62
7
  6
CONTINUOUS
 10
6.4914118572
 20
3.9117532175
 11
6.4930577329
 21
3.9111597751
  0
LINE
  5
247
100
AcDbEntity
  8
ALL_ASSEMBLY_MEMBERS
100
AcDbLine
 62
7
  6
CONTINUOUS
 10
6.491424789
 20
3.9117679889
 11
6.4930577329
 21
3.9111597751
  0
LINE
  5
248
100
AcDbEntity
  8
ALL_ASSEMBLY_MEMBERS
100
AcDbLine
 62
7
  6
CONTINUOUS
 10
5.0976845782
 20
4.2961060506
 11
5.1382533696
 21
4.2733214817
  0
LINE
  5
249
100
AcDbEntity
  8
ALL_ASSEMBLY_MEMBERS
100
AcDbLine
 62
7
  6
CONTINUOUS
 10
5.0594436773
 20
4.3182680283
 11
5.0976845782
 21
4.2961060506
  0
LINE
  5
24A
100
AcDbEntity
  8
ALL_ASSEMBLY_MEMBERS
100
AcDbLine
 62
7
  6
CONTINUOUS
 10
5.0234341278
 20
4.3396454642
 11
5.0594436773
 21
4.3182680283
  0
LINE
  5
24B
100
AcDbEntity
  8
ALL_ASSEMBLY_MEMBERS
100
AcDbLine
 62
7
  6
CONTINUOUS
 10
4.9898131399
 20
4.3599637904
 11
5.0234341278
 21
4.3396454642
  0
LINE
  5
24C
100
AcDbEntity
  8
ALL_ASSEMBLY_MEMBERS
100
AcDbLine
 62
7
  6
CONTINUOUS
 10
4.7856815099
 20
4.4858223449
 11
4.8193306545
 21
4.4652428913
  0
LINE
  5
24D
100
AcDbEntity
  8
ALL_ASSEMBLY_MEMBERS
100
AcDbLine
 62
7
  6
CONTINUOUS
 10
4.9280892235
 20
4.3978882927
 11
4.9898131399
 21
4.3599637904
  0
LINE
  5
24E
100
AcDbEntity
  8
ALL_ASSEMBLY_MEMBERS
100
AcDbLine
 62
7
  6
CONTINUOUS
 10
4.8193306545
 20
4.4652428913
 11
4.9280892235
 21
4.3978882927
  0
LWPOLYLINE
  5
24F
100
AcDbEntity
  8
ALL_ASSEMBLY_MEMBERS
100
AcDbPolyline
 62
7
  6
CONTINUOUS
 90
5
 70
0
 10
3.9365595244
 20
4.1444505256
 10
3.9429103825
 20
4.176399059
 10
3.9499470831
 20
4.2071197061
 10
3.957993785
 20
4.2365283291
 10
3.9673444385
 20
4.2645718524
  0
LWPOLYLINE
  5
250
100
AcDbEntity
  8
ALL_ASSEMBLY_MEMBERS
100
AcDbPolyline
 62
7
  6
CONTINUOUS
 90
4
 70
0
 10
3.9085351406
 20
4.0072557088
 10
3.9171311659
 20
4.042783478
 10
3.9242185197
 20
4.0775559227
 10
3.9365595244
 20
4.1444505256
  0
LINE
  5
251
100
AcDbEntity
  8
ALL_ASSEMBLY_MEMBERS
100
AcDbLine
 62
7
  6
CONTINUOUS
 10
4.3914984904
 20
4.5765411117
 11
4.3962238506
 21
4.577275155
  0
LWPOLYLINE
  5
252
100
AcDbEntity
  8
ALL_ASSEMBLY_MEMBERS
100
AcDbPolyline
 62
7
  6
CONTINUOUS
 90
9
 70
0
 10
4.3914980538
 20
4.5765410419
 10
4.4192381919
 20
4.5800396458
 10
4.4465994715
 20
4.5821217442
 10
4.4736191458
 20
4.5828489849
 10
4.5006453736
 20
4.5822573853
 10
4.5276543057
 20
4.5803185923
 10
4.5542959029
 20
4.5770714314
 10
4.5806122599
 20
4.5725352682
 10
4.6067291982
 20
4.5666636122
  0
LINE
  5
253
100
AcDbEntity
  8
ALL_ASSEMBLY_MEMBERS
100
AcDbLine
 62
7
  6
CONTINUOUS
 10
6.1338255181
 20
4.6309487751
 11
6.135258665
 21
4.6309746575
  0
LINE
  5
254
100
AcDbEntity
  8
ALL_ASSEMBLY_MEMBERS
100
AcDbLine
 62
7
  6
CONTINUOUS
 10
4.7443890461
 20
4.6232271555
 11
4.7488843786
 21
4.6210386556
  0
LINE
  5
255
100
AcDbEntity
  8
ALL_ASSEMBLY_MEMBERS
100
AcDbLine
 62
7
  6
CONTINUOUS
 10
4.7305040284
 20
4.5843745133
 11
4.7318532392
 21
4.583715801
  0
LINE
  5
256
100
AcDbEntity
  8
ALL_ASSEMBLY_MEMBERS
100
AcDbLine
 62
7
  6
CONTINUOUS
 10
4.7743374239
 20
4.6742512509
 11
4.7752843497
 21
4.6737884374
  0
LINE
  5
257
100
AcDbEntity
  8
ALL_ASSEMBLY_MEMBERS
100
AcDbLine
 62
7
  6
CONTINUOUS
 10
4.7330205915
 20
4.5842744943
 11
4.7322947844
 21
4.5846315381
  0
LINE
  5
258
100
AcDbEntity
  8
ALL_ASSEMBLY_MEMBERS
100
AcDbLine
 62
7
  6
CONTINUOUS
 10
4.7743385123
 20
4.6742534821
 11
4.775283205
 21
4.6737860998
  0
LINE
  5
259
100
AcDbEntity
  8
ALL_ASSEMBLY_MEMBERS
100
AcDbLine
 62
7
  6
CONTINUOUS
 10
4.7505283771
 20
4.6202263102
 11
4.7488843786
 21
4.6210386556
  0
LINE
  5
25A
100
AcDbEntity
  8
ALL_ASSEMBLY_MEMBERS
100
AcDbLine
 62
7
  6
CONTINUOUS
 10
4.7505184401
 20
4.6202064621
 11
4.7496641294
 21
4.6206541723
  0
LINE
  5
25B
100
AcDbEntity
  8
ALL_ASSEMBLY_MEMBERS
100
AcDbLine
 62
7
  6
CONTINUOUS
 10
4.7749675698
 20
4.6073936478
 11
4.7753792188
 21
4.6071683404
  0
LINE
  5
25C
100
AcDbEntity
  8
ALL_ASSEMBLY_MEMBERS
100
AcDbLine
 62
7
  6
CONTINUOUS
 10
5.1677844091
 20
4.3689067115
 11
5.1619797027
 21
4.3721641006
  0
LWPOLYLINE
  5
25D
100
AcDbEntity
  8
ALL_ASSEMBLY_MEMBERS
100
AcDbPolyline
 62
7
  6
CONTINUOUS
 90
3
 70
0
 10
4.7753792188
 20
4.6071683404
 10
4.7751859139
 20
4.6072792223
 10
4.7749675698
 20
4.6073936478
  0
LINE
  5
25E
100
AcDbEntity
  8
ALL_ASSEMBLY_MEMBERS
100
AcDbLine
 62
7
  6
CONTINUOUS
 10
4.8312288306
 20
4.5742629185
 11
4.8266103116
 21
4.5770846855
  0
LINE
  5
25F
100
AcDbEntity
  8
ALL_ASSEMBLY_MEMBERS
100
AcDbLine
 62
7
  6
CONTINUOUS
 10
3.9673444385
 20
4.2645718524
 11
3.9782272885
 21
4.2911169516
  0
LINE
  5
260
100
AcDbEntity
  8
ALL_ASSEMBLY_MEMBERS
100
AcDbLine
 62
7
  6
CONTINUOUS
 10
3.9701044375
 20
4.273239787
 11
3.9776737728
 21
4.2899692663
  0
LINE
  5
261
100
AcDbEntity
  8
ALL_ASSEMBLY_MEMBERS
100
AcDbLine
 62
7
  6
CONTINUOUS
 10
4.3223984595
 20
4.5610913098
 11
4.3457756369
 21
4.5673063261
  0
LINE
  5
262
100
AcDbEntity
  8
ALL_ASSEMBLY_MEMBERS
100
AcDbLine
 62
7
  6
CONTINUOUS
 10
4.4029210468
 20
4.6780297451
 11
4.4017816551
 21
4.6778904827
  0
LWPOLYLINE
  5
263
100
AcDbEntity
  8
ALL_ASSEMBLY_MEMBERS
100
AcDbPolyline
 62
7
  6
CONTINUOUS
 90
3
 70
0
 10
4.4029234991
 20
4.6780104157
 10
4.4021203319
 20
4.6779320973
 10
4.40178199
 20
4.6778877892
  0
LINE
  5
264
100
AcDbEntity
  8
ALL_ASSEMBLY_MEMBERS
100
AcDbLine
 62
7
  6
CONTINUOUS
 10
6.7963129558
 20
4.8387517289
 11
6.8013129558
 21
4.8387517289
  0
LINE
  5
265
100
AcDbEntity
  8
ALL_ASSEMBLY_MEMBERS
100
AcDbLine
 62
7
  6
CONTINUOUS
 10
4.8645743526
 20
4.8609475233
 11
4.8653528554
 21
4.8605833991
  0
LINE
  5
266
100
AcDbEntity
  8
ALL_ASSEMBLY_MEMBERS
100
AcDbLine
 62
7
  6
CONTINUOUS
 10
3.9776737728
 20
4.2899692663
 11
3.9802668599
 21
4.2952455889
  0
LINE
  5
267
100
AcDbEntity
  8
ALL_ASSEMBLY_MEMBERS
100
AcDbLine
 62
7
  6
CONTINUOUS
 10
3.9776920009
 20
4.2899805745
 11
3.9803864139
 21
4.2954971876
  0
LINE
  5
268
100
AcDbEntity
  8
ALL_ASSEMBLY_MEMBERS
100
AcDbLine
 62
7
  6
CONTINUOUS
 10
3.9803864139
 20
4.2954971876
 11
3.9952103006
 21
4.3225643281
  0
LWPOLYLINE
  5
269
100
AcDbEntity
  8
ALL_ASSEMBLY_MEMBERS
100
AcDbPolyline
 62
7
  6
CONTINUOUS
 90
5
 70
0
 10
3.910452787
 20
4.3667287274
 10
3.929782435
 20
4.3965661211
 10
3.950988538
 20
4.4252482269
 10
3.9738146712
 20
4.4525729716
 10
3.9980689094
 20
4.4784628811
  0
LINE
  5
26A
100
AcDbEntity
  8
ALL_ASSEMBLY_MEMBERS
100
AcDbLine
 62
7
  6
CONTINUOUS
 10
3.7138466615
 20
4.9282179017
 11
3.7108070425
 21
4.926150123
  0
LINE
  5
26B
100
AcDbEntity
  8
ALL_ASSEMBLY_MEMBERS
100
AcDbLine
 62
7
  6
CONTINUOUS
 10
3.7138466615
 20
4.9282179017
 11
3.7107874821
 21
4.9261751343
  0
LINE
  5
26C
100
AcDbEntity
  8
ALL_ASSEMBLY_MEMBERS
100
AcDbLine
 62
7
  6
CONTINUOUS
 10
3.7164663984
 20
4.9299026585
 11
3.7138466615
 21
4.9282179017
  0
LINE
  5
26D
100
AcDbEntity
  8
ALL_ASSEMBLY_MEMBERS
100
AcDbLine
 62
7
  6
CONTINUOUS
 10
3.710785973
 20
4.9261772453
 11
3.7118059692
 21
4.9268296685
  0
LINE
  5
26E
100
AcDbEntity
  8
ALL_ASSEMBLY_MEMBERS
100
AcDbLine
 62
7
  6
CONTINUOUS
 10
3.7165056141
 20
4.9298415121
 11
3.7138466615
 21
4.9282179017
  0
LINE
  5
26F
100
AcDbEntity
  8
ALL_ASSEMBLY_MEMBERS
100
AcDbLine
 62
7
  6
CONTINUOUS
 10
4.3875048674
 20
5.0278360907
 11
4.3914986559
 21
5.0278461867
  0
LWPOLYLINE
  5
270
100
AcDbEntity
  8
ALL_ASSEMBLY_MEMBERS
100
AcDbPolyline
 62
7
  6
CONTINUOUS
 90
3
 70
0
 10
5.3088295481
 20
4.8559646246
 10
5.3067879061
 20
4.8565995958
 10
5.3066450598
 20
4.8566472932
  0
LINE
  5
271
100
AcDbEntity
  8
ALL_ASSEMBLY_MEMBERS
100
AcDbLine
 62
7
  6
CONTINUOUS
 10
5.0108898424
 20
4.9683467007
 11
5.0036110535
 21
4.9715974404
  0
LINE
  5
272
100
AcDbEntity
  8
ALL_ASSEMBLY_MEMBERS
100
AcDbLine
 62
7
  6
CONTINUOUS
 10
4.9588726617
 20
4.8820988283
 11
4.9626392855
 21
4.8803840555
  0
LINE
  5
273
100
AcDbEntity
  8
ALL_ASSEMBLY_MEMBERS
100
AcDbLine
 62
7
  6
CONTINUOUS
 10
4.9356181955
 20
5.0032267601
 11
4.9344046412
 21
5.003791317
  0
LINE
  5
274
100
AcDbEntity
  8
ALL_ASSEMBLY_MEMBERS
100
AcDbLine
 62
7
  6
CONTINUOUS
 10
4.9258596061
 20
4.8973598485
 11
4.9309930917
 21
4.894964063
  0
LINE
  5
275
100
AcDbEntity
  8
ALL_ASSEMBLY_MEMBERS
100
AcDbLine
 62
7
  6
CONTINUOUS
 10
4.8904625863
 20
4.9139542227
 11
4.8917712613
 21
4.9133414105
  0
LINE
  5
276
100
AcDbEntity
  8
ALL_ASSEMBLY_MEMBERS
100
AcDbLine
 62
7
  6
CONTINUOUS
 10
4.9088710991
 20
4.9494895297
 11
4.9083411674
 21
4.9497377429
  0
LINE
  5
277
100
AcDbEntity
  8
ALL_ASSEMBLY_MEMBERS
100
AcDbLine
 62
7
  6
CONTINUOUS
 10
4.9075811863
 20
4.9512204975
 11
4.9087825824
 21
4.950653261
  0
LINE
  5
278
100
AcDbEntity
  8
ALL_ASSEMBLY_MEMBERS
100
AcDbLine
 62
7
  6
CONTINUOUS
 10
4.9075827942
 20
4.9512239077
 11
4.9087811633
 21
4.9506502595
  0
LINE
  5
279
100
AcDbEntity
  8
ALL_ASSEMBLY_MEMBERS
100
AcDbLine
 62
7
  6
CONTINUOUS
 10
4.9344046412
 20
5.003791317
 11
4.9356119284
 21
5.0032132884
  0
LINE
  5
27A
100
AcDbEntity
  8
ALL_ASSEMBLY_MEMBERS
100
AcDbLine
 62
7
  6
CONTINUOUS
 10
3.9950480104
 20
4.3222967148
 11
4.0119437737
 21
4.3483501852
  0
LINE
  5
27B
100
AcDbEntity
  8
ALL_ASSEMBLY_MEMBERS
100
AcDbLine
 62
7
  6
CONTINUOUS
 10
4.0117496633
 20
4.348078616
 11
4.0305103641
 21
4.3730138366
  0
LINE
  5
27C
100
AcDbEntity
  8
ALL_ASSEMBLY_MEMBERS
100
AcDbLine
 62
7
  6
CONTINUOUS
 10
3.8441934697
 20
4.8867609783
 11
3.8306668709
 21
4.8793269814
  0
LWPOLYLINE
  5
27D
100
AcDbEntity
  8
ALL_ASSEMBLY_MEMBERS
100
AcDbPolyline
 62
7
  6
CONTINUOUS
 90
7
 70
0
 10
4.2840613982
 20
5.0225189175
 10
4.2271091497
 20
5.015436156
 10
4.1704843829
 20
5.0054591517
 10
4.1143311467
 20
4.9926323982
 10
4.0587180637
 20
4.976975636
 10
4.003759522
 20
4.9585154628
 10
3.9969195559
 20
4.9560043832
  0
LINE
  5
27E
100
AcDbEntity
  8
ALL_ASSEMBLY_MEMBERS
100
AcDbLine
 62
7
  6
CONTINUOUS
 10
4.3412044941
 20
5.0266590461
 11
4.2840613982
 21
5.0225189175
  0
LINE
  5
27F
100
AcDbEntity
  8
ALL_ASSEMBLY_MEMBERS
100
AcDbLine
 62
7
  6
CONTINUOUS
 10
4.387505077
 20
5.0278322915
 11
4.3412044941
 21
5.0266590461
  0
LINE
  5
280
100
AcDbEntity
  8
ALL_ASSEMBLY_MEMBERS
100
AcDbLine
 62
7
  6
CONTINUOUS
 10
4.3875053108
 20
5.0278079097
 11
4.3859572037
 21
5.0277930688
  0
LINE
  5
281
100
AcDbEntity
  8
ALL_ASSEMBLY_MEMBERS
100
AcDbLine
 62
7
  6
CONTINUOUS
 10
4.0302905931
 20
4.3727441781
 11
4.0507493072
 21
4.3965225488
  0
LINE
  5
282
100
AcDbEntity
  8
ALL_ASSEMBLY_MEMBERS
100
AcDbLine
 62
7
  6
CONTINUOUS
 10
4.0505059572
 20
4.3962577637
 11
4.0725088746
 21
4.4188219361
  0
LINE
  5
283
100
AcDbEntity
  8
ALL_ASSEMBLY_MEMBERS
100
AcDbLine
 62
7
  6
CONTINUOUS
 10
3.9980689094
 20
4.4784628811
 11
4.0236221636
 21
4.5029055811
  0
LINE
  5
284
100
AcDbEntity
  8
ALL_ASSEMBLY_MEMBERS
100
AcDbLine
 62
7
  6
CONTINUOUS
 10
4.0236221636
 20
4.5029055811
 11
4.0506209856
 21
4.5261074707
  0
LINE
  5
285
100
AcDbEntity
  8
ALL_ASSEMBLY_MEMBERS
100
AcDbLine
 62
7
  6
CONTINUOUS
 10
3.8393102555
 20
4.8841005112
 11
3.8579363211
 21
4.8940805561
  0
LINE
  5
286
100
AcDbEntity
  8
ALL_ASSEMBLY_MEMBERS
100
AcDbLine
 62
7
  6
CONTINUOUS
 10
6.7658410034
 20
3.7541941807
 11
6.7664739522
 21
3.7536448663
  0
LINE
  5
287
100
AcDbEntity
  8
ALL_ASSEMBLY_MEMBERS
100
AcDbLine
 62
7
  6
CONTINUOUS
 10
4.9087811633
 20
4.9506502595
 11
4.9083411674
 21
4.9497377429
  0
LINE
  5
288
100
AcDbEntity
  8
ALL_ASSEMBLY_MEMBERS
100
AcDbLine
 62
7
  6
CONTINUOUS
 10
4.8653528554
 20
4.8605833991
 11
4.775283205
 21
4.6737860998
  0
LINE
  5
289
100
AcDbEntity
  8
ALL_ASSEMBLY_MEMBERS
100
AcDbLine
 62
7
  6
CONTINUOUS
 10
4.7322949831
 20
4.5846319427
 11
4.7318532392
 21
4.583715801
  0
LINE
  5
28A
100
AcDbEntity
  8
ALL_ASSEMBLY_MEMBERS
100
AcDbLine
 62
7
  6
CONTINUOUS
 10
4.0722456847
 20
4.4185668314
 11
4.0957964452
 21
4.4399903349
  0
LINE
  5
28B
100
AcDbEntity
  8
ALL_ASSEMBLY_MEMBERS
100
AcDbLine
 62
7
  6
CONTINUOUS
 10
4.0955205251
 20
4.4397524052
 11
4.1205756635
 21
4.460019766
  0
LINE
  5
28C
100
AcDbEntity
  8
ALL_ASSEMBLY_MEMBERS
100
AcDbLine
 62
7
  6
CONTINUOUS
 10
4.0506209856
 20
4.5261074707
 11
4.0790116382
 21
4.548034822
  0
LINE
  5
28D
100
AcDbEntity
  8
ALL_ASSEMBLY_MEMBERS
100
AcDbLine
 62
7
  6
CONTINUOUS
 10
4.0790116382
 20
4.548034822
 11
4.1086691918
 21
4.5685959687
  0
LINE
  5
28E
100
AcDbEntity
  8
ALL_ASSEMBLY_MEMBERS
100
AcDbLine
 62
7
  6
CONTINUOUS
 10
6.7658447907
 20
3.7541978055
 11
6.7664585562
 21
3.7536344136
  0
LINE
  5
28F
100
AcDbEntity
  8
ALL_ASSEMBLY_MEMBERS
100
AcDbLine
 62
7
  6
CONTINUOUS
 10
4.1202961044
 20
4.4598059723
 11
4.146669327
 21
4.4787941445
  0
LINE
  5
290
100
AcDbEntity
  8
ALL_ASSEMBLY_MEMBERS
100
AcDbLine
 62
7
  6
CONTINUOUS
 10
4.1463948453
 20
4.4786079019
 11
4.1738889013
 21
4.4962188336
  0
LINE
  5
291
100
AcDbEntity
  8
ALL_ASSEMBLY_MEMBERS
100
AcDbLine
 62
7
  6
CONTINUOUS
 10
4.1086691918
 20
4.5685959687
 11
4.139696513
 21
4.5878387303
  0
LINE
  5
292
100
AcDbEntity
  8
ALL_ASSEMBLY_MEMBERS
100
AcDbLine
 62
7
  6
CONTINUOUS
 10
4.1736251905
 20
4.4960595897
 11
4.2021332167
 21
4.5122565646
  0
LINE
  5
293
100
AcDbEntity
  8
ALL_ASSEMBLY_MEMBERS
100
AcDbLine
 62
7
  6
CONTINUOUS
 10
4.139696513
 20
4.5878387303
 11
4.1721513804
 21
4.6057293901
  0
LINE
  5
294
100
AcDbEntity
  8
ALL_ASSEMBLY_MEMBERS
100
AcDbLine
 62
7
  6
CONTINUOUS
 10
4.1721513804
 20
4.6057293901
 11
4.2058436261
 21
4.6220860482
  0
LINE
  5
295
100
AcDbEntity
  8
ALL_ASSEMBLY_MEMBERS
100
AcDbLine
 62
7
  6
CONTINUOUS
 10
4.2018849056
 20
4.5121241
 11
4.2312929579
 21
4.5268486735
  0
LINE
  5
296
100
AcDbEntity
  8
ALL_ASSEMBLY_MEMBERS
100
AcDbLine
 62
7
  6
CONTINUOUS
 10
4.2310649287
 20
4.5267420634
 11
4.2611511886
 21
4.5398925228
  0
LWPOLYLINE
  5
297
100
AcDbEntity
  8
ALL_ASSEMBLY_MEMBERS
100
AcDbPolyline
 62
7
  6
CONTINUOUS
 90
6
 70
0
 10
4.2058436261
 20
4.6220860482
 10
4.2405140248
 20
4.6367158438
 10
4.2760996955
 20
4.6495275417
 10
4.3124772019
 20
4.6604049712
 10
4.3492630017
 20
4.6691807599
 10
4.3856750634
 20
4.675695789
  0
LINE
  5
298
100
AcDbEntity
  8
ALL_ASSEMBLY_MEMBERS
100
AcDbLine
 62
7
  6
CONTINUOUS
 10
4.2609441149
 20
4.539808205
 11
4.291601789
 21
4.5513381057
  0
LINE
  5
299
100
AcDbEntity
  8
ALL_ASSEMBLY_MEMBERS
100
AcDbLine
 62
7
  6
CONTINUOUS
 10
4.2914135172
 20
4.5512726959
 11
4.3225691441
 21
4.561140496
  0
LINE
  5
29A
100
AcDbEntity
  8
ALL_ASSEMBLY_MEMBERS
100
AcDbLine
 62
7
  6
CONTINUOUS
 10
6.1287991335
 20
4.6719308543
 11
6.1287991335
 21
4.6708076133
  0
LINE
  5
29B
100
AcDbEntity
  8
ALL_ASSEMBLY_MEMBERS
100
AcDbLine
 62
7
  6
CONTINUOUS
 10
6.1287991335
 20
4.5719847763
 11
6.1287991335
 21
4.0611320986
  0
LINE
  5
29C
100
AcDbEntity
  8
ALL_ASSEMBLY_MEMBERS
100
AcDbLine
 62
7
  6
CONTINUOUS
 10
6.1287991335
 20
3.962427656
 11
6.1287991335
 21
3.9611467754
  0
LINE
  5
29D
100
AcDbEntity
  8
ALL_ASSEMBLY_MEMBERS
100
AcDbLine
 62
7
  6
CONTINUOUS
 10
6.5624533005
 20
4.8298166493
 11
6.5614356532
 21
4.829301452
  0
LINE
  5
29E
100
AcDbEntity
  8
ALL_ASSEMBLY_MEMBERS
100
AcDbLine
 62
7
  6
CONTINUOUS
 10
6.5624634865
 20
4.8297954885
 11
6.5614356532
 21
4.829301452
  0
LINE
  5
29F
100
AcDbEntity
  8
ALL_ASSEMBLY_MEMBERS
100
AcDbLine
 62
7
  6
CONTINUOUS
 10
6.493228576
 20
4.6995529221
 11
6.491661393
 21
4.6989050262
  0
LINE
  5
2A0
100
AcDbEntity
  8
ALL_ASSEMBLY_MEMBERS
100
AcDbLine
 62
7
  6
CONTINUOUS
 10
6.4932474685
 20
4.6995266838
 11
6.491661393
 21
4.6989050262
  0
LINE
  5
2A1
100
AcDbEntity
  8
ALL_ASSEMBLY_MEMBERS
100
AcDbLine
 62
7
  6
CONTINUOUS
 10
6.4888129558
 20
3.9126902861
 11
6.4888129558
 21
3.9124996044
  0
LINE
  5
2A2
100
AcDbEntity
  8
ALL_ASSEMBLY_MEMBERS
100
AcDbLine
 62
7
  6
CONTINUOUS
 10
6.7963129558
 20
4.9862731985
 11
6.7963129558
 21
3.6262302592
  0
LINE
  5
2A3
100
AcDbEntity
  8
ALL_ASSEMBLY_MEMBERS
100
AcDbLine
 62
7
  6
CONTINUOUS
 10
6.8013129558
 20
4.8387517289
 11
6.8013129558
 21
3.7737517289
  0
ARC
  5
2A4
100
AcDbEntity
  8
ALL_ASSEMBLY_MEMBERS
100
AcDbCircle
 62
7
  6
CONTINUOUS
 10
4.2905118348
 20
3.9297900408
 40
1.0398040068
100
AcDbArc
 50
153.0903290449
 51
154.7968654652
  0
ARC
  5
2A5
100
AcDbEntity
  8
ALL_ASSEMBLY_MEMBERS
100
AcDbCircle
 62
7
  6
CONTINUOUS
 10
4.2845403439
 20
3.932615523
 40
1.0331978077
100
AcDbArc
 50
154.7976237589
 51
155.8000165526
  0
ARC
  5
2A6
100
AcDbEntity
  8
ALL_ASSEMBLY_MEMBERS
100
AcDbCircle
 62
7
  6
CONTINUOUS
 10
4.2778573487
 20
3.9355988574
 40
1.0258791761
100
AcDbArc
 50
155.7989915724
 51
157.6863383024
  0
ARC
  5
2A7
100
AcDbEntity
  8
ALL_ASSEMBLY_MEMBERS
100
AcDbCircle
 62
7
  6
CONTINUOUS
 10
4.2361321202
 20
3.9496439121
 40
1.021853755
100
AcDbArc
 50
164.1357226703
 51
166.2196021873
  0
ARC
  5
2A8
100
AcDbEntity
  8
ALL_ASSEMBLY_MEMBERS
100
AcDbCircle
 62
7
  6
CONTINUOUS
 10
4.2712048764
 20
3.9383535231
 40
1.0186789638
100
AcDbArc
 50
157.6876097303
 51
158.5162212888
  0
ARC
  5
2A9
100
AcDbEntity
  8
ALL_ASSEMBLY_MEMBERS
100
AcDbCircle
 62
7
  6
CONTINUOUS
 10
4.2270424572
 20
3.9519201322
 40
1.0124835331
100
AcDbArc
 50
166.2221788391
 51
166.6405057352
  0
ARC
  5
2AA
100
AcDbEntity
  8
ALL_ASSEMBLY_MEMBERS
100
AcDbCircle
 62
7
  6
CONTINUOUS
 10
4.2647824405
 20
3.9408573222
 40
1.0117857649
100
AcDbArc
 50
158.5149584501
 51
160.5482422177
  0
ARC
  5
2AB
100
AcDbEntity
  8
ALL_ASSEMBLY_MEMBERS
100
AcDbCircle
 62
7
  6
CONTINUOUS
 10
4.2581210037
 20
3.9432296994
 40
1.0047143752
100
AcDbArc
 50
160.5493078273
 51
161.2415476821
  0
ARC
  5
2AC
100
AcDbEntity
  8
ALL_ASSEMBLY_MEMBERS
100
AcDbCircle
 62
7
  6
CONTINUOUS
 10
4.2507516912
 20
3.9457116671
 40
0.9969383517
100
AcDbArc
 50
161.2404163556
 51
163.5569078194
  0
ARC
  5
2AD
100
AcDbEntity
  8
ALL_ASSEMBLY_MEMBERS
100
AcDbCircle
 62
7
  6
CONTINUOUS
 10
4.2412669732
 20
3.948589491
 40
0.9870267437
100
AcDbArc
 50
163.5612732982
 51
163.9804051035
  0
ARC
  5
2AE
100
AcDbEntity
  8
ALL_ASSEMBLY_MEMBERS
100
AcDbCircle
 62
7
  6
CONTINUOUS
 10
4.2410774803
 20
3.9486418836
 40
0.9868303701
100
AcDbArc
 50
163.5610861119
 51
163.980301251
  0
ARC
  5
2AF
100
AcDbEntity
  8
ALL_ASSEMBLY_MEMBERS
100
AcDbCircle
 62
7
  6
CONTINUOUS
 10
4.2318628469
 20
3.9512485564
 40
0.9772542126
100
AcDbArc
 50
163.9781029539
 51
166.7347916969
  0
ARC
  5
2B0
100
AcDbEntity
  8
ALL_ASSEMBLY_MEMBERS
100
AcDbCircle
 62
7
  6
CONTINUOUS
 10
4.2289162814
 20
3.9520137713
 40
0.9742106835
100
AcDbArc
 50
163.9735201845
 51
166.7388310895
  0
ARC
  5
2B1
100
AcDbEntity
  8
ALL_ASSEMBLY_MEMBERS
100
AcDbCircle
 62
7
  6
CONTINUOUS
 10
4.3630090018
 20
3.8826563194
 40
1.1264331908
100
AcDbArc
 50
140.058618839
 51
142.318718759
  0
ARC
  5
2B2
100
AcDbEntity
  8
ALL_ASSEMBLY_MEMBERS
100
AcDbCircle
 62
7
  6
CONTINUOUS
 10
4.3186850347
 20
3.9055724789
 40
1.1134862571
100
AcDbArc
 50
163.1154871584
 51
165.4083674324
  0
ARC
  5
2B3
100
AcDbEntity
  8
ALL_ASSEMBLY_MEMBERS
100
AcDbCircle
 62
7
  6
CONTINUOUS
 10
4.352180995
 20
3.8910916377
 40
1.112707411
100
AcDbArc
 50
142.321658329
 51
143.3772860557
  0
ARC
  5
2B4
100
AcDbEntity
  8
ALL_ASSEMBLY_MEMBERS
100
AcDbCircle
 62
7
  6
CONTINUOUS
 10
4.3447124856
 20
3.8966236285
 40
1.1034132562
100
AcDbArc
 50
143.3764855253
 51
144.9940821147
  0
ARC
  5
2B5
100
AcDbEntity
  8
ALL_ASSEMBLY_MEMBERS
100
AcDbCircle
 62
7
  6
CONTINUOUS
 10
4.3360589815
 20
3.9026974554
 40
1.0928409155
100
AcDbArc
 50
144.9946509511
 51
146.2511969255
  0
ARC
  5
2B6
100
AcDbEntity
  8
ALL_ASSEMBLY_MEMBERS
100
AcDbCircle
 62
7
  6
CONTINUOUS
 10
4.327516466
 20
3.9083990498
 40
1.0825704372
100
AcDbArc
 50
146.2509296344
 51
147.6775114607
  0
ARC
  5
2B7
100
AcDbEntity
  8
ALL_ASSEMBLY_MEMBERS
100
AcDbCircle
 62
7
  6
CONTINUOUS
 10
4.3163351093
 20
3.9154477267
 40
1.0693527384
100
AcDbArc
 50
147.7555868153
 51
149.5189522291
  0
ARC
  5
2B8
100
AcDbEntity
  8
ALL_ASSEMBLY_MEMBERS
100
AcDbCircle
 62
7
  6
CONTINUOUS
 10
4.3089786525
 20
3.9198189349
 40
1.0607956567
100
AcDbArc
 50
149.5208700338
 51
149.8679602793
  0
ARC
  5
2B9
100
AcDbEntity
  8
ALL_ASSEMBLY_MEMBERS
100
AcDbCircle
 62
7
  6
CONTINUOUS
 10
4.3057130549
 20
3.9217103025
 40
1.0570218757
100
AcDbArc
 50
149.9476849016
 51
150.3709180443
  0
ARC
  5
2BA
100
AcDbEntity
  8
ALL_ASSEMBLY_MEMBERS
100
AcDbCircle
 62
7
  6
CONTINUOUS
 10
4.3015826158
 20
3.9240387421
 40
1.0522804075
100
AcDbArc
 50
150.3541617088
 51
151.889184043
  0
ARC
  5
2BB
100
AcDbEntity
  8
ALL_ASSEMBLY_MEMBERS
100
AcDbCircle
 62
7
  6
CONTINUOUS
 10
4.2964417705
 20
3.9267912699
 40
1.0464490553
100
AcDbArc
 50
151.8894894911
 51
153.0908619947
  0
ARC
  5
2BC
100
AcDbEntity
  8
ALL_ASSEMBLY_MEMBERS
100
AcDbCircle
 62
7
  6
CONTINUOUS
 10
4.3871670525
 20
3.8589306818
 40
1.2689351652
100
AcDbArc
 50
64.4524364721
 51
89.8044359333
  0
ARC
  5
2BD
100
AcDbEntity
  8
ALL_ASSEMBLY_MEMBERS
100
AcDbCircle
 62
7
  6
CONTINUOUS
 10
4.3823224306
 20
3.8663309207
 40
1.1517224439
100
AcDbArc
 50
137.0038159184
 51
139.65103498
  0
ARC
  5
2BE
100
AcDbEntity
  8
ALL_ASSEMBLY_MEMBERS
100
AcDbCircle
 62
7
  6
CONTINUOUS
 10
4.3841826617
 20
3.8649100053
 40
1.0951082001
100
AcDbArc
 50
137.2618307329
 51
138.1260473265
  0
ARC
  5
2BF
100
AcDbEntity
  8
ALL_ASSEMBLY_MEMBERS
100
AcDbCircle
 62
7
  6
CONTINUOUS
 10
4.3876240836
 20
3.8687771253
 40
1.2598563666
100
AcDbArc
 50
66.484158405
 51
67.3327418366
  0
ARC
  5
2C0
100
AcDbEntity
  8
ALL_ASSEMBLY_MEMBERS
100
AcDbCircle
 62
7
  6
CONTINUOUS
 10
4.3894936733
 20
3.8732745803
 40
1.2549858017
100
AcDbArc
 50
67.3323745905
 51
68.7355065558
  0
ARC
  5
2C1
100
AcDbEntity
  8
ALL_ASSEMBLY_MEMBERS
100
AcDbCircle
 62
7
  6
CONTINUOUS
 10
4.3914722716
 20
3.8744631512
 40
1.2533830354
100
AcDbArc
 50
88.5765497625
 51
89.9988214209
  0
ARC
  5
2C2
100
AcDbEntity
  8
ALL_ASSEMBLY_MEMBERS
100
AcDbCircle
 62
7
  6
CONTINUOUS
 10
4.3926376498
 20
3.8767976624
 40
1.2515472343
100
AcDbArc
 50
133.9692964092
 51
134.9612633617
  0
ARC
  5
2C3
100
AcDbEntity
  8
ALL_ASSEMBLY_MEMBERS
100
AcDbCircle
 62
7
  6
CONTINUOUS
 10
4.3919082668
 20
3.8767129064
 40
1.2511715995
100
AcDbArc
 50
121.2287599956
 51
122.6732585668
  0
ARC
  5
2C4
100
AcDbEntity
  8
ALL_ASSEMBLY_MEMBERS
100
AcDbCircle
 62
7
  6
CONTINUOUS
 10
4.3920423003
 20
3.8774158618
 40
1.2506889738
100
AcDbArc
 50
133.1152880407
 51
133.9693293391
  0
ARC
  5
2C5
100
AcDbEntity
  8
ALL_ASSEMBLY_MEMBERS
100
AcDbCircle
 62
7
  6
CONTINUOUS
 10
4.3914274144
 20
3.8775700919
 40
1.2502795904
100
AcDbArc
 50
68.7466980297
 51
86.8802018381
  0
ARC
  5
2C6
100
AcDbEntity
  8
ALL_ASSEMBLY_MEMBERS
100
AcDbCircle
 62
7
  6
CONTINUOUS
 10
4.3912110576
 20
3.8783131451
 40
1.2494658468
100
AcDbArc
 50
131.0156256059
 51
133.1155849352
  0
ARC
  5
2C7
100
AcDbEntity
  8
ALL_ASSEMBLY_MEMBERS
100
AcDbCircle
 62
7
  6
CONTINUOUS
 10
4.3907287574
 20
3.8788648426
 40
1.2487330575
100
AcDbArc
 50
130.3930494365
 51
131.0155406912
  0
ARC
  5
2C8
100
AcDbEntity
  8
ALL_ASSEMBLY_MEMBERS
100
AcDbCircle
 62
7
  6
CONTINUOUS
 10
4.3902353994
 20
3.8794513954
 40
1.2479666193
100
AcDbArc
 50
128.1343069263
 51
130.3932492679
  0
ARC
  5
2C9
100
AcDbEntity
  8
ALL_ASSEMBLY_MEMBERS
100
AcDbCircle
 62
7
  6
CONTINUOUS
 10
4.389968888
 20
3.8797888523
 40
1.2475366148
100
AcDbArc
 50
127.4307565782
 51
128.1342496722
  0
ARC
  5
2CA
100
AcDbEntity
  8
ALL_ASSEMBLY_MEMBERS
100
AcDbCircle
 62
7
  6
CONTINUOUS
 10
4.3897171154
 20
3.880120816
 40
1.2471200108
100
AcDbArc
 50
122.9849989608
 51
127.4308281249
  0
ARC
  5
2CB
100
AcDbEntity
  8
ALL_ASSEMBLY_MEMBERS
100
AcDbCircle
 62
7
  6
CONTINUOUS
 10
4.3930715178
 20
3.880955633
 40
1.2465157535
100
AcDbArc
 50
64.2607027337
 51
66.490398912
  0
ARC
  5
2CC
100
AcDbEntity
  8
ALL_ASSEMBLY_MEMBERS
100
AcDbCircle
 62
7
  6
CONTINUOUS
 10
4.3916430059
 20
3.8816438301
 40
1.2462003311
100
AcDbArc
 50
86.8799059097
 51
88.5761959247
  0
ARC
  5
2CD
100
AcDbEntity
  8
ALL_ASSEMBLY_MEMBERS
100
AcDbCircle
 62
7
  6
CONTINUOUS
 10
4.3897050542
 20
3.8848084353
 40
1.2430815075
100
AcDbArc
 50
89.9173488249
 51
123.1021849713
  0
ARC
  5
2CE
100
AcDbEntity
  8
ALL_ASSEMBLY_MEMBERS
100
AcDbCircle
 62
7
  6
CONTINUOUS
 10
4.3720892655
 20
3.8751348763
 40
1.138223839
100
AcDbArc
 50
139.6552621393
 51
140.0617829998
  0
ARC
  5
2CF
100
AcDbEntity
  8
ALL_ASSEMBLY_MEMBERS
100
AcDbCircle
 62
7
  6
CONTINUOUS
 10
4.3906184469
 20
3.8998543857
 40
1.1280517777
100
AcDbArc
 50
83.2147609553
 51
85.1601364822
  0
ARC
  5
2D0
100
AcDbEntity
  8
ALL_ASSEMBLY_MEMBERS
100
AcDbCircle
 62
7
  6
CONTINUOUS
 10
4.3909879221
 20
3.902286431
 40
1.125611245
100
AcDbArc
 50
83.2186801319
 51
85.1684137735
  0
ARC
  5
2D1
100
AcDbEntity
  8
ALL_ASSEMBLY_MEMBERS
100
AcDbCircle
 62
7
  6
CONTINUOUS
 10
4.4026847767
 20
3.8465209415
 40
1.2201253745
100
AcDbArc
 50
134.3257481352
 51
138.5148337879
  0
ARC
  5
2D2
100
AcDbEntity
  8
ALL_ASSEMBLY_MEMBERS
100
AcDbCircle
 62
7
  6
CONTINUOUS
 10
4.404493603
 20
3.8634742079
 40
1.21032993
100
AcDbArc
 50
134.9597259238
 51
139.1727827356
  0
ARC
  5
2D3
100
AcDbEntity
  8
ALL_ASSEMBLY_MEMBERS
100
AcDbCircle
 62
7
  6
CONTINUOUS
 10
4.4147544945
 20
3.8327036095
 40
1.1985661476
100
AcDbArc
 50
121.3015952701
 51
122.1894277091
  0
ARC
  5
2D4
100
AcDbEntity
  8
ALL_ASSEMBLY_MEMBERS
100
AcDbCircle
 62
7
  6
CONTINUOUS
 10
4.4145196799
 20
3.8330726239
 40
1.1981287633
100
AcDbArc
 50
121.3006955967
 51
123.9084165868
  0
ARC
  5
2D5
100
AcDbEntity
  8
ALL_ASSEMBLY_MEMBERS
100
AcDbCircle
 62
7
  6
CONTINUOUS
 10
4.4142940736
 20
3.8334185412
 40
1.1977172551
100
AcDbArc
 50
119.1639246153
 51
121.3007821807
  0
ARC
  5
2D6
100
AcDbEntity
  8
ALL_ASSEMBLY_MEMBERS
100
AcDbCircle
 62
7
  6
CONTINUOUS
 10
4.4142372754
 20
3.8334873841
 40
1.1976288216
100
AcDbArc
 50
122.1886820049
 51
123.9084292145
  0
ARC
  5
2D7
100
AcDbEntity
  8
ALL_ASSEMBLY_MEMBERS
100
AcDbCircle
 62
7
  6
CONTINUOUS
 10
4.4141818971
 20
3.8336633519
 40
1.1974486122
100
AcDbArc
 50
119.1628441411
 51
121.3020438361
  0
ARC
  5
2D8
100
AcDbEntity
  8
ALL_ASSEMBLY_MEMBERS
100
AcDbCircle
 62
7
  6
CONTINUOUS
 10
4.4135860959
 20
3.8344642607
 40
1.196452986
100
AcDbArc
 50
123.9084902641
 51
125.0211001165
  0
ARC
  5
2D9
100
AcDbEntity
  8
ALL_ASSEMBLY_MEMBERS
100
AcDbCircle
 62
7
  6
CONTINUOUS
 10
4.413297254
 20
3.8348891749
 40
1.1959410261
100
AcDbArc
 50
123.9085183709
 51
125.021517488
  0
ARC
  5
2DA
100
AcDbEntity
  8
ALL_ASSEMBLY_MEMBERS
100
AcDbCircle
 62
7
  6
CONTINUOUS
 10
4.4120602236
 20
3.8366346474
 40
1.1937999033
100
AcDbArc
 50
125.0209051773
 51
126.5201102827
  0
ARC
  5
2DB
100
AcDbEntity
  8
ALL_ASSEMBLY_MEMBERS
100
AcDbCircle
 62
7
  6
CONTINUOUS
 10
4.4118428622
 20
3.8369581858
 40
1.1934119851
100
AcDbArc
 50
125.0213406986
 51
126.5209655598
  0
ARC
  5
2DC
100
AcDbEntity
  8
ALL_ASSEMBLY_MEMBERS
100
AcDbCircle
 62
7
  6
CONTINUOUS
 10
4.410687947
 20
3.8384911403
 40
1.1914912082
100
AcDbArc
 50
126.521387021
 51
129.1457495423
  0
ARC
  5
2DD
100
AcDbEntity
  8
ALL_ASSEMBLY_MEMBERS
100
AcDbCircle
 62
7
  6
CONTINUOUS
 10
4.4102730236
 20
3.8390250289
 40
1.1908158585
100
AcDbArc
 50
129.1464191428
 51
130.6490571921
  0
ARC
  5
2DE
100
AcDbEntity
  8
ALL_ASSEMBLY_MEMBERS
100
AcDbCircle
 62
7
  6
CONTINUOUS
 10
4.4101444464
 20
3.8391580298
 40
1.1906308976
100
AcDbArc
 50
129.1457253052
 51
130.6486077488
  0
ARC
  5
2DF
100
AcDbEntity
  8
ALL_ASSEMBLY_MEMBERS
100
AcDbCircle
 62
7
  6
CONTINUOUS
 10
4.4094286499
 20
3.8400105037
 40
1.1895181198
100
AcDbArc
 50
130.6491209658
 51
131.7749447438
  0
ARC
  5
2E0
100
AcDbEntity
  8
ALL_ASSEMBLY_MEMBERS
100
AcDbCircle
 62
7
  6
CONTINUOUS
 10
4.4092859735
 20
3.8401601354
 40
1.1893113563
100
AcDbArc
 50
130.6486776078
 51
131.7746731385
  0
ARC
  5
2E1
100
AcDbEntity
  8
ALL_ASSEMBLY_MEMBERS
100
AcDbCircle
 62
7
  6
CONTINUOUS
 10
4.4104084453
 20
3.8409953498
 40
1.189206854
100
AcDbArc
 50
110.3482311128
 51
117.6825397664
  0
ARC
  5
2E2
100
AcDbEntity
  8
ALL_ASSEMBLY_MEMBERS
100
AcDbCircle
 62
7
  6
CONTINUOUS
 10
4.4076719892
 20
3.841960981
 40
1.1868932188
100
AcDbArc
 50
131.774431122
 51
134.3271469256
  0
ARC
  5
2E3
100
AcDbEntity
  8
ALL_ASSEMBLY_MEMBERS
100
AcDbCircle
 62
7
  6
CONTINUOUS
 10
4.3987042633
 20
3.8510537829
 40
1.1741223407
100
AcDbArc
 50
134.3241441599
 51
137.0037134375
  0
ARC
  5
2E4
100
AcDbEntity
  8
ALL_ASSEMBLY_MEMBERS
100
AcDbCircle
 62
7
  6
CONTINUOUS
 10
4.3985194339
 20
3.8686988743
 40
1.2614404349
100
AcDbArc
 50
123.0379511404
 51
134.9317284837
  0
ARC
  5
2E5
100
AcDbEntity
  8
ALL_ASSEMBLY_MEMBERS
100
AcDbCircle
 62
7
  6
CONTINUOUS
 10
4.3989227999
 20
3.8740605928
 40
1.1542113797
100
AcDbArc
 50
96.7547725401
 51
110.3844048008
  0
ARC
  5
2E6
100
AcDbEntity
  8
ALL_ASSEMBLY_MEMBERS
100
AcDbCircle
 62
7
  6
CONTINUOUS
 10
4.3913835643
 20
3.9084214917
 40
1.1194506654
100
AcDbArc
 50
85.1621619025
 51
85.5337745575
  0
ARC
  5
2E7
100
AcDbEntity
  8
ALL_ASSEMBLY_MEMBERS
100
AcDbCircle
 62
7
  6
CONTINUOUS
 10
4.3916445097
 20
3.9096471523
 40
1.1182213774
100
AcDbArc
 50
85.1701703075
 51
85.5421940224
  0
ARC
  5
2E8
100
AcDbEntity
  8
ALL_ASSEMBLY_MEMBERS
100
AcDbCircle
 62
7
  6
CONTINUOUS
 10
4.3918915849
 20
3.9153368902
 40
1.1125167064
100
AcDbArc
 50
85.5321247705
 51
87.9574053179
  0
ARC
  5
2E9
100
AcDbEntity
  8
ALL_ASSEMBLY_MEMBERS
100
AcDbCircle
 62
7
  6
CONTINUOUS
 10
4.3927712791
 20
3.9166893445
 40
1.1111518393
100
AcDbArc
 50
93.2460097814
 51
96.1474009595
  0
ARC
  5
2EA
100
AcDbEntity
  8
ALL_ASSEMBLY_MEMBERS
100
AcDbCircle
 62
7
  6
CONTINUOUS
 10
4.3927019668
 20
3.917304241
 40
1.1105331384
100
AcDbArc
 50
96.1474820937
 51
96.6985661952
  0
ARC
  5
2EB
100
AcDbEntity
  8
ALL_ASSEMBLY_MEMBERS
100
AcDbCircle
 62
7
  6
CONTINUOUS
 10
4.3927022104
 20
3.9179586859
 40
1.1098806235
100
AcDbArc
 50
91.6990007948
 51
93.246160336
  0
ARC
  5
2EC
100
AcDbEntity
  8
ALL_ASSEMBLY_MEMBERS
100
AcDbCircle
 62
7
  6
CONTINUOUS
 10
4.3922929574
 20
3.9186425313
 40
1.1092028116
100
AcDbArc
 50
85.539472891
 51
87.9720721587
  0
ARC
  5
2ED
100
AcDbEntity
  8
ALL_ASSEMBLY_MEMBERS
100
AcDbCircle
 62
7
  6
CONTINUOUS
 10
4.3926272994
 20
3.9204838365
 40
1.1073543621
100
AcDbArc
 50
90.3451494891
 51
91.6990002553
  0
ARC
  5
2EE
100
AcDbEntity
  8
ALL_ASSEMBLY_MEMBERS
100
AcDbCircle
 62
7
  6
CONTINUOUS
 10
4.3921699097
 20
3.9221454888
 40
1.1057025143
100
AcDbArc
 50
87.9592434664
 51
88.6611817887
  0
ARC
  5
2EF
100
AcDbEntity
  8
ALL_ASSEMBLY_MEMBERS
100
AcDbCircle
 62
7
  6
CONTINUOUS
 10
4.3926094188
 20
3.9225384764
 40
1.1052996511
100
AcDbArc
 50
90.0576249591
 51
90.2646086529
  0
ARC
  5
2F0
100
AcDbEntity
  8
ALL_ASSEMBLY_MEMBERS
100
AcDbCircle
 62
7
  6
CONTINUOUS
 10
4.3926149217
 20
3.9247895347
 40
1.1030485995
100
AcDbArc
 50
88.6811222245
 51
90.0580283956
  0
ARC
  5
2F1
100
AcDbEntity
  8
ALL_ASSEMBLY_MEMBERS
100
AcDbCircle
 62
7
  6
CONTINUOUS
 10
4.3922697408
 20
3.9267996833
 40
1.1010472579
100
AcDbArc
 50
88.6607165787
 51
90.0401026358
  0
ARC
  5
2F2
100
AcDbEntity
  8
ALL_ASSEMBLY_MEMBERS
100
AcDbCircle
 62
7
  6
CONTINUOUS
 10
4.3926740456
 20
3.9277351553
 40
1.1001023985
100
AcDbArc
 50
87.9751498125
 51
88.6806696165
  0
ARC
  5
2F3
100
AcDbEntity
  8
ALL_ASSEMBLY_MEMBERS
100
AcDbCircle
 62
7
  6
CONTINUOUS
 10
4.4225343865
 20
3.9669761014
 40
0.7309929868
100
AcDbArc
 50
61.1752239494
 51
62.4538798469
  0
ARC
  5
2F4
100
AcDbEntity
  8
ALL_ASSEMBLY_MEMBERS
100
AcDbCircle
 62
7
  6
CONTINUOUS
 10
4.5024058556
 20
3.9681231039
 40
0.7180844458
100
AcDbArc
 50
116.9443962925
 51
117.6343437386
  0
ARC
  5
2F5
100
AcDbEntity
  8
ALL_ASSEMBLY_MEMBERS
100
AcDbCircle
 62
7
  6
CONTINUOUS
 10
4.5017227727
 20
3.9694824784
 40
0.7165631136
100
AcDbArc
 50
114.8379892174
 51
116.9449588383
  0
ARC
  5
2F6
100
AcDbEntity
  8
ALL_ASSEMBLY_MEMBERS
100
AcDbCircle
 62
7
  6
CONTINUOUS
 10
4.5015232212
 20
3.9696355613
 40
0.7163351356
100
AcDbArc
 50
117.6279106088
 51
123.1058688667
  0
ARC
  5
2F7
100
AcDbEntity
  8
ALL_ASSEMBLY_MEMBERS
100
AcDbCircle
 62
7
  6
CONTINUOUS
 10
4.5007379216
 20
3.9715904803
 40
0.7142364132
100
AcDbArc
 50
114.076250303
 51
114.8373252226
  0
ARC
  5
2F8
100
AcDbEntity
  8
ALL_ASSEMBLY_MEMBERS
100
AcDbCircle
 62
7
  6
CONTINUOUS
 10
4.5001852277
 20
3.9728258671
 40
0.7128830283
100
AcDbArc
 50
113.4989663136
 51
114.0761994464
  0
ARC
  5
2F9
100
AcDbEntity
  8
ALL_ASSEMBLY_MEMBERS
100
AcDbCircle
 62
7
  6
CONTINUOUS
 10
4.4974253271
 20
3.9760278305
 40
0.7087423525
100
AcDbArc
 50
123.1106163545
 51
123.6584615579
  0
ARC
  5
2FA
100
AcDbEntity
  8
ALL_ASSEMBLY_MEMBERS
100
AcDbCircle
 62
7
  6
CONTINUOUS
 10
4.4992258224
 20
3.970510431
 40
0.6751218044
100
AcDbArc
 50
119.3322485191
 51
121.7621115231
  0
ARC
  5
2FB
100
AcDbEntity
  8
ALL_ASSEMBLY_MEMBERS
100
AcDbCircle
 62
7
  6
CONTINUOUS
 10
4.4973758505
 20
3.973515728
 40
0.6715927643
100
AcDbArc
 50
121.7628833894
 51
122.4177457851
  0
ARC
  5
2FC
100
AcDbEntity
  8
ALL_ASSEMBLY_MEMBERS
100
AcDbCircle
 62
7
  6
CONTINUOUS
 10
4.4947286067
 20
3.9800371043
 40
0.7039105758
100
AcDbArc
 50
123.6566279082
 51
125.8525991132
  0
ARC
  5
2FD
100
AcDbEntity
  8
ALL_ASSEMBLY_MEMBERS
100
AcDbCircle
 62
7
  6
CONTINUOUS
 10
4.4916174225
 20
3.9843830088
 40
0.6985658787
100
AcDbArc
 50
125.8545436082
 51
126.560126707
  0
ARC
  5
2FE
100
AcDbEntity
  8
ALL_ASSEMBLY_MEMBERS
100
AcDbCircle
 62
7
  6
CONTINUOUS
 10
4.4879201795
 20
3.9893151811
 40
0.6924018776
100
AcDbArc
 50
126.5574938596
 51
128.7926271452
  0
ARC
  5
2FF
100
AcDbEntity
  8
ALL_ASSEMBLY_MEMBERS
100
AcDbCircle
 62
7
  6
CONTINUOUS
 10
4.4832351121
 20
3.9951984983
 40
0.6848811006
100
AcDbArc
 50
128.7954958044
 51
129.3285589427
  0
ARC
  5
300
100
AcDbEntity
  8
ALL_ASSEMBLY_MEMBERS
100
AcDbCircle
 62
7
  6
CONTINUOUS
 10
4.4756225641
 20
4.0043159004
 40
0.6730039985
100
AcDbArc
 50
129.3191781899
 51
132.2210692518
  0
ARC
  5
301
100
AcDbEntity
  8
ALL_ASSEMBLY_MEMBERS
100
AcDbCircle
 62
7
  6
CONTINUOUS
 10
4.4646964817
 20
4.0163094828
 40
0.656779811
100
AcDbArc
 50
132.2182960014
 51
134.4247795775
  0
ARC
  5
302
100
AcDbEntity
  8
ALL_ASSEMBLY_MEMBERS
100
AcDbCircle
 62
7
  6
CONTINUOUS
 10
4.459300812
 20
4.0348609803
 40
0.6538088896
100
AcDbArc
 50
61.1297847224
 51
63.5490026561
  0
ARC
  5
303
100
AcDbEntity
  8
ALL_ASSEMBLY_MEMBERS
100
AcDbCircle
 62
7
  6
CONTINUOUS
 10
4.4803421319
 20
4.041541764
 40
0.6411775723
100
AcDbArc
 50
98.1719524954
 51
98.4907537644
  0
ARC
  5
304
100
AcDbEntity
  8
ALL_ASSEMBLY_MEMBERS
100
AcDbCircle
 62
7
  6
CONTINUOUS
 10
4.4802354783
 20
4.0422827681
 40
0.6404289321
100
AcDbArc
 50
97.9644167321
 51
98.1719309269
  0
ARC
  5
305
100
AcDbEntity
  8
ALL_ASSEMBLY_MEMBERS
100
AcDbCircle
 62
7
  6
CONTINUOUS
 10
4.4794114918
 20
4.048776659
 40
0.6338835148
100
AcDbArc
 50
94.2453826388
 51
97.9719860903
  0
ARC
  5
306
100
AcDbEntity
  8
ALL_ASSEMBLY_MEMBERS
100
AcDbCircle
 62
7
  6
CONTINUOUS
 10
4.4791117718
 20
4.0497846703
 40
0.6328482446
100
AcDbArc
 50
94.1714337644
 51
96.9148048978
  0
ARC
  5
307
100
AcDbEntity
  8
ALL_ASSEMBLY_MEMBERS
100
AcDbCircle
 62
7
  6
CONTINUOUS
 10
4.4943776966
 20
4.1046653802
 40
0.5756874878
100
AcDbArc
 50
62.4561637594
 51
63.579989437
  0
ARC
  5
308
100
AcDbEntity
  8
ALL_ASSEMBLY_MEMBERS
100
AcDbCircle
 62
7
  6
CONTINUOUS
 10
4.482116793
 20
4.0096079275
 40
0.5741231934
100
AcDbArc
 50
99.081338182
 51
103.7406962052
  0
ARC
  5
309
100
AcDbEntity
  8
ALL_ASSEMBLY_MEMBERS
100
AcDbCircle
 62
7
  6
CONTINUOUS
 10
4.393891866
 20
4.0750528511
 40
0.5646131463
100
AcDbArc
 50
149.2309157579
 51
149.4756563124
  0
ARC
  5
30A
100
AcDbEntity
  8
ALL_ASSEMBLY_MEMBERS
100
AcDbCircle
 62
7
  6
CONTINUOUS
 10
4.3929855139
 20
4.0755928014
 40
0.5635581485
100
AcDbArc
 50
148.8965726479
 51
149.230943596
  0
ARC
  5
30B
100
AcDbEntity
  8
ALL_ASSEMBLY_MEMBERS
100
AcDbCircle
 62
7
  6
CONTINUOUS
 10
4.4765420562
 20
4.0591017238
 40
0.5244506564
100
AcDbArc
 50
64.0260281556
 51
75.2863772687
  0
ARC
  5
30C
100
AcDbEntity
  8
ALL_ASSEMBLY_MEMBERS
100
AcDbCircle
 62
7
  6
CONTINUOUS
 10
4.5079370116
 20
4.1230618001
 40
0.4532004588
100
AcDbArc
 50
63.8806365356
 51
64.0528131841
  0
ARC
  5
30D
100
AcDbEntity
  8
ALL_ASSEMBLY_MEMBERS
100
AcDbCircle
 62
7
  6
CONTINUOUS
 10
5.4241360752
 20
-0.0624434327
 40
4.1238516453
100
AcDbArc
 50
78.3644741859
 51
78.5045080466
  0
ARC
  5
30E
100
AcDbEntity
  8
ALL_ASSEMBLY_MEMBERS
100
AcDbCircle
 62
7
  6
CONTINUOUS
 10
5.2980998834
 20
3.8883122223
 40
1.4931971345
100
AcDbArc
 50
174.1170799994
 51
174.3270375724
  0
ARC
  5
30F
100
AcDbEntity
  8
ALL_ASSEMBLY_MEMBERS
100
AcDbCircle
 62
7
  6
CONTINUOUS
 10
4.4061160831
 20
4.7645936524
 40
0.3719330433
100
AcDbArc
 50
335.4662821766
 51
335.9977440396
  0
ARC
  5
310
100
AcDbEntity
  8
ALL_ASSEMBLY_MEMBERS
100
AcDbCircle
 62
7
  6
CONTINUOUS
 10
4.5439934438
 20
4.7033703766
 40
0.2210741177
100
AcDbArc
 50
335.9574510668
 51
336.7114859759
  0
ARC
  5
311
100
AcDbEntity
  8
ALL_ASSEMBLY_MEMBERS
100
AcDbCircle
 62
7
  6
CONTINUOUS
 10
4.5458483653
 20
4.7028222477
 40
0.2200102099
100
AcDbArc
 50
335.8824942764
 51
336.6401407268
  0
ARC
  5
312
100
AcDbEntity
  8
ALL_ASSEMBLY_MEMBERS
100
AcDbCircle
 62
7
  6
CONTINUOUS
 10
5.0667180394
 20
4.8128722502
 40
0.2028838753
100
AcDbArc
 50
151.6023174843
 51
152.3948885841
  0
ARC
  5
313
100
AcDbEntity
  8
ALL_ASSEMBLY_MEMBERS
100
AcDbCircle
 62
7
  6
CONTINUOUS
 10
4.1752700058
 20
4.4826904368
 40
0.0701790475
100
AcDbArc
 50
117.3727973729
 51
123.286638148
  0
ARC
  5
314
100
AcDbEntity
  8
ALL_ASSEMBLY_MEMBERS
100
AcDbCircle
 62
7
  6
CONTINUOUS
 10
6.244424868
 20
3.1463493268
 40
0.8010188574
100
AcDbArc
 50
55.6501298231
 51
55.9560263827
  0
ARC
  5
315
100
AcDbEntity
  8
ALL_ASSEMBLY_MEMBERS
100
AcDbCircle
 62
7
  6
CONTINUOUS
 10
6.2505019209
 20
3.1552595433
 40
0.7902310423
100
AcDbArc
 50
55.3582026998
 51
55.6654964485
  0
ARC
  5
316
100
AcDbEntity
  8
ALL_ASSEMBLY_MEMBERS
100
AcDbCircle
 62
7
  6
CONTINUOUS
 10
6.2657674279
 20
3.1765496426
 40
0.764033241
100
AcDbArc
 50
49.116881124
 51
54.5397057888
  0
ARC
  5
317
100
AcDbEntity
  8
ALL_ASSEMBLY_MEMBERS
100
AcDbCircle
 62
7
  6
CONTINUOUS
 10
6.2673603079
 20
3.1785031781
 40
0.7615217957
100
AcDbArc
 50
49.0609744961
 51
54.546230831
  0
ARC
  5
318
100
AcDbEntity
  8
ALL_ASSEMBLY_MEMBERS
100
AcDbCircle
 62
7
  6
CONTINUOUS
 10
6.2685532041
 20
3.1802188223
 40
0.7594356413
100
AcDbArc
 50
49.0308088191
 51
55.4082403787
  0
ARC
  5
319
100
AcDbEntity
  8
ALL_ASSEMBLY_MEMBERS
100
AcDbCircle
 62
7
  6
CONTINUOUS
 10
6.2547217362
 20
3.2478939663
 40
0.7517998078
100
AcDbArc
 50
43.9130741369
 51
52.0061226818
  0
ARC
  5
31A
100
AcDbEntity
  8
ALL_ASSEMBLY_MEMBERS
100
AcDbCircle
 62
7
  6
CONTINUOUS
 10
6.2887219381
 20
3.2036968973
 40
0.7284845609
100
AcDbArc
 50
45.8310387019
 51
49.018428519
  0
ARC
  5
31B
100
AcDbEntity
  8
ALL_ASSEMBLY_MEMBERS
100
AcDbCircle
 62
7
  6
CONTINUOUS
 10
6.2915319151
 20
3.2067552813
 40
0.7243329011
100
AcDbArc
 50
45.8219066566
 51
49.0269838767
  0
ARC
  5
31C
100
AcDbEntity
  8
ALL_ASSEMBLY_MEMBERS
100
AcDbCircle
 62
7
  6
CONTINUOUS
 10
6.1051282894
 20
7.1449874237
 40
2.4731685456
100
AcDbArc
 50
270.3759909975
 51
270.5483894218
  0
ARC
  5
31D
100
AcDbEntity
  8
ALL_ASSEMBLY_MEMBERS
100
AcDbCircle
 62
7
  6
CONTINUOUS
 10
6.0964856255
 20
6.9835417137
 40
2.3528933541
100
AcDbArc
 50
270.6711179618
 51
270.7875386775
  0
ARC
  5
31E
100
AcDbEntity
  8
ALL_ASSEMBLY_MEMBERS
100
AcDbCircle
 62
7
  6
CONTINUOUS
 10
6.1391847127
 20
6.6852689394
 40
2.1133838316
100
AcDbArc
 50
269.5355194368
 51
269.7184265426
  0
ARC
  5
31F
100
AcDbEntity
  8
ALL_ASSEMBLY_MEMBERS
100
AcDbCircle
 62
7
  6
CONTINUOUS
 10
6.1107202802
 20
5.9489248294
 40
1.3181785633
100
AcDbArc
 50
270.7869811113
 51
271.0043407345
  0
ARC
  5
320
100
AcDbEntity
  8
ALL_ASSEMBLY_MEMBERS
100
AcDbCircle
 62
7
  6
CONTINUOUS
 10
6.1172780926
 20
5.86812443
 40
1.1973666519
100
AcDbArc
 50
270.5513049596
 51
270.7724466619
  0
ARC
  5
321
100
AcDbEntity
  8
ALL_ASSEMBLY_MEMBERS
100
AcDbCircle
 62
7
  6
CONTINUOUS
 10
6.1237217038
 20
5.7964493408
 40
1.0655908331
100
AcDbArc
 50
270.273009473
 51
270.6500084561
  0
ARC
  5
322
100
AcDbEntity
  8
ALL_ASSEMBLY_MEMBERS
100
AcDbCircle
 62
7
  6
CONTINUOUS
 10
6.1223520313
 20
5.6404369639
 40
1.0114278585
100
AcDbArc
 50
296.1855698687
 51
311.7856711458
  0
ARC
  5
323
100
AcDbEntity
  8
ALL_ASSEMBLY_MEMBERS
100
AcDbCircle
 62
7
  6
CONTINUOUS
 10
6.1239716549
 20
5.7380326985
 40
1.008555983
100
AcDbArc
 50
296.1632726562
 51
311.8080775915
  0
ARC
  5
324
100
AcDbEntity
  8
ALL_ASSEMBLY_MEMBERS
100
AcDbCircle
 62
7
  6
CONTINUOUS
 10
6.1280694624
 20
5.735334944
 40
1.004522841
100
AcDbArc
 50
280.3604983616
 51
280.7161838895
  0
ARC
  5
325
100
AcDbEntity
  8
ALL_ASSEMBLY_MEMBERS
100
AcDbCircle
 62
7
  6
CONTINUOUS
 10
6.1257517693
 20
5.6338609955
 40
1.0040265599
100
AcDbArc
 50
295.9640891495
 51
296.1770682397
  0
ARC
  5
326
100
AcDbEntity
  8
ALL_ASSEMBLY_MEMBERS
100
AcDbCircle
 62
7
  6
CONTINUOUS
 10
6.1262989539
 20
5.6330730755
 40
1.0030753101
100
AcDbArc
 50
291.4582707086
 51
295.9555689322
  0
ARC
  5
327
100
AcDbEntity
  8
ALL_ASSEMBLY_MEMBERS
100
AcDbCircle
 62
7
  6
CONTINUOUS
 10
6.1287756618
 20
5.7309419059
 40
1.0000760519
100
AcDbArc
 50
283.7468732701
 51
294.6567563769
  0
ARC
  5
328
100
AcDbEntity
  8
ALL_ASSEMBLY_MEMBERS
100
AcDbCircle
 62
7
  6
CONTINUOUS
 10
6.1048644056
 20
5.5651460804
 40
0.9998566651
100
AcDbArc
 50
308.0970606803
 51
313.7527458065
  0
ARC
  5
329
100
AcDbEntity
  8
ALL_ASSEMBLY_MEMBERS
100
AcDbCircle
 62
7
  6
CONTINUOUS
 10
6.1289852612
 20
5.730511347
 40
0.9996130785
100
AcDbArc
 50
280.7160172145
 51
281.2130624272
  0
ARC
  5
32A
100
AcDbEntity
  8
ALL_ASSEMBLY_MEMBERS
100
AcDbCircle
 62
7
  6
CONTINUOUS
 10
6.1295035975
 20
5.7292635703
 40
0.998247061
100
AcDbArc
 50
294.6589721743
 51
294.8376805719
  0
ARC
  5
32B
100
AcDbEntity
  8
ALL_ASSEMBLY_MEMBERS
100
AcDbCircle
 62
7
  6
CONTINUOUS
 10
6.1296203694
 20
5.7290115899
 40
0.9979693385
100
AcDbArc
 50
294.8376733075
 51
295.1696396645
  0
ARC
  5
32C
100
AcDbEntity
  8
ALL_ASSEMBLY_MEMBERS
100
AcDbCircle
 62
7
  6
CONTINUOUS
 10
6.1297635411
 20
5.7287067032
 40
0.9976325091
100
AcDbArc
 50
295.1696448528
 51
295.4050638073
  0
ARC
  5
32D
100
AcDbEntity
  8
ALL_ASSEMBLY_MEMBERS
100
AcDbCircle
 62
7
  6
CONTINUOUS
 10
6.1285942392
 20
5.627819044
 40
0.9973499796
100
AcDbArc
 50
291.4345007427
 51
295.9692386473
  0
ARC
  5
32E
100
AcDbEntity
  8
ALL_ASSEMBLY_MEMBERS
100
AcDbCircle
 62
7
  6
CONTINUOUS
 10
6.1298923919
 20
5.7284354085
 40
0.9973321704
100
AcDbArc
 50
295.4050637432
 51
295.6388804074
  0
ARC
  5
32F
100
AcDbEntity
  8
ALL_ASSEMBLY_MEMBERS
100
AcDbCircle
 62
7
  6
CONTINUOUS
 10
6.1301218707
 20
5.7279586463
 40
0.9968030551
100
AcDbArc
 50
295.7043961804
 51
296.1011160539
  0
ARC
  5
330
100
AcDbEntity
  8
ALL_ASSEMBLY_MEMBERS
100
AcDbCircle
 62
7
  6
CONTINUOUS
 10
6.1074811284
 20
5.5618687906
 40
0.9956630417
100
AcDbArc
 50
307.7687424165
 51
308.0949199567
  0
ARC
  5
331
100
AcDbEntity
  8
ALL_ASSEMBLY_MEMBERS
100
AcDbCircle
 62
7
  6
CONTINUOUS
 10
6.1301215082
 20
5.7248506282
 40
0.9938394511
100
AcDbArc
 50
281.2760429848
 51
283.7549555271
  0
ARC
  5
332
100
AcDbEntity
  8
ALL_ASSEMBLY_MEMBERS
100
AcDbCircle
 62
7
  6
CONTINUOUS
 10
6.1312688137
 20
5.7232751417
 40
0.9920897236
100
AcDbArc
 50
280.2546850711
 51
296.1608215206
  0
ARC
  5
333
100
AcDbEntity
  8
ALL_ASSEMBLY_MEMBERS
100
AcDbCircle
 62
7
  6
CONTINUOUS
 10
6.135491664
 20
5.6089798379
 40
0.9772933031
100
AcDbArc
 50
282.2925290605
 51
291.4617141546
  0
ARC
  5
334
100
AcDbEntity
  8
ALL_ASSEMBLY_MEMBERS
100
AcDbCircle
 62
7
  6
CONTINUOUS
 10
6.1381032326
 20
5.6007456259
 40
0.9686656122
100
AcDbArc
 50
282.2445830954
 51
291.4071974578
  0
ARC
  5
335
100
AcDbEntity
  8
ALL_ASSEMBLY_MEMBERS
100
AcDbCircle
 62
7
  6
CONTINUOUS
 10
6.1392168996
 20
5.5944430731
 40
0.9622968582
100
AcDbArc
 50
280.0948378237
 51
282.2600849004
  0
ARC
  5
336
100
AcDbEntity
  8
ALL_ASSEMBLY_MEMBERS
100
AcDbCircle
 62
7
  6
CONTINUOUS
 10
6.3123362197
 20
7.8496348076
 40
3.2616151506
100
AcDbArc
 50
245.3040697088
 51
245.4827442172
  0
ARC
  5
337
100
AcDbEntity
  8
ALL_ASSEMBLY_MEMBERS
100
AcDbCircle
 62
7
  6
CONTINUOUS
 10
6.3347659508
 20
7.9235547174
 40
3.2382134026
100
AcDbArc
 50
244.4006246956
 51
245.7261471316
  0
ARC
  5
338
100
AcDbEntity
  8
ALL_ASSEMBLY_MEMBERS
100
AcDbCircle
 62
7
  6
CONTINUOUS
 10
6.1405532882
 20
7.5323122486
 40
2.8026223033
100
AcDbArc
 50
252.9191321779
 51
261.3385120452
  0
ARC
  5
339
100
AcDbEntity
  8
ALL_ASSEMBLY_MEMBERS
100
AcDbCircle
 62
7
  6
CONTINUOUS
 10
6.1288896728
 20
7.48085776
 40
2.75
100
AcDbArc
 50
261.417305641
 51
269.9981136209
  0
ARC
  5
33A
100
AcDbEntity
  8
ALL_ASSEMBLY_MEMBERS
100
AcDbCircle
 62
7
  6
CONTINUOUS
 10
6.1287585329
 20
7.4807553301
 40
2.749877944
100
AcDbArc
 50
246.0138513505
 51
252.6046154526
  0
ARC
  5
33B
100
AcDbEntity
  8
ALL_ASSEMBLY_MEMBERS
100
AcDbCircle
 62
7
  6
CONTINUOUS
 10
6.1274322763
 20
7.4765949434
 40
2.7455113919
100
AcDbArc
 50
252.6528323953
 51
252.8393480542
  0
ARC
  5
33C
100
AcDbEntity
  8
ALL_ASSEMBLY_MEMBERS
100
AcDbCircle
 62
7
  6
CONTINUOUS
 10
6.0893387105
 20
7.3589107352
 40
2.7225991434
100
AcDbArc
 50
245.5541985829
 51
246.2512700683
  0
ARC
  5
33D
100
AcDbEntity
  8
ALL_ASSEMBLY_MEMBERS
100
AcDbCircle
 62
7
  6
CONTINUOUS
 10
6.1118669017
 20
7.4360387127
 40
2.7021683137
100
AcDbArc
 50
245.7850024399
 51
252.9009710456
  0
ARC
  5
33E
100
AcDbEntity
  8
ALL_ASSEMBLY_MEMBERS
100
AcDbCircle
 62
7
  6
CONTINUOUS
 10
6.036597795
 20
7.2411056041
 40
2.5935296773
100
AcDbArc
 50
245.5375703106
 51
246.2696416192
  0
ARC
  5
33F
100
AcDbEntity
  8
ALL_ASSEMBLY_MEMBERS
100
AcDbCircle
 62
7
  6
CONTINUOUS
 10
6.4922778657
 20
6.7336272173
 40
2.7104291504
100
AcDbArc
 50
240.6058003614
 51
240.7465007141
  0
ARC
  5
340
100
AcDbEntity
  8
ALL_ASSEMBLY_MEMBERS
100
AcDbCircle
 62
7
  6
CONTINUOUS
 10
6.6338291644
 20
6.3738852255
 40
2.424752651
100
AcDbArc
 50
256.3053840159
 51
257.8497607458
  0
ARC
  5
341
100
AcDbEntity
  8
ALL_ASSEMBLY_MEMBERS
100
AcDbCircle
 62
7
  6
CONTINUOUS
 10
6.7743720927
 20
8.8491035212
 40
4.3627130316
100
AcDbArc
 50
245.0055526787
 51
245.1659441449
  0
ARC
  5
342
100
AcDbEntity
  8
ALL_ASSEMBLY_MEMBERS
100
AcDbCircle
 62
7
  6
CONTINUOUS
 10
6.7679911679
 20
8.8354312561
 40
4.3476254278
100
AcDbArc
 50
245.0056460709
 51
245.1665874271
  0
ARC
  5
343
100
AcDbEntity
  8
ALL_ASSEMBLY_MEMBERS
100
AcDbCircle
 62
7
  6
CONTINUOUS
 10
6.4431242395
 20
8.1339939247
 40
3.5746100443
100
AcDbArc
 50
245.1703820337
 51
245.3037439485
  0
ARC
  5
344
100
AcDbEntity
  8
ALL_ASSEMBLY_MEMBERS
100
AcDbCircle
 62
7
  6
CONTINUOUS
 10
6.4283498288
 20
8.1019748884
 40
3.5393464476
100
AcDbArc
 50
245.1697833332
 51
245.3044836645
  0
SPLINE
  5
345
100
AcDbEntity
  8
ALL_ASSEMBLY_MEMBERS
100
AcDbSpline
 62
7
  6
CONTINUOUS
 70
0
 71
3
 72
9
 73
5
 74
0
 42
0.0000001
 43
0.0000001
 44
0.0000000001
 40
0.0
 40
0.0
 40
0.0
 40
0.0
 40
0.5000613749
 40
1.0
 40
1.0
 40
1.0
 40
1.0
 10
5.9513078865
 20
3.9459862391
 30
0.0
 10
5.9797854833
 20
3.9380602956
 30
0.0
 10
6.0369535371
 20
3.922989367
 30
0.0
 10
6.0945481921
 20
3.9096261006
 30
0.0
 10
6.1234483389
 20
3.9034498006
 30
0.0
  0
SPLINE
  5
346
100
AcDbEntity
  8
ALL_ASSEMBLY_MEMBERS
100
AcDbSpline
 62
7
  6
CONTINUOUS
 70
0
 71
3
 72
10
 73
6
 74
0
 42
0.0000001
 43
0.0000001
 44
0.0000000001
 40
0.0
 40
0.0
 40
0.0
 40
0.0
 40
0.2508119667
 40
0.5014233718
 40
1.0
 40
1.0
 40
1.0
 40
1.0
 10
6.1358103463
 20
4.73092708
 30
0.0
 10
6.1502724951
 20
4.7310909833
 30
0.0
 10
6.1791828885
 20
4.7319991709
 30
0.0
 10
6.2367099141
 20
4.7361201227
 30
0.0
 10
6.2795897158
 20
4.7419351937
 30
0.0
 10
6.3078838826
 20
4.747036906
 30
0.0
  0
SPLINE
  5
347
100
AcDbEntity
  8
ALL_ASSEMBLY_MEMBERS
100
AcDbSpline
 62
7
  6
CONTINUOUS
 70
0
 71
3
 72
16
 73
12
 74
0
 42
0.0000001
 43
0.0000001
 44
0.0000000001
 40
0.0
 40
0.0
 40
0.0
 40
0.0
 40
0.1249369196
 40
0.2499629359
 40
0.3749799585
 40
0.4999712179
 40
0.5624737139
 40
0.6249789506
 40
0.7499835125
 40
0.8749943606
 40
1.0
 40
1.0
 40
1.0
 40
1.0
 10
3.1840907709
 20
4.2013699926
 30
0.0
 10
3.190978575
 20
4.2277466677
 30
0.0
 10
3.2065918484
 20
4.2800586216
 30
0.0
 10
3.2352711713
 20
4.3567509071
 30
0.0
 10
3.2690147423
 20
4.4313680261
 30
0.0
 10
3.3012076279
 20
4.4915417375
 30
0.0
 10
3.32931141
 20
4.5383048901
 30
0.0
 10
3.3589575036
 20
4.5841091277
 30
0.0
 10
3.3988324571
 20
4.6394940665
 30
0.0
 10
3.450912252
 20
4.7026803332
 30
0.0
 10
3.488298785
 20
4.7424709286
 30
0.0
 10
3.5076098232
 20
4.7617341682
 30
0.0
  0
SPLINE
  5
348
100
AcDbEntity
  8
ALL_ASSEMBLY_MEMBERS
100
AcDbSpline
 62
7
  6
CONTINUOUS
 70
0
 71
3
 72
11
 73
7
 74
0
 42
0.0000001
 43
0.0000001
 44
0.0000000001
 40
0.0
 40
0.0
 40
0.0
 40
0.0
 40
0.5013372463
 40
0.7513013729
 40
0.8758495057
 40
1.0
 40
1.0
 40
1.0
 40
1.0
 10
6.135253991
 20
4.6309749867
 30
0.0
 10
6.164249012
 20
4.6315139576
 30
0.0
 10
6.2077012305
 20
4.6337389862
 30
0.0
 10
6.2580689384
 20
4.639323878
 30
0.0
 10
6.2866238586
 20
4.6434221232
 30
0.0
 10
6.3008160373
 20
4.6457848079
 30
0.0
 10
6.307886392
 20
4.6470435557
 30
0.0
  0
LINE
  5
349
100
AcDbEntity
  8
ALL_ASSEMBLY_MEMBERS
100
AcDbLine
 62
7
  6
CONTINUOUS
 10
4.8917712972
 20
4.9133413936
 11
4.9258596061
 21
4.8973598485
  0
SPLINE
  5
34A
100
AcDbEntity
  8
ALL_ASSEMBLY_MEMBERS
100
AcDbSpline
 62
7
  6
CONTINUOUS
 70
0
 71
3
 72
11
 73
7
 74
0
 42
0.0000001
 43
0.0000001
 44
0.0000000001
 40
0.0
 40
0.0
 40
0.0
 40
0.0
 40
0.2500599273
 40
0.5000776292
 40
0.7500596991
 40
1.0
 40
1.0
 40
1.0
 40
1.0
 10
5.6123507484
 20
4.0582569222
 30
0.0
 10
5.6401988174
 20
4.0477277514
 30
0.0
 10
5.6960810406
 20
4.0271713437
 30
0.0
 10
5.7804866524
 20
3.9979875143
 30
0.0
 10
5.8655160949
 20
3.9707161186
 30
0.0
 10
5.9226396784
 20
3.9539652339
 30
0.0
 10
5.9513078865
 20
3.9459862391
 30
0.0
  0
SPLINE
  5
34B
100
AcDbEntity
  8
ALL_ASSEMBLY_MEMBERS
100
AcDbSpline
 62
7
  6
CONTINUOUS
 70
0
 71
3
 72
13
 73
9
 74
0
 42
0.0000001
 43
0.0000001
 44
0.0000000001
 40
0.0
 40
0.0
 40
0.0
 40
0.0
 40
0.2499735822
 40
0.3750514986
 40
0.5001134102
 40
0.6251437421
 40
0.7501402715
 40
1.0
 40
1.0
 40
1.0
 40
1.0
 10
4.8904625863
 20
4.9139542227
 30
0.0
 10
4.8615435068
 20
4.9274839564
 30
0.0
 10
4.8173839113
 20
4.9462015241
 30
0.0
 10
4.7572205098
 20
4.967696431
 30
0.0
 10
4.7114791092
 20
4.9820196244
 30
0.0
 10
4.6652080994
 20
4.9944891018
 30
0.0
 10
4.6029243808
 20
5.0085851517
 30
0.0
 10
4.5555901842
 20
5.0162556031
 30
0.0
 10
4.5239003519
 20
5.0200229656
 30
0.0
  0
SPLINE
  5
34C
100
AcDbEntity
  8
ALL_ASSEMBLY_MEMBERS
100
AcDbSpline
 62
7
  6
CONTINUOUS
 70
0
 71
3
 72
18
 73
14
 74
0
 42
0.0000001
 43
0.0000001
 44
0.0000000001
 40
0.0
 40
0.0
 40
0.0
 40
0.0
 40
0.0313338291
 40
0.0626601105
 40
0.1252907811
 40
0.1878938034
 40
0.2504698738
 40
0.4380423788
 40
0.6254305433
 40
0.719081378
 40
0.8127183127
 40
0.9063538717
 40
1.0
 40
1.0
 40
1.0
 40
1.0
 10
4.7856933348
 20
4.4858418464
 30
0.0
 10
4.7893680594
 20
4.4836087189
 30
0.0
 10
4.7967103896
 20
4.4791327467
 30
0.0
 10
4.811380222
 20
4.4701642885
 30
0.0
 10
4.8296863283
 20
4.4589168297
 30
0.0
 10
4.8516139421
 20
4.4453717434
 30
0.0
 10
4.8880998698
 20
4.4227685017
 30
0.0
 10
4.9391005357
 20
4.3910779686
 30
0.0
 10
4.9939056097
 20
4.3574295351
 30
0.0
 10
5.0379786679
 20
4.3309449146
 30
0.0
 10
5.0711840665
 20
4.3113564551
 30
0.0
 10
5.1045836527
 20
4.2921018466
 30
0.0
 10
5.1270034674
 20
4.2795339103
 30
0.0
 10
5.1382547291
 20
4.2733236435
 30
0.0
  0
LINE
  5
34D
100
AcDbEntity
  8
ALL_ASSEMBLY_MEMBERS
100
AcDbLine
 62
7
  6
CONTINUOUS
 10
6.1373800542
 20
4.0005042211
 11
6.192956934
 21
3.9892649199
  0
LINE
  5
34E
100
AcDbEntity
  8
ALL_ASSEMBLY_MEMBERS
100
AcDbLine
 62
7
  6
CONTINUOUS
 10
6.192956934
 20
3.9892649199
 11
6.2459819051
 21
3.9786853483
  0
SPLINE
  5
34F
100
AcDbEntity
  8
ALL_ASSEMBLY_MEMBERS
100
AcDbSpline
 62
7
  6
CONTINUOUS
 70
0
 71
3
 72
9
 73
5
 74
0
 42
0.0000001
 43
0.0000001
 44
0.0000000001
 40
0.0
 40
0.0
 40
0.0
 40
0.0
 40
0.2506295943
 40
1.0
 40
1.0
 40
1.0
 40
1.0
 10
6.2558561692
 20
3.9766646468
 30
0.0
 10
6.2602107359
 20
3.9757678051
 30
0.0
 10
6.2775788712
 20
3.9721588631
 30
0.0
 10
6.2949166795
 20
3.9684015952
 30
0.0
 10
6.3078797908
 20
3.9654575829
 30
0.0
  0
SPLINE
  5
350
100
AcDbEntity
  8
ALL_ASSEMBLY_MEMBERS
100
AcDbSpline
 62
7
  6
CONTINUOUS
 70
0
 71
3
 72
9
 73
5
 74
0
 42
0.0000001
 43
0.0000001
 44
0.0000000001
 40
0.0
 40
0.0
 40
0.0
 40
0.0
 40
0.4999680005
 40
1.0
 40
1.0
 40
1.0
 40
1.0
 10
5.1382547291
 20
4.2733236435
 30
0.0
 10
5.2142610821
 20
4.2313710389
 30
0.0
 10
5.3702181802
 20
4.154489716
 30
0.0
 10
5.531135052
 20
4.0889640398
 30
0.0
 10
5.6123507484
 20
4.0582569222
 30
0.0
  0
LINE
  5
351
100
AcDbEntity
  8
ALL_ASSEMBLY_MEMBERS
100
AcDbLine
 62
7
  6
CONTINUOUS
 10
6.6962107388
 20
3.8077997718
 11
6.6928570315
 21
3.8100779658
  0
SPLINE
  5
352
100
AcDbEntity
  8
ALL_ASSEMBLY_MEMBERS
100
AcDbSpline
 62
7
  6
CONTINUOUS
 70
0
 71
3
 72
11
 73
7
 74
0
 42
0.0000001
 43
0.0000001
 44
0.0000000001
 40
0.0
 40
0.0
 40
0.0
 40
0.0
 40
0.2462234951
 40
0.4952069889
 40
0.7466077422
 40
1.0
 40
1.0
 40
1.0
 40
1.0
 10
6.4914920004
 20
3.911742791
 30
0.0
 10
6.476764693
 20
3.9172177136
 30
0.0
 10
6.4469202503
 20
3.9276327487
 30
0.0
 10
6.4013826648
 20
3.9416688528
 30
0.0
 10
6.3549686743
 20
3.9543215645
 30
0.0
 10
6.3236508333
 20
3.9618784785
 30
0.0
 10
6.3078844279
 20
3.9654663971
 30
0.0
  0
SPLINE
  5
353
100
AcDbEntity
  8
ALL_ASSEMBLY_MEMBERS
100
AcDbSpline
 62
7
  6
CONTINUOUS
 70
0
 71
3
 72
13
 73
9
 74
0
 42
0.0000001
 43
0.0000001
 44
0.0000000001
 40
0.0
 40
0.0
 40
0.0
 40
0.0
 40
0.2499088832
 40
0.4998818873
 40
0.6248838139
 40
0.7499046306
 40
0.8749440121
 40
1.0
 40
1.0
 40
1.0
 40
1.0
 10
6.0597728283
 20
4.0180477154
 30
0.0
 10
6.0229738563
 20
4.0269963191
 30
0.0
 10
5.9497612254
 20
4.0465483404
 30
0.0
 10
5.8592508428
 20
4.0744518723
 30
0.0
 10
5.7873959129
 20
4.0984991195
 30
0.0
 10
5.733762373
 20
4.117317399
 30
0.0
 10
5.6803679477
 20
4.1368259865
 30
0.0
 10
5.6449289235
 20
4.1502625967
 30
0.0
 10
5.6272502374
 20
4.1570895681
 30
0.0
  0
SPLINE
  5
354
100
AcDbEntity
  8
ALL_ASSEMBLY_MEMBERS
100
AcDbSpline
 62
7
  6
CONTINUOUS
 70
0
 71
3
 72
9
 73
5
 74
0
 42
0.0000001
 43
0.0000001
 44
0.0000000001
 40
0.0
 40
0.0
 40
0.0
 40
0.0
 40
0.2500488466
 40
1.0
 40
1.0
 40
1.0
 40
1.0
 10
4.7753810512
 20
4.6071715833
 30
0.0
 10
4.7777172975
 20
4.6058852621
 30
0.0
 10
4.7870346828
 20
4.6006941262
 30
0.0
 10
4.7962549533
 20
4.5953301372
 30
0.0
 10
4.8031338875
 20
4.5912483555
 30
0.0
  0
LINE
  5
355
100
AcDbEntity
  8
ALL_ASSEMBLY_MEMBERS
100
AcDbLine
 62
7
  6
CONTINUOUS
 10
4.8031338875
 20
4.5912483555
 11
4.8266106746
 21
4.5770852548
  0
SPLINE
  5
356
100
AcDbEntity
  8
ALL_ASSEMBLY_MEMBERS
100
AcDbSpline
 62
7
  6
CONTINUOUS
 70
0
 71
3
 72
23
 73
19
 74
0
 42
0.0000001
 43
0.0000001
 44
0.0000000001
 40
0.0
 40
0.0
 40
0.0
 40
0.0
 40
0.0673756317
 40
0.1346256615
 40
0.1681678085
 40
0.2016337681
 40
0.2350033976
 40
0.2682545215
 40
0.3013673826
 40
0.3343257367
 40
0.3997212533
 40
0.5280557422
 40
0.652545436
 40
0.7726927756
 40
0.8311048883
 40
0.8884202237
 40
0.9446945491
 40
1.0
 40
1.0
 40
1.0
 40
1.0
 10
6.1287991335
 20
3.9023122536
 30
0.0
 10
6.144919154
 20
3.8989038446
 30
0.0
 10
6.177187158
 20
3.8923690546
 30
0.0
 10
6.217542201
 20
3.8844508109
 30
0.0
 10
6.2497306912
 20
3.8779803435
 30
0.0
 10
6.2737649636
 20
3.8729885907
 30
0.0
 10
6.2976845306
 20
3.8677985091
 30
0.0
 10
6.3214617475
 20
3.8623655062
 30
0.0
 10
6.3450664086
 20
3.8566377187
 30
0.0
 10
6.3761955688
 20
3.8485969545
 30
0.0
 10
6.4295444422
 20
3.8335054118
 30
0.0
 10
6.5033418762
 20
3.8085731064
 30
0.0
 10
6.5872112588
 20
3.7724468255
 30
0.0
 10
6.652357113
 20
3.7368342971
 30
0.0
 10
6.7006644208
 20
3.7052694656
 30
0.0
 10
6.7346062417
 20
3.6803892718
 30
0.0
 10
6.7665353256
 20
3.6541575759
 30
0.0
 10
6.7866258993
 20
3.6356684068
 30
0.0
 10
6.7963129558
 20
3.6262302592
 30
0.0
  0
SPLINE
  5
357
100
AcDbEntity
  8
ALL_ASSEMBLY_MEMBERS
100
AcDbSpline
 62
7
  6
CONTINUOUS
 70
0
 71
3
 72
13
 73
9
 74
0
 42
0.0000001
 43
0.0000001
 44
0.0000000001
 40
0.0
 40
0.0
 40
0.0
 40
0.0
 40
0.1250492966
 40
0.2500922487
 40
0.3751205535
 40
0.5001342779
 40
0.7501081166
 40
1.0
 40
1.0
 40
1.0
 40
1.0
 10
4.7074550376
 20
4.5299809724
 30
0.0
 10
4.7108182914
 20
4.5283321278
 30
0.0
 10
4.7175059459
 20
4.524955363
 30
0.0
 10
4.7274464675
 20
4.51971628
 30
0.0
 10
4.7373077205
 20
4.5143316853
 30
0.0
 10
4.7503512423
 20
4.5069696523
 30
0.0
 10
4.7664854773
 20
4.4974789245
 30
0.0
 10
4.7792966754
 20
4.4897290918
 30
0.0
 10
4.7856933348
 20
4.4858418464
 30
0.0
  0
LINE
  5
358
100
AcDbEntity
  8
ALL_ASSEMBLY_MEMBERS
100
AcDbLine
 62
7
  6
CONTINUOUS
 10
4.8266106746
 20
4.5770852548
 11
4.8312290011
 21
4.5742631276
  0
SPLINE
  5
359
100
AcDbEntity
  8
ALL_ASSEMBLY_MEMBERS
100
AcDbSpline
 62
7
  6
CONTINUOUS
 70
0
 71
3
 72
10
 73
6
 74
0
 42
0.0000001
 43
0.0000001
 44
0.0000000001
 40
0.0
 40
0.0
 40
0.0
 40
0.0
 40
0.2504862089
 40
0.500548865
 40
1.0
 40
1.0
 40
1.0
 40
1.0
 10
4.8312290011
 20
4.5742631276
 30
0.0
 10
4.8588374027
 20
4.5573736942
 30
0.0
 10
4.9137167044
 20
4.5231468927
 30
0.0
 10
5.0230504614
 20
4.4543104538
 30
0.0
 10
5.1057319085
 20
4.4038030104
 30
0.0
 10
5.1619570822
 20
4.3721292197
 30
0.0
  0
SPLINE
  5
35A
100
AcDbEntity
  8
ALL_ASSEMBLY_MEMBERS
100
AcDbSpline
 62
7
  6
CONTINUOUS
 70
0
 71
3
 72
14
 73
10
 74
0
 42
0.0000001
 43
0.0000001
 44
0.0000000001
 40
0.0
 40
0.0
 40
0.0
 40
0.0
 40
0.1249713814
 40
0.2499695643
 40
0.4999980221
 40
0.6250216406
 40
0.7500352147
 40
0.8750302806
 40
1.0
 40
1.0
 40
1.0
 40
1.0
 10
5.1677601814
 20
4.3688694954
 30
0.0
 10
5.1861635533
 20
4.3585616249
 30
0.0
 10
5.2232166657
 20
4.3383730589
 30
0.0
 10
5.298209142
 20
4.2996538538
 30
0.0
 10
5.3743941425
 20
4.2632701316
 30
0.0
 10
5.4515030673
 20
4.2289375475
 30
0.0
 10
5.5097410024
 20
4.2041250606
 30
0.0
 10
5.5683320657
 20
4.1801850846
 30
0.0
 10
5.6075940864
 20
4.1647363447
 30
0.0
 10
5.6272699445
 20
4.1571346959
 30
0.0
  0
SPLINE
  5
35B
100
AcDbEntity
  8
ALL_ASSEMBLY_MEMBERS
100
AcDbSpline
 62
7
  6
CONTINUOUS
 70
0
 71
3
 72
13
 73
9
 74
0
 42
0.0000001
 43
0.0000001
 44
0.0000000001
 40
0.0
 40
0.0
 40
0.0
 40
0.0
 40
0.1248160272
 40
0.2496260704
 40
0.3744711146
 40
0.4993853356
 40
0.749464795
 40
1.0
 40
1.0
 40
1.0
 40
1.0
 10
5.1619797027
 20
4.3721641006
 30
0.0
 10
5.1479237357
 20
4.3800723171
 30
0.0
 10
5.119939545
 20
4.3961154621
 30
0.0
 10
5.0783363568
 20
4.4208256259
 30
0.0
 10
5.037012743
 20
4.446023583
 30
0.0
 10
4.9821350268
 20
4.4800799894
 30
0.0
 10
4.9137323818
 20
4.5231385744
 30
0.0
 10
4.8588292188
 20
4.557345432
 30
0.0
 10
4.8312290986
 20
4.5742633471
 30
0.0
  0
SPLINE
  5
35C
100
AcDbEntity
  8
ALL_ASSEMBLY_MEMBERS
100
AcDbSpline
 62
7
  6
CONTINUOUS
 70
0
 71
3
 72
14
 73
10
 74
0
 42
0.0000001
 43
0.0000001
 44
0.0000000001
 40
0.0
 40
0.0
 40
0.0
 40
0.0
 40
0.1250448507
 40
0.2500714975
 40
0.3750837626
 40
0.5000860528
 40
0.7500513224
 40
0.8750276574
 40
1.0
 40
1.0
 40
1.0
 40
1.0
 10
5.6272699445
 20
4.1571346959
 30
0.0
 10
5.6449461243
 20
4.1503056108
 30
0.0
 10
5.6803745037
 20
4.1368507834
 30
0.0
 10
5.733750511
 20
4.1173050683
 30
0.0
 10
5.7873773734
 20
4.0984755998
 30
0.0
 10
5.8592320115
 20
4.0744352376
 30
0.0
 10
5.9316608051
 20
4.0521449092
 30
0.0
 10
6.0046730254
 20
4.0319206711
 30
0.0
 10
6.0413759382
 20
4.0225463284
 30
0.0
 10
6.0597766129
 20
4.0180649678
 30
0.0
  0
LINE
  5
35D
100
AcDbEntity
  8
ALL_ASSEMBLY_MEMBERS
100
AcDbLine
 62
7
  6
CONTINUOUS
 10
6.245982075
 20
3.9786795267
 11
6.1929510247
 21
3.9892531627
  0
LINE
  5
35E
100
AcDbEntity
  8
ALL_ASSEMBLY_MEMBERS
100
AcDbLine
 62
7
  6
CONTINUOUS
 10
6.1929510247
 20
3.9892531627
 11
6.1373802557
 21
4.0005033033
  0
SPLINE
  5
35F
100
AcDbEntity
  8
ALL_ASSEMBLY_MEMBERS
100
AcDbSpline
 62
7
  6
CONTINUOUS
 70
0
 71
3
 72
12
 73
8
 74
0
 42
0.0000001
 43
0.0000001
 44
0.0000000001
 40
0.0
 40
0.0
 40
0.0
 40
0.0
 40
0.1273390046
 40
0.2541181687
 40
0.5057619633
 40
0.7545194326
 40
1.0
 40
1.0
 40
1.0
 40
1.0
 10
6.3078797908
 20
3.9654575829
 30
0.0
 10
6.3158009999
 20
3.9636586215
 30
0.0
 10
6.331586807
 20
3.9599712381
 30
0.0
 10
6.3628952412
 20
3.9521802891
 30
0.0
 10
6.4014997499
 20
3.9416500369
 30
0.0
 10
6.4469707917
 20
3.9276131229
 30
0.0
 10
6.4767464148
 20
3.9172227003
 30
0.0
 10
6.491424789
 20
3.9117679889
 30
0.0
  0
SPLINE
  5
360
100
AcDbEntity
  8
ALL_ASSEMBLY_MEMBERS
100
AcDbSpline
 62
7
  6
CONTINUOUS
 70
0
 71
3
 72
10
 73
6
 74
0
 42
0.0000001
 43
0.0000001
 44
0.0000000001
 40
0.0
 40
0.0
 40
0.0
 40
0.0
 40
0.5111445646
 40
0.758463731
 40
1.0
 40
1.0
 40
1.0
 40
1.0
 10
6.4930577329
 20
3.9111597751
 30
0.0
 10
6.5288710546
 20
3.8977901129
 30
0.0
 10
6.5811170509
 20
3.8753054717
 30
0.0
 10
6.6468946206
 20
3.8396429013
 30
0.0
 10
6.6778904894
 20
3.8201928864
 30
0.0
 10
6.6928584637
 20
3.8100800857
 30
0.0
  0
SPLINE
  5
361
100
AcDbEntity
  8
ALL_ASSEMBLY_MEMBERS
100
AcDbSpline
 62
7
  6
CONTINUOUS
 70
0
 71
3
 72
9
 73
5
 74
0
 42
0.0000001
 43
0.0000001
 44
0.0000000001
 40
0.0
 40
0.0
 40
0.0
 40
0.0
 40
0.5069542256
 40
1.0
 40
1.0
 40
1.0
 40
1.0
 10
6.6963956494
 20
3.8076764945
 30
0.0
 10
6.7143967131
 20
3.7953739657
 30
0.0
 10
6.7489264797
 20
3.7696363498
 30
0.0
 10
6.781108152
 20
3.7410112367
 30
0.0
 10
6.7963129558
 20
3.7262302592
 30
0.0
  0
LINE
  5
362
100
AcDbEntity
  8
ALL_ASSEMBLY_MEMBERS
100
AcDbLine
 62
7
  6
CONTINUOUS
 10
4.9309935617
 20
4.8949634343
 11
4.9258593083
 21
4.8973595784
  0
LINE
  5
363
100
AcDbEntity
  8
ALL_ASSEMBLY_MEMBERS
100
AcDbLine
 62
7
  6
CONTINUOUS
 10
4.9258593083
 20
4.8973595784
 11
4.8917713679
 21
4.9133412969
  0
SPLINE
  5
364
100
AcDbEntity
  8
ALL_ASSEMBLY_MEMBERS
100
AcDbSpline
 62
7
  6
CONTINUOUS
 70
0
 71
3
 72
14
 73
10
 74
0
 42
0.0000001
 43
0.0000001
 44
0.0000000001
 40
0.0
 40
0.0
 40
0.0
 40
0.0
 40
0.2500993452
 40
0.3750505873
 40
0.4999715083
 40
0.624897716
 40
0.7498601983
 40
0.8748871651
 40
1.0
 40
1.0
 40
1.0
 40
1.0
 10
5.7184885761
 20
4.761652913
 30
0.0
 10
5.7524309324
 20
4.7564634016
 30
0.0
 10
5.8034795921
 20
4.7496042556
 30
0.0
 10
5.8717471955
 20
4.7424121737
 30
0.0
 10
5.923019814
 20
4.7380189405
 30
0.0
 10
5.9743690681
 20
4.7346167111
 30
0.0
 10
6.0257918741
 20
4.7322586118
 30
0.0
 10
6.0772776852
 20
4.7309593478
 30
0.0
 10
6.1116222655
 20
4.7307888562
 30
0.0
 10
6.1287991335
 20
4.7308706045
 30
0.0
  0
SPLINE
  5
365
100
AcDbEntity
  8
ALL_ASSEMBLY_MEMBERS
100
AcDbSpline
 62
7
  6
CONTINUOUS
 70
0
 71
3
 72
20
 73
16
 74
0
 42
0.0000001
 43
0.0000001
 44
0.0000000001
 40
0.0
 40
0.0
 40
0.0
 40
0.0
 40
0.1252496011
 40
0.2504341063
 40
0.3129707725
 40
0.3754836707
 40
0.4379880166
 40
0.4692411851
 40
0.5004957829
 40
0.5630025465
 40
0.6254968047
 40
0.6879689402
 40
0.75041316
 40
0.8752110878
 40
1.0
 40
1.0
 40
1.0
 40
1.0
 10
4.9928647437
 20
4.8668617282
 30
0.0
 10
5.0373402517
 20
4.8473201073
 30
0.0
 10
5.1274050201
 20
4.8107865594
 30
0.0
 10
5.2422696421
 20
4.7713449769
 30
0.0
 10
5.3352342692
 20
4.7434323336
 30
0.0
 10
5.4054171623
 20
4.7242687039
 30
0.0
 10
5.4642640647
 20
4.7097264227
 30
0.0
 10
5.5115332704
 20
4.6989228708
 30
0.0
 10
5.5589242764
 20
4.688662466
 30
0.0
 10
5.6183780954
 20
4.6768732313
 30
0.0
 10
5.6900293998
 20
4.6644502612
 30
0.0
 10
5.7619449663
 20
4.6538181259
 30
0.0
 10
5.8580990399
 20
4.6421207704
 30
0.0
 10
5.9787893752
 20
4.6323100503
 30
0.0
 10
6.0756476738
 20
4.6302432382
 30
0.0
 10
6.1240449484
 20
4.6308097656
 30
0.0
  0
SPLINE
  5
366
100
AcDbEntity
  8
ALL_ASSEMBLY_MEMBERS
100
AcDbSpline
 62
7
  6
CONTINUOUS
 70
0
 71
3
 72
13
 73
9
 74
0
 42
0.0000001
 43
0.0000001
 44
0.0000000001
 40
0.0
 40
0.0
 40
0.0
 40
0.0
 40
0.2499396758
 40
0.3749856603
 40
0.5000020988
 40
0.6250170523
 40
0.7500574907
 40
1.0
 40
1.0
 40
1.0
 40
1.0
 10
3.2533320532
 20
4.2294489921
 30
0.0
 10
3.2649350685
 20
4.2676687816
 30
0.0
 10
3.2853904015
 20
4.3241473199
 30
0.0
 10
3.3183242914
 20
4.3969737597
 30
0.0
 10
3.3458003193
 20
4.4502771818
 30
0.0
 10
3.3759648896
 20
4.5021052121
 30
0.0
 10
3.4196504979
 20
4.5690374976
 30
0.0
 10
3.4561992098
 20
4.6166946023
 30
0.0
 10
3.4820549238
 20
4.6471396429
 30
0.0
  0
SPLINE
  5
367
100
AcDbEntity
  8
ALL_ASSEMBLY_MEMBERS
100
AcDbSpline
 62
7
  6
CONTINUOUS
 70
0
 71
3
 72
13
 73
9
 74
0
 42
0.0000001
 43
0.0000001
 44
0.0000000001
 40
0.0
 40
0.0
 40
0.0
 40
0.0
 40
0.2499384177
 40
0.3749856775
 40
0.5000070469
 40
0.6250238627
 40
0.7500735823
 40
1.0
 40
1.0
 40
1.0
 40
1.0
 10
3.4825143646
 20
4.647670862
 30
0.0
 10
3.4562364663
 20
4.6174078449
 30
0.0
 10
3.4190771467
 20
4.5699508504
 30
0.0
 10
3.3747846617
 20
4.5030824156
 30
0.0
 10
3.3443146559
 20
4.4511871019
 30
0.0
 10
3.3167351261
 20
4.3976970743
 30
0.0
 10
3.2840120707
 20
4.3244710145
 30
0.0
 10
3.2641576382
 20
4.2675277006
 30
0.0
 10
3.2531987986
 20
4.2289773733
 30
0.0
  0
SPLINE
  5
368
100
AcDbEntity
  8
ALL_ASSEMBLY_MEMBERS
100
AcDbSpline
 62
7
  6
CONTINUOUS
 70
0
 71
3
 72
13
 73
9
 74
0
 42
0.0000001
 43
0.0000001
 44
0.0000000001
 40
0.0
 40
0.0
 40
0.0
 40
0.0
 40
0.1248141887
 40
0.2497989174
 40
0.3748081086
 40
0.4998027123
 40
0.7498535127
 40
1.0
 40
1.0
 40
1.0
 40
1.0
 10
3.941538822
 20
4.3433779287
 30
0.0
 10
3.9472569805
 20
4.3535665342
 30
0.0
 10
3.9595036914
 20
4.373517167
 30
0.0
 10
3.9799972937
 20
4.4020273246
 30
0.0
 10
4.0023796142
 20
4.4291015411
 30
0.0
 10
4.0344737467
 20
4.4632125218
 30
0.0
 10
4.0784380918
 20
4.5020579777
 30
0.0
 10
4.1168872138
 20
4.5289617064
 30
0.0
 10
4.1367537875
 20
4.5413555852
 30
0.0
  0
SPLINE
  5
369
100
AcDbEntity
  8
ALL_ASSEMBLY_MEMBERS
100
AcDbSpline
 62
7
  6
CONTINUOUS
 70
0
 71
3
 72
12
 73
8
 74
0
 42
0.0000001
 43
0.0000001
 44
0.0000000001
 40
0.0
 40
0.0
 40
0.0
 40
0.0
 40
0.2502614666
 40
0.5003109454
 40
0.6253244933
 40
0.7503136846
 40
1.0
 40
1.0
 40
1.0
 40
1.0
 10
4.137342843
 20
4.5404487704
 30
0.0
 10
4.117578173
 20
4.5278970651
 30
0.0
 10
4.0793477565
 20
4.5007162964
 30
0.0
 10
4.0355264785
 20
4.4617671929
 30
0.0
 10
4.0033363971
 20
4.4277835049
 30
0.0
 10
3.9732545951
 20
4.3919769072
 30
0.0
 10
3.9532189383
 20
4.3630519309
 30
0.0
 10
3.9412927344
 20
4.3429662059
 30
0.0
  0
SPLINE
  5
36A
100
AcDbEntity
  8
ALL_ASSEMBLY_MEMBERS
100
AcDbSpline
 62
7
  6
CONTINUOUS
 70
0
 71
3
 72
26
 73
22
 74
0
 42
0.0000001
 43
0.0000001
 44
0.0000000001
 40
0.0
 40
0.0
 40
0.0
 40
0.0
 40
0.1945881184
 40
0.3820681891
 40
0.4706273625
 40
0.5546385588
 40
0.6333078333
 40
0.7059041939
 40
0.7717452815
 40
0.8301533833
 40
0.8805578693
 40
0.9225277628
 40
0.9402193101
 40
0.9556469064
 40
0.9687750832
 40
0.9795889767
 40
0.9880791955
 40
0.9942470786
 40
0.9964705033
 40
0.9981370164
 40
1.0
 40
1.0
 40
1.0
 40
1.0
 10
4.7305040285
 20
4.5843745133
 30
0.0
 10
4.7288268541
 20
4.5809276533
 30
0.0
 10
4.725552916
 20
4.57415051
 30
0.0
 10
4.7215682186
 20
4.5657794235
 30
0.0
 10
4.7185522277
 20
4.5593598587
 30
0.0
 10
4.7164639474
 20
4.5548727484
 30
0.0
 10
4.7145255904
 20
4.5506627473
 30
0.0
 10
4.7127552687
 20
4.5467694821
 30
0.0
 10
4.7111698214
 20
4.543230669
 30
0.0
 10
4.7097847954
 20
4.5400811697
 30
0.0
 10
4.7086136538
 20
4.5373514448
 30
0.0
 10
4.707782837
 20
4.5353486186
 30
0.0
 10
4.7072362031
 20
4.5339740829
 30
0.0
 10
4.7069099636
 20
4.5331234674
 30
0.0
 10
4.7066442228
 20
4.5323946967
 30
0.0
 10
4.7064388237
 20
4.5317899694
 30
0.0
 10
4.7062943907
 20
4.5313083989
 30
0.0
 10
4.7062154624
 20
4.5309869599
 30
0.0
 10
4.706188017
 20
4.5307874965
 30
0.0
 10
4.7061834114
 20
4.5306802343
 30
0.0
 10
4.7061986047
 20
4.5305946243
 30
0.0
 10
4.7062316049
 20
4.5305785669
 30
0.0
  0
SPLINE
  5
36B
100
AcDbEntity
  8
ALL_ASSEMBLY_MEMBERS
100
AcDbSpline
 62
7
  6
CONTINUOUS
 70
0
 71
3
 72
16
 73
12
 74
0
 42
0.0000001
 43
0.0000001
 44
0.0000000001
 40
0.0
 40
0.0
 40
0.0
 40
0.0
 40
0.1249595094
 40
0.2499374108
 40
0.3749348958
 40
0.499954293
 40
0.6249650635
 40
0.6874643064
 40
0.7499620132
 40
0.8749733943
 40
1.0
 40
1.0
 40
1.0
 40
1.0
 10
4.1689444349
 20
4.5593394951
 30
0.0
 10
4.171614878
 20
4.5607786312
 30
0.0
 10
4.1769285148
 20
4.5637082484
 30
0.0
 10
4.1848754748
 20
4.5681456499
 30
0.0
 10
4.192864235
 20
4.5725114038
 30
0.0
 10
4.2009437017
 20
4.5767094068
 30
0.0
 10
4.2077563649
 20
4.5800506257
 30
0.0
 10
4.213258614
 20
4.5826124833
 30
0.0
 10
4.218796215
 20
4.5850970146
 30
0.0
 10
4.2257685278
 20
4.5880899678
 30
0.0
 10
4.2313695588
 20
4.5904293577
 30
0.0
 10
4.234169017
 20
4.5916020888
 30
0.0
  0
SPLINE
  5
36C
100
AcDbEntity
  8
ALL_ASSEMBLY_MEMBERS
100
AcDbSpline
 62
7
  6
CONTINUOUS
 70
0
 71
3
 72
16
 73
12
 74
0
 42
0.0000001
 43
0.0000001
 44
0.0000000001
 40
0.0
 40
0.0
 40
0.0
 40
0.0
 40
0.0081518983
 40
0.0220430245
 40
0.0716031445
 40
0.1514988707
 40
0.2617853793
 40
0.4022220789
 40
0.5724844028
 40
0.7720852084
 40
1.0
 40
1.0
 40
1.0
 40
1.0
 10
4.7488902268
 20
4.6210354818
 30
0.0
 10
4.7489034437
 20
4.6210289527
 30
0.0
 10
4.7489231203
 20
4.6209882397
 30
0.0
 10
4.7489215304
 20
4.6208600205
 30
0.0
 10
4.7488680466
 20
4.6206031718
 30
0.0
 10
4.7487436553
 20
4.6201891151
 30
0.0
 10
4.7485468858
 20
4.6196237799
 30
0.0
 10
4.7482773879
 20
4.6189119699
 30
0.0
 10
4.7479352214
 20
4.6180548125
 30
0.0
 10
4.7475213834
 20
4.6170561688
 30
0.0
 10
4.7472185097
 20
4.6163448405
 30
0.0
 10
4.747055693
 20
4.6159662093
 30
0.0
  0
LINE
  5
36D
100
AcDbEntity
  8
ALL_ASSEMBLY_MEMBERS
100
AcDbLine
 62
7
  6
CONTINUOUS
 10
4.7444699221
 20
4.610156389
 11
4.7322949786
 21
4.5846319448
  0
SPLINE
  5
36E
100
AcDbEntity
  8
ALL_ASSEMBLY_MEMBERS
100
AcDbSpline
 62
7
  6
CONTINUOUS
 70
0
 71
3
 72
9
 73
5
 74
0
 42
0.0000001
 43
0.0000001
 44
0.0000000001
 40
0.0
 40
0.0
 40
0.0
 40
0.0
 40
0.4999655774
 40
1.0
 40
1.0
 40
1.0
 40
1.0
 10
4.2341560894
 20
4.5915967241
 30
0.0
 10
4.2407159812
 20
4.5943794735
 30
0.0
 10
4.2539383145
 20
4.5997037514
 30
0.0
 10
4.2672744554
 20
4.6047400889
 30
0.0
 10
4.2739997368
 20
4.6070981496
 30
0.0
  0
SPLINE
  5
36F
100
AcDbEntity
  8
ALL_ASSEMBLY_MEMBERS
100
AcDbSpline
 62
7
  6
CONTINUOUS
 70
0
 71
3
 72
16
 73
12
 74
0
 42
0.0000001
 43
0.0000001
 44
0.0000000001
 40
0.0
 40
0.0
 40
0.0
 40
0.0
 40
0.0626530364
 40
0.1252918118
 40
0.1879280258
 40
0.2505669977
 40
0.3757955058
 40
0.5009067288
 40
0.6259174437
 40
0.7507743554
 40
1.0
 40
1.0
 40
1.0
 40
1.0
 10
3.9075454286
 20
4.3618122193
 30
0.0
 10
3.903915995
 20
4.3556567598
 30
0.0
 10
3.8968902127
 20
4.3432084217
 30
0.0
 10
3.887082661
 20
4.3241444862
 30
0.0
 10
3.877991417
 20
4.3047305901
 30
0.0
 10
3.8667872894
 20
4.2784430733
 30
0.0
 10
3.8544281862
 20
4.2449270127
 30
0.0
 10
3.8419997052
 20
4.2039387199
 30
0.0
 10
3.831763965
 20
4.1623949973
 30
0.0
 10
3.8207374433
 20
4.1065344253
 30
0.0
 10
3.8150868106
 20
4.0641932385
 30
0.0
 10
3.81222092
 20
4.0359130126
 30
0.0
  0
SPLINE
  5
370
100
AcDbEntity
  8
ALL_ASSEMBLY_MEMBERS
100
AcDbSpline
 62
7
  6
CONTINUOUS
 70
0
 71
3
 72
14
 73
10
 74
0
 42
0.0000001
 43
0.0000001
 44
0.0000000001
 40
0.0
 40
0.0
 40
0.0
 40
0.0
 40
0.0635789904
 40
0.137180258
 40
0.2272415931
 40
0.3371827177
 40
0.4687454487
 40
0.6228241565
 40
1.0
 40
1.0
 40
1.0
 40
1.0
 10
6.1287991315
 20
4.0023122441
 30
0.0
 10
6.1288732801
 20
4.0022964959
 30
0.0
 10
6.1290263205
 20
4.0022250359
 30
0.0
 10
6.1292167778
 20
4.0020270864
 30
0.0
 10
6.1293827274
 20
4.001744069
 30
0.0
 10
6.1295274562
 20
4.0013750608
 30
0.0
 10
6.1296519022
 20
4.0009194857
 30
0.0
 10
6.1298003304
 20
4.0001427564
 30
0.0
 10
6.1298623654
 20
3.9995110783
 30
0.0
 10
6.1298929633
 20
3.9990624295
 30
0.0
  0
SPLINE
  5
371
100
AcDbEntity
  8
ALL_ASSEMBLY_MEMBERS
100
AcDbSpline
 62
7
  6
CONTINUOUS
 70
0
 71
3
 72
10
 73
6
 74
0
 42
0.0000001
 43
0.0000001
 44
0.0000000001
 40
0.0
 40
0.0
 40
0.0
 40
0.0
 40
0.1962710951
 40
0.4297232638
 40
1.0
 40
1.0
 40
1.0
 40
1.0
 10
6.1298929633
 20
3.9990624295
 30
0.0
 10
6.1299310536
 20
3.9985039215
 30
0.0
 10
6.1299666554
 20
3.9972778705
 30
0.0
 10
6.1299140609
 20
3.9944256331
 30
0.0
 10
6.1297471151
 20
3.9921374992
 30
0.0
 10
6.129598922
 20
3.9905177178
 30
0.0
  0
SPLINE
  5
372
100
AcDbEntity
  8
ALL_ASSEMBLY_MEMBERS
100
AcDbSpline
 62
7
  6
CONTINUOUS
 70
0
 71
3
 72
11
 73
7
 74
0
 42
0.0000001
 43
0.0000001
 44
0.0000000001
 40
0.0
 40
0.0
 40
0.0
 40
0.0
 40
0.2139087239
 40
0.4580635775
 40
0.7238573641
 40
1.0
 40
1.0
 40
1.0
 40
1.0
 10
6.129598922
 20
3.9905177178
 30
0.0
 10
6.129418999
 20
3.9885511231
 30
0.0
 10
6.1289337934
 20
3.9843489659
 30
0.0
 10
6.1279593148
 20
3.9777369814
 30
0.0
 10
6.1267124839
 20
3.9705869459
 30
0.0
 10
6.1257417857
 20
3.9656783663
 30
0.0
 10
6.1252192274
 20
3.9631831448
 30
0.0
  0
SPLINE
  5
373
100
AcDbEntity
  8
ALL_ASSEMBLY_MEMBERS
100
AcDbSpline
 62
7
  6
CONTINUOUS
 70
0
 71
3
 72
14
 73
10
 74
0
 42
0.0000001
 43
0.0000001
 44
0.0000000001
 40
0.0
 40
0.0
 40
0.0
 40
0.0
 40
0.0636108021
 40
0.1372350681
 40
0.2273086511
 40
0.3372521311
 40
0.4688085221
 40
0.6228731426
 40
1.0
 40
1.0
 40
1.0
 40
1.0
 10
6.1323269636
 20
4.0015653157
 30
0.0
 10
6.1324011922
 20
4.0015496517
 30
0.0
 10
6.1325544403
 20
4.0014783726
 30
0.0
 10
6.1327453392
 20
4.0012806231
 30
0.0
 10
6.1329118296
 20
4.000997755
 30
0.0
 10
6.1330572003
 20
4.0006288594
 30
0.0
 10
6.1331823913
 20
4.0001733624
 30
0.0
 10
6.1333320332
 20
3.9993967068
 30
0.0
 10
6.1333950098
 20
3.9987650035
 30
0.0
 10
6.133426264
 20
3.9983163226
 30
0.0
  0
LINE
  5
374
100
AcDbEntity
  8
ALL_ASSEMBLY_MEMBERS
100
AcDbLine
 62
7
  6
CONTINUOUS
 10
6.133426264
 20
3.9983163226
 11
6.1333930275
 21
3.993143262
  0
SPLINE
  5
375
100
AcDbEntity
  8
ALL_ASSEMBLY_MEMBERS
100
AcDbSpline
 62
7
  6
CONTINUOUS
 70
0
 71
3
 72
11
 73
7
 74
0
 42
0.0000001
 43
0.0000001
 44
0.0000000001
 40
0.0
 40
0.0
 40
0.0
 40
0.0
 40
0.2002616118
 40
0.4419025988
 40
0.7134765668
 40
1.0
 40
1.0
 40
1.0
 40
1.0
 10
6.1333930275
 20
3.993143262
 30
0.0
 10
6.1332789263
 20
3.9910716915
 30
0.0
 10
6.132857006
 20
3.9865102359
 30
0.0
 10
6.1318742622
 20
3.9791831557
 30
0.0
 10
6.1305087576
 20
3.9710098656
 30
0.0
 10
6.1294039535
 20
3.9653337685
 30
0.0
 10
6.1287991335
 20
3.9624276561
 30
0.0
  0
LINE
  5
376
100
AcDbEntity
  8
ALL_ASSEMBLY_MEMBERS
100
AcDbLine
 62
7
  6
CONTINUOUS
 10
4.4324862848
 20
4.6809208952
 11
4.4330771976
 21
4.6809644721
  0
SPLINE
  5
377
100
AcDbEntity
  8
ALL_ASSEMBLY_MEMBERS
100
AcDbSpline
 62
7
  6
CONTINUOUS
 70
0
 71
3
 72
12
 73
8
 74
0
 42
0.0000001
 43
0.0000001
 44
0.0000000001
 40
0.0
 40
0.0
 40
0.0
 40
0.0
 40
0.2497399469
 40
0.4995916752
 40
0.7496434456
 40
0.8747959796
 40
1.0
 40
1.0
 40
1.0
 40
1.0
 10
4.3962245106
 20
4.5772686612
 30
0.0
 10
4.4139398606
 20
4.5799434409
 30
0.0
 10
4.4496624983
 20
4.583595055
 30
0.0
 10
4.5035275842
 20
4.5836768251
 30
0.0
 10
4.548227836
 20
4.5791430251
 30
0.0
 10
4.5835654924
 20
4.5727493549
 30
0.0
 10
4.6010582109
 20
4.5686337569
 30
0.0
 10
4.6097458827
 20
4.5663531214
 30
0.0
  0
SPLINE
  5
378
100
AcDbEntity
  8
ALL_ASSEMBLY_MEMBERS
100
AcDbSpline
 62
7
  6
CONTINUOUS
 70
0
 71
3
 72
20
 73
16
 74
0
 42
0.0000001
 43
0.0000001
 44
0.0000000001
 40
0.0
 40
0.0
 40
0.0
 40
0.0
 40
0.0666031781
 40
0.1331566021
 40
0.1995241387
 40
0.2655293325
 40
0.3310093614
 40
0.3958925446
 40
0.4601049262
 40
0.5235771222
 40
0.5862507565
 40
0.648082784
 40
0.7690588605
 40
0.8863784787
 40
1.0
 40
1.0
 40
1.0
 40
1.0
 10
6.1287991335
 20
4.6719308543
 30
0.0
 10
6.1451852861
 20
4.6720953273
 30
0.0
 10
6.1779428596
 20
4.6731415338
 30
0.0
 10
6.2269045115
 20
4.6769345278
 30
0.0
 10
6.2754753091
 20
4.6831386442
 30
0.0
 10
6.3233969944
 20
4.6918195561
 30
0.0
 10
6.370450228
 20
4.7028774605
 30
0.0
 10
6.4164637874
 20
4.7161629854
 30
0.0
 10
6.4612880993
 20
4.7315720483
 30
0.0
 10
6.5047878342
 20
4.7489813662
 30
0.0
 10
6.5468583855
 20
4.7682388009
 30
0.0
 10
6.6005307402
 20
4.7959777574
 30
0.0
 10
6.6637030681
 20
4.8344357483
 30
0.0
 10
6.7334223213
 20
4.8859531103
 30
0.0
 10
6.7761223354
 20
4.9235595904
 30
0.0
 10
6.7963129558
 20
4.9428945055
 30
0.0
  0
SPLINE
  5
379
100
AcDbEntity
  8
ALL_ASSEMBLY_MEMBERS
100
AcDbSpline
 62
7
  6
CONTINUOUS
 70
0
 71
3
 72
20
 73
16
 74
0
 42
0.0000001
 43
0.0000001
 44
0.0000000001
 40
0.0
 40
0.0
 40
0.0
 40
0.0
 40
0.1124481254
 40
0.1703259376
 40
0.2292579796
 40
0.3501260644
 40
0.4747863452
 40
0.5384134606
 40
0.6028060837
 40
0.6678960566
 40
0.7336070544
 40
0.799815597
 40
0.8663873513
 40
0.9331734987
 40
1.0
 40
1.0
 40
1.0
 40
1.0
 10
6.7963129558
 20
4.9156712028
 30
0.0
 10
6.7757369812
 20
4.8981355015
 30
0.0
 10
6.7434665241
 20
4.8728329324
 30
0.0
 10
6.6981256143
 20
4.8414745983
 30
0.0
 10
6.6498343428
 20
4.8108991619
 30
0.0
 10
6.5855826217
 20
4.7756426293
 30
0.0
 10
6.5175067435
 20
4.7455572306
 30
0.0
 10
6.4604333096
 20
4.7246978854
 30
0.0
 10
6.4161325561
 20
4.7107505752
 30
0.0
 10
6.3707385564
 20
4.6987789346
 30
0.0
 10
6.3243933847
 20
4.6889176808
 30
0.0
 10
6.277287219
 20
4.6811747842
 30
0.0
 10
6.2296161762
 20
4.6755973782
 30
0.0
 10
6.1816015901
 20
4.6721005398
 30
0.0
 10
6.1494851813
 20
4.6710746033
 30
0.0
 10
6.1334201385
 20
4.6708702113
 30
0.0
  0
SPLINE
  5
37A
100
AcDbEntity
  8
ALL_ASSEMBLY_MEMBERS
100
AcDbSpline
 62
7
  6
CONTINUOUS
 70
0
 71
3
 72
26
 73
22
 74
0
 42
0.0000001
 43
0.0000001
 44
0.0000000001
 40
0.0
 40
0.0
 40
0.0
 40
0.0
 40
0.0314641038
 40
0.0629001509
 40
0.1256739145
 40
0.1883056907
 40
0.2508243676
 40
0.3132854355
 40
0.3757547109
 40
0.4382507652
 40
0.5007584332
 40
0.5632624759
 40
0.6257481743
 40
0.6881928396
 40
0.750580073
 40
0.8129224582
 40
0.844087306
 40
0.8752533131
 40
0.9064244675
 40
0.9376043361
 40
1.0
 40
1.0
 40
1.0
 40
1.0
 10
4.9087811633
 20
4.9506502595
 30
0.0
 10
4.9206508457
 20
4.9449708588
 30
0.0
 10
4.9444346433
 20
4.9337314752
 30
0.0
 10
4.9922083464
 20
4.9118205427
 30
0.0
 10
5.0524201463
 20
4.8857786371
 30
0.0
 10
5.1254312437
 20
4.8566657869
 30
0.0
 10
5.1991240595
 20
4.8297020391
 30
0.0
 10
5.273486212
 20
4.8048579904
 30
0.0
 10
5.3485071343
 20
4.7821135058
 30
0.0
 10
5.4241499242
 20
4.7614582028
 30
0.0
 10
5.5003462401
 20
4.7428882526
 30
0.0
 10
5.5770170122
 20
4.726407
 30
0.0
 10
5.6540816997
 20
4.7120234351
 30
0.0
 10
5.7314531177
 20
4.6997012674
 30
0.0
 10
5.8090698966
 20
4.6894793238
 30
0.0
 10
5.873932981
 20
4.6828026353
 30
0.0
 10
5.925903885
 20
4.6785998161
 30
0.0
 10
5.9649236121
 20
4.6760254909
 30
0.0
 10
6.0039848227
 20
4.6740523479
 30
0.0
 10
6.0561244081
 20
4.6722355192
 30
0.0
 10
6.0952637073
 20
4.6717893639
 30
0.0
 10
6.1213577477
 20
4.6718801922
 30
0.0
  0
SPLINE
  5
37B
100
AcDbEntity
  8
ALL_ASSEMBLY_MEMBERS
100
AcDbSpline
 62
7
  6
CONTINUOUS
 70
0
 71
3
 72
28
 73
24
 74
0
 42
0.0000001
 43
0.0000001
 44
0.0000000001
 40
0.0
 40
0.0
 40
0.0
 40
0.0
 40
0.0623918837
 40
0.1247454803
 40
0.1870720679
 40
0.2494081863
 40
0.280592413
 40
0.3117910961
 40
0.3742278405
 40
0.4367060044
 40
0.499208526
 40
0.5617165881
 40
0.6242122719
 40
0.6554512536
 40
0.6866831867
 40
0.7491480829
 40
0.780397797
 40
0.811669596
 40
0.8429726638
 40
0.8743138342
 40
0.9056921664
 40
0.9371036581
 40
1.0
 40
1.0
 40
1.0
 40
1.0
 10
6.1287991335
 20
4.6708076133
 30
0.0
 10
6.1025553909
 20
4.6704922615
 30
0.0
 10
6.0500691841
 20
4.6707486733
 30
0.0
 10
5.9714196603
 20
4.6737716209
 30
0.0
 10
5.8929394608
 20
4.6794297107
 30
0.0
 10
5.8277202578
 20
4.6861902907
 30
0.0
 10
5.7756623897
 20
4.692716966
 30
0.0
 10
5.7236560598
 20
4.6999561906
 30
0.0
 10
5.6587988464
 20
4.7103123381
 30
0.0
 10
5.5812932254
 20
4.7247964001
 30
0.0
 10
5.5041607071
 20
4.7412964384
 30
0.0
 10
5.4274791013
 20
4.759810267
 30
0.0
 10
5.3640162055
 20
4.7769374113
 30
0.0
 10
5.313552139
 20
4.7916665255
 30
0.0
 10
5.2633079051
 20
4.8070840896
 30
0.0
 10
5.2133927773
 20
4.8235753551
 30
0.0
 10
5.1638572248
 20
4.8412018118
 30
0.0
 10
5.1268826057
 20
4.8550127401
 30
0.0
 10
5.0900998696
 20
4.8694326773
 30
0.0
 10
5.0535151139
 20
4.8844656109
 30
0.0
 10
5.01711007
 20
4.90004413
 30
0.0
 10
4.9687743202
 20
4.921470786
 30
0.0
 10
4.9327816965
 20
4.9381625393
 30
0.0
 10
4.9088710991
 20
4.9494895297
 30
0.0
  0
SPLINE
  5
37C
100
AcDbEntity
  8
ALL_ASSEMBLY_MEMBERS
100
AcDbSpline
 62
7
  6
CONTINUOUS
 70
0
 71
3
 72
26
 73
22
 74
0
 42
0.0000001
 43
0.0000001
 44
0.0000000001
 40
0.0
 40
0.0
 40
0.0
 40
0.0
 40
0.0624776608
 40
0.1249452247
 40
0.1874117586
 40
0.2498851387
 40
0.3123616421
 40
0.374839318
 40
0.4373190344
 40
0.4998017509
 40
0.5622868034
 40
0.6247757233
 40
0.6560284017
 40
0.6872837633
 40
0.7497940363
 40
0.812321137
 40
0.8748655104
 40
0.906148899
 40
0.9374339833
 40
0.9687198519
 40
1.0
 40
1.0
 40
1.0
 40
1.0
 10
3.549262891
 20
4.7199080751
 30
0.0
 10
3.5709107484
 20
4.7415244057
 30
0.0
 10
3.6158660079
 20
4.7831252689
 30
0.0
 10
3.6878656626
 20
4.8401596472
 30
0.0
 10
3.7640138033
 20
4.891529337
 30
0.0
 10
3.8438704904
 20
4.9369270798
 30
0.0
 10
3.9269832011
 20
4.9760618325
 30
0.0
 10
4.0128719562
 20
5.0086681819
 30
0.0
 10
4.1010381202
 20
5.0345027116
 30
0.0
 10
4.190948303
 20
5.0534131653
 30
0.0
 10
4.2820598505
 20
5.065272422
 30
0.0
 10
4.358541763
 20
5.0691849731
 30
0.0
 10
4.4197585695
 20
5.0687259752
 30
0.0
 10
4.4809217737
 20
5.0658910031
 30
0.0
 10
4.5571195506
 20
5.0579555802
 30
0.0
 10
4.6475797581
 20
5.0415677933
 30
0.0
 10
4.7217511215
 20
5.0222786585
 30
0.0
 10
4.7800940583
 20
5.0035552348
 30
0.0
 10
4.8232961144
 20
4.9878501385
 30
0.0
 10
4.8658607212
 20
4.9704997937
 30
0.0
 10
4.8937687676
 20
4.9578394857
 30
0.0
 10
4.9075827942
 20
4.9512239077
 30
0.0
  0
SPLINE
  5
37D
100
AcDbEntity
  8
ALL_ASSEMBLY_MEMBERS
100
AcDbSpline
 62
7
  6
CONTINUOUS
 70
0
 71
3
 72
26
 73
22
 74
0
 42
0.0000001
 43
0.0000001
 44
0.0000000001
 40
0.0
 40
0.0
 40
0.0
 40
0.0
 40
0.0625519356
 40
0.1251287546
 40
0.187684622
 40
0.2189622219
 40
0.2502382975
 40
0.2815108129
 40
0.3127785571
 40
0.3440418123
 40
0.3753016839
 40
0.4378003972
 40
0.5002891145
 40
0.5627733111
 40
0.6252479444
 40
0.687716754
 40
0.7501801382
 40
0.8126362665
 40
0.8750839835
 40
0.9375368969
 40
1.0
 40
1.0
 40
1.0
 40
1.0
 10
4.9083411674
 20
4.9497377429
 30
0.0
 10
4.8806468189
 20
4.962756795
 30
0.0
 10
4.8243152261
 20
4.9868723013
 30
0.0
 10
4.7374649841
 20
5.0168995645
 30
0.0
 10
4.6634201971
 20
5.0365170169
 30
0.0
 10
4.6034418327
 20
5.0487792236
 30
0.0
 10
4.5581354275
 20
5.0562243268
 30
0.0
 10
4.5125780375
 20
5.0618934696
 30
0.0
 10
4.4668384973
 20
5.0657612337
 30
0.0
 10
4.420986183
 20
5.067798147
 30
0.0
 10
4.3598099404
 20
5.0680634003
 30
0.0
 10
4.2833990695
 20
5.0638275048
 30
0.0
 10
4.1924252838
 20
5.0514783793
 30
0.0
 10
4.1027001789
 20
5.0320945223
 30
0.0
 10
4.0147304809
 20
5.0059177101
 30
0.0
 10
3.9289945082
 20
4.9731907134
 30
0.0
 10
3.8459527792
 20
4.9341538598
 30
0.0
 10
3.7660450362
 20
4.8890710875
 30
0.0
 10
3.6896983116
 20
4.8381969818
 30
0.0
 10
3.6173288453
 20
4.7818109918
 30
0.0
 10
3.5719982728
 20
4.7407258283
 30
0.0
 10
3.5501382283
 20
4.7193727687
 30
0.0
  0
SPLINE
  5
37E
100
AcDbEntity
  8
ALL_ASSEMBLY_MEMBERS
100
AcDbSpline
 62
7
  6
CONTINUOUS
 70
0
 71
3
 72
21
 73
17
 74
0
 42
0.0000001
 43
0.0000001
 44
0.0000000001
 40
0.0
 40
0.0
 40
0.0
 40
0.0
 40
0.1312079495
 40
0.163942464
 40
0.1966327551
 40
0.2618213359
 40
0.2942914845
 40
0.3266623685
 40
0.3910659554
 40
0.4549623654
 40
0.5182893185
 40
0.5809942302
 40
0.6430364377
 40
0.7649738434
 40
0.8839558366
 40
1.0
 40
1.0
 40
1.0
 40
1.0
 10
6.1339664135
 20
4.0600211605
 30
0.0
 10
6.1609055236
 20
4.0542644411
 30
0.0
 10
6.1946676322
 20
4.0475583627
 30
0.0
 10
6.2351162798
 20
4.0392987939
 30
0.0
 10
6.261959359
 20
4.0336912364
 30
0.0
 10
6.2886951325
 20
4.0278405563
 30
0.0
 10
6.3152737151
 20
4.0216038252
 30
0.0
 10
6.3416150928
 20
4.0150862401
 30
0.0
 10
6.3741980981
 20
4.0063355607
 30
0.0
 10
6.4127514544
 20
3.9948146878
 30
0.0
 10
6.4506044926
 20
3.9822557993
 30
0.0
 10
6.4876664612
 20
3.9686089122
 30
0.0
 10
6.5356161977
 20
3.9490110843
 30
0.0
 10
6.5931288882
 20
3.9216731839
 30
0.0
 10
6.6579895728
 20
3.8839514929
 30
0.0
 10
6.6983213348
 20
3.8553792043
 30
0.0
 10
6.7175126051
 20
3.840369757
 30
0.0
  0
SPLINE
  5
37F
100
AcDbEntity
  8
ALL_ASSEMBLY_MEMBERS
100
AcDbSpline
 62
7
  6
CONTINUOUS
 70
0
 71
3
 72
17
 73
13
 74
0
 42
0.0000001
 43
0.0000001
 44
0.0000000001
 40
0.0
 40
0.0
 40
0.0
 40
0.0
 40
0.131068392
 40
0.1964836842
 40
0.2616533725
 40
0.3264704536
 40
0.3908511019
 40
0.5180028226
 40
0.6427539102
 40
0.7647966437
 40
0.8839176608
 40
1.0
 40
1.0
 40
1.0
 40
1.0
 10
6.1287991335
 20
4.5719847763
 30
0.0
 10
6.1564830859
 20
4.5724666343
 30
0.0
 10
6.1979860408
 20
4.574457522
 30
0.0
 10
6.252967577
 20
4.5802522216
 30
0.0
 10
6.2938142771
 20
4.5863046086
 30
0.0
 10
6.3341272744
 20
4.5941780442
 30
0.0
 10
6.386779112
 20
4.6069039696
 30
0.0
 10
6.4506537258
 20
4.6268103734
 30
0.0
 10
6.5239022991
 20
4.6566251692
 30
0.0
 10
6.5929635185
 20
4.6915355074
 30
0.0
 10
6.6574986904
 20
4.7307964262
 30
0.0
 10
6.6979160839
 20
4.7597885036
 30
0.0
 10
6.7173007412
 20
4.7748078448
 30
0.0
  0
SPLINE
  5
380
100
AcDbEntity
  8
ALL_ASSEMBLY_MEMBERS
100
AcDbSpline
 62
7
  6
CONTINUOUS
 70
0
 71
3
 72
36
 73
32
 74
0
 42
0.0000001
 43
0.0000001
 44
0.0000000001
 40
0.0
 40
0.0
 40
0.0
 40
0.0
 40
0.0156999461
 40
0.0313963881
 40
0.0392431547
 40
0.0470885061
 40
0.0627743011
 40
0.0784529285
 40
0.0941242405
 40
0.125445385
 40
0.1880062143
 40
0.2504861491
 40
0.2817112284
 40
0.3129355242
 40
0.3441654892
 40
0.3754024897
 40
0.4066450008
 40
0.4378916708
 40
0.5003905414
 40
0.531641595
 40
0.5628913659
 40
0.5941385728
 40
0.6253821454
 40
0.6566211253
 40
0.687855146
 40
0.750309392
 40
0.8127495457
 40
0.8751765664
 40
0.906386832
 40
0.937595663
 40
1.0
 40
1.0
 40
1.0
 40
1.0
 10
4.775283205
 20
4.6737860998
 30
0.0
 10
4.7822882991
 20
4.6703128571
 30
0.0
 10
4.7961505852
 20
4.6630705775
 30
0.0
 10
4.813190485
 20
4.6534952517
 30
0.0
 10
4.82667539
 20
4.6455877473
 30
0.0
 10
4.8400755019
 20
4.6375478457
 30
0.0
 10
4.8567199167
 20
4.6273357845
 30
0.0
 10
4.8766334312
 20
4.615000152
 30
0.0
 10
4.9031087992
 20
4.5984710797
 30
0.0
 10
4.9492669773
 20
4.5693815839
 30
0.0
 10
5.0149971285
 20
4.5276274806
 30
0.0
 10
5.0810510681
 20
4.4864703189
 30
0.0
 10
5.1343820757
 20
4.4544238101
 30
0.0
 10
5.1747056361
 20
4.4309547308
 30
0.0
 10
5.2154343752
 20
4.408182863
 30
0.0
 10
5.256559446
 20
4.3861162153
 30
0.0
 10
5.2980460128
 20
4.3647190956
 30
0.0
 10
5.3538044604
 20
4.3370449946
 30
0.0
 10
5.4101684328
 20
4.31059824
 30
0.0
 10
5.4670276003
 20
4.2852506423
 30
0.0
 10
5.5098964749
 20
4.2667529132
 30
0.0
 10
5.5529671311
 20
4.2487403541
 30
0.0
 10
5.5962180938
 20
4.231179864
 30
0.0
 10
5.63962373
 20
4.2140231975
 30
0.0
 10
5.6976950786
 20
4.191692758
 30
0.0
 10
5.7706749807
 20
4.1648461316
 30
0.0
 10
5.8589649806
 20
4.1346863876
 30
0.0
 10
5.9331988372
 20
4.111595861
 30
0.0
 10
5.9929933281
 20
4.0945433387
 30
0.0
 10
6.0530528095
 20
4.0784972618
 30
0.0
 10
6.0984194162
 20
4.0676856388
 30
0.0
 10
6.1287991335
 20
4.0611320986
 30
0.0
  0
SPLINE
  5
381
100
AcDbEntity
  8
ALL_ASSEMBLY_MEMBERS
100
AcDbSpline
 62
7
  6
CONTINUOUS
 70
0
 71
3
 72
28
 73
24
 74
0
 42
0.0000001
 43
0.0000001
 44
0.0000000001
 40
0.0
 40
0.0
 40
0.0
 40
0.0
 40
0.0314488224
 40
0.0471649915
 40
0.0628742594
 40
0.0785758748
 40
0.0942694271
 40
0.1256315851
 40
0.1569598537
 40
0.1882564641
 40
0.2507731206
 40
0.3132368578
 40
0.3757079628
 40
0.4382050593
 40
0.5007134306
 40
0.5632180361
 40
0.6257036465
 40
0.6881513867
 40
0.7505485604
 40
0.8129072646
 40
0.875251776
 40
0.9376082657
 40
1.0
 40
1.0
 40
1.0
 40
1.0
 10
4.8653528554
 20
4.8605833991
 30
0.0
 10
4.8776992486
 20
4.8548065441
 30
0.0
 10
4.8961901535
 20
4.846088472
 30
0.0
 10
4.9208959676
 20
4.8345864025
 30
0.0
 10
4.9394640487
 20
4.8260731179
 30
0.0
 10
4.958079872
 20
4.8176884408
 30
0.0
 10
4.9829707182
 20
4.8067170998
 30
0.0
 10
5.0142291276
 20
4.7934024552
 30
0.0
 10
5.0519486707
 20
4.7780110814
 30
0.0
 10
5.102475004
 20
4.7582791648
 30
0.0
 10
5.1661242782
 20
4.7350751385
 30
0.0
 10
5.2432462131
 20
4.7094777264
 30
0.0
 10
5.3210509917
 20
4.6860677725
 30
0.0
 10
5.399486724
 20
4.6647962134
 30
0.0
 10
5.4784768318
 20
4.6456256294
 30
0.0
 10
5.5579392648
 20
4.6285433359
 30
0.0
 10
5.637787857
 20
4.6135123905
 30
0.0
 10
5.7179426325
 20
4.6004989222
 30
0.0
 10
5.798356483
 20
4.5895847407
 30
0.0
 10
5.8790139555
 20
4.5810428212
 30
0.0
 10
5.9598845643
 20
4.5750403317
 30
0.0
 10
6.0409281777
 20
4.5717954533
 30
0.0
 10
6.0950110571
 20
4.5715427495
 30
0.0
 10
6.1220517301
 20
4.5718832604
 30
0.0
  0
SPLINE
  5
382
100
AcDbEntity
  8
ALL_ASSEMBLY_MEMBERS
100
AcDbSpline
 62
7
  6
CONTINUOUS
 70
0
 71
3
 72
40
 73
36
 74
0
 42
0.0000001
 43
0.0000001
 44
0.0000000001
 40
0.0
 40
0.0
 40
0.0
 40
0.0
 40
0.0155781695
 40
0.0311560695
 40
0.0467339285
 40
0.0623119824
 40
0.0934675714
 40
0.1246259615
 40
0.1557887553
 40
0.1869573504
 40
0.218134698
 40
0.249319877
 40
0.2805154213
 40
0.3117201386
 40
0.3429336182
 40
0.374155183
 40
0.4053853149
 40
0.436622229
 40
0.4678672663
 40
0.4991190397
 40
0.5303772503
 40
0.5616420845
 40
0.6241594364
 40
0.6554376626
 40
0.6867210215
 40
0.7180088701
 40
0.7493007644
 40
0.7806009692
 40
0.8119118502
 40
0.8432369037
 40
0.8745766415
 40
0.9059279419
 40
0.9372870314
 40
0.968646695
 40
1.0
 40
1.0
 40
1.0
 40
1.0
 10
3.7552773395
 20
4.0483210129
 30
0.0
 10
3.7560717949
 20
4.0555991828
 30
0.0
 10
3.7577571741
 20
4.0701451875
 30
0.0
 10
3.7606464803
 20
4.0919193302
 30
0.0
 10
3.76392951
 20
4.1136378327
 30
0.0
 10
3.7688570986
 20
4.1425067824
 30
0.0
 10
3.77613546
 20
4.1783963929
 30
0.0
 10
3.7868651375
 20
4.2210158381
 30
0.0
 10
3.7997717084
 20
4.2630378473
 30
0.0
 10
3.8150198854
 20
4.304281386
 30
0.0
 10
3.8327407075
 20
4.34454023
 30
0.0
 10
3.8530792612
 20
4.3835640177
 30
0.0
 10
3.8761782646
 20
4.4210377902
 30
0.0
 10
3.9018489367
 20
4.4568115263
 30
0.0
 10
3.9298888694
 20
4.4907725709
 30
0.0
 10
3.9600657814
 20
4.5228623194
 30
0.0
 10
3.9921908096
 20
4.5530153424
 30
0.0
 10
4.0260874798
 20
4.581176893
 30
0.0
 10
4.0615919369
 20
4.6072974588
 30
0.0
 10
4.0985468946
 20
4.6313378103
 30
0.0
 10
4.1368206581
 20
4.6532400941
 30
0.0
 10
4.1894155429
 20
4.679506511
 30
0.0
 10
4.2441923839
 20
4.7012457687
 30
0.0
 10
4.3005560803
 20
4.7180359466
 30
0.0
 10
4.3435396226
 20
4.7280572188
 30
0.0
 10
4.3870679747
 20
4.7353955816
 30
0.0
 10
4.4309860404
 20
4.7399339685
 30
0.0
 10
4.4751136245
 20
4.7416698578
 30
0.0
 10
4.5192787896
 20
4.7406143481
 30
0.0
 10
4.5633046655
 20
4.7367332291
 30
0.0
 10
4.6070119319
 20
4.7300435906
 30
0.0
 10
4.6502051134
 20
4.72050659
 30
0.0
 10
4.6926799787
 20
4.7081188736
 30
0.0
 10
4.734216141
 20
4.6928737644
 30
0.0
 10
4.7611247337
 20
4.6807747745
 30
0.0
 10
4.7743385123
 20
4.6742534821
 30
0.0
  0
SPLINE
  5
383
100
AcDbEntity
  8
ALL_ASSEMBLY_MEMBERS
100
AcDbSpline
 62
7
  6
CONTINUOUS
 70
0
 71
3
 72
10
 73
6
 74
0
 42
0.0000001
 43
0.0000001
 44
0.0000000001
 40
0.0
 40
0.0
 40
0.0
 40
0.0
 40
0.4998327955
 40
0.7499475605
 40
1.0
 40
1.0
 40
1.0
 40
1.0
 10
3.337844385
 20
4.1601718359
 30
0.0
 10
3.3478905835
 20
4.2033702114
 30
0.0
 10
3.3677706058
 20
4.2671907345
 30
0.0
 10
3.4028661828
 20
4.348731072
 30
0.0
 10
3.4231704656
 20
4.3882446951
 30
0.0
 10
3.4339658812
 20
4.4076289918
 30
0.0
  0
SPLINE
  5
384
100
AcDbEntity
  8
ALL_ASSEMBLY_MEMBERS
100
AcDbSpline
 62
7
  6
CONTINUOUS
 70
0
 71
3
 72
10
 73
6
 74
0
 42
0.0000001
 43
0.0000001
 44
0.0000000001
 40
0.0
 40
0.0
 40
0.0
 40
0.0
 40
0.2500238901
 40
0.5000623449
 40
1.0
 40
1.0
 40
1.0
 40
1.0
 10
3.4339658812
 20
4.4076289918
 30
0.0
 10
3.4433709924
 20
4.4245168516
 30
0.0
 10
3.4631746801
 20
4.457753286
 30
0.0
 10
3.5064936033
 20
4.5218231347
 30
0.0
 10
3.5429489039
 20
4.5671073564
 30
0.0
 10
3.5687485886
 20
4.5958882828
 30
0.0
  0
SPLINE
  5
385
100
AcDbEntity
  8
ALL_ASSEMBLY_MEMBERS
100
AcDbSpline
 62
7
  6
CONTINUOUS
 70
0
 71
3
 72
28
 73
24
 74
0
 42
0.0000001
 43
0.0000001
 44
0.0000000001
 40
0.0
 40
0.0
 40
0.0
 40
0.0
 40
0.0624568124
 40
0.1249177335
 40
0.1873809575
 40
0.249848587
 40
0.3123199869
 40
0.3747932585
 40
0.437266823
 40
0.4997445883
 40
0.5622271448
 40
0.5934762102
 40
0.6247266491
 40
0.6872212168
 40
0.7184796584
 40
0.7497429728
 40
0.8122728226
 40
0.8435526131
 40
0.8748382254
 40
0.9061281449
 40
0.93742043
 40
0.9687133945
 40
1.0
 40
1.0
 40
1.0
 40
1.0
 10
3.5798665844
 20
4.6081042044
 30
0.0
 10
3.5996789786
 20
4.6295462979
 30
0.0
 10
3.6410342266
 20
4.6708680738
 30
0.0
 10
3.707671516
 20
4.7278363769
 30
0.0
 10
3.7784992041
 20
4.7795202847
 30
0.0
 10
3.8531012279
 20
4.8255958443
 30
0.0
 10
3.9310336399
 20
4.8657936034
 30
0.0
 10
4.0118417619
 20
4.8998526741
 30
0.0
 10
4.0950698739
 20
4.9274968007
 30
0.0
 10
4.1802330633
 20
4.9484494446
 30
0.0
 10
4.2523934827
 20
4.9601574211
 30
0.0
 10
4.3105414311
 20
4.9659437915
 30
0.0
 10
4.3688847403
 20
4.9692938898
 30
0.0
 10
4.4273960267
 20
4.9689546516
 30
0.0
 10
4.4857073875
 20
4.9649348688
 30
0.0
 10
4.5438199171
 20
4.958514488
 30
0.0
 10
4.6015051415
 20
4.9485628674
 30
0.0
 10
4.6584456681
 20
4.9352151471
 30
0.0
 10
4.7007490102
 20
4.9235499455
 30
0.0
 10
4.7425808507
 20
4.9102777305
 30
0.0
 10
4.7838817817
 20
4.895424858
 30
0.0
 10
4.8245990831
 20
4.8790469826
 30
0.0
 10
4.8513272672
 20
4.867142945
 30
0.0
 10
4.8645743526
 20
4.8609475233
 30
0.0
  0
SPLINE
  5
386
100
AcDbEntity
  8
ALL_ASSEMBLY_MEMBERS
100
AcDbSpline
 62
7
  6
CONTINUOUS
 70
0
 71
3
 72
15
 73
11
 74
0
 42
0.0000001
 43
0.0000001
 44
0.0000000001
 40
0.0
 40
0.0
 40
0.0
 40
0.0
 40
0.1254716915
 40
0.2507536771
 40
0.3758580901
 40
0.5008116679
 40
0.6256515884
 40
0.7504272782
 40
0.8751905589
 40
1.0
 40
1.0
 40
1.0
 40
1.0
 10
3.8127667976
 20
4.0413589694
 30
0.0
 10
3.814210637
 20
4.0553699069
 30
0.0
 10
3.8175028739
 20
4.083331594
 30
0.0
 10
3.8239825859
 20
4.125035208
 30
0.0
 10
3.8322553867
 20
4.1663652003
 30
0.0
 10
3.8425292635
 20
4.2071961098
 30
0.0
 10
3.8549844175
 20
4.2473809131
 30
0.0
 10
3.8697941281
 20
4.286740245
 30
0.0
 10
3.887076859
 20
4.325078553
 30
0.0
 10
3.9004103626
 20
4.3497532733
 30
0.0
 10
3.9075265128
 20
4.3618223547
 30
0.0
  0
SPLINE
  5
387
100
AcDbEntity
  8
ALL_ASSEMBLY_MEMBERS
100
AcDbSpline
 62
7
  6
CONTINUOUS
 70
0
 71
3
 72
15
 73
11
 74
0
 42
0.0000001
 43
0.0000001
 44
0.0000000001
 40
0.0
 40
0.0
 40
0.0
 40
0.0
 40
0.0243980741
 40
0.0460404988
 40
0.0748567037
 40
0.154661669
 40
0.264365589
 40
0.4039451046
 40
0.5732328195
 40
1.0
 40
1.0
 40
1.0
 40
1.0
 10
4.7496641294
 20
4.6206541722
 30
0.0
 10
4.7496867734
 20
4.6206429861
 30
0.0
 10
4.7496976258
 20
4.6205846478
 30
0.0
 10
4.7496945708
 20
4.6205111491
 30
0.0
 10
4.749675994
 20
4.6203754544
 30
0.0
 10
4.7496220918
 20
4.6201569954
 30
0.0
 10
4.749523365
 20
4.6198302805
 30
0.0
 10
4.7493829543
 20
4.6194205168
 30
0.0
 10
4.7491196896
 20
4.6187058124
 30
0.0
 10
4.7488912166
 20
4.618132581
 30
0.0
 10
4.7487244946
 20
4.6177234677
 30
0.0
  0
LINE
  5
388
100
AcDbEntity
  8
ALL_ASSEMBLY_MEMBERS
100
AcDbLine
 62
7
  6
CONTINUOUS
 10
4.7487244946
 20
4.6177234677
 11
4.7478249185
 21
4.6155871378
  0
SPLINE
  5
389
100
AcDbEntity
  8
ALL_ASSEMBLY_MEMBERS
100
AcDbSpline
 62
7
  6
CONTINUOUS
 70
0
 71
3
 72
10
 73
6
 74
0
 42
0.0000001
 43
0.0000001
 44
0.0000000001
 40
0.0
 40
0.0
 40
0.0
 40
0.0
 40
0.2002848104
 40
0.4424150435
 40
1.0
 40
1.0
 40
1.0
 40
1.0
 10
4.7466537468
 20
4.6129240206
 30
0.0
 10
4.7457898977
 20
4.6109898353
 30
0.0
 10
4.7438405137
 20
4.606735781
 30
0.0
 10
4.7393325314
 20
4.5971679409
 30
0.0
 10
4.7356323288
 20
4.5895615156
 30
0.0
 10
4.7330204106
 20
4.5842741273
 30
0.0
  0
SPLINE
  5
38A
100
AcDbEntity
  8
ALL_ASSEMBLY_MEMBERS
100
AcDbSpline
 62
7
  6
CONTINUOUS
 70
0
 71
3
 72
15
 73
11
 74
0
 42
0.0000001
 43
0.0000001
 44
0.0000000001
 40
0.0
 40
0.0
 40
0.0
 40
0.0
 40
0.1249531323
 40
0.2499192245
 40
0.3749000318
 40
0.499899326
 40
0.624915116
 40
0.7499387804
 40
0.8749739654
 40
1.0
 40
1.0
 40
1.0
 40
1.0
 10
4.5238956769
 20
5.0200052653
 30
0.0
 10
4.5397449488
 20
5.0181200456
 30
0.0
 10
4.5713695121
 20
5.013680258
 30
0.0
 10
4.6184874795
 20
5.0050531581
 30
0.0
 10
4.665213801
 20
4.9944787173
 30
0.0
 10
4.7114735058
 20
4.9819995159
 30
0.0
 10
4.7572047103
 20
4.967687541
 30
0.0
 10
4.8023376393
 20
4.9515743735
 30
0.0
 10
4.8468115125
 20
4.9337230444
 30
0.0
 10
4.8759970883
 20
4.9207218068
 30
0.0
 10
4.8904625863
 20
4.9139542227
 30
0.0
  0
SPLINE
  5
38B
100
AcDbEntity
  8
ALL_ASSEMBLY_MEMBERS
100
AcDbSpline
 62
7
  6
CONTINUOUS
 70
0
 71
3
 72
13
 73
9
 74
0
 42
0.0000001
 43
0.0000001
 44
0.0000000001
 40
0.0
 40
0.0
 40
0.0
 40
0.0
 40
0.2508466756
 40
0.5009819667
 40
0.6258447811
 40
0.7505875754
 40
0.875296688
 40
1.0
 40
1.0
 40
1.0
 40
1.0
 10
3.9090568497
 20
4.0099555273
 30
0.0
 10
3.9133309764
 20
4.0321983574
 30
0.0
 10
3.9207349049
 20
4.0768277147
 30
0.0
 10
3.9301967591
 20
4.1325473317
 30
0.0
 10
3.9394983156
 20
4.1767102152
 30
0.0
 10
3.9477519056
 20
4.2094972505
 30
0.0
 10
3.9577045906
 20
4.2418000795
 30
0.0
 10
3.9657245249
 20
4.2628684827
 30
0.0
 10
3.9701335831
 20
4.2732292165
 30
0.0
  0
SPLINE
  5
38C
100
AcDbEntity
  8
ALL_ASSEMBLY_MEMBERS
100
AcDbSpline
 62
7
  6
CONTINUOUS
 70
0
 71
3
 72
14
 73
10
 74
0
 42
0.0000001
 43
0.0000001
 44
0.0000000001
 40
0.0
 40
0.0
 40
0.0
 40
0.0
 40
0.0646409903
 40
0.1389685643
 40
0.2293832741
 40
0.3393658628
 40
0.4707286499
 40
0.6244261605
 40
1.0
 40
1.0
 40
1.0
 40
1.0
 10
6.135230801
 20
4.6309745327
 30
0.0
 10
6.1350974182
 20
4.6309723933
 30
0.0
 10
6.1348099087
 20
4.6309028059
 30
0.0
 10
6.1344139677
 20
4.630631582
 30
0.0
 10
6.1340324093
 20
4.6302077072
 30
0.0
 10
6.1336596257
 20
4.6296311642
 30
0.0
 10
6.1332939553
 20
4.6289012356
 30
0.0
 10
6.1327823569
 20
4.6276364502
 30
0.0
 10
6.1324684924
 20
4.6265877675
 30
0.0
 10
6.1322685096
 20
4.625838938
 30
0.0
  0
SPLINE
  5
38D
100
AcDbEntity
  8
ALL_ASSEMBLY_MEMBERS
100
AcDbSpline
 62
7
  6
CONTINUOUS
 70
0
 71
3
 72
14
 73
10
 74
0
 42
0.0000001
 43
0.0000001
 44
0.0000000001
 40
0.0
 40
0.0
 40
0.0
 40
0.0
 40
0.0758262862
 40
0.1700401802
 40
0.2809339157
 40
0.4063082463
 40
0.5437523588
 40
0.6906113768
 40
1.0
 40
1.0
 40
1.0
 40
1.0
 10
6.1322685096
 20
4.625838938
 30
0.0
 10
6.1319158273
 20
4.6245183302
 30
0.0
 10
6.1312859416
 20
4.6215145077
 30
0.0
 10
6.1305351102
 20
4.6165049844
 30
0.0
 10
6.1298943358
 20
4.6105805964
 30
0.0
 10
6.1293789488
 20
4.6038627924
 30
0.0
 10
6.1290024805
 20
4.5964865568
 30
0.0
 10
6.1286917629
 20
4.5857882665
 30
0.0
 10
6.1286970936
 20
4.5775610688
 30
0.0
 10
6.1287991641
 20
4.5719847763
 30
0.0
  0
SPLINE
  5
38E
100
AcDbEntity
  8
ALL_ASSEMBLY_MEMBERS
100
AcDbSpline
 62
7
  6
CONTINUOUS
 70
0
 71
3
 72
15
 73
11
 74
0
 42
0.0000001
 43
0.0000001
 44
0.0000000001
 40
0.0
 40
0.0
 40
0.0
 40
0.0
 40
0.0647277648
 40
0.1387786913
 40
0.2288317653
 40
0.3385304784
 40
0.4697665934
 40
0.6235328416
 40
0.8002935057
 40
1.0
 40
1.0
 40
1.0
 40
1.0
 10
6.1288254359
 20
4.6308706089
 30
0.0
 10
6.1286908479
 20
4.6308724138
 30
0.0
 10
6.1283993823
 20
4.6308107067
 30
0.0
 10
6.1279955856
 20
4.6305459793
 30
0.0
 10
6.127606382
 20
4.6301255858
 30
0.0
 10
6.1272255183
 20
4.6295498766
 30
0.0
 10
6.1268512908
 20
4.6288180578
 30
0.0
 10
6.1264843313
 20
4.627929878
 30
0.0
 10
6.1261259687
 20
4.6268866017
 30
0.0
 10
6.1259064799
 20
4.6261348739
 30
0.0
 10
6.1257971047
 20
4.62573425
 30
0.0
  0
SPLINE
  5
38F
100
AcDbEntity
  8
ALL_ASSEMBLY_MEMBERS
100
AcDbSpline
 62
7
  6
CONTINUOUS
 70
0
 71
3
 72
14
 73
10
 74
0
 42
0.0000001
 43
0.0000001
 44
0.0000000001
 40
0.0
 40
0.0
 40
0.0
 40
0.0
 40
0.0758944113
 40
0.1701551307
 40
0.2810746628
 40
0.4064549964
 40
0.5438864673
 40
0.6907156818
 40
1.0
 40
1.0
 40
1.0
 40
1.0
 10
6.1257971047
 20
4.62573425
 30
0.0
 10
6.1254366719
 20
4.6244140426
 30
0.0
 10
6.1247896908
 20
4.6214107884
 30
0.0
 10
6.124011423
 20
4.6164013557
 30
0.0
 10
6.1233391984
 20
4.6104772398
 30
0.0
 10
6.1227890303
 20
4.6037598365
 30
0.0
 10
6.1223751453
 20
4.5963840638
 30
0.0
 10
6.1220111243
 20
4.585686921
 30
0.0
 10
6.1219763972
 20
4.5774597522
 30
0.0
 10
6.1220517301
 20
4.5718832604
 30
0.0
  0
SPLINE
  5
390
100
AcDbEntity
  8
ALL_ASSEMBLY_MEMBERS
100
AcDbSpline
 62
7
  6
CONTINUOUS
 70
0
 71
3
 72
17
 73
13
 74
0
 42
0.0000001
 43
0.0000001
 44
0.0000000001
 40
0.0
 40
0.0
 40
0.0
 40
0.0
 40
0.0087224836
 40
0.0228322377
 40
0.0438980579
 40
0.0723342553
 40
0.1517716183
 40
0.2614932814
 40
0.4014298774
 40
0.5714101073
 40
0.7711431938
 40
1.0
 40
1.0
 40
1.0
 40
1.0
 10
4.8917711466
 20
4.913341072
 30
0.0
 10
4.8917575355
 20
4.9133474817
 30
0.0
 10
4.8917140184
 20
4.9133406091
 30
0.0
 10
4.8916533144
 20
4.9132957146
 30
0.0
 10
4.8915737817
 20
4.9132194467
 30
0.0
 10
4.8914300245
 20
4.9130496301
 30
0.0
 10
4.8912112942
 20
4.9127440615
 30
0.0
 10
4.890903065
 20
4.9122673994
 30
0.0
 10
4.8905280693
 20
4.9116481789
 30
0.0
 10
4.8900873835
 20
4.910887534
 30
0.0
 10
4.8895823958
 20
4.9099869971
 30
0.0
 10
4.8892275546
 20
4.9093384705
 30
0.0
 10
4.889039403
 20
4.9089914572
 30
0.0
  0
LINE
  5
391
100
AcDbEntity
  8
ALL_ASSEMBLY_MEMBERS
100
AcDbLine
 62
7
  6
CONTINUOUS
 10
4.889039403
 20
4.9089914572
 11
4.8861709454
 21
4.9035272062
  0
SPLINE
  5
392
100
AcDbEntity
  8
ALL_ASSEMBLY_MEMBERS
100
AcDbSpline
 62
7
  6
CONTINUOUS
 70
0
 71
3
 72
10
 73
6
 74
0
 42
0.0000001
 43
0.0000001
 44
0.0000000001
 40
0.0
 40
0.0
 40
0.0
 40
0.0
 40
0.1973076099
 40
0.4388207429
 40
1.0
 40
1.0
 40
1.0
 40
1.0
 10
4.8861709454
 20
4.9035272062
 30
0.0
 10
4.8847379757
 20
4.90073451
 30
0.0
 10
4.8816090338
 20
4.8944936918
 30
0.0
 10
4.8746193272
 20
4.8802028294
 30
0.0
 10
4.8691396402
 20
4.8686680375
 30
0.0
 10
4.8653528519
 20
4.8605834008
 30
0.0
  0
SPLINE
  5
393
100
AcDbEntity
  8
ALL_ASSEMBLY_MEMBERS
100
AcDbSpline
 62
7
  6
CONTINUOUS
 70
0
 71
3
 72
16
 73
12
 74
0
 42
0.0000001
 43
0.0000001
 44
0.0000000001
 40
0.0
 40
0.0
 40
0.0
 40
0.0
 40
0.0086397627
 40
0.0227090361
 40
0.0721234555
 40
0.1515663109
 40
0.2613100078
 40
0.401280117
 40
0.571302918
 40
0.7710862396
 40
1.0
 40
1.0
 40
1.0
 40
1.0
 10
4.890972114
 20
4.9137157061
 30
0.0
 10
4.8909586215
 20
4.913722025
 30
0.0
 10
4.8909153544
 20
4.9137147693
 30
0.0
 10
4.8908162323
 20
4.9136402249
 30
0.0
 10
4.8906537374
 20
4.9134514181
 30
0.0
 10
4.8904152458
 20
4.9131172143
 30
0.0
 10
4.8901077066
 20
4.9126394084
 30
0.0
 10
4.889733686
 20
4.9120198668
 30
0.0
 10
4.8892938705
 20
4.9112585942
 30
0.0
 10
4.8887897869
 20
4.9103575519
 30
0.0
 10
4.8884354975
 20
4.9097086911
 30
0.0
 10
4.8882476251
 20
4.9093615142
 30
0.0
  0
SPLINE
  5
394
100
AcDbEntity
  8
ALL_ASSEMBLY_MEMBERS
100
AcDbSpline
 62
7
  6
CONTINUOUS
 70
0
 71
3
 72
12
 73
8
 74
0
 42
0.0000001
 43
0.0000001
 44
0.0000000001
 40
0.0
 40
0.0
 40
0.0
 40
0.0
 40
0.0839426564
 40
0.1835861051
 40
0.4226607542
 40
0.7012436853
 40
1.0
 40
1.0
 40
1.0
 40
1.0
 10
4.8869300091
 20
4.9068835846
 30
0.0
 10
4.8862663594
 20
4.9056174177
 30
0.0
 10
4.8848346702
 20
4.9028379131
 30
0.0
 10
4.8815949227
 20
4.8964102318
 30
0.0
 10
4.8769581224
 20
4.8869751076
 30
0.0
 10
4.8709315791
 20
4.8744454233
 30
0.0
 10
4.866732225
 20
4.8655550922
 30
0.0
 10
4.8645743526
 20
4.8609475233
 30
0.0
  0
SPLINE
  5
395
100
AcDbEntity
  8
ALL_ASSEMBLY_MEMBERS
100
AcDbSpline
 62
7
  6
CONTINUOUS
 70
0
 71
3
 72
11
 73
7
 74
0
 42
0.0000001
 43
0.0000001
 44
0.0000000001
 40
0.0
 40
0.0
 40
0.0
 40
0.0
 40
0.2501733388
 40
0.5003819157
 40
0.7503391328
 40
1.0
 40
1.0
 40
1.0
 40
1.0
 10
4.7488843786
 20
4.6210386556
 30
0.0
 10
4.7245697512
 20
4.6330052326
 30
0.0
 10
4.6741753415
 20
4.6535192668
 30
0.0
 10
4.595208228
 20
4.6737269973
 30
0.0
 10
4.5143419157
 20
4.6834093089
 30
0.0
 10
4.4600504323
 20
4.6829238564
 30
0.0
 10
4.4330777879
 20
4.6809564163
 30
0.0
  0
SPLINE
  5
396
100
AcDbEntity
  8
ALL_ASSEMBLY_MEMBERS
100
AcDbSpline
 62
7
  6
CONTINUOUS
 70
0
 71
3
 72
14
 73
10
 74
0
 42
0.0000001
 43
0.0000001
 44
0.0000000001
 40
0.0
 40
0.0
 40
0.0
 40
0.0
 40
0.065489094
 40
0.1404641645
 40
0.2312457427
 40
0.3413197458
 40
0.4725223714
 40
0.6258300628
 40
1.0
 40
1.0
 40
1.0
 40
1.0
 10
6.1358103478
 20
4.7309269499
 30
0.0
 10
6.135674261
 20
4.7309256439
 30
0.0
 10
6.1353811672
 20
4.7308581737
 30
0.0
 10
6.1349748191
 20
4.730589591
 30
0.0
 10
6.1345818022
 20
4.730167636
 30
0.0
 10
6.1341966622
 20
4.7295927194
 30
0.0
 10
6.1338177079
 20
4.7288642169
 30
0.0
 10
6.1332859888
 20
4.7276018085
 30
0.0
 10
6.132957382
 20
4.7265534858
 30
0.0
 10
6.1327474524
 20
4.7258047972
 30
0.0
  0
SPLINE
  5
397
100
AcDbEntity
  8
ALL_ASSEMBLY_MEMBERS
100
AcDbSpline
 62
7
  6
CONTINUOUS
 70
0
 71
3
 72
14
 73
10
 74
0
 42
0.0000001
 43
0.0000001
 44
0.0000000001
 40
0.0
 40
0.0
 40
0.0
 40
0.0
 40
0.0759145056
 40
0.1701843697
 40
0.2811083092
 40
0.4064899721
 40
0.5439199037
 40
0.690743869
 40
1.0
 40
1.0
 40
1.0
 40
1.0
 10
6.1327474524
 20
4.7258047972
 30
0.0
 10
6.1323775937
 20
4.7244857402
 30
0.0
 10
6.1317118576
 20
4.7214835237
 30
0.0
 10
6.130907372
 20
4.7164736661
 30
0.0
 10
6.1302083785
 20
4.710547758
 30
0.0
 10
6.1296314526
 20
4.7038273454
 30
0.0
 10
6.1291914151
 20
4.6964475244
 30
0.0
 10
6.1287934984
 20
4.6857440443
 30
0.0
 10
6.1287368793
 20
4.6775112474
 30
0.0
 10
6.1287990756
 20
4.6719308543
 30
0.0
  0
SPLINE
  5
398
100
AcDbEntity
  8
ALL_ASSEMBLY_MEMBERS
100
AcDbSpline
 62
7
  6
CONTINUOUS
 70
0
 71
3
 72
24
 73
20
 74
0
 42
0.0000001
 43
0.0000001
 44
0.0000000001
 40
0.0
 40
0.0
 40
0.0
 40
0.0
 40
0.0063587944
 40
0.0135333991
 40
0.0220857252
 40
0.0323416094
 40
0.0444803236
 40
0.0586009681
 40
0.0929521945
 40
0.1354274218
 40
0.1857862013
 40
0.24370197
 40
0.308679305
 40
0.380099458
 40
0.4573271208
 40
0.5396737959
 40
0.6263860576
 40
0.809770534
 40
1.0
 40
1.0
 40
1.0
 40
1.0
 10
6.1287991335
 20
4.7308706044
 30
0.0
 10
6.1286710526
 20
4.7308699949
 30
0.0
 10
6.1283970497
 20
4.7308129213
 30
0.0
 10
6.1280116906
 20
4.730579507
 30
0.0
 10
6.1276369699
 20
4.7302095769
 30
0.0
 10
6.1272685182
 20
4.7297045142
 30
0.0
 10
6.126904652
 20
4.7290640145
 30
0.0
 10
6.126392351
 20
4.7279546945
 30
0.0
 10
6.1257905023
 20
4.7262206237
 30
0.0
 10
6.125132657
 20
4.723743565
 30
0.0
 10
6.1245086326
 20
4.7207706796
 30
0.0
 10
6.1239258909
 20
4.7173293163
 30
0.0
 10
6.1233903799
 20
4.7134516537
 30
0.0
 10
6.122907147
 20
4.7091755546
 30
0.0
 10
6.1224821293
 20
4.7045418873
 30
0.0
 10
6.1221197901
 20
4.6995940474
 30
0.0
 10
6.1217165959
 20
4.6925061306
 30
0.0
 10
6.1214008851
 20
4.6832380688
 30
0.0
 10
6.1213399001
 20
4.6757118582
 30
0.0
 10
6.1213577477
 20
4.6718801922
 30
0.0
  0
SPLINE
  5
399
100
AcDbEntity
  8
ALL_ASSEMBLY_MEMBERS
100
AcDbSpline
 62
7
  6
CONTINUOUS
 70
0
 71
3
 72
16
 73
12
 74
0
 42
0.0000001
 43
0.0000001
 44
0.0000000001
 40
0.0
 40
0.0
 40
0.0
 40
0.0
 40
0.0085657468
 40
0.0225840703
 40
0.0719412055
 40
0.1513606742
 40
0.2611057629
 40
0.4010985793
 40
0.5711637008
 40
0.7710078854
 40
1.0
 40
1.0
 40
1.0
 40
1.0
 10
4.9356119257
 20
5.0032132829
 30
0.0
 10
4.9355986199
 20
5.0032196906
 30
0.0
 10
4.9355554985
 20
5.0032126399
 30
0.0
 10
4.9354564252
 20
5.0031387094
 30
0.0
 10
4.9352929472
 20
5.0029510985
 30
0.0
 10
4.9350524152
 20
5.0026186446
 30
0.0
 10
4.9347415497
 20
5.0021431209
 30
0.0
 10
4.9343630125
 20
5.0015263584
 30
0.0
 10
4.9339174547
 20
5.0007683742
 30
0.0
 10
4.9334064287
 20
4.9998711169
 30
0.0
 10
4.9330470667
 20
4.9992249377
 30
0.0
 10
4.9328564641
 20
4.9988791834
 30
0.0
  0
SPLINE
  5
39A
100
AcDbEntity
  8
ALL_ASSEMBLY_MEMBERS
100
AcDbSpline
 62
7
  6
CONTINUOUS
 70
0
 71
3
 72
12
 73
8
 74
0
 42
0.0000001
 43
0.0000001
 44
0.0000000001
 40
0.0
 40
0.0
 40
0.0
 40
0.0
 40
0.0742862984
 40
0.1677228919
 40
0.4038784502
 40
0.6891862058
 40
1.0
 40
1.0
 40
1.0
 40
1.0
 10
4.9328564641
 20
4.9988791834
 30
0.0
 10
4.9322120191
 20
4.9977101559
 30
0.0
 10
4.930787867
 20
4.9950537566
 30
0.0
 10
4.927435866
 20
4.9886166318
 30
0.0
 10
4.9224593129
 20
4.9787508492
 30
0.0
 10
4.9158508784
 20
4.9653343365
 30
0.0
 10
4.9111922531
 20
4.9556882079
 30
0.0
 10
4.9087811634
 20
4.9506502595
 30
0.0
  0
SPLINE
  5
39B
100
AcDbEntity
  8
ALL_ASSEMBLY_MEMBERS
100
AcDbSpline
 62
7
  6
CONTINUOUS
 70
0
 71
3
 72
16
 73
12
 74
0
 42
0.0000001
 43
0.0000001
 44
0.0000000001
 40
0.0
 40
0.0
 40
0.0
 40
0.0
 40
0.0084468508
 40
0.0224050278
 40
0.0717186153
 40
0.1511359128
 40
0.2609009549
 40
0.4009289049
 40
0.5710410315
 40
0.7709421991
 40
1.0
 40
1.0
 40
1.0
 40
1.0
 10
4.9344046412
 20
5.003791317
 30
0.0
 10
4.9343915103
 20
5.0037976064
 30
0.0
 10
4.9343487431
 20
5.0037900162
 30
0.0
 10
4.9342508368
 20
5.0037155269
 30
0.0
 10
4.9340883062
 20
5.003527343
 30
0.0
 10
4.9338489923
 20
5.0031942697
 30
0.0
 10
4.9335391902
 20
5.0027181134
 30
0.0
 10
4.9331617163
 20
5.0021007363
 30
0.0
 10
4.9327171513
 20
5.0013421697
 30
0.0
 10
4.932207065
 20
5.0004443689
 30
0.0
 10
4.9318482502
 20
4.9997978758
 30
0.0
 10
4.9316579156
 20
4.9994519683
 30
0.0
  0
SPLINE
  5
39C
100
AcDbEntity
  8
ALL_ASSEMBLY_MEMBERS
100
AcDbSpline
 62
7
  6
CONTINUOUS
 70
0
 71
3
 72
12
 73
8
 74
0
 42
0.0000001
 43
0.0000001
 44
0.0000000001
 40
0.0
 40
0.0
 40
0.0
 40
0.0
 40
0.0742883819
 40
0.1677267187
 40
0.4038837449
 40
0.6891899603
 40
1.0
 40
1.0
 40
1.0
 40
1.0
 10
4.9316579156
 20
4.9994519683
 30
0.0
 10
4.931014379
 20
4.9982824267
 30
0.0
 10
4.9295917031
 20
4.9956252311
 30
0.0
 10
4.9262418138
 20
4.9891870587
 30
0.0
 10
4.9212661014
 20
4.9793210713
 30
0.0
 10
4.9146563972
 20
4.9659055824
 30
0.0
 10
4.9099954395
 20
4.9562609186
 30
0.0
 10
4.9075827942
 20
4.9512239077
 30
0.0
  0
SPLINE
  5
39D
100
AcDbEntity
  8
ALL_ASSEMBLY_MEMBERS
100
AcDbSpline
 62
7
  6
CONTINUOUS
 70
0
 71
3
 72
18
 73
14
 74
0
 42
0.0000001
 43
0.0000001
 44
0.0000000001
 40
0.0
 40
0.0
 40
0.0
 40
0.0
 40
0.1800154733
 40
0.3549870597
 40
0.5182754537
 40
0.6646512757
 40
0.7895423772
 40
0.8426955474
 40
0.8890930122
 40
0.9283183072
 40
0.9599920451
 40
0.9839237034
 40
1.0
 40
1.0
 40
1.0
 40
1.0
 10
4.908341168
 20
4.9497377426
 30
0.0
 10
4.9073325298
 20
4.9475819806
 30
0.0
 10
4.905333656
 20
4.9433354643
 30
0.0
 10
4.9023868502
 20
4.9371491093
 30
0.0
 10
4.8996012143
 20
4.9313787093
 30
0.0
 10
4.8970718962
 20
4.9262199452
 30
0.0
 10
4.8951538958
 20
4.9223832878
 30
0.0
 10
4.8938031399
 20
4.9197410941
 30
0.0
 10
4.8929558684
 20
4.9181135802
 30
0.0
 10
4.8922260019
 20
4.9167452572
 30
0.0
 10
4.8916202843
 20
4.9156472708
 30
0.0
 10
4.8911430109
 20
4.9148286741
 30
0.0
 10
4.890860108
 20
4.9143809366
 30
0.0
 10
4.8907351425
 20
4.9142090019
 30
0.0
  0
LINE
  5
39E
100
AcDbEntity
  8
ALL_ASSEMBLY_MEMBERS
100
AcDbLine
 62
7
  6
CONTINUOUS
 10
4.8907351425
 20
4.9142090019
 11
4.8905792219
 21
4.9140167868
  0
LINE
  5
39F
100
AcDbEntity
  8
ALL_ASSEMBLY_MEMBERS
100
AcDbLine
 62
7
  6
CONTINUOUS
 10
3.4825143646
 20
4.647670862
 11
3.4886771657
 21
4.6547451172
  0
SPLINE
  5
3A0
100
AcDbEntity
  8
ALL_ASSEMBLY_MEMBERS
100
AcDbSpline
 62
7
  6
CONTINUOUS
 70
0
 71
3
 72
18
 73
14
 74
0
 42
0.0000001
 43
0.0000001
 44
0.0000000001
 40
0.0
 40
0.0
 40
0.0
 40
0.0
 40
0.1815844747
 40
0.3579505805
 40
0.5222732983
 40
0.6691967605
 40
0.7940225723
 40
0.846891601
 40
0.8928214049
 40
0.9313830527
 40
0.9622052887
 40
0.9851144154
 40
1.0
 40
1.0
 40
1.0
 40
1.0
 10
4.9088710991
 20
4.9494895297
 30
0.0
 10
4.9078507008
 20
4.9473110696
 30
0.0
 10
4.9058290611
 20
4.9430215083
 30
0.0
 10
4.9028499837
 20
4.9367766902
 30
0.0
 10
4.9000375431
 20
4.930961221
 30
0.0
 10
4.8974898189
 20
4.9257763154
 30
0.0
 10
4.8955624729
 20
4.9219318013
 30
0.0
 10
4.8942098865
 20
4.9192960468
 30
0.0
 10
4.8933664766
 20
4.917683516
 30
0.0
 10
4.8926439619
 20
4.9163375678
 30
0.0
 10
4.8920493893
 20
4.9152688693
 30
0.0
 10
4.8915865517
 20
4.9144868639
 30
0.0
 10
4.891314499
 20
4.9140653733
 30
0.0
 10
4.8911942172
 20
4.913909102
 30
0.0
  0
LINE
  5
3A1
100
AcDbEntity
  8
ALL_ASSEMBLY_MEMBERS
100
AcDbLine
 62
7
  6
CONTINUOUS
 10
4.8911942172
 20
4.913909102
 11
4.8909721142
 21
4.9137157065
  0
SPLINE
  5
3A2
100
AcDbEntity
  8
ALL_ASSEMBLY_MEMBERS
100
AcDbSpline
 62
7
  6
CONTINUOUS
 70
0
 71
3
 72
18
 73
14
 74
0
 42
0.0000001
 43
0.0000001
 44
0.0000000001
 40
0.0
 40
0.0
 40
0.0
 40
0.0
 40
0.1778699204
 40
0.3508065156
 40
0.5123512178
 40
0.6574581245
 40
0.7817700888
 40
0.834988769
 40
0.8817540429
 40
0.9217329625
 40
0.9546848975
 40
0.9806529074
 40
1.0
 40
1.0
 40
1.0
 40
1.0
 10
6.1287991336
 20
4.6708076133
 30
0.0
 10
6.1288265368
 20
4.6684268149
 30
0.0
 10
6.1288252375
 20
4.6637304352
 30
0.0
 10
6.1286629611
 20
4.656873409
 30
0.0
 10
6.1283412555
 20
4.6504607984
 30
0.0
 10
6.1278742195
 20
4.6447099679
 30
0.0
 10
6.1273567111
 20
4.6404202882
 30
0.0
 10
6.1268638692
 20
4.6374581221
 30
0.0
 10
6.1264886962
 20
4.6356219117
 30
0.0
 10
6.1260925263
 20
4.6340687915
 30
0.0
 10
6.1256770588
 20
4.6328095432
 30
0.0
 10
6.1252487652
 20
4.6318524715
 30
0.0
 10
6.1249088319
 20
4.6313405848
 30
0.0
 10
6.1247282358
 20
4.6311549637
 30
0.0
  0
LINE
  5
3A3
100
AcDbEntity
  8
ALL_ASSEMBLY_MEMBERS
100
AcDbLine
 62
7
  6
CONTINUOUS
 10
6.1247282358
 20
4.6311549637
 11
6.1240454617
 21
4.6308103721
  0
SPLINE
  5
3A4
100
AcDbEntity
  8
ALL_ASSEMBLY_MEMBERS
100
AcDbSpline
 62
7
  6
CONTINUOUS
 70
0
 71
3
 72
11
 73
7
 74
0
 42
0.0000001
 43
0.0000001
 44
0.0000000001
 40
0.0
 40
0.0
 40
0.0
 40
0.0
 40
0.27488505
 40
0.5404346403
 40
0.7850866658
 40
1.0
 40
1.0
 40
1.0
 40
1.0
 10
6.1334201384
 20
4.6708702113
 30
0.0
 10
6.1334551715
 20
4.6682775845
 30
0.0
 10
6.1334592151
 20
4.6631792984
 30
0.0
 10
6.133277182
 20
4.6557752469
 30
0.0
 10
6.1329080727
 20
4.6489445833
 30
0.0
 10
6.1325233825
 20
4.6446252711
 30
0.0
 10
6.1322907464
 20
4.6426114858
 30
0.0
  0
SPLINE
  5
3A5
100
AcDbEntity
  8
ALL_ASSEMBLY_MEMBERS
100
AcDbSpline
 62
7
  6
CONTINUOUS
 70
0
 71
3
 72
16
 73
12
 74
0
 42
0.0000001
 43
0.0000001
 44
0.0000000001
 40
0.0
 40
0.0
 40
0.0
 40
0.0
 40
0.2119590255
 40
0.4008771656
 40
0.5652228275
 40
0.7035930583
 40
0.7627062098
 40
0.8150789058
 40
0.8607962692
 40
0.9000265425
 40
1.0
 40
1.0
 40
1.0
 40
1.0
 10
6.1322907464
 20
4.6426114858
 30
0.0
 10
6.1321887511
 20
4.641728576
 30
0.0
 10
6.1319760367
 20
4.6400608965
 30
0.0
 10
6.1316051691
 20
4.6377195729
 30
0.0
 10
6.1312037678
 20
4.6356968268
 30
0.0
 10
6.1308316614
 20
4.6342250392
 30
0.0
 10
6.1305117711
 20
4.6332263093
 30
0.0
 10
6.1302805643
 20
4.6326104313
 30
0.0
 10
6.1300406452
 20
4.6320807007
 30
0.0
 10
6.1296781391
 20
4.6314219391
 30
0.0
 10
6.1292003041
 20
4.6308650666
 30
0.0
 10
6.1287811343
 20
4.6308705997
 30
0.0
  0
SPLINE
  5
3A6
100
AcDbEntity
  8
ALL_ASSEMBLY_MEMBERS
100
AcDbSpline
 62
7
  6
CONTINUOUS
 70
0
 71
3
 72
25
 73
21
 74
0
 42
0.0000001
 43
0.0000001
 44
0.0000000001
 40
0.0
 40
0.0
 40
0.0
 40
0.0
 40
0.0559353416
 40
0.1128277677
 40
0.1706985417
 40
0.2295655159
 40
0.2894371865
 40
0.350304208
 40
0.4121412038
 40
0.4749065403
 40
0.5385391535
 40
0.6029614302
 40
0.6680810234
 40
0.7008685766
 40
0.7337865093
 40
0.7668178656
 40
0.7999475947
 40
0.8664504008
 40
0.9331770926
 40
1.0
 40
1.0
 40
1.0
 40
1.0
 10
6.7963129558
 20
3.6970136217
 30
0.0
 10
6.7863468298
 20
3.7062476445
 30
0.0
 10
6.7656988632
 20
3.7242940212
 30
0.0
 10
6.7329859833
 20
3.7498010171
 30
0.0
 10
6.6983438686
 20
3.7738911045
 30
0.0
 10
6.6618509156
 20
3.7964769648
 30
0.0
 10
6.6236325752
 20
3.817549205
 30
0.0
 10
6.5838105611
 20
3.8371003115
 30
0.0
 10
6.5425077649
 20
3.8551229455
 30
0.0
 10
6.4998674298
 20
3.8716562741
 30
0.0
 10
6.4560299594
 20
3.8867403922
 30
0.0
 10
6.4111356392
 20
3.9004123726
 30
0.0
 10
6.373065567
 20
3.9106985867
 30
0.0
 10
6.342221623
 20
3.9183444738
 30
0.0
 10
6.3188695044
 20
3.9238108883
 30
0.0
 10
6.295370789
 20
3.9290070126
 30
0.0
 10
6.2638332534
 20
3.9356224553
 30
0.0
 10
6.2241916931
 20
3.9434587357
 30
0.0
 10
6.1764849191
 20
3.9526881872
 30
0.0
 10
6.1446813716
 20
3.9590812389
 30
0.0
 10
6.1287991335
 20
3.962427656
 30
0.0
  0
SPLINE
  5
3A7
100
AcDbEntity
  8
ALL_ASSEMBLY_MEMBERS
100
AcDbSpline
 62
7
  6
CONTINUOUS
 70
0
 71
3
 72
25
 73
21
 74
0
 42
0.0000001
 43
0.0000001
 44
0.0000000001
 40
0.0
 40
0.0
 40
0.0
 40
0.0
 40
0.0666703122
 40
0.0999682937
 40
0.1332251263
 40
0.1664267867
 40
0.1995598165
 40
0.2326052817
 40
0.2655426471
 40
0.2983541672
 40
0.3310260337
 40
0.3959018279
 40
0.5234849009
 40
0.6478007146
 40
0.7086528384
 40
0.7686079419
 40
0.827680167
 40
0.8859004477
 40
0.9433207984
 40
1.0
 40
1.0
 40
1.0
 40
1.0
 10
6.1339999746
 20
3.9600321005
 30
0.0
 10
6.1499970112
 20
3.9566213101
 30
0.0
 10
6.1740236097
 20
3.9516953567
 30
0.0
 10
6.2060631652
 20
3.9452330381
 30
0.0
 10
6.2300488519
 20
3.94036919
 30
0.0
 10
6.2539728174
 20
3.935405273
 30
0.0
 10
6.2778052827
 20
3.9302585292
 30
0.0
 10
6.3015192216
 20
3.9248756989
 30
0.0
 10
6.3250872609
 20
3.9192139758
 30
0.0
 10
6.3484794977
 20
3.9132234624
 30
0.0
 10
6.3793324147
 20
3.9047961321
 30
0.0
 10
6.4322472743
 20
3.888935284
 30
0.0
 10
6.5054781895
 20
3.8626755982
 30
0.0
 10
6.5753230765
 20
3.830619348
 30
0.0
 10
6.6279931755
 20
3.801548959
 30
0.0
 10
6.6654976897
 20
3.7782510488
 30
0.0
 10
6.7011712486
 20
3.7533469755
 30
0.0
 10
6.7349269252
 20
3.7268942241
 30
0.0
 10
6.7667078403
 20
3.6989829356
 30
0.0
 10
6.7866792572
 20
3.6793432279
 30
0.0
 10
6.7963129558
 20
3.6693156201
 30
0.0
  0
SPLINE
  5
3A8
100
AcDbEntity
  8
ALL_ASSEMBLY_MEMBERS
100
AcDbSpline
 62
7
  6
CONTINUOUS
 70
0
 71
3
 72
20
 73
16
 74
0
 42
0.0000001
 43
0.0000001
 44
0.0000000001
 40
0.0
 40
0.0
 40
0.0
 40
0.0
 40
0.0605095016
 40
0.1223216692
 40
0.1851511522
 40
0.2487076263
 40
0.3126860642
 40
0.3767267698
 40
0.4404841007
 40
0.5037924106
 40
0.5665781402
 40
0.628986819
 40
0.7533151767
 40
0.8769581014
 40
1.0
 40
1.0
 40
1.0
 40
1.0
 10
6.1251961614
 20
3.9630735767
 30
0.0
 10
6.1049261426
 20
3.9674011476
 30
0.0
 10
6.0640632604
 20
3.9766886038
 30
0.0
 10
6.0025651059
 20
3.9922095842
 30
0.0
 10
5.9404171086
 20
4.0093563381
 30
0.0
 10
5.8779252811
 20
4.0279927396
 30
0.0
 10
5.8154165262
 20
4.0479779796
 30
0.0
 10
5.7532063691
 20
4.0690868194
 30
0.0
 10
5.6915592423
 20
4.0911128718
 30
0.0
 10
5.6306390602
 20
4.1138736194
 30
0.0
 10
5.5704382032
 20
4.1372255641
 30
0.0
 10
5.4911736507
 20
4.1692064392
 30
0.0
 10
5.3934581337
 20
4.2111492878
 30
0.0
 10
5.2784689038
 20
4.2653282237
 30
0.0
 10
5.2035172144
 20
4.304413365
 30
0.0
 10
5.1666016841
 20
4.3247499819
 30
0.0
  0
SPLINE
  5
3A9
100
AcDbEntity
  8
ALL_ASSEMBLY_MEMBERS
100
AcDbSpline
 62
7
  6
CONTINUOUS
 70
0
 71
3
 72
23
 73
19
 74
0
 42
0.0000001
 43
0.0000001
 44
0.0000000001
 40
0.0
 40
0.0
 40
0.0
 40
0.0
 40
0.1256772752
 40
0.2512054784
 40
0.3765623515
 40
0.5017000616
 40
0.5642240198
 40
0.6267681881
 40
0.6892922574
 40
0.7514917189
 40
0.7825526821
 40
0.8138176686
 40
0.8454699927
 40
0.8776468117
 40
0.9100982704
 40
0.9418688264
 40
0.9720964093
 40
1.0
 40
1.0
 40
1.0
 40
1.0
 10
5.1666016841
 20
4.3247499819
 30
0.0
 10
5.1480561819
 20
4.3349666243
 30
0.0
 10
5.1112298541
 20
4.3558303131
 30
0.0
 10
5.056633325
 20
4.3881463832
 30
0.0
 10
5.0025571298
 20
4.4211493616
 30
0.0
 10
4.9577696412
 20
4.4489911121
 30
0.0
 10
4.9220172465
 20
4.4713221105
 30
0.0
 10
4.895212962
 20
4.4880666419
 30
0.0
 10
4.8684336615
 20
4.5047479485
 30
0.0
 10
4.8461228952
 20
4.5185708503
 30
0.0
 10
4.8282574924
 20
4.529569187
 30
0.0
 10
4.8147543058
 20
4.5378364352
 30
0.0
 10
4.8010718085
 20
4.5461708134
 30
0.0
 10
4.7871685982
 20
4.5545267789
 30
0.0
 10
4.7731577792
 20
4.5627412641
 30
0.0
 10
4.7592928376
 20
4.5705514045
 30
0.0
 10
4.7459542485
 20
4.5777288887
 30
0.0
 10
4.7372312141
 20
4.5821838628
 30
0.0
 10
4.7330146692
 20
4.5842624804
 30
0.0
  0
SPLINE
  5
3AA
100
AcDbEntity
  8
ALL_ASSEMBLY_MEMBERS
100
AcDbSpline
 62
7
  6
CONTINUOUS
 70
0
 71
3
 72
39
 73
35
 74
0
 42
0.0000001
 43
0.0000001
 44
0.0000000001
 40
0.0
 40
0.0
 40
0.0
 40
0.0
 40
0.006741886
 40
0.0139582178
 40
0.0293820766
 40
0.0453399743
 40
0.061003837
 40
0.0763767565
 40
0.0916577633
 40
0.1223996474
 40
0.1531879849
 40
0.1839738986
 40
0.2456561256
 40
0.2765487061
 40
0.3074687698
 40
0.3229393226
 40
0.3384175567
 40
0.3694018643
 40
0.4004319011
 40
0.4315165839
 40
0.4938787803
 40
0.5565098279
 40
0.5879036176
 40
0.6193759034
 40
0.6509927699
 40
0.6828093321
 40
0.714816366
 40
0.7469832309
 40
0.7792591281
 40
0.8115425146
 40
0.8437256545
 40
0.8757116893
 40
0.9387518295
 40
1.0
 40
1.0
 40
1.0
 40
1.0
 10
4.7318510318
 20
4.5837113038
 30
0.0
 10
4.7349537798
 20
4.5821883001
 30
0.0
 10
4.7413438063
 20
4.5789659528
 30
0.0
 10
4.7546752462
 20
4.5719521047
 30
0.0
 10
4.7719708569
 20
4.5623312008
 30
0.0
 10
4.792738326
 20
4.5500629787
 30
0.0
 10
4.8133250904
 20
4.5375466457
 30
0.0
 10
4.8335715061
 20
4.5251389364
 30
0.0
 10
4.8603526274
 20
4.5086007391
 30
0.0
 10
4.8937866849
 20
4.4877950092
 30
0.0
 10
4.9339199936
 20
4.4627099299
 30
0.0
 10
4.9875384326
 20
4.4292727843
 30
0.0
 10
5.0414076873
 20
4.3961335411
 30
0.0
 10
5.0958278109
 20
4.3637747288
 30
0.0
 10
5.1301457011
 20
4.3439699074
 30
0.0
 10
5.1578070417
 20
4.3284477986
 30
0.0
 10
5.1856314683
 20
4.3131515056
 30
0.0
 10
5.2206883906
 20
4.2944562575
 30
0.0
 10
5.2631643002
 20
4.2726828668
 30
0.0
 10
5.3203993414
 20
4.2444534422
 30
0.0
 10
5.3929372538
 20
4.2106482942
 30
0.0
 10
5.4664828852
 20
4.1787033841
 30
0.0
 10
5.5259307546
 20
4.1540946653
 30
0.0
 10
5.5708857964
 20
4.1360541298
 30
0.0
 10
5.6162243792
 20
4.1183947887
 30
0.0
 10
5.6619827107
 20
4.1010636202
 30
0.0
 10
5.7081798758
 20
4.0841016614
 30
0.0
 10
5.7547860539
 20
4.06757889
 30
0.0
 10
5.8017237043
 20
4.0515774787
 30
0.0
 10
5.8488740126
 20
4.0361864813
 30
0.0
 10
5.8960959617
 20
4.0215086125
 30
0.0
 10
5.9586601371
 20
4.0030905284
 30
0.0
 10
6.0360346046
 20
3.9822511273
 30
0.0
 10
6.0981109543
 20
3.9677997792
 30
0.0
 10
6.128829593
 20
3.9612926081
 30
0.0
  0
SPLINE
  5
3AB
100
AcDbEntity
  8
ALL_ASSEMBLY_MEMBERS
100
AcDbSpline
 62
7
  6
CONTINUOUS
 70
0
 71
3
 72
19
 73
15
 74
0
 42
0.0000001
 43
0.0000001
 44
0.0000000001
 40
0.0
 40
0.0
 40
0.0
 40
0.0
 40
0.1251645836
 40
0.187815706
 40
0.2504445762
 40
0.3755801619
 40
0.5006050705
 40
0.5630945439
 40
0.6255535892
 40
0.687991316
 40
0.750420362
 40
0.8128490295
 40
0.8752751513
 40
1.0
 40
1.0
 40
1.0
 40
1.0
 10
4.7322949831
 20
4.5846319427
 30
0.0
 10
4.7146546484
 20
4.5933141546
 30
0.0
 10
4.6874629119
 20
4.6049438293
 30
0.0
 10
4.6501826475
 20
4.6175464973
 30
0.0
 10
4.6122981827
 20
4.6281938827
 30
0.0
 10
4.5640236278
 20
4.6378183123
 30
0.0
 10
4.5150458144
 20
4.642495242
 30
0.0
 10
4.4757735357
 20
4.6432799655
 30
0.0
 10
4.4463389528
 20
4.6423938953
 30
0.0
 10
4.4169950654
 20
4.6400481447
 30
0.0
 10
4.387806688
 20
4.6362658378
 30
0.0
 10
4.3588384629
 20
4.6310645954
 30
0.0
 10
4.3206180293
 20
4.6222890629
 30
0.0
 10
4.2924437471
 20
4.6137072564
 30
0.0
 10
4.2739756813
 20
4.6071665115
 30
0.0
  0
SPLINE
  5
3AC
100
AcDbEntity
  8
ALL_ASSEMBLY_MEMBERS
100
AcDbSpline
 62
7
  6
CONTINUOUS
 70
0
 71
3
 72
24
 73
20
 74
0
 42
0.0000001
 43
0.0000001
 44
0.0000000001
 40
0.0
 40
0.0
 40
0.0
 40
0.0
 40
0.062372213
 40
0.1247874325
 40
0.156005135
 40
0.1872204268
 40
0.2496349461
 40
0.2808423307
 40
0.3120548028
 40
0.3744942865
 40
0.4369539255
 40
0.4994321501
 40
0.6244396655
 40
0.6870063721
 40
0.7495944979
 40
0.8121984505
 40
0.8748066543
 40
0.9374106684
 40
1.0
 40
1.0
 40
1.0
 40
1.0
 10
4.2739756813
 20
4.6071665115
 30
0.0
 10
4.2831927968
 20
4.6103471705
 30
0.0
 10
4.3018060204
 20
4.6162192227
 30
0.0
 10
4.3253933564
 20
4.6224473296
 30
0.0
 10
4.3444105221
 20
4.6268418933
 30
0.0
 10
4.3635103745
 20
4.630860368
 30
0.0
 10
4.3827332756
 20
4.6342714778
 30
0.0
 10
4.4020581041
 20
4.6370012048
 30
0.0
 10
4.4214487957
 20
4.6392505075
 30
0.0
 10
4.4457889319
 20
4.6411605944
 30
0.0
 10
4.4750802277
 20
4.642029467
 30
0.0
 10
4.5141582395
 20
4.6412865029
 30
0.0
 10
4.5531544005
 20
4.6376238549
 30
0.0
 10
4.5917190211
 20
4.6310566207
 30
0.0
 10
4.6203776072
 20
4.6246519126
 30
0.0
 10
4.6486772319
 20
4.6167927955
 30
0.0
 10
4.6765427914
 20
4.6075003601
 30
0.0
 10
4.7038800514
 20
4.5967598988
 30
0.0
 10
4.7217048751
 20
4.5886535034
 30
0.0
 10
4.7305040284
 20
4.5843745133
 30
0.0
  0
SPLINE
  5
3AD
100
AcDbEntity
  8
ALL_ASSEMBLY_MEMBERS
100
AcDbSpline
 62
7
  6
CONTINUOUS
 70
0
 71
3
 72
19
 73
15
 74
0
 42
0.0000001
 43
0.0000001
 44
0.0000000001
 40
0.0
 40
0.0
 40
0.0
 40
0.0
 40
0.1250563334
 40
0.1876223613
 40
0.2501662779
 40
0.3751623674
 40
0.4376587546
 40
0.500151804
 40
0.6251246964
 40
0.6876136051
 40
0.7500922706
 40
0.8125663418
 40
0.8750455042
 40
1.0
 40
1.0
 40
1.0
 40
1.0
 10
3.9412926852
 20
4.3429661585
 30
0.0
 10
3.9340997476
 20
4.3309704581
 30
0.0
 10
3.924128861
 20
4.3124679378
 30
0.0
 10
3.9123346008
 20
4.2870912285
 30
0.0
 10
3.9014708429
 20
4.2613078043
 30
0.0
 10
3.8919318213
 20
4.2349953161
 30
0.0
 10
3.8836109935
 20
4.2082994615
 30
0.0
 10
3.8760554152
 20
4.1813793194
 30
0.0
 10
3.8696069451
 20
4.1541612035
 30
0.0
 10
3.8641951484
 20
4.1267333355
 30
0.0
 10
3.8606403444
 20
4.1060703049
 30
0.0
 10
3.8575415086
 20
4.0853358258
 30
0.0
 10
3.8539154744
 20
4.0576198114
 30
0.0
 10
3.8516581699
 20
4.0367756168
 30
0.0
 10
3.8502619611
 20
4.0228699602
 30
0.0
  0
SPLINE
  5
3AE
100
AcDbEntity
  8
ALL_ASSEMBLY_MEMBERS
100
AcDbSpline
 62
7
  6
CONTINUOUS
 70
0
 71
3
 72
17
 73
13
 74
0
 42
0.0000001
 43
0.0000001
 44
0.0000000001
 40
0.0
 40
0.0
 40
0.0
 40
0.0
 40
0.1249210971
 40
0.1873842527
 40
0.249844886
 40
0.3747738292
 40
0.4997311928
 40
0.5622164918
 40
0.6247170275
 40
0.7497432693
 40
0.8748901071
 40
1.0
 40
1.0
 40
1.0
 40
1.0
 10
3.8519164869
 20
4.0224266314
 30
0.0
 10
3.8547812426
 20
4.0360515647
 30
0.0
 10
3.8587267575
 20
4.0565627366
 30
0.0
 10
3.8637209084
 20
4.0839568542
 30
0.0
 10
3.8686798319
 20
4.1113586693
 30
0.0
 10
3.8750380504
 20
4.1455858018
 30
0.0
 10
3.8822171821
 20
4.1796596368
 30
0.0
 10
3.8887984124
 20
4.2067307432
 30
0.0
 10
3.8960533511
 20
4.2336365248
 30
0.0
 10
3.906563211
 20
4.2668894655
 30
0.0
 10
3.9219893806
 20
4.3058087153
 30
0.0
 10
3.9344554595
 20
4.3308136136
 30
0.0
 10
3.9412926852
 20
4.3429661585
 30
0.0
  0
SPLINE
  5
3AF
100
AcDbEntity
  8
ALL_ASSEMBLY_MEMBERS
100
AcDbSpline
 62
7
  6
CONTINUOUS
 70
0
 71
3
 72
12
 73
8
 74
0
 42
0.0000001
 43
0.0000001
 44
0.0000000001
 40
0.0
 40
0.0
 40
0.0
 40
0.0
 40
0.289098744
 40
0.5615878896
 40
0.8025910072
 40
0.907430405
 40
1.0
 40
1.0
 40
1.0
 40
1.0
 10
6.1339663601
 20
4.0600211605
 30
0.0
 10
6.1330436257
 20
4.0556134538
 30
0.0
 10
6.1313652773
 20
4.0470267865
 30
0.0
 10
6.1293155056
 20
4.0346925481
 30
0.0
 10
6.1280535426
 20
4.0251408372
 30
0.0
 10
6.1274038345
 20
4.0183420983
 30
0.0
 10
6.1272001415
 20
4.0152731093
 30
0.0
 10
6.1271344995
 20
4.0138326588
 30
0.0
  0
SPLINE
  5
3B0
100
AcDbEntity
  8
ALL_ASSEMBLY_MEMBERS
100
AcDbSpline
 62
7
  6
CONTINUOUS
 70
0
 71
3
 72
17
 73
13
 74
0
 42
0.0000001
 43
0.0000001
 44
0.0000000001
 40
0.0
 40
0.0
 40
0.0
 40
0.0
 40
0.2109613367
 40
0.39762386
 40
0.5592201523
 40
0.6951324681
 40
0.8051447181
 40
0.8900753946
 40
0.9238854498
 40
0.9526611554
 40
0.9774712699
 40
1.0
 40
1.0
 40
1.0
 40
1.0
 10
6.1271344995
 20
4.0138326588
 30
0.0
 10
6.1270960103
 20
4.0129880517
 30
0.0
 10
6.1270431149
 20
4.0113951019
 30
0.0
 10
6.1270412233
 20
4.0091533528
 30
0.0
 10
6.1271207901
 20
4.0072139397
 30
0.0
 10
6.1272802643
 20
4.0055868851
 30
0.0
 10
6.1275194228
 20
4.0042814264
 30
0.0
 10
6.127798568
 20
4.0034019472
 30
0.0
 10
6.1280782344
 20
4.0028789798
 30
0.0
 10
6.1282930564
 20
4.002599604
 30
0.0
 10
6.1285311785
 20
4.0024035637
 30
0.0
 10
6.1287108518
 20
4.0023311914
 30
0.0
 10
6.1287991724
 20
4.0023124367
 30
0.0
  0
SPLINE
  5
3B1
100
AcDbEntity
  8
ALL_ASSEMBLY_MEMBERS
100
AcDbSpline
 62
7
  6
CONTINUOUS
 70
0
 71
3
 72
13
 73
9
 74
0
 42
0.0000001
 43
0.0000001
 44
0.0000000001
 40
0.0
 40
0.0
 40
0.0
 40
0.0
 40
0.2992820837
 40
0.5773535177
 40
0.7025596948
 40
0.8158843117
 40
0.9155742803
 40
1.0
 40
1.0
 40
1.0
 40
1.0
 10
6.1287991335
 20
4.0611320986
 30
0.0
 10
6.1277646279
 20
4.0562484872
 30
0.0
 10
6.1259077201
 20
4.0467974335
 30
0.0
 10
6.1240103256
 20
4.0352306874
 30
0.0
 10
6.1228776143
 20
4.0266879807
 30
0.0
 10
6.1222709664
 20
4.0210784955
 30
0.0
 10
6.1218833069
 20
4.016131685
 30
0.0
 10
6.1217637149
 20
4.0130614912
 30
0.0
 10
6.1217532482
 20
4.0116533219
 30
0.0
  0
SPLINE
  5
3B2
100
AcDbEntity
  8
ALL_ASSEMBLY_MEMBERS
100
AcDbSpline
 62
7
  6
CONTINUOUS
 70
0
 71
3
 72
15
 73
11
 74
0
 42
0.0000001
 43
0.0000001
 44
0.0000000001
 40
0.0
 40
0.0
 40
0.0
 40
0.0
 40
0.2017325872
 40
0.3813539561
 40
0.5384340437
 40
0.6727094536
 40
0.7844104404
 40
0.8744360389
 40
0.944788342
 40
1.0
 40
1.0
 40
1.0
 40
1.0
 10
6.1217532482
 20
4.0116533219
 30
0.0
 10
6.1217489973
 20
4.0110814132
 30
0.0
 10
6.121755202
 20
4.0100000699
 30
0.0
 10
6.1218165375
 20
4.0084744445
 30
0.0
 10
6.121928808
 20
4.0071433599
 30
0.0
 10
6.1220920088
 20
4.0060114852
 30
0.0
 10
6.1223045019
 20
4.0050814337
 30
0.0
 10
6.1225664695
 20
4.0043528909
 30
0.0
 10
6.1228766627
 20
4.0038209084
 30
0.0
 10
6.1231544012
 20
4.0035790362
 30
0.0
 10
6.1232956592
 20
4.0035116022
 30
0.0
  0
LINE
  5
3B3
100
AcDbEntity
  8
ALL_ASSEMBLY_MEMBERS
100
AcDbLine
 62
7
  6
CONTINUOUS
 10
6.1232956592
 20
4.0035116022
 11
6.1234773084
 21
4.0034493159
  0
SPLINE
  5
3B4
100
AcDbEntity
  8
ALL_ASSEMBLY_MEMBERS
100
AcDbSpline
 62
7
  6
CONTINUOUS
 70
0
 71
3
 72
20
 73
16
 74
0
 42
0.0000001
 43
0.0000001
 44
0.0000000001
 40
0.0
 40
0.0
 40
0.0
 40
0.0
 40
0.1829231766
 40
0.3601115559
 40
0.5250164743
 40
0.6723156578
 40
0.7378432599
 40
0.7972100533
 40
0.8498723049
 40
0.8954117692
 40
0.9334829128
 40
0.9637457001
 40
0.9859458706
 40
0.9939926555
 40
1.0
 40
1.0
 40
1.0
 40
1.0
 10
4.7752831926
 20
4.6737861057
 30
0.0
 10
4.7736916948
 20
4.6705802334
 30
0.0
 10
4.7705746182
 20
4.6642610265
 30
0.0
 10
4.7660776107
 20
4.6550248231
 30
0.0
 10
4.7619355749
 20
4.6463912284
 30
0.0
 10
4.7587838954
 20
4.6397058974
 30
0.0
 10
4.7565465653
 20
4.6348727154
 30
0.0
 10
4.7551042387
 20
4.6317120712
 30
0.0
 10
4.7538432099
 20
4.628898646
 30
0.0
 10
4.7527739626
 20
4.6264560155
 30
0.0
 10
4.7519042784
 20
4.6244044988
 30
0.0
 10
4.7512420862
 20
4.6227615133
 30
0.0
 10
4.7508289312
 20
4.6216513772
 30
0.0
 10
4.7506138696
 20
4.6209753431
 30
0.0
 10
4.7505432525
 20
4.6207092352
 30
0.0
 10
4.7505196029
 20
4.620594096
 30
0.0
  0
LINE
  5
3B5
100
AcDbEntity
  8
ALL_ASSEMBLY_MEMBERS
100
AcDbLine
 62
7
  6
CONTINUOUS
 10
4.7505196029
 20
4.620594096
 11
4.7505288092
 21
4.6202262619
  0
SPLINE
  5
3B6
100
AcDbEntity
  8
ALL_ASSEMBLY_MEMBERS
100
AcDbSpline
 62
7
  6
CONTINUOUS
 70
0
 71
3
 72
20
 73
16
 74
0
 42
0.0000001
 43
0.0000001
 44
0.0000000001
 40
0.0
 40
0.0
 40
0.0
 40
0.0
 40
0.18291989
 40
0.3601067729
 40
0.5250118463
 40
0.6723125558
 40
0.7378413009
 40
0.7972093981
 40
0.8498730217
 40
0.8954138018
 40
0.9334860296
 40
0.9637493822
 40
0.9859490402
 40
0.9939947537
 40
1.0
 40
1.0
 40
1.0
 40
1.0
 10
4.7743385121
 20
4.6742534822
 30
0.0
 10
4.7727531473
 20
4.6710445464
 30
0.0
 10
4.7696479194
 20
4.6647194218
 30
0.0
 10
4.7651675337
 20
4.6554749664
 30
0.0
 10
4.7610402814
 20
4.6468340325
 30
0.0
 10
4.7578993714
 20
4.6401433767
 30
0.0
 10
4.7556693182
 20
4.6353066042
 30
0.0
 10
4.7542314899
 20
4.6321437361
 30
0.0
 10
4.7529741827
 20
4.6293284787
 30
0.0
 10
4.7519078499
 20
4.6268844233
 30
0.0
 10
4.7510402637
 20
4.6248319004
 30
0.0
 10
4.7503793286
 20
4.6231883375
 30
0.0
 10
4.7499665981
 20
4.6220780509
 30
0.0
 10
4.7497513337
 20
4.6214021405
 30
0.0
 10
4.7496804572
 20
4.6211361682
 30
0.0
 10
4.7496566063
 20
4.6210211095
 30
0.0
  0
LINE
  5
3B7
100
AcDbEntity
  8
ALL_ASSEMBLY_MEMBERS
100
AcDbLine
 62
7
  6
CONTINUOUS
 10
4.7496566063
 20
4.6210211095
 11
4.7496641315
 21
4.6206541765
  0
SPLINE
  5
3B8
100
AcDbEntity
  8
ALL_ASSEMBLY_MEMBERS
100
AcDbSpline
 62
7
  6
CONTINUOUS
 70
0
 71
3
 72
12
 73
8
 74
0
 42
0.0000001
 43
0.0000001
 44
0.0000000001
 40
0.0
 40
0.0
 40
0.0
 40
0.0
 40
0.2890935977
 40
0.5615912005
 40
0.8026016805
 40
0.9074391534
 40
1.0
 40
1.0
 40
1.0
 40
1.0
 10
6.1339999831
 20
3.9600321005
 30
0.0
 10
6.1330807029
 20
3.9556222612
 30
0.0
 10
6.131407723
 20
3.9470316343
 30
0.0
 10
6.1293615438
 20
3.9346925554
 30
0.0
 10
6.1280986046
 20
3.9251376747
 30
0.0
 10
6.1274453495
 20
3.9183371159
 30
0.0
 10
6.1272390306
 20
3.9152674857
 30
0.0
 10
6.1271718175
 20
3.9138267756
 30
0.0
  0
SPLINE
  5
3B9
100
AcDbEntity
  8
ALL_ASSEMBLY_MEMBERS
100
AcDbSpline
 62
7
  6
CONTINUOUS
 70
0
 71
3
 72
17
 73
13
 74
0
 42
0.0000001
 43
0.0000001
 44
0.0000000001
 40
0.0
 40
0.0
 40
0.0
 40
0.0
 40
0.2112677232
 40
0.3981744253
 40
0.5599451872
 40
0.6959519035
 40
0.8059633265
 40
0.8907756346
 40
0.9244713676
 40
0.95309028
 40
0.9777008754
 40
1.0
 40
1.0
 40
1.0
 40
1.0
 10
6.1271718175
 20
3.9138267756
 30
0.0
 10
6.1271324116
 20
3.9129821126
 30
0.0
 10
6.1270775622
 20
3.9113891576
 30
0.0
 10
6.1270720881
 20
3.9091475139
 30
0.0
 10
6.1271476293
 20
3.9072084925
 30
0.0
 10
6.1273026378
 20
3.9055821444
 30
0.0
 10
6.1275369152
 20
3.9042777416
 30
0.0
 10
6.1278113356
 20
3.9033991213
 30
0.0
 10
6.1280870851
 20
3.9028767513
 30
0.0
 10
6.1282989359
 20
3.9025980789
 30
0.0
 10
6.1285340378
 20
3.9024026791
 30
0.0
 10
6.128711821
 20
3.9023307511
 30
0.0
 10
6.1287991402
 20
3.902312285
 30
0.0
  0
SPLINE
  5
3BA
100
AcDbEntity
  8
ALL_ASSEMBLY_MEMBERS
100
AcDbSpline
 62
7
  6
CONTINUOUS
 70
0
 71
3
 72
25
 73
21
 74
0
 42
0.0000001
 43
0.0000001
 44
0.0000000001
 40
0.0
 40
0.0
 40
0.0
 40
0.0
 40
0.1922499549
 40
0.3768817731
 40
0.4639724588
 40
0.5465568901
 40
0.6238976429
 40
0.6953208717
 40
0.7602043101
 40
0.8179398059
 40
0.8680363361
 40
0.9101623901
 40
0.9281550148
 40
0.9440684948
 40
0.9579085429
 40
0.969719194
 40
0.979585359
 40
0.987668325
 40
0.994279857
 40
1.0
 40
1.0
 40
1.0
 40
1.0
 10
6.1287991335
 20
3.9611467754
 30
0.0
 10
6.1280229217
 20
3.9574634193
 30
0.0
 10
6.1265813286
 20
3.9502255524
 30
0.0
 10
6.1250102049
 20
3.9412768568
 30
0.0
 10
6.1239484602
 20
3.9344210502
 30
0.0
 10
6.123277338
 20
3.9296310731
 30
0.0
 10
6.1227221585
 20
3.9251351908
 30
0.0
 10
6.122287536
 20
3.92097432
 30
0.0
 10
6.121976471
 20
3.9171873724
 30
0.0
 10
6.1217917839
 20
3.9138100611
 30
0.0
 10
6.1217354123
 20
3.9108737892
 30
0.0
 10
6.1217954535
 20
3.9087151469
 30
0.0
 10
6.121919223
 20
3.9072312013
 30
0.0
 10
6.1220393019
 20
3.9063036637
 30
0.0
 10
6.1221910562
 20
3.905503495
 30
0.0
 10
6.1223737052
 20
3.904831528
 30
0.0
 10
6.1225867804
 20
3.9042874791
 30
0.0
 10
6.1228315562
 20
3.9038702951
 30
0.0
 10
6.1231128828
 20
3.9035785458
 30
0.0
 10
6.1233388075
 20
3.9034731882
 30
0.0
 10
6.1234483389
 20
3.9034498006
 30
0.0
  0
SPLINE
  5
3BB
100
AcDbEntity
  8
ALL_ASSEMBLY_MEMBERS
100
AcDbSpline
 62
7
  6
CONTINUOUS
 70
0
 71
3
 72
20
 73
16
 74
0
 42
0.0000001
 43
0.0000001
 44
0.0000000001
 40
0.0
 40
0.0
 40
0.0
 40
0.0
 40
0.1828995896
 40
0.3600688552
 40
0.5249595115
 40
0.6722497652
 40
0.7377751569
 40
0.7971414204
 40
0.8498050567
 40
0.8953481808
 40
0.9334258491
 40
0.9636991205
 40
0.9859160373
 40
0.9939753148
 40
1.0
 40
1.0
 40
1.0
 40
1.0
 10
4.7318532176
 20
4.5837158114
 30
0.0
 10
4.730277389
 20
4.5805018309
 30
0.0
 10
4.727192198
 20
4.5741661676
 30
0.0
 10
4.7227448143
 20
4.564904649
 30
0.0
 10
4.7186522978
 20
4.5562460109
 30
0.0
 10
4.7155418389
 20
4.5495401156
 30
0.0
 10
4.7133364488
 20
4.5446912157
 30
0.0
 10
4.7119160709
 20
4.5415198225
 30
0.0
 10
4.710675765
 20
4.5386963454
 30
0.0
 10
4.709625838
 20
4.5362444502
 30
0.0
 10
4.7087738486
 20
4.5341845264
 30
0.0
 10
4.7081276005
 20
4.5325340717
 30
0.0
 10
4.7077270286
 20
4.5314181505
 30
0.0
 10
4.7075215809
 20
4.5307380064
 30
0.0
 10
4.7074555101
 20
4.5304700276
 30
0.0
 10
4.7074341995
 20
4.5303540608
 30
0.0
  0
LINE
  5
3BC
100
AcDbEntity
  8
ALL_ASSEMBLY_MEMBERS
100
AcDbLine
 62
7
  6
CONTINUOUS
 10
4.7074341995
 20
4.5303540608
 11
4.7074552231
 21
4.5299813508
  0
ENDSEC
  0
SECTION
  2
OBJECTS
  0
DICTIONARY
  5
C
100
AcDbDictionary
280
0
281
1
  3
ACAD_GROUP
350
D
  3
ACAD_MLINESTYLE
350
17
  3
ACAD_LAYOUT
350
1A
  3
ACAD_PLOTSETTINGS
350
19
  3
ACAD_PLOTSTYLENAME
350
E
  0
DICTIONARY
  5
D
102
{ACAD_REACTORS
330
C
102
}
100
AcDbDictionary
280
0
281
1
  0
ACDBDICTIONARYWDFLT
  5
E
102
{ACAD_REACTORS
330
C
102
}
100
AcDbDictionary
281
1
  3
Normal
350
F
100
AcDbDictionaryWithDefault
340
F
  0
DICTIONARY
  5
17
102
{ACAD_REACTORS
330
C
102
}
100
AcDbDictionary
280
0
281
1
  3
Standard
350
18
  0
DICTIONARY
  5
19
102
{ACAD_REACTORS
330
C
102
}
100
AcDbDictionary
281
1
  0
DICTIONARY
  5
1A
102
{ACAD_REACTORS
330
C
102
}
100
AcDbDictionary
281
1
  3
Model
350
3BD
  3
Layout1
350
3BE
  0
ACDBPLACEHOLDER
  5
F
102
{ACAD_REACTORS
330
E
102
}
  0
MLINESTYLE
  5
18
102
{ACAD_REACTORS
330
17
102
}
100
AcDbMlineStyle
  2
STANDARD
 70
0
  3

 62
256
 51
90.0
 52
90.0
 71
2
 49
0.5
 62
256
  6
BYLAYER
 49
-0.5
 62
256
  6
BYLAYER
  0
LAYOUT
  5
3BD
102
{ACAD_REACTORS
330
1A
102
}
100
AcDbPlotSettings
  1

  2
none_device
  4
ANSI_A_(11.00_x_8.50_Inches)
  6

 40
0.0
 41
0.0
 42
0.0
 43
0.0
 44
279.4
 45
215.9
 46
0.0
 47
0.0
 48
0.0
 49
0.0
140
0.0
141
0.0
142
1.0
143
1.0
 70
1024
 72
0
 73
0
 74
0
  7

 75
0
147
1.0
148
0.0
149
0.0
100
AcDbLayout
  1
Model
 70
0
 71
0
 10
0.0
 20
0.0
 11
11.0
 21
8.5
 12
0.0
 22
0.0
 32
0.0
 14
0.0
 24
0.0
 34
0.0
 15
0.0
 25
0.0
 35
0.0
146
0.0
 13
0.0
 23
0.0
 33
0.0
 16
1.0
 26
0.0
 36
0.0
 17
0.0
 27
1.0
 37
0.0
 76
0
330
213
345
0
346
0
  0
LAYOUT
  5
3BE
102
{ACAD_REACTORS
330
1A
102
}
100
AcDbPlotSettings
  1

  2
none_device
  4
ANSI_A_(11.00_x_8.50_Inches)
  6

 40
0.0
 41
0.0
 42
0.0
 43
0.0
 44
279.4
 45
215.9
 46
0.0
 47
0.0
 48
0.0
 49
0.0
140
0.0
141
0.0
142
1.0
143
1.0
 70
0
 72
0
 73
0
 74
0
  7

 75
0
147
1.0
148
0.0
149
0.0
100
AcDbLayout
  1
Layout1
 70
0
 71
1
 10
0.0
 20
0.0
 11
11.0
 21
8.5
 12
0.0
 22
0.0
 32
0.0
 14
0.0
 24
0.0
 34
0.0
 15
0.0
 25
0.0
 35
0.0
146
0.0
 13
0.0
 23
0.0
 33
0.0
 16
1.0
 26
0.0
 36
0.0
 17
0.0
 27
1.0
 37
0.0
 76
0
330
214
345
0
346
0
  0
ENDSEC
  0
EOF
