999
DXF file: 8-009_top.dxf
999
Pro/ENGINEER 2018400 by Parametric Technology Corporation
  0
SECTION
  2
HEADER
  9
$ACADVER
  1
AC1027
  9
$DWGCODEPAGE
  3
ANSI_1252
  9
$EXTMAX
 10
11.0
 20
8.5
 30
0.0
  9
$EXTMIN
 10
0.0
 20
0.0
 30
0.0
  9
$LIMMIN
 10
0.0
 20
0.0
  9
$LIMMAX
 10
11.0
 20
8.5
  9
$VIEWCTR
 10
5.5
 20
4.25
  9
$VIEWSIZE
 40
8.5
  9
$CLAYER
  8
0
  9
$LTSCALE
 40
0.605
  9
$CELTYPE
  6
BYLAYER
  9
$DIMSCALE
 40
1.0
  9
$DIMASZ
 40
0.1
  9
$DIMEXO
 40
0.0625
  9
$DIMDLI
 40
0.418
  9
$DIMEXE
 40
0.125
  9
$DIMCEN
 40
0.099
  9
$DIMLFAC
 40
1.0
  9
$DIMBLK
  1
_FILLED
  9
$DIMALT
 70
1
  9
$DIMALTD
 70
2
  9
$DIMALTTD
 70
2
  9
$DIMALTF
 40
25.4
  9
$DIMTXT
 40
0.08
  9
$DIMTOL
 70
1
  9
$DIMLIM
 70
0
  9
$DIMTFAC
 40
1.0
  9
$DIMTP
 40
0.001
  9
$DIMTM
 40
0.001
  9
$DIMGAP
 40
0.09
  9
$DIMDSEP
 70
46
  9
$AUNITS
 70
0
  9
$PDMODE
 70
3
  9
$PDSIZE
 40
0.3125
  9
$HANDSEED
  5
39E
  9
$TILEMODE
 70
1
  9
$MEASUREMENT
 70
0
  9
$INSUNITS
 70
1
  0
ENDSEC
  0
SECTION
  2
CLASSES
  0
CLASS
  1
ACDBDICTIONARYWDFLT
  2
AcDbDictionaryWithDefault
  3
AutoCAD 2000
 90
0
 91
1
280
0
281
0
  0
CLASS
  1
ACDBPLACEHOLDER
  2
AcDbPlaceHolder
  3
AutoCAD 2000
 90
0
 91
1
280
0
281
0
  0
CLASS
  1
LAYOUT
  2
AcDbLayout
  3
AutoCAD 2000
 90
0
 91
0
280
0
281
0
  0
ENDSEC
  0
SECTION
  2
TABLES
  0
TABLE
  2
VPORT
  5
8
100
AcDbSymbolTable
 70
2
  0
VPORT
  5
1F4
100
AcDbSymbolTableRecord
100
AcDbViewportTableRecord
  2
*ACTIVE
 70
0
 10
0.0
 20
0.0
 11
1.0
 21
1.0
 12
5.5
 22
4.25
 13
0.0
 23
0.0
 14
1.0
 24
1.0
 15
0.0
 25
0.0
 16
0.0
 26
0.0
 36
1.0
 17
0.0
 27
0.0
 37
0.0
 40
8.5
 41
1.2941176471
 42
50.0
 43
0.0
 44
0.0
 50
0.0
 51
0.0
 71
0
 72
100
 73
1
 74
1
 75
0
 76
0
 77
0
 78
0
  0
ENDTAB
  0
TABLE
  2
LTYPE
  5
5
100
AcDbSymbolTable
 70
6
  0
LTYPE
  5
14
100
AcDbSymbolTableRecord
100
AcDbLinetypeTableRecord
  2
BYBLOCK
 70
0
  3

 72
65
 73
0
 40
0.0
  0
LTYPE
  5
15
100
AcDbSymbolTableRecord
100
AcDbLinetypeTableRecord
  2
BYLAYER
 70
0
  3

 72
65
 73
0
 40
0.0
  0
LTYPE
  5
16
100
AcDbSymbolTableRecord
100
AcDbLinetypeTableRecord
  2
CONTINUOUS
 70
64
  3
Solid line
 72
65
 73
0
 40
0.0
  0
LTYPE
  5
1F5
100
AcDbSymbolTableRecord
100
AcDbLinetypeTableRecord
  2
CENTER
 70
64
  3
____ _ ____ _ ____ _ ____ _ ____ _ ____ _ ____
 72
65
 73
4
 40
0.6
 49
0.375
 74
0
 49
-0.075
 74
0
 49
0.075
 74
0
 49
-0.075
 74
0
  0
LTYPE
  5
1F6
100
AcDbSymbolTableRecord
100
AcDbLinetypeTableRecord
  2
HIDDEN
 70
64
  3
- - - - - - - - - - - - - - - - - - - -
 72
65
 73
2
 40
0.2
 49
0.1
 74
0
 49
-0.1
 74
0
  0
LTYPE
  5
1F7
100
AcDbSymbolTableRecord
100
AcDbLinetypeTableRecord
  2
PHANTOM
 70
64
  3
_____ _ _ _____ _ _ _____ _ _ _____
 72
65
 73
6
 40
0.8
 49
0.45
 74
0
 49
-0.05
 74
0
 49
0.1
 74
0
 49
-0.05
 74
0
 49
0.1
 74
0
 49
-0.05
 74
0
  0
LTYPE
  5
1F8
100
AcDbSymbolTableRecord
100
AcDbLinetypeTableRecord
  2
DOT
 70
64
  3
. . . . . . . . . . . . . . . . . . . .
 72
65
 73
2
 40
0.2
 49
0.1
 74
0
 49
-0.1
 74
0
  0
LTYPE
  5
1F9
100
AcDbSymbolTableRecord
100
AcDbLinetypeTableRecord
  2
DASHED
 70
64
  3
- - - - - - - - - - - - - - - - - - - -
 72
65
 73
2
 40
0.2
 49
0.1
 74
0
 49
-0.1
 74
0
  0
ENDTAB
  0
TABLE
  2
LAYER
  5
2
100
AcDbSymbolTable
 70
36
  0
LAYER
  5
10
100
AcDbSymbolTableRecord
100
AcDbLayerTableRecord
  2
0
 70
0
 62
7
  6
CONTINUOUS
370
-3
390
F
  0
LAYER
  5
1FA
100
AcDbSymbolTableRecord
100
AcDbLayerTableRecord
  2
DEFAULT_1
 70
0
 62
7
  6
CENTER
370
-3
390
F
  0
LAYER
  5
1FB
100
AcDbSymbolTableRecord
100
AcDbLayerTableRecord
  2
DEFAULT_2
 70
0
 62
8
  6
HIDDEN
370
-3
390
F
  0
LAYER
  5
1FC
100
AcDbSymbolTableRecord
100
AcDbLayerTableRecord
  2
DEFAULT_3
 70
0
 62
7
  6
PHANTOM
370
-3
390
F
  0
LAYER
  5
1FD
100
AcDbSymbolTableRecord
100
AcDbLayerTableRecord
  2
ALL_ASSEMBLY_MEMBERS
 70
0
 62
7
  6
CONTINUOUS
370
-3
390
F
  0
LAYER
  5
1FE
100
AcDbSymbolTableRecord
100
AcDbLayerTableRecord
  2
ALL_FEATURES
 70
0
 62
7
  6
CONTINUOUS
370
-3
390
F
  0
LAYER
  5
1FF
100
AcDbSymbolTableRecord
100
AcDbLayerTableRecord
  2
AXES_FEATURES
 70
0
 62
7
  6
CONTINUOUS
370
-3
390
F
  0
LAYER
  5
200
100
AcDbSymbolTableRecord
100
AcDbLayerTableRecord
  2
CHAMFER_FEATURES
 70
0
 62
7
  6
CONTINUOUS
370
-3
390
F
  0
LAYER
  5
201
100
AcDbSymbolTableRecord
100
AcDbLayerTableRecord
  2
COORDINATE_SYSTEMS
 70
0
 62
7
  6
CONTINUOUS
370
-3
390
F
  0
LAYER
  5
202
100
AcDbSymbolTableRecord
100
AcDbLayerTableRecord
  2
CUT_FEATURES
 70
0
 62
7
  6
CONTINUOUS
370
-3
390
F
  0
LAYER
  5
203
100
AcDbSymbolTableRecord
100
AcDbLayerTableRecord
  2
DATUM_CURVES
 70
0
 62
7
  6
CONTINUOUS
370
-3
390
F
  0
LAYER
  5
204
100
AcDbSymbolTableRecord
100
AcDbLayerTableRecord
  2
DATUM_PLANES
 70
0
 62
7
  6
CONTINUOUS
370
-3
390
F
  0
LAYER
  5
205
100
AcDbSymbolTableRecord
100
AcDbLayerTableRecord
  2
DATUM_POINTS
 70
0
 62
7
  6
CONTINUOUS
370
-3
390
F
  0
LAYER
  5
206
100
AcDbSymbolTableRecord
100
AcDbLayerTableRecord
  2
DEFAULT_COORDINATE_SYSTEM
 70
0
 62
7
  6
CONTINUOUS
370
-3
390
F
  0
LAYER
  5
207
100
AcDbSymbolTableRecord
100
AcDbLayerTableRecord
  2
DEFAULT_DATUM_AXES
 70
0
 62
7
  6
CONTINUOUS
370
-3
390
F
  0
LAYER
  5
208
100
AcDbSymbolTableRecord
100
AcDbLayerTableRecord
  2
DEFAULT_DATUM_PLANES
 70
0
 62
7
  6
CONTINUOUS
370
-3
390
F
  0
LAYER
  5
209
100
AcDbSymbolTableRecord
100
AcDbLayerTableRecord
  2
DIMENSIONS
 70
0
 62
7
  6
CONTINUOUS
370
-3
390
F
  0
LAYER
  5
20A
100
AcDbSymbolTableRecord
100
AcDbLayerTableRecord
  2
HOLE_FEATURES
 70
0
 62
7
  6
CONTINUOUS
370
-3
390
F
  0
LAYER
  5
20B
100
AcDbSymbolTableRecord
100
AcDbLayerTableRecord
  2
POINTS
 70
0
 62
7
  6
CONTINUOUS
370
-3
390
F
  0
LAYER
  5
20C
100
AcDbSymbolTableRecord
100
AcDbLayerTableRecord
  2
PROTRUSION_FEATURES
 70
0
 62
7
  6
CONTINUOUS
370
-3
390
F
  0
LAYER
  5
20D
100
AcDbSymbolTableRecord
100
AcDbLayerTableRecord
  2
QUILTS
 70
0
 62
7
  6
CONTINUOUS
370
-3
390
F
  0
LAYER
  5
20E
100
AcDbSymbolTableRecord
100
AcDbLayerTableRecord
  2
ROUND_FEATURES
 70
0
 62
7
  6
CONTINUOUS
370
-3
390
F
  0
LAYER
  5
20F
100
AcDbSymbolTableRecord
100
AcDbLayerTableRecord
  2
SHELL_FEATURES
 70
0
 62
7
  6
CONTINUOUS
370
-3
390
F
  0
LAYER
  5
210
100
AcDbSymbolTableRecord
100
AcDbLayerTableRecord
  2
SURFACE_FEATURES
 70
0
 62
7
  6
CONTINUOUS
370
-3
390
F
  0
ENDTAB
  0
TABLE
  2
STYLE
  5
3
100
AcDbSymbolTable
 70
1
  0
STYLE
  5
11
100
AcDbSymbolTableRecord
100
AcDbTextStyleTableRecord
  2
STANDARD
 70
0
 40
0.0
 41
0.8
 50
0.0
 71
0
 42
0.2
  3
txt
  4

  0
STYLE
  5
211
100
AcDbSymbolTableRecord
100
AcDbTextStyleTableRecord
  2
TEXTSTYLE_1
 70
0
 40
0.0
 41
0.8
 50
0.0
 71
0
 42
0.2
  3
gdt
  4

  0
ENDTAB
  0
TABLE
  2
VIEW
  5
6
100
AcDbSymbolTable
 70
0
  0
ENDTAB
  0
TABLE
  2
UCS
  5
7
100
AcDbSymbolTable
 70
0
  0
ENDTAB
  0
TABLE
  2
APPID
  5
9
100
AcDbSymbolTable
 70
1
  0
APPID
  5
212
100
AcDbSymbolTableRecord
100
AcDbRegAppTableRecord
  2
ACAD
 70
0
  0
ENDTAB
  0
TABLE
  2
BLOCK_RECORD
  5
1
100
AcDbSymbolTable
 70
0
  0
BLOCK_RECORD
  5
213
100
AcDbSymbolTableRecord
100
AcDbBlockTableRecord
  2
*Model_Space
  0
BLOCK_RECORD
  5
214
100
AcDbSymbolTableRecord
100
AcDbBlockTableRecord
  2
*Paper_Space
  0
BLOCK_RECORD
  5
215
100
AcDbSymbolTableRecord
100
AcDbBlockTableRecord
  2
_FILLED
  0
ENDTAB
  0
TABLE
  2
DIMSTYLE
  5
A
100
AcDbSymbolTable
 70
1
100
AcDbDimStyleTable
 71
0
  0
DIMSTYLE
105
216
100
AcDbSymbolTableRecord
100
AcDbDimStyleTableRecord
  2
STANDARD
 70
0
  3

  4

 40
1.0
 41
0.1
 42
0.0625
 43
0.38
 44
0.125
 45
0.0
 46
0.0
 47
0.001
 48
0.001
140
0.08
141
0.09
142
0.0
143
25.4
144
1.0
145
0.0
146
1.0
147
0.09
 71
1.0
 72
0.0
 73
1
 74
1
 75
0
 76
0
 77
0
 78
4
 79
1
170
1
171
2
172
0
173
0
174
0
175
0
176
0
177
0
178
0
270
2
179
3
271
3
272
3
273
2
274
2
275
0
280
0
281
0
282
0
283
1
284
4
285
0
286
0
287
3
288
0
340
11
278
46
341
215
342
215
343
215
344
215
  0
ENDTAB
  0
ENDSEC
  0
SECTION
  2
BLOCKS
  0
BLOCK
  5
20
100
AcDbEntity
  8
0
100
AcDbBlockBegin
  2
*Model_Space
 70
0
 10
0.0
 20
0.0
 30
0.0
  3
*Model_Space
  1

  0
ENDBLK
  5
21
100
AcDbEntity
  8
0
100
AcDbBlockEnd
  0
BLOCK
  5
1C
100
AcDbEntity
  8
0
100
AcDbBlockBegin
  2
*Paper_Space
 70
0
 10
0.0
 20
0.0
 30
0.0
  3
*Paper_Space
  1

  0
ENDBLK
  5
1D
100
AcDbEntity
  8
0
100
AcDbBlockEnd
  0
BLOCK
  5
217
100
AcDbEntity
  8
0
100
AcDbBlockBegin
  2
_FILLED
 70
64
 10
0.0
 20
0.0
  3
_FILLED
  1

  0
SOLID
  5
218
100
AcDbEntity
  8
0
  6
BYBLOCK
 62
0
100
AcDbTrace
 10
0.0
 20
0.0
 11
-1.0
 21
0.2
 12
-1.0
 22
-0.2
 13
-1.0
 23
-0.2
  0
ENDBLK
  5
219
100
AcDbEntity
  8
0
  6
BYBLOCK
 62
0
100
AcDbBlockEnd
  0
ENDSEC
  0
SECTION
  2
ENTITIES
  0
MTEXT
  5
21A
100
AcDbEntity
  8
0
100
AcDbMText
 62
2
  6
CONTINUOUS
  7
STANDARD
 71
3
 72
1
 10
5.3155279503
 20
2.3521536591
 30
0.0
 11
1.0
 21
0.0
 31
0.0
 73
2
 44
0.9
  1
SCALE  .500
 40
0.08
 41
0.704
  0
LINE
  5
21B
100
AcDbEntity
  8
0
100
AcDbLine
 62
7
  6
CONTINUOUS
 10
0.0
 20
0.0
 11
0.0
 21
8.5
  0
LINE
  5
21C
100
AcDbEntity
  8
0
100
AcDbLine
 62
7
  6
CONTINUOUS
 10
0.0
 20
0.0
 11
11.0
 21
0.0
  0
LINE
  5
21D
100
AcDbEntity
  8
0
100
AcDbLine
 62
7
  6
CONTINUOUS
 10
0.0
 20
8.5
 11
11.0
 21
8.5
  0
LINE
  5
21E
100
AcDbEntity
  8
0
100
AcDbLine
 62
7
  6
CONTINUOUS
 10
11.0
 20
0.0
 11
11.0
 21
8.5
  0
LINE
  5
21F
100
AcDbEntity
  8
ALL_ASSEMBLY_MEMBERS
100
AcDbLine
 62
7
  6
CONTINUOUS
 10
4.7768601071
 20
3.5309269511
 11
5.2085437921
 21
3.5309269511
  0
LINE
  5
220
100
AcDbEntity
  8
ALL_ASSEMBLY_MEMBERS
100
AcDbLine
 62
7
  6
CONTINUOUS
 10
4.6769866963
 20
3.6275195337
 11
4.6775317669
 21
3.6275195337
  0
LINE
  5
221
100
AcDbEntity
  8
ALL_ASSEMBLY_MEMBERS
100
AcDbLine
 62
7
  6
CONTINUOUS
 10
5.3078728026
 20
3.6275195337
 11
5.3084172029
 21
3.6275195337
  0
LINE
  5
222
100
AcDbEntity
  8
ALL_ASSEMBLY_MEMBERS
100
AcDbLine
 62
7
  6
CONTINUOUS
 10
4.4602019496
 20
7.1431491359
 11
4.4602019496
 21
7.1481491359
  0
LWPOLYLINE
  5
223
100
AcDbEntity
  8
ALL_ASSEMBLY_MEMBERS
100
AcDbPolyline
 62
7
  6
CONTINUOUS
 90
23
 70
0
 10
5.3475917066
 20
4.1450531955
 10
5.348463466
 20
4.1442190551
 10
5.3483292802
 20
4.1443617561
 10
5.3471479383
 20
4.1461010892
 10
5.3452255124
 20
4.1495538441
 10
5.3428124604
 20
4.1547075639
 10
5.3400659666
 20
4.161565358
 10
5.3371088378
 20
4.1700974883
 10
5.3340227638
 20
4.1802722957
 10
5.3308202303
 20
4.1922522037
 10
5.3275330557
 20
4.2061202259
 10
5.3241973339
 20
4.2218807232
 10
5.3208264157
 20
4.2396490765
 10
5.3174108186
 20
4.2594478591
 10
5.3139679436
 20
4.2811301799
 10
5.3105254559
 20
4.3045775828
 10
5.3070946309
 20
4.3297238358
 10
5.3036755489
 20
4.3565213402
 10
5.300269429
 20
4.3849048772
 10
5.2968753822
 20
4.4148623347
 10
5.2935054884
 20
4.4463105773
 10
5.2901718956
 20
4.4790939293
 10
5.2868723991
 20
4.5132018672
  0
LINE
  5
224
100
AcDbEntity
  8
ALL_ASSEMBLY_MEMBERS
100
AcDbLine
 62
7
  6
CONTINUOUS
 10
4.6177019496
 20
4.1021042464
 11
4.6177019496
 21
3.6846802944
  0
LINE
  5
225
100
AcDbEntity
  8
ALL_ASSEMBLY_MEMBERS
100
AcDbLine
 62
7
  6
CONTINUOUS
 10
4.7292564769
 20
5.1436924017
 11
4.7300322961
 21
5.1217496034
  0
LINE
  5
226
100
AcDbEntity
  8
ALL_ASSEMBLY_MEMBERS
100
AcDbLine
 62
7
  6
CONTINUOUS
 10
4.7300605626
 20
5.1208492764
 11
4.7300266523
 21
5.1221193851
  0
LINE
  5
227
100
AcDbEntity
  8
ALL_ASSEMBLY_MEMBERS
100
AcDbLine
 62
7
  6
CONTINUOUS
 10
4.7300490258
 20
5.2114106534
 11
4.7300266522
 21
5.2121888501
  0
LWPOLYLINE
  5
228
100
AcDbEntity
  8
ALL_ASSEMBLY_MEMBERS
100
AcDbPolyline
 62
7
  6
CONTINUOUS
 90
3
 70
0
 10
4.7300615739
 20
5.120817833
 10
4.7306254568
 20
5.098438026
 10
4.7307693525
 20
5.0873326913
  0
LINE
  5
229
100
AcDbEntity
  8
ALL_ASSEMBLY_MEMBERS
100
AcDbLine
 62
7
  6
CONTINUOUS
 10
4.7306369007
 20
5.0979605824
 11
4.7306191819
 21
5.0988562744
  0
LINE
  5
22A
100
AcDbEntity
  8
ALL_ASSEMBLY_MEMBERS
100
AcDbLine
 62
7
  6
CONTINUOUS
 10
4.7300317988
 20
5.1217652449
 11
4.7300261585
 21
5.1221193727
  0
LINE
  5
22B
100
AcDbEntity
  8
ALL_ASSEMBLY_MEMBERS
100
AcDbLine
 62
7
  6
CONTINUOUS
 10
4.7300612285
 20
5.120827544
 11
4.7300558055
 21
5.1211746924
  0
LINE
  5
22C
100
AcDbEntity
  8
ALL_ASSEMBLY_MEMBERS
100
AcDbLine
 62
7
  6
CONTINUOUS
 10
4.7177019496
 20
3.5887931991
 11
4.7177019496
 21
3.5879502076
  0
LINE
  5
22D
100
AcDbEntity
  8
ALL_ASSEMBLY_MEMBERS
100
AcDbLine
 62
7
  6
CONTINUOUS
 10
4.7300266523
 20
5.1221193851
 11
4.7300266523
 21
5.2121890356
  0
LINE
  5
22E
100
AcDbEntity
  8
ALL_ASSEMBLY_MEMBERS
100
AcDbLine
 62
7
  6
CONTINUOUS
 10
4.7310739449
 20
5.1318748315
 11
4.7310737785
 21
5.1365828171
  0
LINE
  5
22F
100
AcDbEntity
  8
ALL_ASSEMBLY_MEMBERS
100
AcDbLine
 62
7
  6
CONTINUOUS
 10
4.5859044511
 20
6.4184580268
 11
4.5856999913
 21
6.4199968523
  0
LWPOLYLINE
  5
230
100
AcDbEntity
  8
ALL_ASSEMBLY_MEMBERS
100
AcDbPolyline
 62
7
  6
CONTINUOUS
 90
10
 70
0
 10
4.6881561587
 20
5.5399239375
 10
4.7065689573
 20
5.3957373034
 10
4.710710958
 20
5.3618364799
 10
4.7145559438
 20
5.3286818825
 10
4.7180547937
 20
5.2962495207
 10
4.7211749573
 20
5.2644271297
 10
4.7238831853
 20
5.2332383066
 10
4.7261335508
 20
5.2028954402
 10
4.7279042204
 20
5.1732341445
 10
4.7292564769
 20
5.1436924017
  0
LINE
  5
231
100
AcDbEntity
  8
ALL_ASSEMBLY_MEMBERS
100
AcDbLine
 62
7
  6
CONTINUOUS
 10
4.6786631034
 20
5.6177931966
 11
4.6881561587
 21
5.5399239375
  0
LINE
  5
232
100
AcDbEntity
  8
ALL_ASSEMBLY_MEMBERS
100
AcDbLine
 62
7
  6
CONTINUOUS
 10
4.5851474442
 20
6.4199237808
 11
4.609960066
 21
6.2131442875
  0
LINE
  5
233
100
AcDbEntity
  8
ALL_ASSEMBLY_MEMBERS
100
AcDbLine
 62
7
  6
CONTINUOUS
 10
4.609960066
 20
6.2131442875
 11
4.6277609977
 21
6.0625781143
  0
LINE
  5
234
100
AcDbEntity
  8
ALL_ASSEMBLY_MEMBERS
100
AcDbLine
 62
7
  6
CONTINUOUS
 10
4.6643053511
 20
5.7417575832
 11
4.6786631034
 21
5.6177931966
  0
LINE
  5
235
100
AcDbEntity
  8
ALL_ASSEMBLY_MEMBERS
100
AcDbLine
 62
7
  6
CONTINUOUS
 10
4.6277609977
 20
6.0625781143
 11
4.6442181872
 21
5.9198692467
  0
LINE
  5
236
100
AcDbEntity
  8
ALL_ASSEMBLY_MEMBERS
100
AcDbLine
 62
7
  6
CONTINUOUS
 10
4.6442181872
 20
5.9198692467
 11
4.6643053511
 21
5.7417575832
  0
LINE
  5
237
100
AcDbEntity
  8
ALL_ASSEMBLY_MEMBERS
100
AcDbLine
 62
7
  6
CONTINUOUS
 10
4.7890308095
 20
5.23780833
 11
4.7890079199
 21
5.2386074415
  0
LINE
  5
238
100
AcDbEntity
  8
ALL_ASSEMBLY_MEMBERS
100
AcDbLine
 62
7
  6
CONTINUOUS
 10
4.8300266523
 20
5.2556173435
 11
4.8303114612
 21
5.2441443913
  0
LINE
  5
239
100
AcDbEntity
  8
ALL_ASSEMBLY_MEMBERS
100
AcDbLine
 62
7
  6
CONTINUOUS
 10
4.8308560152
 20
5.2129942772
 11
4.83083652
 21
5.2146663106
  0
LINE
  5
23A
100
AcDbEntity
  8
ALL_ASSEMBLY_MEMBERS
100
AcDbLine
 62
7
  6
CONTINUOUS
 10
4.831047938
 20
5.177615259
 11
4.8310644802
 21
5.1747581319
  0
LINE
  5
23B
100
AcDbEntity
  8
ALL_ASSEMBLY_MEMBERS
100
AcDbLine
 62
7
  6
CONTINUOUS
 10
4.8310633899
 20
5.1776153484
 11
4.8310782295
 21
5.1747559624
  0
LINE
  5
23C
100
AcDbEntity
  8
ALL_ASSEMBLY_MEMBERS
100
AcDbLine
 62
7
  6
CONTINUOUS
 10
4.8300266523
 20
5.2551773475
 11
4.8300266523
 21
5.2556173435
  0
LINE
  5
23D
100
AcDbEntity
  8
ALL_ASSEMBLY_MEMBERS
100
AcDbLine
 62
7
  6
CONTINUOUS
 10
4.8170493778
 20
4.7383342417
 11
4.8172213299
 21
4.741734354
  0
LINE
  5
23E
100
AcDbEntity
  8
ALL_ASSEMBLY_MEMBERS
100
AcDbLine
 62
7
  6
CONTINUOUS
 10
4.7121467142
 20
4.6528880034
 11
4.7122943877
 21
4.6554066487
  0
LINE
  5
23F
100
AcDbEntity
  8
ALL_ASSEMBLY_MEMBERS
100
AcDbLine
 62
7
  6
CONTINUOUS
 10
4.710799969
 20
4.6554942696
 11
4.7051540529
 21
4.5868379584
  0
LWPOLYLINE
  5
240
100
AcDbEntity
  8
ALL_ASSEMBLY_MEMBERS
100
AcDbPolyline
 62
7
  6
CONTINUOUS
 90
24
 70
0
 10
4.7051540529
 20
4.5868379584
 10
4.6987312839
 20
4.5153214483
 10
4.6954400228
 20
4.4812236885
 10
4.6921148258
 20
4.4484149158
 10
4.688754956
 20
4.4169095713
 10
4.6853709601
 20
4.3868724755
 10
4.6819672156
 20
4.3583925265
 10
4.6785377881
 20
4.3314816264
 10
4.6750883217
 20
4.306201328
 10
4.6716402096
 20
4.2826022016
 10
4.6682097934
 20
4.2607615518
 10
4.664806094
 20
4.2408081933
 10
4.6614268308
 20
4.2228926877
 10
4.6580694113
 20
4.2069767837
 10
4.6547530227
 20
4.1929471993
 10
4.6515342462
 20
4.1808318101
 10
4.6484377297
 20
4.1705431405
 10
4.6454638276
 20
4.1619052646
 10
4.6426917962
 20
4.1549445247
 10
4.6402469141
 20
4.1496930359
 10
4.6382928481
 20
4.1461608411
 10
4.6370842494
 20
4.1443804844
 10
4.6369402404
 20
4.1442259988
 10
4.6378283013
 20
4.1450669419
  0
LINE
  5
241
100
AcDbEntity
  8
ALL_ASSEMBLY_MEMBERS
100
AcDbLine
 62
7
  6
CONTINUOUS
 10
5.3860135971
 20
6.8381387495
 11
5.3852843476
 21
6.836123816
  0
LINE
  5
242
100
AcDbEntity
  8
ALL_ASSEMBLY_MEMBERS
100
AcDbLine
 62
7
  6
CONTINUOUS
 10
5.3864693806
 20
6.8393275879
 11
5.3852538102
 21
6.8361474327
  0
LINE
  5
243
100
AcDbEntity
  8
ALL_ASSEMBLY_MEMBERS
100
AcDbLine
 62
7
  6
CONTINUOUS
 10
5.3864878093
 20
6.8393133883
 11
5.3860135971
 21
6.8381387495
  0
LINE
  5
244
100
AcDbEntity
  8
ALL_ASSEMBLY_MEMBERS
100
AcDbLine
 62
7
  6
CONTINUOUS
 10
4.790024976
 20
5.2378082943
 11
4.789791186
 21
5.2372987656
  0
LINE
  5
245
100
AcDbEntity
  8
ALL_ASSEMBLY_MEMBERS
100
AcDbLine
 62
7
  6
CONTINUOUS
 10
4.6596298409
 20
6.6118875007
 11
4.6594692757
 21
6.6128640192
  0
LINE
  5
246
100
AcDbEntity
  8
ALL_ASSEMBLY_MEMBERS
100
AcDbLine
 62
7
  6
CONTINUOUS
 10
4.6596217929
 20
6.6118842124
 11
4.6594657065
 21
6.612862554
  0
LINE
  5
247
100
AcDbEntity
  8
ALL_ASSEMBLY_MEMBERS
100
AcDbLine
 62
7
  6
CONTINUOUS
 10
4.6860886373
 20
6.4184547323
 11
4.6857463135
 21
6.4209596185
  0
LINE
  5
248
100
AcDbEntity
  8
ALL_ASSEMBLY_MEMBERS
100
AcDbLine
 62
7
  6
CONTINUOUS
 10
4.6778216935
 20
6.4802567412
 11
4.6774500373
 21
6.4831142319
  0
LINE
  5
249
100
AcDbEntity
  8
ALL_ASSEMBLY_MEMBERS
100
AcDbLine
 62
7
  6
CONTINUOUS
 10
4.8890417458
 20
5.2812408213
 11
4.8890109817
 21
5.2824481085
  0
LINE
  5
24A
100
AcDbEntity
  8
ALL_ASSEMBLY_MEMBERS
100
AcDbLine
 62
7
  6
CONTINUOUS
 10
4.8890374289
 20
5.281240758
 11
4.8890153795
 21
5.2824481746
  0
LINE
  5
24B
100
AcDbEntity
  8
ALL_ASSEMBLY_MEMBERS
100
AcDbLine
 62
7
  6
CONTINUOUS
 10
4.9927019496
 20
7.1431491359
 11
4.9927019496
 21
3.5309269511
  0
LINE
  5
24C
100
AcDbEntity
  8
ALL_ASSEMBLY_MEMBERS
100
AcDbLine
 62
7
  6
CONTINUOUS
 10
4.8054621981
 20
3.716546499
 11
4.8056807521
 21
3.7187790177
  0
LINE
  5
24D
100
AcDbEntity
  8
ALL_ASSEMBLY_MEMBERS
100
AcDbLine
 62
7
  6
CONTINUOUS
 10
4.7890292819
 20
5.2378082943
 11
4.790024976
 21
5.2378082943
  0
LINE
  5
24E
100
AcDbEntity
  8
ALL_ASSEMBLY_MEMBERS
100
AcDbLine
 62
7
  6
CONTINUOUS
 10
5.1953789232
 20
5.2378082943
 11
5.1963746173
 21
5.2378082943
  0
LINE
  5
24F
100
AcDbEntity
  8
ALL_ASSEMBLY_MEMBERS
100
AcDbLine
 62
7
  6
CONTINUOUS
 10
4.8890417458
 20
5.2812408213
 11
5.0963621534
 21
5.2812408213
  0
LINE
  5
250
100
AcDbEntity
  8
ALL_ASSEMBLY_MEMBERS
100
AcDbLine
 62
7
  6
CONTINUOUS
 10
5.1714304681
 20
4.6787511177
 11
5.1714833957
 21
4.6777539072
  0
LINE
  5
251
100
AcDbEntity
  8
ALL_ASSEMBLY_MEMBERS
100
AcDbLine
 62
7
  6
CONTINUOUS
 10
5.0963664702
 20
5.281240758
 11
5.0963885195
 21
5.2824481746
  0
LINE
  5
252
100
AcDbEntity
  8
ALL_ASSEMBLY_MEMBERS
100
AcDbLine
 62
7
  6
CONTINUOUS
 10
5.0963621534
 20
5.2812408213
 11
5.0963929175
 21
5.2824481085
  0
LINE
  5
253
100
AcDbEntity
  8
ALL_ASSEMBLY_MEMBERS
100
AcDbLine
 62
7
  6
CONTINUOUS
 10
5.3258388035
 20
6.612280013
 11
5.3259671366
 21
6.6130595696
  0
LINE
  5
254
100
AcDbEntity
  8
ALL_ASSEMBLY_MEMBERS
100
AcDbLine
 62
7
  6
CONTINUOUS
 10
5.3258415936
 20
6.6122788971
 11
5.3259738292
 21
6.61305688
  0
LINE
  5
255
100
AcDbEntity
  8
ALL_ASSEMBLY_MEMBERS
100
AcDbLine
 62
7
  6
CONTINUOUS
 10
5.1953789232
 20
5.2378082943
 11
5.1956127137
 21
5.2372987664
  0
LINE
  5
256
100
AcDbEntity
  8
ALL_ASSEMBLY_MEMBERS
100
AcDbLine
 62
7
  6
CONTINUOUS
 10
5.2868723991
 20
4.5132018672
 11
5.2804232733
 21
4.5848254317
  0
LINE
  5
257
100
AcDbEntity
  8
ALL_ASSEMBLY_MEMBERS
100
AcDbLine
 62
7
  6
CONTINUOUS
 10
5.2804232733
 20
4.5848254317
 11
5.2748323696
 21
4.652594973
  0
LINE
  5
258
100
AcDbEntity
  8
ALL_ASSEMBLY_MEMBERS
100
AcDbLine
 62
7
  6
CONTINUOUS
 10
5.1543399927
 20
5.1748571462
 11
5.154339495
 21
5.1753178696
  0
LINE
  5
259
100
AcDbEntity
  8
ALL_ASSEMBLY_MEMBERS
100
AcDbLine
 62
7
  6
CONTINUOUS
 10
5.1553772469
 20
5.2556173435
 11
5.1553772469
 21
5.2551773475
  0
LINE
  5
25A
100
AcDbEntity
  8
ALL_ASSEMBLY_MEMBERS
100
AcDbLine
 62
7
  6
CONTINUOUS
 10
5.2553772469
 20
5.2121890356
 11
5.2553772469
 21
5.1221193851
  0
LINE
  5
25B
100
AcDbEntity
  8
ALL_ASSEMBLY_MEMBERS
100
AcDbLine
 62
7
  6
CONTINUOUS
 10
5.1545601461
 20
5.2128723811
 11
5.1545844409
 21
5.2150424284
  0
LWPOLYLINE
  5
25C
100
AcDbEntity
  8
ALL_ASSEMBLY_MEMBERS
100
AcDbPolyline
 62
7
  6
CONTINUOUS
 90
3
 70
0
 10
5.2546396451
 20
5.087722349
 10
5.2547773596
 20
5.0983836119
 10
5.2553423183
 20
5.1208177968
  0
LINE
  5
25D
100
AcDbEntity
  8
ALL_ASSEMBLY_MEMBERS
100
AcDbLine
 62
7
  6
CONTINUOUS
 10
5.2553480989
 20
5.1211746923
 11
5.2553426769
 21
5.1208275765
  0
LINE
  5
25E
100
AcDbEntity
  8
ALL_ASSEMBLY_MEMBERS
100
AcDbLine
 62
7
  6
CONTINUOUS
 10
5.2553777378
 20
5.1221193728
 11
5.255372099
 21
5.1217652885
  0
LWPOLYLINE
  5
25F
100
AcDbEntity
  8
ALL_ASSEMBLY_MEMBERS
100
AcDbPolyline
 62
7
  6
CONTINUOUS
 90
3
 70
0
 10
5.1545844409
 20
5.2150424284
 10
5.1545669446
 20
5.2140463315
 10
5.1545601461
 20
5.2128723811
  0
LINE
  5
260
100
AcDbEntity
  8
ALL_ASSEMBLY_MEMBERS
100
AcDbLine
 62
7
  6
CONTINUOUS
 10
5.2547712123
 20
5.0979077162
 11
5.25478726
 21
5.0987767533
  0
LINE
  5
261
100
AcDbEntity
  8
ALL_ASSEMBLY_MEMBERS
100
AcDbLine
 62
7
  6
CONTINUOUS
 10
5.1963746173
 20
5.2378082943
 11
5.1963944611
 21
5.2386074774
  0
LINE
  5
262
100
AcDbEntity
  8
ALL_ASSEMBLY_MEMBERS
100
AcDbLine
 62
7
  6
CONTINUOUS
 10
5.1553772469
 20
5.2551773475
 11
5.1550724605
 21
5.2437786379
  0
LINE
  5
263
100
AcDbEntity
  8
ALL_ASSEMBLY_MEMBERS
100
AcDbLine
 62
7
  6
CONTINUOUS
 10
5.1553435429
 20
5.2544173664
 11
5.1553772462
 21
5.2556187625
  0
LINE
  5
264
100
AcDbEntity
  8
ALL_ASSEMBLY_MEMBERS
100
AcDbLine
 62
7
  6
CONTINUOUS
 10
5.2553548735
 20
5.2114105327
 11
5.2553772469
 21
5.2121890356
  0
LINE
  5
265
100
AcDbEntity
  8
ALL_ASSEMBLY_MEMBERS
100
AcDbLine
 62
7
  6
CONTINUOUS
 10
5.2553426769
 20
5.1208275765
 11
5.2553772473
 21
5.1221205299
  0
LINE
  5
266
100
AcDbEntity
  8
ALL_ASSEMBLY_MEMBERS
100
AcDbLine
 62
7
  6
CONTINUOUS
 10
5.2553716012
 20
5.1217496317
 11
5.2561474273
 21
5.143692476
  0
LINE
  5
267
100
AcDbEntity
  8
ALL_ASSEMBLY_MEMBERS
100
AcDbLine
 62
7
  6
CONTINUOUS
 10
5.2561474273
 20
5.143692476
 11
5.2574996909
 21
5.1732342886
  0
LWPOLYLINE
  5
268
100
AcDbEntity
  8
ALL_ASSEMBLY_MEMBERS
100
AcDbPolyline
 62
7
  6
CONTINUOUS
 90
7
 70
0
 10
5.2574996909
 20
5.1732342886
 10
5.259270349
 20
5.2028954687
 10
5.2615207223
 20
5.2332383869
 10
5.2642289492
 20
5.2644272058
 10
5.267349112
 20
5.296249582
 10
5.2708479582
 20
5.3286819131
 10
5.2746929418
 20
5.3618364781
  0
LINE
  5
269
100
AcDbEntity
  8
ALL_ASSEMBLY_MEMBERS
100
AcDbLine
 62
7
  6
CONTINUOUS
 10
5.3079437137
 20
6.4830355233
 11
5.3075854557
 21
6.4802563187
  0
LINE
  5
26A
100
AcDbEntity
  8
ALL_ASSEMBLY_MEMBERS
100
AcDbLine
 62
7
  6
CONTINUOUS
 10
5.3994730718
 20
6.4182595975
 11
5.399846437
 21
6.4210808843
  0
LINE
  5
26B
100
AcDbEntity
  8
ALL_ASSEMBLY_MEMBERS
100
AcDbLine
 62
7
  6
CONTINUOUS
 10
5.2996256747
 20
6.4207217084
 11
5.2993349821
 21
6.4186025009
  0
LINE
  5
26C
100
AcDbEntity
  8
ALL_ASSEMBLY_MEMBERS
100
AcDbLine
 62
7
  6
CONTINUOUS
 10
5.2995118645
 20
6.4198720349
 11
5.29933579
 21
6.4186024862
  0
LINE
  5
26D
100
AcDbEntity
  8
ALL_ASSEMBLY_MEMBERS
100
AcDbLine
 62
7
  6
CONTINUOUS
 10
5.2792445948
 20
6.2762262364
 11
5.2729475241
 21
6.2324640203
  0
LINE
  5
26E
100
AcDbEntity
  8
ALL_ASSEMBLY_MEMBERS
100
AcDbLine
 62
7
  6
CONTINUOUS
 10
4.59891091
 20
6.8393069659
 11
4.5995410402
 21
6.8377442653
  0
LINE
  5
26F
100
AcDbEntity
  8
ALL_ASSEMBLY_MEMBERS
100
AcDbLine
 62
7
  6
CONTINUOUS
 10
4.5989351315
 20
6.8393256374
 11
4.5995410402
 21
6.8377442653
  0
LINE
  5
270
100
AcDbEntity
  8
ALL_ASSEMBLY_MEMBERS
100
AcDbLine
 62
7
  6
CONTINUOUS
 10
5.2677019496
 20
3.5879502076
 11
5.2677019496
 21
3.5887931248
  0
LINE
  5
271
100
AcDbEntity
  8
ALL_ASSEMBLY_MEMBERS
100
AcDbLine
 62
7
  6
CONTINUOUS
 10
5.3677019496
 20
3.6846802944
 11
5.3677019496
 21
4.1021042464
  0
LINE
  5
272
100
AcDbEntity
  8
ALL_ASSEMBLY_MEMBERS
100
AcDbLine
 62
7
  6
CONTINUOUS
 10
5.3114957136
 20
5.6581676049
 11
5.3465139589
 21
5.9665824
  0
LINE
  5
273
100
AcDbEntity
  8
ALL_ASSEMBLY_MEMBERS
100
AcDbLine
 62
7
  6
CONTINUOUS
 10
5.3465139589
 20
5.9665824
 11
5.3634352848
 21
6.1118650603
  0
LINE
  5
274
100
AcDbEntity
  8
ALL_ASSEMBLY_MEMBERS
100
AcDbLine
 62
7
  6
CONTINUOUS
 10
5.3634352848
 20
6.1118650603
 11
5.3880069732
 21
6.3181634079
  0
LINE
  5
275
100
AcDbEntity
  8
ALL_ASSEMBLY_MEMBERS
100
AcDbLine
 62
7
  6
CONTINUOUS
 10
5.3880069732
 20
6.3181634079
 11
5.4003873513
 21
6.4210093004
  0
LINE
  5
276
100
AcDbEntity
  8
ALL_ASSEMBLY_MEMBERS
100
AcDbLine
 62
7
  6
CONTINUOUS
 10
5.3019957991
 20
5.5783720942
 11
5.3114957136
 21
5.6581676049
  0
LWPOLYLINE
  5
277
100
AcDbEntity
  8
ALL_ASSEMBLY_MEMBERS
100
AcDbPolyline
 62
7
  6
CONTINUOUS
 90
3
 70
0
 10
5.2746929418
 20
5.3618364781
 10
5.2832232682
 20
5.430442771
 10
5.2925001871
 20
5.5024839667
  0
LINE
  5
278
100
AcDbEntity
  8
ALL_ASSEMBLY_MEMBERS
100
AcDbLine
 62
7
  6
CONTINUOUS
 10
5.2925001871
 20
5.5024839667
 11
5.3019957991
 21
5.5783720942
  0
LINE
  5
279
100
AcDbEntity
  8
ALL_ASSEMBLY_MEMBERS
100
AcDbLine
 62
7
  6
CONTINUOUS
 10
5.5252019496
 20
7.1431491359
 11
5.5252019496
 21
7.1481491359
  0
LINE
  5
27A
100
AcDbEntity
  8
ALL_ASSEMBLY_MEMBERS
100
AcDbLine
 62
7
  6
CONTINUOUS
 10
4.7378948228
 20
6.4756353136
 11
5.2475090763
 21
6.4756353136
  0
LINE
  5
27B
100
AcDbEntity
  8
ALL_ASSEMBLY_MEMBERS
100
AcDbLine
 62
7
  6
CONTINUOUS
 10
4.31268048
 20
7.1431491359
 11
5.6727234192
 21
7.1431491359
  0
LINE
  5
27C
100
AcDbEntity
  8
ALL_ASSEMBLY_MEMBERS
100
AcDbLine
 62
7
  6
CONTINUOUS
 10
4.4602019496
 20
7.1481491359
 11
5.5252019496
 21
7.1481491359
  0
ARC
  5
27D
100
AcDbEntity
  8
ALL_ASSEMBLY_MEMBERS
100
AcDbCircle
 62
7
  6
CONTINUOUS
 10
-25.2097182817
 20
6.2643439667
 40
30.0655246088
100
AcDbArc
 50
356.9073195332
 51
357.0906373009
  0
ARC
  5
27E
100
AcDbEntity
  8
ALL_ASSEMBLY_MEMBERS
100
AcDbCircle
 62
7
  6
CONTINUOUS
 10
-23.9311799939
 20
6.2645594684
 40
28.7484725959
100
AcDbArc
 50
356.1533215115
 51
356.7004874472
  0
ARC
  5
27F
100
AcDbEntity
  8
ALL_ASSEMBLY_MEMBERS
100
AcDbCircle
 62
7
  6
CONTINUOUS
 10
-22.8501462584
 20
6.2564330915
 40
27.6695178343
100
AcDbArc
 50
355.632354639
 51
355.8586200938
  0
ARC
  5
280
100
AcDbEntity
  8
ALL_ASSEMBLY_MEMBERS
100
AcDbCircle
 62
7
  6
CONTINUOUS
 10
-19.9476736765
 20
5.9916480573
 40
24.7964306286
100
AcDbArc
 50
356.8816821568
 51
357.1027991011
  0
ARC
  5
281
100
AcDbEntity
  8
ALL_ASSEMBLY_MEMBERS
100
AcDbCircle
 62
7
  6
CONTINUOUS
 10
-15.018973948
 20
5.7438414435
 40
19.8614967319
100
AcDbArc
 50
357.1079263902
 51
357.2346113189
  0
ARC
  5
282
100
AcDbEntity
  8
ALL_ASSEMBLY_MEMBERS
100
AcDbCircle
 62
7
  6
CONTINUOUS
 10
-14.4337308122
 20
5.7124852753
 40
19.2754253212
100
AcDbArc
 50
357.1132413074
 51
357.2437818898
  0
ARC
  5
283
100
AcDbEntity
  8
ALL_ASSEMBLY_MEMBERS
100
AcDbCircle
 62
7
  6
CONTINUOUS
 10
-10.4815768593
 20
5.3547622071
 40
15.2681287087
100
AcDbArc
 50
355.8814576643
 51
356.1737998371
  0
ARC
  5
284
100
AcDbEntity
  8
ALL_ASSEMBLY_MEMBERS
100
AcDbCircle
 62
7
  6
CONTINUOUS
 10
-8.9032538053
 20
8.3614148484
 40
14.3348557764
100
AcDbArc
 50
351.9965743037
 51
352.2106933602
  0
ARC
  5
285
100
AcDbEntity
  8
ALL_ASSEMBLY_MEMBERS
100
AcDbCircle
 62
7
  6
CONTINUOUS
 10
-8.6593953349
 20
8.3268887841
 40
14.0885665914
100
AcDbArc
 50
351.9975339078
 51
352.2153992946
  0
ARC
  5
286
100
AcDbEntity
  8
ALL_ASSEMBLY_MEMBERS
100
AcDbCircle
 62
7
  6
CONTINUOUS
 10
-8.0573619357
 20
5.6586281942
 40
12.8075187448
100
AcDbArc
 50
355.730471494
 51
355.8794176536
  0
ARC
  5
287
100
AcDbEntity
  8
ALL_ASSEMBLY_MEMBERS
100
AcDbCircle
 62
7
  6
CONTINUOUS
 10
-6.8581615446
 20
5.5684924149
 40
11.6049358454
100
AcDbArc
 50
355.4871134681
 51
355.7334689008
  0
ARC
  5
288
100
AcDbEntity
  8
ALL_ASSEMBLY_MEMBERS
100
AcDbCircle
 62
7
  6
CONTINUOUS
 10
-5.5733178614
 20
7.9051612917
 40
10.9738081707
100
AcDbArc
 50
352.2257007076
 51
352.4757855363
  0
ARC
  5
289
100
AcDbEntity
  8
ALL_ASSEMBLY_MEMBERS
100
AcDbCircle
 62
7
  6
CONTINUOUS
 10
-5.5407855617
 20
7.9011345887
 40
10.9410287672
100
AcDbArc
 50
352.2235483496
 51
352.4743861667
  0
ARC
  5
28A
100
AcDbEntity
  8
ALL_ASSEMBLY_MEMBERS
100
AcDbCircle
 62
7
  6
CONTINUOUS
 10
0.3952645947
 20
5.9722026761
 40
4.3123629927
100
AcDbArc
 50
7.3770377925
 51
7.9392182577
  0
ARC
  5
28B
100
AcDbEntity
  8
ALL_ASSEMBLY_MEMBERS
100
AcDbCircle
 62
7
  6
CONTINUOUS
 10
1.4228270011
 20
5.1753083192
 40
3.4082373733
100
AcDbArc
 50
0.0387679978
 51
0.6335504552
  0
ARC
  5
28C
100
AcDbEntity
  8
ALL_ASSEMBLY_MEMBERS
100
AcDbCircle
 62
7
  6
CONTINUOUS
 10
2.0064542615
 20
5.1784397216
 40
2.8246229684
100
AcDbArc
 50
359.9835849986
 51
1.3329018752
  0
ARC
  5
28D
100
AcDbEntity
  8
ALL_ASSEMBLY_MEMBERS
100
AcDbCircle
 62
7
  6
CONTINUOUS
 10
2.1254052673
 20
5.1825012424
 40
2.7056224524
100
AcDbArc
 50
0.6811615801
 51
1.1512668435
  0
ARC
  5
28E
100
AcDbEntity
  8
ALL_ASSEMBLY_MEMBERS
100
AcDbCircle
 62
7
  6
CONTINUOUS
 10
2.02784433
 20
5.1369832589
 40
2.7032294827
100
AcDbArc
 50
359.9915126942
 51
1.5777083115
  0
ARC
  5
28F
100
AcDbEntity
  8
ALL_ASSEMBLY_MEMBERS
100
AcDbCircle
 62
7
  6
CONTINUOUS
 10
2.1277921871
 20
5.041135785
 40
2.6034942972
100
AcDbArc
 50
1.7825147854
 51
2.0225411725
  0
ARC
  5
290
100
AcDbEntity
  8
ALL_ASSEMBLY_MEMBERS
100
AcDbCircle
 62
7
  6
CONTINUOUS
 10
2.1552197249
 20
5.0420859567
 40
2.5760503121
100
AcDbArc
 50
2.022950672
 51
2.145754542
  0
ARC
  5
291
100
AcDbEntity
  8
ALL_ASSEMBLY_MEMBERS
100
AcDbCircle
 62
7
  6
CONTINUOUS
 10
2.4172352149
 20
5.1879603235
 40
2.4137417652
100
AcDbArc
 50
1.160891887
 51
1.3158911221
  0
ARC
  5
292
100
AcDbEntity
  8
ALL_ASSEMBLY_MEMBERS
100
AcDbCircle
 62
7
  6
CONTINUOUS
 10
2.5550121416
 20
5.191124273
 40
2.2759285143
100
AcDbArc
 50
1.315913246
 51
1.5936295305
  0
ARC
  5
293
100
AcDbEntity
  8
ALL_ASSEMBLY_MEMBERS
100
AcDbCircle
 62
7
  6
CONTINUOUS
 10
2.5153009823
 20
5.0546208393
 40
2.2157598166
100
AcDbArc
 50
0.8907241326
 51
1.1207634999
  0
ARC
  5
294
100
AcDbEntity
  8
ALL_ASSEMBLY_MEMBERS
100
AcDbCircle
 62
7
  6
CONTINUOUS
 10
2.618049229
 20
5.0566959243
 40
2.112990606
100
AcDbArc
 50
1.1432944497
 51
1.7486754885
  0
ARC
  5
295
100
AcDbEntity
  8
ALL_ASSEMBLY_MEMBERS
100
AcDbCircle
 62
7
  6
CONTINUOUS
 10
2.6855871353
 20
6.2907922279
 40
1.9999866944
100
AcDbArc
 50
8.0489950921
 51
9.2387464187
  0
ARC
  5
296
100
AcDbEntity
  8
ALL_ASSEMBLY_MEMBERS
100
AcDbCircle
 62
7
  6
CONTINUOUS
 10
3.3173666975
 20
6.3921441741
 40
1.3601310894
100
AcDbArc
 50
9.3391653026
 51
11.1308764511
  0
ARC
  5
297
100
AcDbEntity
  8
ALL_ASSEMBLY_MEMBERS
100
AcDbCircle
 62
7
  6
CONTINUOUS
 10
-15.9420376699
 20
9.3498877395
 40
21.4427092569
100
AcDbArc
 50
351.8585833401
 51
351.9779636467
  0
ARC
  5
298
100
AcDbEntity
  8
ALL_ASSEMBLY_MEMBERS
100
AcDbCircle
 62
7
  6
CONTINUOUS
 10
17.1833184889
 20
5.5948901803
 40
11.9457128388
100
AcDbArc
 50
184.1118673173
 51
184.5248652039
  0
ARC
  5
299
100
AcDbEntity
  8
ALL_ASSEMBLY_MEMBERS
100
AcDbCircle
 62
7
  6
CONTINUOUS
 10
15.7890035677
 20
5.4849385883
 40
10.5470694679
100
AcDbArc
 50
184.5269893914
 51
184.7326861248
  0
ARC
  5
29A
100
AcDbEntity
  8
ALL_ASSEMBLY_MEMBERS
100
AcDbCircle
 62
7
  6
CONTINUOUS
 10
9.6045187961
 20
5.9702985963
 40
4.3268679697
100
AcDbArc
 50
172.0648233325
 51
172.6235446554
  0
ARC
  5
29B
100
AcDbEntity
  8
ALL_ASSEMBLY_MEMBERS
100
AcDbCircle
 62
7
  6
CONTINUOUS
 10
8.5791302574
 20
5.1751769727
 40
3.4247909987
100
AcDbArc
 50
179.3690719296
 51
179.9976452634
  0
ARC
  5
29C
100
AcDbEntity
  8
ALL_ASSEMBLY_MEMBERS
100
AcDbCircle
 62
7
  6
CONTINUOUS
 10
8.319062309
 20
5.1758591168
 40
3.1647368199
100
AcDbArc
 50
179.3297381089
 51
180.0199729296
  0
ARC
  5
29D
100
AcDbEntity
  8
ALL_ASSEMBLY_MEMBERS
100
AcDbCircle
 62
7
  6
CONTINUOUS
 10
8.2249007227
 20
5.1347583311
 40
2.9705716522
100
AcDbArc
 50
178.9516984836
 51
180.0053188975
  0
ARC
  5
29E
100
AcDbEntity
  8
ALL_ASSEMBLY_MEMBERS
100
AcDbCircle
 62
7
  6
CONTINUOUS
 10
7.8623605785
 20
5.1824861946
 40
2.7079841715
100
AcDbArc
 50
178.8553052151
 51
179.3108226521
  0
ARC
  5
29F
100
AcDbEntity
  8
ALL_ASSEMBLY_MEMBERS
100
AcDbCircle
 62
7
  6
CONTINUOUS
 10
7.8136864498
 20
5.1819383206
 40
2.6593241123
100
AcDbArc
 50
178.8218764886
 51
179.2866305871
  0
ARC
  5
2A0
100
AcDbEntity
  8
ALL_ASSEMBLY_MEMBERS
100
AcDbCircle
 62
7
  6
CONTINUOUS
 10
7.8501219939
 20
5.0413764007
 40
2.5960007187
100
AcDbArc
 50
177.8548621113
 51
178.2176513219
  0
ARC
  5
2A1
100
AcDbEntity
  8
ALL_ASSEMBLY_MEMBERS
100
AcDbCircle
 62
7
  6
CONTINUOUS
 10
7.806254932
 20
5.0429826297
 40
2.5521042758
100
AcDbArc
 50
177.7292527524
 51
177.8540340626
  0
ARC
  5
2A2
100
AcDbEntity
  8
ALL_ASSEMBLY_MEMBERS
100
AcDbCircle
 62
7
  6
CONTINUOUS
 10
7.6265869292
 20
5.1857302497
 40
2.4721861792
100
AcDbArc
 50
178.6336882582
 51
178.8205840249
  0
ARC
  5
2A3
100
AcDbEntity
  8
ALL_ASSEMBLY_MEMBERS
100
AcDbCircle
 62
7
  6
CONTINUOUS
 10
7.5670139911
 20
5.1880027526
 40
2.41258635
100
AcDbArc
 50
178.6752774398
 51
178.8461669749
  0
ARC
  5
2A4
100
AcDbEntity
  8
ALL_ASSEMBLY_MEMBERS
100
AcDbCircle
 62
7
  6
CONTINUOUS
 10
7.6247756083
 20
5.0504080276
 40
2.3704732625
100
AcDbArc
 50
176.9241937049
 51
177.7347892347
  0
ARC
  5
2A5
100
AcDbEntity
  8
ALL_ASSEMBLY_MEMBERS
100
AcDbCircle
 62
7
  6
CONTINUOUS
 10
7.6170604778
 20
5.1442807569
 40
2.3626594694
100
AcDbArc
 50
178.3718472446
 51
178.9129028736
  0
ARC
  5
2A6
100
AcDbEntity
  8
ALL_ASSEMBLY_MEMBERS
100
AcDbCircle
 62
7
  6
CONTINUOUS
 10
7.414868731
 20
5.1915334907
 40
2.2604001114
100
AcDbArc
 50
178.4057965079
 51
178.6522854158
  0
ARC
  5
2A7
100
AcDbEntity
  8
ALL_ASSEMBLY_MEMBERS
100
AcDbCircle
 62
7
  6
CONTINUOUS
 10
7.4686651111
 20
5.0546463419
 40
2.2143217861
100
AcDbArc
 50
178.8803099925
 51
179.0982923073
  0
ARC
  5
2A8
100
AcDbEntity
  8
ALL_ASSEMBLY_MEMBERS
100
AcDbCircle
 62
7
  6
CONTINUOUS
 10
7.3677028102
 20
5.0566870772
 40
2.1133388539
100
AcDbArc
 50
178.2513727877
 51
178.8586252437
  0
ARC
  5
2A9
100
AcDbEntity
  8
ALL_ASSEMBLY_MEMBERS
100
AcDbCircle
 62
7
  6
CONTINUOUS
 10
4.2745632396
 20
3.7035997728
 40
0.457999318
100
AcDbArc
 50
346.6627395222
 51
346.9391318985
  0
ARC
  5
2AA
100
AcDbEntity
  8
ALL_ASSEMBLY_MEMBERS
100
AcDbCircle
 62
7
  6
CONTINUOUS
 10
5.7054507873
 20
3.7022413515
 40
0.4524409885
100
AcDbArc
 50
193.0558004978
 51
193.3337652901
  0
ARC
  5
2AB
100
AcDbEntity
  8
ALL_ASSEMBLY_MEMBERS
100
AcDbCircle
 62
7
  6
CONTINUOUS
 10
4.3669886938
 20
3.6812311867
 40
0.3629068943
100
AcDbArc
 50
345.1053514507
 51
346.7328925431
  0
ARC
  5
2AC
100
AcDbEntity
  8
ALL_ASSEMBLY_MEMBERS
100
AcDbCircle
 62
7
  6
CONTINUOUS
 10
5.6162542417
 20
3.6806765312
 40
0.3606757906
100
AcDbArc
 50
193.268204014
 51
194.8976301562
  0
ARC
  5
2AD
100
AcDbEntity
  8
ALL_ASSEMBLY_MEMBERS
100
AcDbCircle
 62
7
  6
CONTINUOUS
 10
5.3051602972
 20
3.5887730626
 40
0.037458353
100
AcDbArc
 50
169.6009593206
 51
179.9693131599
  0
ARC
  5
2AE
100
AcDbEntity
  8
ALL_ASSEMBLY_MEMBERS
100
AcDbCircle
 62
7
  6
CONTINUOUS
 10
4.680269216
 20
3.5887791757
 40
0.0374327362
100
AcDbArc
 50
0.0214646053
 51
15.5977862892
  0
ARC
  5
2AF
100
AcDbEntity
  8
ALL_ASSEMBLY_MEMBERS
100
AcDbCircle
 62
7
  6
CONTINUOUS
 10
3.6129910003
 20
6.4609869293
 40
1.0560450303
100
AcDbArc
 50
20.8524437956
 51
20.9894562713
  0
ARC
  5
2B0
100
AcDbEntity
  8
ALL_ASSEMBLY_MEMBERS
100
AcDbCircle
 62
7
  6
CONTINUOUS
 10
3.6357275636
 20
6.4698906984
 40
1.0316278389
100
AcDbArc
 50
20.9800800167
 51
25.1929253834
  0
ARC
  5
2B1
100
AcDbEntity
  8
ALL_ASSEMBLY_MEMBERS
100
AcDbCircle
 62
7
  6
CONTINUOUS
 10
3.6382181646
 20
6.4709020107
 40
1.0289378305
100
AcDbArc
 50
20.9812297426
 51
25.2010030835
  0
ARC
  5
2B2
100
AcDbEntity
  8
ALL_ASSEMBLY_MEMBERS
100
AcDbCircle
 62
7
  6
CONTINUOUS
 10
3.6655191641
 20
6.4833874736
 40
0.9989249971
100
AcDbArc
 50
25.2197893834
 51
25.6319433021
  0
ARC
  5
2B3
100
AcDbEntity
  8
ALL_ASSEMBLY_MEMBERS
100
AcDbCircle
 62
7
  6
CONTINUOUS
 10
3.6755706871
 20
6.4882288279
 40
0.9877683156
100
AcDbArc
 50
25.6309716607
 51
27.1516636157
  0
ARC
  5
2B4
100
AcDbEntity
  8
ALL_ASSEMBLY_MEMBERS
100
AcDbCircle
 62
7
  6
CONTINUOUS
 10
3.6865057004
 20
6.4937732884
 40
0.9755081238
100
AcDbArc
 50
27.1549935513
 51
27.8118106923
  0
ARC
  5
2B5
100
AcDbEntity
  8
ALL_ASSEMBLY_MEMBERS
100
AcDbCircle
 62
7
  6
CONTINUOUS
 10
3.6954157776
 20
6.4984867657
 40
0.9654281336
100
AcDbArc
 50
27.8111083996
 51
29.5666016453
  0
ARC
  5
2B6
100
AcDbEntity
  8
ALL_ASSEMBLY_MEMBERS
100
AcDbCircle
 62
7
  6
CONTINUOUS
 10
3.7048010687
 20
6.5037425653
 40
0.9546715764
100
AcDbArc
 50
29.5701802343
 51
29.9529196999
  0
ARC
  5
2B7
100
AcDbEntity
  8
ALL_ASSEMBLY_MEMBERS
100
AcDbCircle
 62
7
  6
CONTINUOUS
 10
3.7066605799
 20
6.5049059708
 40
0.9524868408
100
AcDbArc
 50
29.5641655464
 51
29.9480543477
  0
ARC
  5
2B8
100
AcDbEntity
  8
ALL_ASSEMBLY_MEMBERS
100
AcDbCircle
 62
7
  6
CONTINUOUS
 10
3.7164082427
 20
6.5106124068
 40
0.9411919689
100
AcDbArc
 50
29.943286111
 51
32.0777307498
  0
ARC
  5
2B9
100
AcDbEntity
  8
ALL_ASSEMBLY_MEMBERS
100
AcDbCircle
 62
7
  6
CONTINUOUS
 10
3.8057302277
 20
6.5085386131
 40
0.9090925402
100
AcDbArc
 50
38.0310796557
 51
44.2723900134
  0
ARC
  5
2BA
100
AcDbEntity
  8
ALL_ASSEMBLY_MEMBERS
100
AcDbCircle
 62
7
  6
CONTINUOUS
 10
3.7465626577
 20
6.5306277695
 40
0.9049900981
100
AcDbArc
 50
35.0740719243
 51
37.3083568104
  0
ARC
  5
2BB
100
AcDbEntity
  8
ALL_ASSEMBLY_MEMBERS
100
AcDbCircle
 62
7
  6
CONTINUOUS
 10
4.6599222627
 20
6.6973374029
 40
0.222559814
100
AcDbArc
 50
275.5139978993
 51
276.0830400672
  0
ARC
  5
2BC
100
AcDbEntity
  8
ALL_ASSEMBLY_MEMBERS
100
AcDbCircle
 62
7
  6
CONTINUOUS
 10
6.6684593202
 20
6.3921292621
 40
1.3605496918
100
AcDbArc
 50
168.871930323
 51
170.6547516601
  0
ARC
  5
2BD
100
AcDbEntity
  8
ALL_ASSEMBLY_MEMBERS
100
AcDbCircle
 62
7
  6
CONTINUOUS
 10
6.5548638055
 20
6.4119713874
 40
1.2451808216
100
AcDbArc
 50
167.1257813279
 51
168.7590107703
  0
ARC
  5
2BE
100
AcDbEntity
  8
ALL_ASSEMBLY_MEMBERS
100
AcDbCircle
 62
7
  6
CONTINUOUS
 10
6.652470266
 20
6.4117099885
 40
1.2429585078
100
AcDbArc
 50
168.1822489823
 51
168.7257540026
  0
ARC
  5
2BF
100
AcDbEntity
  8
ALL_ASSEMBLY_MEMBERS
100
AcDbCircle
 62
7
  6
CONTINUOUS
 10
6.5125047932
 20
6.4215499012
 40
1.2017524505
100
AcDbArc
 50
166.8838907955
 51
167.1209969828
  0
ARC
  5
2C0
100
AcDbEntity
  8
ALL_ASSEMBLY_MEMBERS
100
AcDbCircle
 62
7
  6
CONTINUOUS
 10
6.480118869
 20
6.4268694484
 40
1.1690715036
100
AcDbArc
 50
164.8725507643
 51
165.0991791479
  0
ARC
  5
2C1
100
AcDbEntity
  8
ALL_ASSEMBLY_MEMBERS
100
AcDbCircle
 62
7
  6
CONTINUOUS
 10
6.473043037
 20
6.4286515147
 40
1.1617753665
100
AcDbArc
 50
165.0943762839
 51
166.7831672614
  0
ARC
  5
2C2
100
AcDbEntity
  8
ALL_ASSEMBLY_MEMBERS
100
AcDbCircle
 62
7
  6
CONTINUOUS
 10
6.4590846071
 20
6.4319647517
 40
1.1474291431
100
AcDbArc
 50
166.7848681792
 51
167.0332155536
  0
ARC
  5
2C3
100
AcDbEntity
  8
ALL_ASSEMBLY_MEMBERS
100
AcDbCircle
 62
7
  6
CONTINUOUS
 10
6.4581705357
 20
6.4345224323
 40
1.145891901
100
AcDbArc
 50
165.1868328912
 51
166.8991059762
  0
ARC
  5
2C4
100
AcDbEntity
  8
ALL_ASSEMBLY_MEMBERS
100
AcDbCircle
 62
7
  6
CONTINUOUS
 10
6.447488117
 20
6.4346149043
 40
1.1355337024
100
AcDbArc
 50
167.0322307699
 51
168.8234309655
  0
ARC
  5
2C5
100
AcDbEntity
  8
ALL_ASSEMBLY_MEMBERS
100
AcDbCircle
 62
7
  6
CONTINUOUS
 10
6.4438231008
 20
6.4369006912
 40
1.1314156628
100
AcDbArc
 50
161.3627646121
 51
164.883268329
  0
ARC
  5
2C6
100
AcDbEntity
  8
ALL_ASSEMBLY_MEMBERS
100
AcDbCircle
 62
7
  6
CONTINUOUS
 10
6.4215240217
 20
6.4441100793
 40
1.108012097
100
AcDbArc
 50
164.9425550457
 51
165.1816442493
  0
ARC
  5
2C7
100
AcDbEntity
  8
ALL_ASSEMBLY_MEMBERS
100
AcDbCircle
 62
7
  6
CONTINUOUS
 10
6.4083743385
 20
6.447831812
 40
1.0943470524
100
AcDbArc
 50
161.3119441111
 51
164.9518654732
  0
ARC
  5
2C8
100
AcDbEntity
  8
ALL_ASSEMBLY_MEMBERS
100
AcDbCircle
 62
7
  6
CONTINUOUS
 10
5.2819039735
 20
6.2026968375
 40
0.2741642666
100
AcDbArc
 50
83.631829604
 51
84.1146255516
  0
ARC
  5
2C9
100
AcDbEntity
  8
ALL_ASSEMBLY_MEMBERS
100
AcDbCircle
 62
7
  6
CONTINUOUS
 10
6.399859244
 20
6.4510674287
 40
1.0852300729
100
AcDbArc
 50
160.9809645698
 51
161.3297190567
  0
ARC
  5
2CA
100
AcDbEntity
  8
ALL_ASSEMBLY_MEMBERS
100
AcDbCircle
 62
7
  6
CONTINUOUS
 10
6.3966067322
 20
6.4517426001
 40
1.0819467933
100
AcDbArc
 50
160.95863483
 51
161.308453038
  0
ARC
  5
2CB
100
AcDbEntity
  8
ALL_ASSEMBLY_MEMBERS
100
AcDbCircle
 62
7
  6
CONTINUOUS
 10
6.3889641287
 20
6.4548452438
 40
1.0736985953
100
AcDbArc
 50
159.4039232598
 51
160.9820884325
  0
ARC
  5
2CC
100
AcDbEntity
  8
ALL_ASSEMBLY_MEMBERS
100
AcDbCircle
 62
7
  6
CONTINUOUS
 10
6.3864518389
 20
6.4553127384
 40
1.0711827841
100
AcDbArc
 50
159.1742368149
 51
160.9619377931
  0
ARC
  5
2CD
100
AcDbEntity
  8
ALL_ASSEMBLY_MEMBERS
100
AcDbCircle
 62
7
  6
CONTINUOUS
 10
6.3768906916
 20
6.4589338914
 40
1.0609588765
100
AcDbArc
 50
158.8338439743
 51
158.9895851015
  0
ARC
  5
2CE
100
AcDbEntity
  8
ALL_ASSEMBLY_MEMBERS
100
AcDbCircle
 62
7
  6
CONTINUOUS
 10
6.3754365568
 20
6.4598498272
 40
1.0592751593
100
AcDbArc
 50
159.1916934782
 51
159.3999212992
  0
ARC
  5
2CF
100
AcDbEntity
  8
ALL_ASSEMBLY_MEMBERS
100
AcDbCircle
 62
7
  6
CONTINUOUS
 10
6.3728084765
 20
6.460848327
 40
1.056463788
100
AcDbArc
 50
159.0129759105
 51
159.1916807897
  0
ARC
  5
2D0
100
AcDbEntity
  8
ALL_ASSEMBLY_MEMBERS
100
AcDbCircle
 62
7
  6
CONTINUOUS
 10
6.3704702736
 20
6.4617451534
 40
1.0539594936
100
AcDbArc
 50
158.8500837073
 51
159.012969919
  0
ARC
  5
2D1
100
AcDbEntity
  8
ALL_ASSEMBLY_MEMBERS
100
AcDbCircle
 62
7
  6
CONTINUOUS
 10
6.363992019
 20
6.46401275
 40
1.0470965442
100
AcDbArc
 50
157.184408156
 51
158.8381586656
  0
ARC
  5
2D2
100
AcDbEntity
  8
ALL_ASSEMBLY_MEMBERS
100
AcDbCircle
 62
7
  6
CONTINUOUS
 10
6.3599972583
 20
6.4658271643
 40
1.0427191176
100
AcDbArc
 50
157.1907877175
 51
158.851637745
  0
ARC
  5
2D3
100
AcDbEntity
  8
ALL_ASSEMBLY_MEMBERS
100
AcDbCircle
 62
7
  6
CONTINUOUS
 10
6.3531801358
 20
6.468534806
 40
1.0353771066
100
AcDbArc
 50
156.8336780748
 51
157.1830664482
  0
ARC
  5
2D4
100
AcDbEntity
  8
ALL_ASSEMBLY_MEMBERS
100
AcDbCircle
 62
7
  6
CONTINUOUS
 10
6.3471413021
 20
6.4711508158
 40
1.0288047023
100
AcDbArc
 50
156.8350000305
 51
157.1865305139
  0
ARC
  5
2D5
100
AcDbEntity
  8
ALL_ASSEMBLY_MEMBERS
100
AcDbCircle
 62
7
  6
CONTINUOUS
 10
6.3360667183
 20
6.4759881427
 40
1.0167114525
100
AcDbArc
 50
154.8243403701
 51
156.8404351686
  0
ARC
  5
2D6
100
AcDbEntity
  8
ALL_ASSEMBLY_MEMBERS
100
AcDbCircle
 62
7
  6
CONTINUOUS
 10
6.3353946892
 20
6.4762129917
 40
1.0160137904
100
AcDbArc
 50
154.8196216358
 51
156.8368697437
  0
ARC
  5
2D7
100
AcDbEntity
  8
ALL_ASSEMBLY_MEMBERS
100
AcDbCircle
 62
7
  6
CONTINUOUS
 10
6.3197334211
 20
6.4834563749
 40
0.9987589366
100
AcDbArc
 50
154.3678621116
 51
154.8134073314
  0
ARC
  5
2D8
100
AcDbEntity
  8
ALL_ASSEMBLY_MEMBERS
100
AcDbCircle
 62
7
  6
CONTINUOUS
 10
6.3098233302
 20
6.4882264718
 40
0.9877605941
100
AcDbArc
 50
152.9132424455
 51
154.368653913
  0
ARC
  5
2D9
100
AcDbEntity
  8
ALL_ASSEMBLY_MEMBERS
100
AcDbCircle
 62
7
  6
CONTINUOUS
 10
6.2999290585
 20
6.493234016
 40
0.9766714154
100
AcDbArc
 50
152.2785542292
 51
152.9104886172
  0
ARC
  5
2DA
100
AcDbEntity
  8
ALL_ASSEMBLY_MEMBERS
100
AcDbCircle
 62
7
  6
CONTINUOUS
 10
6.2898404734
 20
6.4985592161
 40
0.9652636612
100
AcDbArc
 50
150.2039752091
 51
152.2798025032
  0
ARC
  5
2DB
100
AcDbEntity
  8
ALL_ASSEMBLY_MEMBERS
100
AcDbCircle
 62
7
  6
CONTINUOUS
 10
6.2786096318
 20
6.5048915118
 40
0.9523709367
100
AcDbArc
 50
149.7871246922
 51
150.1988257802
  0
ARC
  5
2DC
100
AcDbEntity
  8
ALL_ASSEMBLY_MEMBERS
100
AcDbCircle
 62
7
  6
CONTINUOUS
 10
6.1796912312
 20
6.5085418013
 40
0.9091043589
100
AcDbArc
 50
135.7286167852
 51
141.9703359388
  0
ARC
  5
2DD
100
AcDbEntity
  8
ALL_ASSEMBLY_MEMBERS
100
AcDbCircle
 62
7
  6
CONTINUOUS
 10
15.5550632751
 20
7.9046737586
 40
10.970117346
100
AcDbArc
 50
187.5241921401
 51
187.7731076007
  0
ARC
  5
2DE
100
AcDbEntity
  8
ALL_ASSEMBLY_MEMBERS
100
AcDbCircle
 62
7
  6
CONTINUOUS
 10
28.5126517897
 20
5.918884048
 40
23.374142604
100
AcDbArc
 50
182.8950516665
 51
183.0412991728
  0
ARC
  5
2DF
100
AcDbEntity
  8
ALL_ASSEMBLY_MEMBERS
100
AcDbCircle
 62
7
  6
CONTINUOUS
 10
26.6558316474
 20
5.8256964284
 40
21.5149723906
100
AcDbArc
 50
182.7694354927
 51
182.8969508696
  0
ARC
  5
2E0
100
AcDbEntity
  8
ALL_ASSEMBLY_MEMBERS
100
AcDbCircle
 62
7
  6
CONTINUOUS
 10
24.4856315371
 20
5.7157090456
 40
19.342000255
100
AcDbArc
 50
182.7546148897
 51
182.8964609606
  0
ARC
  5
2E1
100
AcDbEntity
  8
ALL_ASSEMBLY_MEMBERS
100
AcDbCircle
 62
7
  6
CONTINUOUS
 10
32.159478307
 20
6.1047640461
 40
27.0256896799
100
AcDbArc
 50
182.8981335005
 51
183.0246318
  0
ARC
  5
2E2
100
AcDbEntity
  8
ALL_ASSEMBLY_MEMBERS
100
AcDbCircle
 62
7
  6
CONTINUOUS
 10
31.5879599498
 20
6.2074292581
 40
26.3605794221
100
AcDbArc
 50
183.1947930031
 51
183.4903885088
  0
ARC
  5
2E3
100
AcDbEntity
  8
ALL_ASSEMBLY_MEMBERS
100
AcDbCircle
 62
7
  6
CONTINUOUS
 10
18.8683549931
 20
8.35861177
 40
14.3143605131
100
AcDbArc
 50
187.7898014621
 51
188.0020242417
  0
ARC
  5
2E4
100
AcDbEntity
  8
ALL_ASSEMBLY_MEMBERS
100
AcDbCircle
 62
7
  6
CONTINUOUS
 10
6.329117184
 20
14.6375848355
 40
8.2333040813
100
AcDbArc
 50
262.451240824
 51
262.7831929947
  0
ARC
  5
2E5
100
AcDbEntity
  8
ALL_ASSEMBLY_MEMBERS
100
AcDbCircle
 62
7
  6
CONTINUOUS
 10
3.6562871851
 20
14.6375811661
 40
8.2333003821
100
AcDbArc
 50
277.2168069696
 51
277.5487592893
  0
LINE
  5
2E6
100
AcDbEntity
  8
ALL_ASSEMBLY_MEMBERS
100
AcDbLine
 62
7
  6
CONTINUOUS
 10
4.5851462249
 20
6.4199383978
 11
4.5819688195
 21
6.4462700663
  0
LINE
  5
2E7
100
AcDbEntity
  8
ALL_ASSEMBLY_MEMBERS
100
AcDbLine
 62
7
  6
CONTINUOUS
 10
4.5819688195
 20
6.4462700663
 11
4.5792398464
 21
6.4688707615
  0
LINE
  5
2E8
100
AcDbEntity
  8
ALL_ASSEMBLY_MEMBERS
100
AcDbLine
 62
7
  6
CONTINUOUS
 10
4.5792398464
 20
6.4688707615
 11
4.5784227741
 21
6.4756353136
  0
SPLINE
  5
2E9
100
AcDbEntity
  8
ALL_ASSEMBLY_MEMBERS
100
AcDbSpline
 62
7
  6
CONTINUOUS
 70
0
 71
3
 72
12
 73
8
 74
0
 42
0.0000001
 43
0.0000001
 44
0.0000000001
 40
0.0
 40
0.0
 40
0.0
 40
0.0
 40
0.2521637902
 40
0.5024602302
 40
0.6273160154
 40
0.7519797027
 40
1.0
 40
1.0
 40
1.0
 40
1.0
 10
5.3475905314
 20
4.1450518894
 30
0.0
 10
5.3507373464
 20
4.14240896
 30
0.0
 10
5.356463627
 20
4.1364516727
 30
0.0
 10
5.3618152123
 20
4.1276413628
 30
0.0
 10
5.3648555944
 20
4.120068235
 30
0.0
 10
5.3670328094
 20
4.1122457017
 30
0.0
 10
5.3677014487
 20
4.1061461638
 30
0.0
 10
5.3677019496
 20
4.1021042464
 30
0.0
  0
LINE
  5
2EA
100
AcDbEntity
  8
ALL_ASSEMBLY_MEMBERS
100
AcDbLine
 62
7
  6
CONTINUOUS
 10
5.4003885677
 20
6.4210235608
 11
5.4034940737
 21
6.4467587855
  0
LINE
  5
2EB
100
AcDbEntity
  8
ALL_ASSEMBLY_MEMBERS
100
AcDbLine
 62
7
  6
CONTINUOUS
 10
5.4034940737
 20
6.4467587855
 11
5.4061640847
 21
6.4688710295
  0
LINE
  5
2EC
100
AcDbEntity
  8
ALL_ASSEMBLY_MEMBERS
100
AcDbLine
 62
7
  6
CONTINUOUS
 10
5.4061640847
 20
6.4688710295
 11
5.406981125
 21
6.4756353136
  0
LINE
  5
2ED
100
AcDbEntity
  8
ALL_ASSEMBLY_MEMBERS
100
AcDbLine
 62
7
  6
CONTINUOUS
 10
4.7151773383
 20
4.705101321
 11
4.7170502263
 21
4.7383341868
  0
LINE
  5
2EE
100
AcDbEntity
  8
ALL_ASSEMBLY_MEMBERS
100
AcDbLine
 62
7
  6
CONTINUOUS
 10
4.5822286036
 20
6.4463153226
 11
4.5792924905
 21
6.4688879102
  0
SPLINE
  5
2EF
100
AcDbEntity
  8
ALL_ASSEMBLY_MEMBERS
100
AcDbSpline
 62
7
  6
CONTINUOUS
 70
0
 71
3
 72
12
 73
8
 74
0
 42
0.0000001
 43
0.0000001
 44
0.0000000001
 40
0.0
 40
0.0
 40
0.0
 40
0.0
 40
0.2554806964
 40
0.508383172
 40
0.7570924998
 40
0.8793795588
 40
1.0
 40
1.0
 40
1.0
 40
1.0
 10
4.8193933627
 20
4.7855957149
 30
0.0
 10
4.8209623236
 20
4.8181214505
 30
0.0
 10
4.8239013542
 20
4.8828538161
 30
0.0
 10
4.8275503873
 20
4.9792847643
 30
0.0
 10
4.8297511092
 20
5.0587787624
 30
0.0
 10
4.8307948286
 20
5.1214321003
 30
0.0
 10
4.8310303797
 20
5.1523928445
 30
0.0
 10
4.8310582926
 20
5.1677670938
 30
0.0
  0
LINE
  5
2F0
100
AcDbEntity
  8
ALL_ASSEMBLY_MEMBERS
100
AcDbLine
 62
7
  6
CONTINUOUS
 10
4.8310582926
 20
5.1677670938
 11
4.8310646782
 21
5.1749130313
  0
LINE
  5
2F1
100
AcDbEntity
  8
ALL_ASSEMBLY_MEMBERS
100
AcDbLine
 62
7
  6
CONTINUOUS
 10
5.1769328177
 20
4.577746488
 11
5.1734408089
 21
4.6412511591
  0
LINE
  5
2F2
100
AcDbEntity
  8
ALL_ASSEMBLY_MEMBERS
100
AcDbLine
 62
7
  6
CONTINUOUS
 10
5.1734408089
 20
4.6412511591
 11
5.171489659
 21
4.6777488558
  0
LINE
  5
2F3
100
AcDbEntity
  8
ALL_ASSEMBLY_MEMBERS
100
AcDbLine
 62
7
  6
CONTINUOUS
 10
5.2792378551
 20
6.2762271885
 11
5.2845541751
 21
6.313245576
  0
LINE
  5
2F4
100
AcDbEntity
  8
ALL_ASSEMBLY_MEMBERS
100
AcDbLine
 62
7
  6
CONTINUOUS
 10
5.2845541751
 20
6.313245576
 11
5.2908413374
 21
6.3574748476
  0
LINE
  5
2F5
100
AcDbEntity
  8
ALL_ASSEMBLY_MEMBERS
100
AcDbLine
 62
7
  6
CONTINUOUS
 10
5.2908413374
 20
6.3574748476
 11
5.2919768328
 21
6.3655397863
  0
LINE
  5
2F6
100
AcDbEntity
  8
ALL_ASSEMBLY_MEMBERS
100
AcDbLine
 62
7
  6
CONTINUOUS
 10
5.4032391113
 20
6.4468027335
 11
5.4061114087
 21
6.4688879102
  0
LINE
  5
2F7
100
AcDbEntity
  8
ALL_ASSEMBLY_MEMBERS
100
AcDbLine
 62
7
  6
CONTINUOUS
 10
4.8172344331
 20
4.7417337941
 11
4.8170628398
 21
4.7383335717
  0
SPLINE
  5
2F8
100
AcDbEntity
  8
ALL_ASSEMBLY_MEMBERS
100
AcDbSpline
 62
7
  6
CONTINUOUS
 70
0
 71
3
 72
10
 73
6
 74
0
 42
0.0000001
 43
0.0000001
 44
0.0000000001
 40
0.0
 40
0.0
 40
0.0
 40
0.0
 40
0.5063539809
 40
0.7549578773
 40
1.0
 40
1.0
 40
1.0
 40
1.0
 10
4.6519120512
 20
6.6547185051
 30
0.0
 10
4.6457039545
 20
6.6861219013
 30
0.0
 10
4.6344710641
 20
6.732584268
 30
0.0
 10
4.6158500194
 20
6.7930102799
 30
0.0
 10
4.6053796705
 20
6.8224227126
 30
0.0
 10
4.5998653446
 20
6.8368993323
 30
0.0
  0
SPLINE
  5
2F9
100
AcDbEntity
  8
ALL_ASSEMBLY_MEMBERS
100
AcDbSpline
 62
7
  6
CONTINUOUS
 70
0
 71
3
 72
9
 73
5
 74
0
 42
0.0000001
 43
0.0000001
 44
0.0000000001
 40
0.0
 40
0.0
 40
0.0
 40
0.0
 40
0.249616146
 40
1.0
 40
1.0
 40
1.0
 40
1.0
 10
4.6596313764
 20
6.6118875996
 30
0.0
 10
4.6601966585
 20
6.6084784973
 30
0.0
 10
4.6624114499
 20
6.5948128531
 30
0.0
 10
4.6644467381
 20
6.5811185344
 30
0.0
 10
4.6659062028
 20
6.5708333588
 30
0.0
  0
LINE
  5
2FA
100
AcDbEntity
  8
ALL_ASSEMBLY_MEMBERS
100
AcDbLine
 62
7
  6
CONTINUOUS
 10
4.6726543075
 20
6.5204117781
 11
4.6737794045
 21
6.5116450081
  0
LINE
  5
2FB
100
AcDbEntity
  8
ALL_ASSEMBLY_MEMBERS
100
AcDbLine
 62
7
  6
CONTINUOUS
 10
4.6737794045
 20
6.5116450081
 11
4.6774465745
 21
6.4831145129
  0
SPLINE
  5
2FC
100
AcDbEntity
  8
ALL_ASSEMBLY_MEMBERS
100
AcDbSpline
 62
7
  6
CONTINUOUS
 70
0
 71
3
 72
12
 73
8
 74
0
 42
0.0000001
 43
0.0000001
 44
0.0000000001
 40
0.0
 40
0.0
 40
0.0
 40
0.0
 40
0.245665768
 40
0.4943853147
 40
0.619832968
 40
0.7459596735
 40
1.0
 40
1.0
 40
1.0
 40
1.0
 10
4.5995410402
 20
6.8377442653
 30
0.0
 10
4.6051133209
 20
6.8231663173
 30
0.0
 10
4.6156826928
 20
6.793578724
 30
0.0
 10
4.6273127503
 20
6.7559454446
 30
0.0
 10
4.6357100744
 20
6.7252898776
 30
0.0
 10
4.6435277618
 20
6.6941332023
 30
0.0
 10
4.6486836495
 20
6.6705303934
 30
0.0
 10
4.6518336175
 20
6.6547021388
 30
0.0
  0
SPLINE
  5
2FD
100
AcDbEntity
  8
ALL_ASSEMBLY_MEMBERS
100
AcDbSpline
 62
7
  6
CONTINUOUS
 70
0
 71
3
 72
9
 73
5
 74
0
 42
0.0000001
 43
0.0000001
 44
0.0000000001
 40
0.0
 40
0.0
 40
0.0
 40
0.0
 40
0.5093381961
 40
1.0
 40
1.0
 40
1.0
 40
1.0
 10
4.5319628568
 20
6.9803988305
 30
0.0
 10
4.5148314166
 20
7.010127534
 30
0.0
 10
4.4780041105
 20
7.0667217846
 30
0.0
 10
4.4350902236
 20
7.1188524018
 30
0.0
 10
4.41268048
 20
7.1431491359
 30
0.0
  0
SPLINE
  5
2FE
100
AcDbEntity
  8
ALL_ASSEMBLY_MEMBERS
100
AcDbSpline
 62
7
  6
CONTINUOUS
 70
0
 71
3
 72
13
 73
9
 74
0
 42
0.0000001
 43
0.0000001
 44
0.0000000001
 40
0.0
 40
0.0
 40
0.0
 40
0.0
 40
0.255440895
 40
0.3824383764
 40
0.5085948363
 40
0.75739235
 40
0.8795752642
 40
1.0
 40
1.0
 40
1.0
 40
1.0
 10
4.7170502263
 20
4.7383341868
 30
0.0
 10
4.7189134974
 20
4.7718163374
 30
0.0
 10
4.7215880015
 20
4.8219515462
 30
0.0
 10
4.7247221545
 20
4.8886459203
 30
0.0
 10
4.727479863
 20
4.9544838136
 30
0.0
 10
4.7296071105
 20
5.0197157826
 30
0.0
 10
4.730820784
 20
5.0842163246
 30
0.0
 10
4.7310634233
 20
5.116065639
 30
0.0
 10
4.7310739463
 20
5.1318748416
 30
0.0
  0
SPLINE
  5
2FF
100
AcDbEntity
  8
ALL_ASSEMBLY_MEMBERS
100
AcDbSpline
 62
7
  6
CONTINUOUS
 70
0
 71
3
 72
12
 73
8
 74
0
 42
0.0000001
 43
0.0000001
 44
0.0000000001
 40
0.0
 40
0.0
 40
0.0
 40
0.0
 40
0.2575020801
 40
0.3846202715
 40
0.5104806343
 40
0.758112192
 40
1.0
 40
1.0
 40
1.0
 40
1.0
 10
4.5519143653
 20
6.6547188481
 30
0.0
 10
4.547335179
 20
6.6778941788
 30
0.0
 10
4.5394281593
 20
6.7123124213
 30
0.0
 10
4.5268432275
 20
6.757427
 30
0.0
 10
4.513150797
 20
6.8012715477
 30
0.0
 10
4.4938223137
 20
6.854356513
 30
0.0
 10
4.4757404473
 20
6.8955050625
 30
0.0
 10
4.4661414098
 20
6.9155124624
 30
0.0
  0
SPLINE
  5
300
100
AcDbEntity
  8
ALL_ASSEMBLY_MEMBERS
100
AcDbSpline
 62
7
  6
CONTINUOUS
 70
0
 71
3
 72
11
 73
7
 74
0
 42
0.0000001
 43
0.0000001
 44
0.0000000001
 40
0.0
 40
0.0
 40
0.0
 40
0.0
 40
0.2554191638
 40
0.5078206871
 40
0.7563261519
 40
1.0
 40
1.0
 40
1.0
 40
1.0
 10
4.5519165633
 20
6.654720846
 30
0.0
 10
4.5473232418
 20
6.6776963165
 30
0.0
 10
4.5368792947
 20
6.7231267981
 30
0.0
 10
4.5172427642
 20
6.7897137846
 30
0.0
 10
4.4938863101
 20
6.8539437049
 30
0.0
 10
4.4757758412
 20
6.8953415089
 30
0.0
 10
4.466141531
 20
6.9155113746
 30
0.0
  0
SPLINE
  5
301
100
AcDbEntity
  8
ALL_ASSEMBLY_MEMBERS
100
AcDbSpline
 62
7
  6
CONTINUOUS
 70
0
 71
3
 72
11
 73
7
 74
0
 42
0.0000001
 43
0.0000001
 44
0.0000000001
 40
0.0
 40
0.0
 40
0.0
 40
0.0
 40
0.2599418745
 40
0.5129126106
 40
0.7594050861
 40
1.0
 40
1.0
 40
1.0
 40
1.0
 10
4.4661414098
 20
6.9155124624
 30
0.0
 10
4.4558156887
 20
6.9370344984
 30
0.0
 10
4.4339075798
 20
6.9787872468
 30
0.0
 10
4.3969882177
 20
7.0380241195
 30
0.0
 10
4.3567834453
 20
7.0928935099
 30
0.0
 10
4.3276711321
 20
7.1269184709
 30
0.0
 10
4.31268048
 20
7.1431491359
 30
0.0
  0
SPLINE
  5
302
100
AcDbEntity
  8
ALL_ASSEMBLY_MEMBERS
100
AcDbSpline
 62
7
  6
CONTINUOUS
 70
0
 71
3
 72
13
 73
9
 74
0
 42
0.0000001
 43
0.0000001
 44
0.0000000001
 40
0.0
 40
0.0
 40
0.0
 40
0.0
 40
0.2555312588
 40
0.5087334522
 40
0.6337944263
 40
0.7575060625
 40
0.8796473752
 40
1.0
 40
1.0
 40
1.0
 40
1.0
 10
5.2683492683
 20
4.7383339424
 30
0.0
 10
5.2664746768
 20
4.7720498357
 30
0.0
 10
5.2629037522
 20
4.8391834815
 30
0.0
 10
5.2591427445
 20
4.922855464
 30
0.0
 10
5.25679586
 20
4.9891494558
 30
0.0
 10
5.2554389879
 20
5.0381468448
 30
0.0
 10
5.2545511348
 20
5.0865328238
 30
0.0
 10
5.254327276
 20
5.1185781975
 30
0.0
 10
5.2543290833
 20
5.1344825662
 30
0.0
  0
SPLINE
  5
303
100
AcDbEntity
  8
ALL_ASSEMBLY_MEMBERS
100
AcDbSpline
 62
7
  6
CONTINUOUS
 70
0
 71
3
 72
9
 73
5
 74
0
 42
0.0000001
 43
0.0000001
 44
0.0000000001
 40
0.0
 40
0.0
 40
0.0
 40
0.0
 40
0.5076746957
 40
1.0
 40
1.0
 40
1.0
 40
1.0
 10
5.435857524
 20
6.6662670315
 30
0.0
 10
5.4449856132
 20
6.7098783461
 30
0.0
 10
5.4678645977
 20
6.7948370725
 30
0.0
 10
5.5006385928
 20
6.8765217815
 30
0.0
 10
5.5192623581
 20
6.9155114075
 30
0.0
  0
SPLINE
  5
304
100
AcDbEntity
  8
ALL_ASSEMBLY_MEMBERS
100
AcDbSpline
 62
7
  6
CONTINUOUS
 70
0
 71
3
 72
11
 73
7
 74
0
 42
0.0000001
 43
0.0000001
 44
0.0000000001
 40
0.0
 40
0.0
 40
0.0
 40
0.0
 40
0.2575232603
 40
0.5104733861
 40
0.7581059859
 40
1.0
 40
1.0
 40
1.0
 40
1.0
 10
5.4335029915
 20
6.6547193807
 30
0.0
 10
5.4381080026
 20
6.6778904374
 30
0.0
 10
5.4485584289
 20
6.7235725383
 30
0.0
 10
5.468253228
 20
6.7903173173
 30
0.0
 10
5.4915877695
 20
6.8543538724
 30
0.0
 10
5.5096634365
 20
6.895504111
 30
0.0
 10
5.5192621706
 20
6.9155111258
 30
0.0
  0
SPLINE
  5
305
100
AcDbEntity
  8
ALL_ASSEMBLY_MEMBERS
100
AcDbSpline
 62
7
  6
CONTINUOUS
 70
0
 71
3
 72
11
 73
7
 74
0
 42
0.0000001
 43
0.0000001
 44
0.0000000001
 40
0.0
 40
0.0
 40
0.0
 40
0.0
 40
0.2599286469
 40
0.5128833156
 40
0.7593774792
 40
1.0
 40
1.0
 40
1.0
 40
1.0
 10
5.5192621706
 20
6.9155111258
 30
0.0
 10
5.5295873148
 20
6.9370322256
 30
0.0
 10
5.5514930947
 20
6.9787834305
 30
0.0
 10
5.5884116117
 20
7.0380182948
 30
0.0
 10
5.6286168995
 20
7.0928892005
 30
0.0
 10
5.6577308657
 20
7.1269166235
 30
0.0
 10
5.6727234192
 20
7.1431491359
 30
0.0
  0
SPLINE
  5
306
100
AcDbEntity
  8
ALL_ASSEMBLY_MEMBERS
100
AcDbSpline
 62
7
  6
CONTINUOUS
 70
0
 71
3
 72
14
 73
10
 74
0
 42
0.0000001
 43
0.0000001
 44
0.0000000001
 40
0.0
 40
0.0
 40
0.0
 40
0.0
 40
0.1279784257
 40
0.2555124177
 40
0.3823969754
 40
0.5084296137
 40
0.7571301056
 40
0.8794020808
 40
1.0
 40
1.0
 40
1.0
 40
1.0
 10
5.1659875784
 20
4.7861586165
 30
0.0
 10
5.1651994431
 20
4.8024811062
 30
0.0
 10
5.1636696973
 20
4.8350715497
 30
0.0
 10
5.1615498437
 20
4.8838537055
 30
0.0
 10
5.1596294974
 20
4.9323955417
 30
0.0
 10
5.1573751103
 20
4.9964072505
 30
0.0
 10
5.155627831
 20
5.0598475636
 30
0.0
 10
5.1545940537
 20
5.1226080129
 30
0.0
 10
5.1543667752
 20
5.1536198048
 30
0.0
 10
5.1543435959
 20
5.1690188801
 30
0.0
  0
LINE
  5
307
100
AcDbEntity
  8
ALL_ASSEMBLY_MEMBERS
100
AcDbLine
 62
7
  6
CONTINUOUS
 10
5.1543435959
 20
5.1690188801
 11
5.1543392256
 21
5.174857736
  0
LINE
  5
308
100
AcDbEntity
  8
ALL_ASSEMBLY_MEMBERS
100
AcDbLine
 62
7
  6
CONTINUOUS
 10
5.1714833957
 20
4.6777539072
 11
5.1734442765
 21
4.6412618706
  0
SPLINE
  5
309
100
AcDbEntity
  8
ALL_ASSEMBLY_MEMBERS
100
AcDbSpline
 62
7
  6
CONTINUOUS
 70
0
 71
3
 72
9
 73
5
 74
0
 42
0.0000001
 43
0.0000001
 44
0.0000000001
 40
0.0
 40
0.0
 40
0.0
 40
0.0
 40
0.2496112777
 40
1.0
 40
1.0
 40
1.0
 40
1.0
 10
5.3258377569
 20
6.6122802565
 30
0.0
 10
5.3252648928
 20
6.6088315743
 30
0.0
 10
5.3230210611
 20
6.5950068533
 30
0.0
 10
5.3209615386
 20
6.5811526563
 30
0.0
 10
5.3194853937
 20
6.5707472492
 30
0.0
  0
LINE
  5
30A
100
AcDbEntity
  8
ALL_ASSEMBLY_MEMBERS
100
AcDbLine
 62
7
  6
CONTINUOUS
 10
5.3194853937
 20
6.5707472492
 11
5.3190464555
 21
6.5676385745
  0
LINE
  5
30B
100
AcDbEntity
  8
ALL_ASSEMBLY_MEMBERS
100
AcDbLine
 62
7
  6
CONTINUOUS
 10
5.3127100063
 20
6.520104399
 11
5.3115991104
 21
6.5114470837
  0
LINE
  5
30C
100
AcDbEntity
  8
ALL_ASSEMBLY_MEMBERS
100
AcDbLine
 62
7
  6
CONTINUOUS
 10
5.3115991104
 20
6.5114470837
 11
5.3079471
 21
6.4830357903
  0
SPLINE
  5
30D
100
AcDbEntity
  8
ALL_ASSEMBLY_MEMBERS
100
AcDbSpline
 62
7
  6
CONTINUOUS
 70
0
 71
3
 72
9
 73
5
 74
0
 42
0.0000001
 43
0.0000001
 44
0.0000000001
 40
0.0
 40
0.0
 40
0.0
 40
0.0
 40
0.5091217554
 40
1.0
 40
1.0
 40
1.0
 40
1.0
 10
5.455607103
 20
6.9841380439
 30
0.0
 10
5.4724974339
 20
7.013143301
 30
0.0
 10
5.5087286133
 20
7.0683976477
 30
0.0
 10
5.5507825081
 20
7.1193606414
 30
0.0
 10
5.5727234192
 20
7.1431491359
 30
0.0
  0
LINE
  5
30E
100
AcDbEntity
  8
ALL_ASSEMBLY_MEMBERS
100
AcDbLine
 62
7
  6
CONTINUOUS
 10
5.3075854616
 20
6.4802563667
 11
5.3069811181
 21
6.4756352607
  0
LINE
  5
30F
100
AcDbEntity
  8
ALL_ASSEMBLY_MEMBERS
100
AcDbLine
 62
7
  6
CONTINUOUS
 10
5.306981125
 20
6.4756353136
 11
5.3075857687
 21
6.4802565328
  0
LINE
  5
310
100
AcDbEntity
  8
ALL_ASSEMBLY_MEMBERS
100
AcDbLine
 62
7
  6
CONTINUOUS
 10
5.3079475252
 20
6.4830353564
 11
5.3087375018
 21
6.4891338058
  0
LINE
  5
311
100
AcDbEntity
  8
ALL_ASSEMBLY_MEMBERS
100
AcDbLine
 62
7
  6
CONTINUOUS
 10
5.3087375018
 20
6.4891338058
 11
5.3116044625
 21
6.5114407922
  0
LINE
  5
312
100
AcDbEntity
  8
ALL_ASSEMBLY_MEMBERS
100
AcDbLine
 62
7
  6
CONTINUOUS
 10
5.3116044625
 20
6.5114407922
 11
5.3127196556
 21
6.5201003668
  0
LINE
  5
313
100
AcDbEntity
  8
ALL_ASSEMBLY_MEMBERS
100
AcDbLine
 62
7
  6
CONTINUOUS
 10
5.3127196556
 20
6.5201003668
 11
5.3134599647
 21
6.5258168524
  0
LINE
  5
314
100
AcDbEntity
  8
ALL_ASSEMBLY_MEMBERS
100
AcDbLine
 62
7
  6
CONTINUOUS
 10
5.3190810516
 20
6.5676341514
 11
5.3195202831
 21
6.5707439504
  0
SPLINE
  5
315
100
AcDbEntity
  8
ALL_ASSEMBLY_MEMBERS
100
AcDbSpline
 62
7
  6
CONTINUOUS
 70
0
 71
3
 72
9
 73
5
 74
0
 42
0.0000001
 43
0.0000001
 44
0.0000000001
 40
0.0
 40
0.0
 40
0.0
 40
0.0
 40
0.2504607226
 40
1.0
 40
1.0
 40
1.0
 40
1.0
 10
5.3195202831
 20
6.5707439504
 30
0.0
 10
5.320012927
 20
6.57421683
 30
0.0
 10
5.322008301
 20
6.5880786999
 30
0.0
 10
5.3241363783
 20
6.6019218496
 30
0.0
 10
5.3258388035
 20
6.612280013
 30
0.0
  0
LINE
  5
316
100
AcDbEntity
  8
ALL_ASSEMBLY_MEMBERS
100
AcDbLine
 62
7
  6
CONTINUOUS
 10
5.3060015446
 20
6.4681939797
 11
5.3069811234
 21
6.4756353014
  0
LINE
  5
317
100
AcDbEntity
  8
ALL_ASSEMBLY_MEMBERS
100
AcDbLine
 62
7
  6
CONTINUOUS
 10
5.2919778886
 20
6.3655387946
 11
5.2908432815
 21
6.3574728651
  0
LINE
  5
318
100
AcDbEntity
  8
ALL_ASSEMBLY_MEMBERS
100
AcDbLine
 62
7
  6
CONTINUOUS
 10
5.2845622628
 20
6.313238999
 11
5.279248322
 21
6.2762115447
  0
SPLINE
  5
319
100
AcDbEntity
  8
ALL_ASSEMBLY_MEMBERS
100
AcDbSpline
 62
7
  6
CONTINUOUS
 70
0
 71
3
 72
13
 73
9
 74
0
 42
0.0000001
 43
0.0000001
 44
0.0000000001
 40
0.0
 40
0.0
 40
0.0
 40
0.0
 40
0.2512086519
 40
0.5019612708
 40
0.6270252693
 40
0.7517687905
 40
0.8761146826
 40
1.0
 40
1.0
 40
1.0
 40
1.0
 10
5.406981125
 20
6.4756353136
 30
0.0
 10
5.4089154995
 20
6.4906740327
 30
0.0
 10
5.4126998765
 20
6.5207343304
 30
0.0
 10
5.4176422488
 20
6.5582576241
 30
0.0
 10
5.4219695851
 20
6.5881597775
 30
0.0
 10
5.4254598956
 20
6.6104724538
 30
0.0
 10
5.4292586464
 20
6.6326628194
 30
0.0
 10
5.4320454113
 20
6.6473852674
 30
0.0
 10
5.4335029915
 20
6.6547193807
 30
0.0
  0
LINE
  5
31A
100
AcDbEntity
  8
ALL_ASSEMBLY_MEMBERS
100
AcDbLine
 62
7
  6
CONTINUOUS
 10
5.4061114736
 20
6.4688884798
 11
5.4069810789
 21
6.4756349551
  0
SPLINE
  5
31B
100
AcDbEntity
  8
ALL_ASSEMBLY_MEMBERS
100
AcDbSpline
 62
7
  6
CONTINUOUS
 70
0
 71
3
 72
10
 73
6
 74
0
 42
0.0000001
 43
0.0000001
 44
0.0000000001
 40
0.0
 40
0.0
 40
0.0
 40
0.0
 40
0.5019255534
 40
0.7517486719
 40
1.0
 40
1.0
 40
1.0
 40
1.0
 10
4.5784227741
 20
6.4756353136
 30
0.0
 10
4.5745569591
 20
6.5056821412
 30
0.0
 10
4.5690270777
 20
6.5507205534
 30
0.0
 10
4.5600873601
 20
6.6104160644
 30
0.0
 10
4.5548188022
 20
6.6400194496
 30
0.0
 10
4.5519143653
 20
6.6547188481
 30
0.0
  0
LINE
  5
31C
100
AcDbEntity
  8
ALL_ASSEMBLY_MEMBERS
100
AcDbLine
 62
7
  6
CONTINUOUS
 10
4.5792924255
 20
6.4688884798
 11
4.5784228203
 21
6.4756349552
  0
LINE
  5
31D
100
AcDbEntity
  8
ALL_ASSEMBLY_MEMBERS
100
AcDbLine
 62
7
  6
CONTINUOUS
 10
4.6778184376
 20
6.4802563665
 11
4.6784227811
 21
6.4756352607
  0
LINE
  5
31E
100
AcDbEntity
  8
ALL_ASSEMBLY_MEMBERS
100
AcDbLine
 62
7
  6
CONTINUOUS
 10
4.6784227741
 20
6.4756353136
 11
4.6778181364
 21
6.4802565389
  0
LINE
  5
31F
100
AcDbEntity
  8
ALL_ASSEMBLY_MEMBERS
100
AcDbLine
 62
7
  6
CONTINUOUS
 10
4.6774461526
 20
6.4831140667
 11
4.6766441681
 21
6.4893059496
  0
LINE
  5
320
100
AcDbEntity
  8
ALL_ASSEMBLY_MEMBERS
100
AcDbLine
 62
7
  6
CONTINUOUS
 10
4.6766441681
 20
6.4893059496
 11
4.6737739825
 21
6.5116387534
  0
LINE
  5
321
100
AcDbEntity
  8
ALL_ASSEMBLY_MEMBERS
100
AcDbLine
 62
7
  6
CONTINUOUS
 10
4.6737739825
 20
6.5116387534
 11
4.6726445218
 21
6.5204078477
  0
LINE
  5
322
100
AcDbEntity
  8
ALL_ASSEMBLY_MEMBERS
100
AcDbLine
 62
7
  6
CONTINUOUS
 10
4.6726445218
 20
6.5204078477
 11
4.6719328638
 21
6.5259021412
  0
LINE
  5
323
100
AcDbEntity
  8
ALL_ASSEMBLY_MEMBERS
100
AcDbLine
 62
7
  6
CONTINUOUS
 10
4.6662942441
 20
6.5678370567
 11
4.6658713532
 21
6.5708300721
  0
SPLINE
  5
324
100
AcDbEntity
  8
ALL_ASSEMBLY_MEMBERS
100
AcDbSpline
 62
7
  6
CONTINUOUS
 70
0
 71
3
 72
10
 73
6
 74
0
 42
0.0000001
 43
0.0000001
 44
0.0000000001
 40
0.0
 40
0.0
 40
0.0
 40
0.0
 40
0.5004599969
 40
0.7504262319
 40
1.0
 40
1.0
 40
1.0
 40
1.0
 10
4.6794022171
 20
6.4681946115
 30
0.0
 10
4.6844339117
 20
6.4300828954
 30
0.0
 10
4.6923129338
 20
6.3729794916
 30
0.0
 10
4.7031612098
 20
6.2969352605
 30
0.0
 10
4.7086416882
 20
6.2589568615
 30
0.0
 10
4.7113746611
 20
6.2399818565
 30
0.0
  0
LINE
  5
325
100
AcDbEntity
  8
ALL_ASSEMBLY_MEMBERS
100
AcDbLine
 62
7
  6
CONTINUOUS
 10
4.6794023546
 20
6.4681939796
 11
4.6784227758
 21
6.4756353013
  0
SPLINE
  5
326
100
AcDbEntity
  8
ALL_ASSEMBLY_MEMBERS
100
AcDbSpline
 62
7
  6
CONTINUOUS
 70
0
 71
3
 72
12
 73
8
 74
0
 42
0.0000001
 43
0.0000001
 44
0.0000000001
 40
0.0
 40
0.0
 40
0.0
 40
0.0
 40
0.2480156757
 40
0.3726818068
 40
0.4975398964
 40
0.7478362856
 40
1.0
 40
1.0
 40
1.0
 40
1.0
 10
4.6177019496
 20
4.1021042464
 30
0.0
 10
4.6177012202
 20
4.1061478451
 30
0.0
 10
4.6183707073
 20
4.1122502142
 30
0.0
 10
4.6205506685
 20
4.1200756136
 30
0.0
 10
4.6235938202
 20
4.1276515243
 30
0.0
 10
4.6289494523
 20
4.1364647375
 30
0.0
 10
4.6346803136
 20
4.1424227268
 30
0.0
 10
4.6378294781
 20
4.1450656334
 30
0.0
  0
SPLINE
  5
327
100
AcDbEntity
  8
ALL_ASSEMBLY_MEMBERS
100
AcDbSpline
 62
7
  6
CONTINUOUS
 70
0
 71
3
 72
15
 73
11
 74
0
 42
0.0000001
 43
0.0000001
 44
0.0000000001
 40
0.0
 40
0.0
 40
0.0
 40
0.0
 40
0.1270660316
 40
0.2539212979
 40
0.3801131238
 40
0.505550678
 40
0.6301436678
 40
0.7539308094
 40
0.8771815012
 40
1.0
 40
1.0
 40
1.0
 40
1.0
 10
4.6769866963
 20
3.6275195337
 30
0.0
 10
4.6731193773
 20
3.6275194642
 30
0.0
 10
4.6653714428
 20
3.6282560747
 30
0.0
 10
4.6542024511
 20
3.6315182661
 30
0.0
 10
4.6438962817
 20
3.6368227499
 30
0.0
 10
4.6348522711
 20
3.6439628643
 30
0.0
 10
4.6274199208
 20
3.6526744833
 30
0.0
 10
4.6218844053
 20
3.662626109
 30
0.0
 10
4.618473432
 20
3.6734310419
 30
0.0
 10
4.6177019498
 20
3.6809422512
 30
0.0
 10
4.6177019496
 20
3.6846802944
 30
0.0
  0
SPLINE
  5
328
100
AcDbEntity
  8
ALL_ASSEMBLY_MEMBERS
100
AcDbSpline
 62
7
  6
CONTINUOUS
 70
0
 71
3
 72
19
 73
15
 74
0
 42
0.0000001
 43
0.0000001
 44
0.0000000001
 40
0.0
 40
0.0
 40
0.0
 40
0.0
 40
0.1269882614
 40
0.1905259228
 40
0.2539109083
 40
0.3800266291
 40
0.5053882354
 40
0.5678276386
 40
0.6300566876
 40
0.6920796488
 40
0.7539231634
 40
0.8156324021
 40
0.8772568409
 40
1.0
 40
1.0
 40
1.0
 40
1.0
 10
4.7768601071
 20
3.5309269511
 30
0.0
 10
4.7730012669
 20
3.5309269716
 30
0.0
 10
4.7671925196
 20
3.5314795172
 30
0.0
 10
4.7596834219
 20
3.5332888719
 30
0.0
 10
4.7524036742
 20
3.5357973538
 30
0.0
 10
4.7438387601
 20
3.5401990735
 30
0.0
 10
4.7362997169
 20
3.5461488912
 30
0.0
 10
4.7310856381
 20
3.5516893901
 30
0.0
 10
4.7276167396
 20
3.5561904236
 30
0.0
 10
4.7246214365
 20
3.5609980539
 30
0.0
 10
4.7221306062
 20
3.5660676341
 30
0.0
 10
4.7201648061
 20
3.571351297
 30
0.0
 10
4.7182806261
 20
3.5785965639
 30
0.0
 10
4.7177019501
 20
3.5842203649
 30
0.0
 10
4.7177019496
 20
3.5879502076
 30
0.0
  0
SPLINE
  5
329
100
AcDbEntity
  8
ALL_ASSEMBLY_MEMBERS
100
AcDbSpline
 62
7
  6
CONTINUOUS
 70
0
 71
3
 72
19
 73
15
 74
0
 42
0.0000001
 43
0.0000001
 44
0.0000000001
 40
0.0
 40
0.0
 40
0.0
 40
0.0
 40
0.1227427528
 40
0.1843673609
 40
0.2460773958
 40
0.3079218676
 40
0.3699454689
 40
0.4321748511
 40
0.4946143688
 40
0.6199755275
 40
0.7460896623
 40
0.8094738305
 40
0.873011298
 40
1.0
 40
1.0
 40
1.0
 40
1.0
 10
5.2677019496
 20
3.5879502076
 30
0.0
 10
5.2677019494
 20
3.5842203738
 30
0.0
 10
5.2671233093
 20
3.5785965714
 30
0.0
 10
5.2652391144
 20
3.5713512822
 30
0.0
 10
5.263273288
 20
3.5660675617
 30
0.0
 10
5.2607824352
 20
3.5609979064
 30
0.0
 10
5.257787109
 20
3.5561902133
 30
0.0
 10
5.2543181564
 20
3.5516891731
 30
0.0
 10
5.2491040663
 20
3.5461486748
 30
0.0
 10
5.2415650215
 20
3.5401989431
 30
0.0
 10
5.2330001997
 20
3.5357972219
 30
0.0
 10
5.2257205109
 20
3.5332887825
 30
0.0
 10
5.2182114093
 20
3.5314794874
 30
0.0
 10
5.2124026493
 20
3.5309269634
 30
0.0
 10
5.2085437921
 20
3.5309269511
 30
0.0
  0
SPLINE
  5
32A
100
AcDbEntity
  8
ALL_ASSEMBLY_MEMBERS
100
AcDbSpline
 62
7
  6
CONTINUOUS
 70
0
 71
3
 72
19
 73
15
 74
0
 42
0.0000001
 43
0.0000001
 44
0.0000000001
 40
0.0
 40
0.0
 40
0.0
 40
0.0
 40
0.1227431213
 40
0.1843682129
 40
0.2460785657
 40
0.3079234328
 40
0.3699472828
 40
0.4321766337
 40
0.494615964
 40
0.6199764747
 40
0.7460897633
 40
0.8094735128
 40
0.8730110572
 40
1.0
 40
1.0
 40
1.0
 40
1.0
 10
5.3677019496
 20
3.6846802944
 30
0.0
 10
5.3677019496
 20
3.6809422593
 30
0.0
 10
5.3671212988
 20
3.6753060822
 30
0.0
 10
5.3652317507
 20
3.6680451745
 30
0.0
 10
5.3632608196
 20
3.6627501108
 30
0.0
 10
5.3607639812
 20
3.6576695589
 30
0.0
 10
5.3577619915
 20
3.6528513608
 30
0.0
 10
5.3542857617
 20
3.648340196
 30
0.0
 10
5.34906117
 20
3.6427867057
 30
0.0
 10
5.3415075109
 20
3.6368217138
 30
0.0
 10
5.3329257715
 20
3.6324068255
 30
0.0
 10
5.3256310956
 20
3.6298900481
 30
0.0
 10
5.318106106
 20
3.6280742893
 30
0.0
 10
5.3122845407
 20
3.6275194869
 30
0.0
 10
5.3084172029
 20
3.6275195337
 30
0.0
  0
SPLINE
  5
32B
100
AcDbEntity
  8
ALL_ASSEMBLY_MEMBERS
100
AcDbSpline
 62
7
  6
CONTINUOUS
 70
0
 71
3
 72
15
 73
11
 74
0
 42
0.0000001
 43
0.0000001
 44
0.0000000001
 40
0.0
 40
0.0
 40
0.0
 40
0.0
 40
0.0836462912
 40
0.1798018302
 40
0.2881017699
 40
0.4082062636
 40
0.5398269726
 40
0.6826586023
 40
0.8362367228
 40
1.0
 40
1.0
 40
1.0
 40
1.0
 10
5.2646721655
 20
3.6001682333
 30
0.0
 10
5.2632162853
 20
3.6064460991
 30
0.0
 10
5.2603514144
 20
3.6200021837
 30
0.0
 10
5.2563315498
 20
3.6418333226
 30
0.0
 10
5.2522960027
 20
3.6665124377
 30
0.0
 10
5.2482514865
 20
3.6939547529
 30
0.0
 10
5.2442019357
 20
3.7240828481
 30
0.0
 10
5.2401519861
 20
3.7568110198
 30
0.0
 10
5.2361035342
 20
3.7920331811
 30
0.0
 10
5.2334883223
 20
3.8163424676
 30
0.0
 10
5.2321764271
 20
3.8288911039
 30
0.0
  0
SPLINE
  5
32C
100
AcDbEntity
  8
ALL_ASSEMBLY_MEMBERS
100
AcDbSpline
 62
7
  6
CONTINUOUS
 70
0
 71
3
 72
15
 73
11
 74
0
 42
0.0000001
 43
0.0000001
 44
0.0000000001
 40
0.0
 40
0.0
 40
0.0
 40
0.0
 40
0.1267794348
 40
0.2534509712
 40
0.3795484325
 40
0.5050180124
 40
0.6297617816
 40
0.7537542216
 40
0.8770740649
 40
1.0
 40
1.0
 40
1.0
 40
1.0
 10
5.3078728026
 20
3.6275195337
 30
0.0
 10
5.3055435671
 20
3.6275195337
 30
0.0
 10
5.3008777875
 20
3.6271249563
 30
0.0
 10
5.2940947095
 20
3.6253765901
 30
0.0
 10
5.287723939
 20
3.6225167243
 30
0.0
 10
5.2819620887
 20
3.6186344426
 30
0.0
 10
5.2769813988
 20
3.6138451348
 30
0.0
 10
5.2729347775
 20
3.6082914863
 30
0.0
 10
5.2699481338
 20
3.6021416037
 30
0.0
 10
5.2687246736
 20
3.5977557734
 30
0.0
 10
5.2683172167
 20
3.5955343956
 30
0.0
  0
SPLINE
  5
32D
100
AcDbEntity
  8
ALL_ASSEMBLY_MEMBERS
100
AcDbSpline
 62
7
  6
CONTINUOUS
 70
0
 71
3
 72
16
 73
12
 74
0
 42
0.0000001
 43
0.0000001
 44
0.0000000001
 40
0.0
 40
0.0
 40
0.0
 40
0.0
 40
0.1659651353
 40
0.3215049909
 40
0.4658812618
 40
0.5984261544
 40
0.7186115935
 40
0.8259347512
 40
0.9198925025
 40
0.9617066077
 40
1.0
 40
1.0
 40
1.0
 40
1.0
 10
5.2321280393
 20
3.8293505447
 30
0.0
 10
5.2334456728
 20
3.8165974809
 30
0.0
 10
5.2360690524
 20
3.7918996741
 30
0.0
 10
5.2401255225
 20
3.7561389207
 30
0.0
 10
5.244180358
 20
3.7229773826
 30
0.0
 10
5.2482330347
 20
3.6925687121
 30
0.0
 10
5.2522786294
 20
3.6650489111
 30
0.0
 10
5.2563147019
 20
3.6405441654
 30
0.0
 10
5.2597843435
 20
3.622085441
 30
0.0
 10
5.2625904821
 20
3.6089342109
 30
0.0
 10
5.263997407
 20
3.6029073089
 30
0.0
 10
5.2647049767
 20
3.6000349788
 30
0.0
  0
SPLINE
  5
32E
100
AcDbEntity
  8
ALL_ASSEMBLY_MEMBERS
100
AcDbSpline
 62
7
  6
CONTINUOUS
 70
0
 71
3
 72
15
 73
11
 74
0
 42
0.0000001
 43
0.0000001
 44
0.0000000001
 40
0.0
 40
0.0
 40
0.0
 40
0.0
 40
0.0837129837
 40
0.1799126831
 40
0.2882347961
 40
0.4083417451
 40
0.539948641
 40
0.6827531097
 40
0.8362907868
 40
1.0
 40
1.0
 40
1.0
 40
1.0
 10
4.7207638907
 20
3.600302038
 30
0.0
 10
4.7222183541
 20
3.6065833917
 30
0.0
 10
4.7250806468
 20
3.6201442035
 30
0.0
 10
4.7290974788
 20
3.6419791004
 30
0.0
 10
4.7331299696
 20
3.6666559818
 30
0.0
 10
4.7371714536
 20
3.6940906262
 30
0.0
 10
4.7412179164
 20
3.7242063435
 30
0.0
 10
4.745264629
 20
3.7569179818
 30
0.0
 10
4.7493098024
 20
3.7921196866
 30
0.0
 10
4.7519230292
 20
3.81641401
 30
0.0
 10
4.7532339488
 20
3.8289545094
 30
0.0
  0
SPLINE
  5
32F
100
AcDbEntity
  8
ALL_ASSEMBLY_MEMBERS
100
AcDbSpline
 62
7
  6
CONTINUOUS
 70
0
 71
3
 72
16
 73
12
 74
0
 42
0.0000001
 43
0.0000001
 44
0.0000000001
 40
0.0
 40
0.0
 40
0.0
 40
0.0
 40
0.1658251901
 40
0.3212504844
 40
0.4655512578
 40
0.5980682197
 40
0.7182718948
 40
0.8256572832
 40
0.9197253512
 40
0.9616154075
 40
1.0
 40
1.0
 40
1.0
 40
1.0
 10
4.7532339806
 20
3.8289562452
 30
0.0
 10
4.7519215732
 20
3.8162508409
 30
0.0
 10
4.7493074753
 20
3.791644159
 30
0.0
 10
4.7452635788
 20
3.7560125557
 30
0.0
 10
4.7412210641
 20
3.7229639969
 30
0.0
 10
4.7371816971
 20
3.692649894
 30
0.0
 10
4.7331495826
 20
3.665205528
 30
0.0
 10
4.7291263899
 20
3.6407567335
 30
0.0
 10
4.7256678087
 20
3.622331885
 30
0.0
 10
4.7228710829
 20
3.6091966611
 30
0.0
 10
4.7214690172
 20
3.603173838
 30
0.0
 10
4.7207639859
 20
3.60030248
 30
0.0
  0
SPLINE
  5
330
100
AcDbEntity
  8
ALL_ASSEMBLY_MEMBERS
100
AcDbSpline
 62
7
  6
CONTINUOUS
 70
0
 71
3
 72
15
 73
11
 74
0
 42
0.0000001
 43
0.0000001
 44
0.0000000001
 40
0.0
 40
0.0
 40
0.0
 40
0.0
 40
0.1229335624
 40
0.2463622923
 40
0.3704723307
 40
0.4952857569
 40
0.6207546008
 40
0.7468003666
 40
0.8733722566
 40
1.0
 40
1.0
 40
1.0
 40
1.0
 10
4.7163234152
 20
3.5988441874
 30
0.0
 10
4.7157538777
 20
3.6008860753
 30
0.0
 10
4.7142611742
 20
3.6048889009
 30
0.0
 10
4.7110470769
 20
3.610442263
 30
0.0
 10
4.7069409666
 20
3.6154167461
 30
0.0
 10
4.7020518853
 20
3.6196763156
 30
0.0
 10
4.6965145259
 20
3.6231129394
 30
0.0
 10
4.6904720044
 20
3.6256349685
 30
0.0
 10
4.6840890114
 20
3.6271724808
 30
0.0
 10
4.6797152983
 20
3.6275195337
 30
0.0
 10
4.6775317669
 20
3.6275195337
 30
0.0
  0
SPLINE
  5
331
100
AcDbEntity
  8
ALL_ASSEMBLY_MEMBERS
100
AcDbSpline
 62
7
  6
CONTINUOUS
 70
0
 71
3
 72
27
 73
23
 74
0
 42
0.0000001
 43
0.0000001
 44
0.0000000001
 40
0.0
 40
0.0
 40
0.0
 40
0.0
 40
0.0147567983
 40
0.0294505872
 40
0.0587527843
 40
0.0879811816
 40
0.1171854257
 40
0.1757243586
 40
0.2347544674
 40
0.2645638768
 40
0.2946216198
 40
0.324941959
 40
0.3555097784
 40
0.4173171754
 40
0.4799118871
 40
0.5431718525
 40
0.606989615
 40
0.6712695646
 40
0.735986927
 40
0.8011806444
 40
0.8668968061
 40
1.0
 40
1.0
 40
1.0
 40
1.0
 10
5.2577172102
 20
5.1776009056
 30
0.0
 10
5.2580504361
 20
5.1837488062
 30
0.0
 10
5.2587713523
 20
5.1960154147
 30
0.0
 10
5.2604364574
 20
5.2204722867
 30
0.0
 10
5.2628939677
 20
5.2509257213
 30
0.0
 10
5.266329644
 20
5.2873703179
 30
0.0
 10
5.2714814245
 20
5.3359022079
 30
0.0
 10
5.2787908104
 20
5.3967043767
 30
0.0
 10
5.2866738343
 20
5.457687076
 30
0.0
 10
5.2930320946
 20
5.5068849938
 30
0.0
 10
5.2977677467
 20
5.5442144691
 30
0.0
 10
5.3024050324
 20
5.5818751406
 30
0.0
 10
5.3085150887
 20
5.6327010655
 30
0.0
 10
5.3159965175
 20
5.6969245071
 30
0.0
 10
5.3248242282
 20
5.7747228644
 30
0.0
 10
5.3336552244
 20
5.853364916
 30
0.0
 10
5.3426055531
 20
5.9327011288
 30
0.0
 10
5.3517866994
 20
6.0126231024
 30
0.0
 10
5.3612018692
 20
6.0930958435
 30
0.0
 10
5.3707923151
 20
6.1741512926
 30
0.0
 10
5.3838276438
 20
6.283530499
 30
0.0
 10
5.3937379851
 20
6.365889069
 30
0.0
 10
5.4003885677
 20
6.4210235608
 30
0.0
  0
SPLINE
  5
332
100
AcDbEntity
  8
ALL_ASSEMBLY_MEMBERS
100
AcDbSpline
 62
7
  6
CONTINUOUS
 70
0
 71
3
 72
29
 73
25
 74
0
 42
0.0000001
 43
0.0000001
 44
0.0000000001
 40
0.0
 40
0.0
 40
0.0
 40
0.0
 40
0.0293066739
 40
0.0586918627
 40
0.0882505914
 40
0.1180149902
 40
0.147971194
 40
0.1781062025
 40
0.2388799746
 40
0.3002604491
 40
0.3621752278
 40
0.3933138408
 40
0.4245643006
 40
0.4559203521
 40
0.4873757999
 40
0.5505620778
 40
0.6140775573
 40
0.677877247
 40
0.7098726884
 40
0.741927289
 40
0.8062029996
 40
0.8706735002
 40
0.9352921365
 40
1.0
 40
1.0
 40
1.0
 40
1.0
 10
5.2553772469
 20
5.2121890356
 30
0.0
 10
5.2557212125
 20
5.2240528027
 30
0.0
 10
5.2566391289
 20
5.2478060691
 30
0.0
 10
5.2586777602
 20
5.2834897643
 30
0.0
 10
5.2613217963
 20
5.319319287
 30
0.0
 10
5.2644973369
 20
5.3553373897
 30
0.0
 10
5.2681454836
 20
5.3915450063
 30
0.0
 10
5.2735549165
 20
5.4401943144
 30
0.0
 10
5.2810982328
 20
5.501407815
 30
0.0
 10
5.2907924115
 20
5.5753197939
 30
0.0
 10
5.2987995824
 20
5.6373486416
 30
0.0
 10
5.3050578378
 20
5.6872993271
 30
0.0
 10
5.3096918847
 20
5.7249808064
 30
0.0
 10
5.3142867442
 20
5.7627963287
 30
0.0
 10
5.3204018744
 20
5.8134557486
 30
0.0
 10
5.3280415613
 20
5.8770497399
 30
0.0
 10
5.3373183059
 20
5.9536401765
 30
0.0
 10
5.3452964507
 20
6.0176635975
 30
0.0
 10
5.351907564
 20
6.0690170495
 30
0.0
 10
5.3587056902
 20
6.1205405385
 30
0.0
 10
5.3674737085
 20
6.18506963
 30
0.0
 10
5.3782243831
 20
6.26263796
 30
0.0
 10
5.3889858581
 20
6.3403814857
 30
0.0
 10
5.3960198766
 20
6.3922824224
 30
0.0
 10
5.3994730718
 20
6.4182595975
 30
0.0
  0
LINE
  5
333
100
AcDbEntity
  8
ALL_ASSEMBLY_MEMBERS
100
AcDbLine
 62
7
  6
CONTINUOUS
 10
5.3998478114
 20
6.4210806296
 11
5.4032391113
 21
6.4468027335
  0
SPLINE
  5
334
100
AcDbEntity
  8
ALL_ASSEMBLY_MEMBERS
100
AcDbSpline
 62
7
  6
CONTINUOUS
 70
0
 71
3
 72
28
 73
24
 74
0
 42
0.0000001
 43
0.0000001
 44
0.0000000001
 40
0.0
 40
0.0
 40
0.0
 40
0.0
 40
0.0087810468
 40
0.0183918259
 40
0.0289699269
 40
0.0406473934
 40
0.0535576299
 40
0.0678183781
 40
0.0835385203
 40
0.1008188019
 40
0.119749952
 40
0.1404143965
 40
0.1628863827
 40
0.1872433591
 40
0.2418882551
 40
0.3042519654
 40
0.3736418454
 40
0.4492818036
 40
0.5304894212
 40
0.616641516
 40
0.7071618987
 40
0.8015411844
 40
1.0
 40
1.0
 40
1.0
 40
1.0
 10
5.3677019496
 20
4.1021135196
 30
0.0
 10
5.3666105799
 20
4.1031441266
 30
0.0
 10
5.3644082256
 20
4.1053933992
 30
0.0
 10
5.3612438047
 20
4.1092092402
 30
0.0
 10
5.3580801104
 20
4.1136491783
 30
0.0
 10
5.3549228165
 20
4.1187694063
 30
0.0
 10
5.35177741
 20
4.1246221146
 30
0.0
 10
5.3486459199
 20
4.1312549735
 30
0.0
 10
5.3455318775
 20
4.1387124193
 30
0.0
 10
5.3424390092
 20
4.1470358618
 30
0.0
 10
5.3393712041
 20
4.1562636542
 30
0.0
 10
5.3363321364
 20
4.1664307602
 30
0.0
 10
5.3333238999
 20
4.1775706233
 30
0.0
 10
5.3291975725
 20
4.1944206173
 30
0.0
 10
5.3242164496
 20
4.218073789
 30
0.0
 10
5.3185987083
 20
4.249441697
 30
0.0
 10
5.313121625
 20
4.2844712939
 30
0.0
 10
5.3077809533
 20
4.3227763307
 30
0.0
 10
5.3025829508
 20
4.3639904553
 30
0.0
 10
5.297530055
 20
4.4077839847
 30
0.0
 10
5.2926237716
 20
4.4538590592
 30
0.0
 10
5.2861730919
 20
4.5190745866
 30
0.0
 10
5.2817338076
 20
4.5689381952
 30
0.0
 10
5.2788941429
 20
4.6027447542
 30
0.0
  0
LINE
  5
335
100
AcDbEntity
  8
ALL_ASSEMBLY_MEMBERS
100
AcDbLine
 62
7
  6
CONTINUOUS
 10
5.2788941429
 20
4.6027447542
 11
5.2778945407
 21
4.6147309217
  0
SPLINE
  5
336
100
AcDbEntity
  8
ALL_ASSEMBLY_MEMBERS
100
AcDbSpline
 62
7
  6
CONTINUOUS
 70
0
 71
3
 72
24
 73
20
 74
0
 42
0.0000001
 43
0.0000001
 44
0.0000000001
 40
0.0
 40
0.0
 40
0.0
 40
0.0
 40
0.0112972459
 40
0.0243872905
 40
0.0392281454
 40
0.0557726936
 40
0.073973006
 40
0.0937824558
 40
0.138036255
 40
0.1881106523
 40
0.2435151098
 40
0.3037770152
 40
0.3684687892
 40
0.437188685
 40
0.50958113
 40
0.5852885486
 40
0.6639322233
 40
0.8284805702
 40
1.0
 40
1.0
 40
1.0
 40
1.0
 10
5.3677019496
 20
3.6846805651
 30
0.0
 10
5.3666433985
 20
3.6879923173
 30
0.0
 10
5.3645594626
 20
3.6952057612
 30
0.0
 10
5.3616367935
 20
3.7069210727
 30
0.0
 10
5.3586926086
 20
3.7202898278
 30
0.0
 10
5.3557328368
 20
3.7352613429
 30
0.0
 10
5.3527621102
 20
3.7517866442
 30
0.0
 10
5.3486368268
 20
3.7767662044
 30
0.0
 10
5.343542358
 20
3.8115243073
 30
0.0
 10
5.3376203175
 20
3.8572249116
 30
0.0
 10
5.3316963499
 20
3.9078887999
 30
0.0
 10
5.3257851346
 20
3.9630804148
 30
0.0
 10
5.3199070059
 20
4.0223949009
 30
0.0
 10
5.314078034
 20
4.0854642945
 30
0.0
 10
5.3083212086
 20
4.1519437641
 30
0.0
 10
5.3026554221
 20
4.2214956975
 30
0.0
 10
5.2951255963
 20
4.3193504201
 30
0.0
 10
5.286102549
 20
4.4466629373
 30
0.0
 10
5.2794915985
 20
4.549879656
 30
0.0
 10
5.2762787329
 20
4.602568202
 30
0.0
  0
SPLINE
  5
337
100
AcDbEntity
  8
ALL_ASSEMBLY_MEMBERS
100
AcDbSpline
 62
7
  6
CONTINUOUS
 70
0
 71
3
 72
22
 73
18
 74
0
 42
0.0000001
 43
0.0000001
 44
0.0000000001
 40
0.0
 40
0.0
 40
0.0
 40
0.0
 40
0.1294220784
 40
0.2580754933
 40
0.3220521997
 40
0.3857604887
 40
0.4491704369
 40
0.5122497861
 40
0.5436555183
 40
0.5749667432
 40
0.6061794557
 40
0.637287078
 40
0.699152818
 40
0.7604958617
 40
0.8212534509
 40
0.8813954238
 40
1.0
 40
1.0
 40
1.0
 40
1.0
 10
4.7113746611
 20
6.2399818565
 30
0.0
 10
4.7174734899
 20
6.197637746
 30
0.0
 10
4.7295893965
 20
6.113193266
 30
0.0
 10
4.7434549556
 20
6.0076421775
 30
0.0
 10
4.7540811619
 20
5.9235773582
 30
0.0
 10
4.761886641
 20
5.8608941116
 30
0.0
 10
4.7696387032
 20
5.7985031916
 30
0.0
 10
4.7761508755
 20
5.7467180595
 30
0.0
 10
4.7814399102
 20
5.7054732272
 30
0.0
 10
4.7854515069
 20
5.6746845567
 30
0.0
 10
4.7895324631
 20
5.6440044057
 30
0.0
 10
4.7950224448
 20
5.6033228985
 30
0.0
 10
4.8018725427
 20
5.5527748514
 30
0.0
 10
4.8097422066
 20
5.4924750703
 30
0.0
 10
4.8168933903
 20
5.4326567656
 30
0.0
 10
4.824956516
 20
5.3539001112
 30
0.0
 10
4.8288892969
 20
5.2948965011
 30
0.0
 10
4.830011586
 20
5.2557072793
 30
0.0
  0
SPLINE
  5
338
100
AcDbEntity
  8
ALL_ASSEMBLY_MEMBERS
100
AcDbSpline
 62
7
  6
CONTINUOUS
 70
0
 71
3
 72
15
 73
11
 74
0
 42
0.0000001
 43
0.0000001
 44
0.0000000001
 40
0.0
 40
0.0
 40
0.0
 40
0.0
 40
0.1421225732
 40
0.2816904121
 40
0.4174500259
 40
0.5482376333
 40
0.6729415863
 40
0.790494683
 40
0.8998777455
 40
1.0
 40
1.0
 40
1.0
 40
1.0
 10
4.8120416196
 20
4.6427706075
 30
0.0
 10
4.8099617037
 20
4.6044607816
 30
0.0
 10
4.8057178867
 20
4.5285362864
 30
0.0
 10
4.7990105932
 20
4.4160443684
 30
0.0
 10
4.7920012825
 20
4.3066367975
 30
0.0
 10
4.7847650686
 20
4.201265599
 30
0.0
 10
4.7773364481
 20
4.1008353409
 30
0.0
 10
4.7697437599
 20
4.0062128483
 30
0.0
 10
4.7620415524
 20
3.9182586237
 30
0.0
 10
4.7566140128
 20
3.8619621811
 30
0.0
 10
4.753863538
 20
3.8350743101
 30
0.0
  0
SPLINE
  5
339
100
AcDbEntity
  8
ALL_ASSEMBLY_MEMBERS
100
AcDbSpline
 62
7
  6
CONTINUOUS
 70
0
 71
3
 72
22
 73
18
 74
0
 42
0.0000001
 43
0.0000001
 44
0.0000000001
 40
0.0
 40
0.0
 40
0.0
 40
0.0
 40
0.0647952387
 40
0.1294213114
 40
0.2580692079
 40
0.3220421622
 40
0.3857463684
 40
0.4491520032
 40
0.5122272469
 40
0.5749407629
 40
0.606152092
 40
0.6372583126
 40
0.6991215726
 40
0.7604634425
 40
0.8212223318
 40
0.881369959
 40
1.0
 40
1.0
 40
1.0
 40
1.0
 10
5.2729467921
 20
6.2324638871
 30
0.0
 10
5.269918648
 20
6.2114263809
 30
0.0
 10
5.2638881957
 20
6.1694036969
 30
0.0
 10
5.2521616335
 20
6.0855668339
 30
0.0
 10
5.2412123396
 20
6.0018958363
 30
0.0
 10
5.2306846066
 20
5.9184771068
 30
0.0
 10
5.222944261
 20
5.8562772975
 30
0.0
 10
5.2152487848
 20
5.7943686851
 30
0.0
 10
5.207495045
 20
5.7327948183
 30
0.0
 10
5.2008944691
 20
5.6817197397
 30
0.0
 10
5.1954770764
 20
5.641066004
 30
0.0
 10
5.1900260793
 20
5.6006982285
 30
0.0
 10
5.1832334203
 20
5.5505383134
 30
0.0
 10
5.1754401036
 20
5.4906990128
 30
0.0
 10
5.1683649732
 20
5.4313343953
 30
0.0
 10
5.1603929048
 20
5.3531671582
 30
0.0
 10
5.1565062459
 20
5.2946047073
 30
0.0
 10
5.1553923132
 20
5.2557072793
 30
0.0
  0
LINE
  5
33A
100
AcDbEntity
  8
ALL_ASSEMBLY_MEMBERS
100
AcDbLine
 62
7
  6
CONTINUOUS
 10
5.1734442765
 20
4.6412618706
 11
5.176956515
 21
4.5777076006
  0
SPLINE
  5
33B
100
AcDbEntity
  8
ALL_ASSEMBLY_MEMBERS
100
AcDbSpline
 62
7
  6
CONTINUOUS
 70
0
 71
3
 72
15
 73
11
 74
0
 42
0.0000001
 43
0.0000001
 44
0.0000000001
 40
0.0
 40
0.0
 40
0.0
 40
0.0
 40
0.1424263733
 40
0.2818610891
 40
0.417255573
 40
0.5476116394
 40
0.6719696517
 40
0.7894151814
 40
0.8990773725
 40
1.0
 40
1.0
 40
1.0
 40
1.0
 10
5.176956515
 20
4.5777076006
 30
0.0
 10
5.1789387559
 20
4.5424285253
 30
0.0
 10
5.1829709313
 20
4.4726174688
 30
0.0
 10
5.1893396251
 20
4.3692958803
 30
0.0
 10
5.1959415372
 20
4.2689897336
 30
0.0
 10
5.2027248344
 20
4.1724449034
 30
0.0
 10
5.2096703658
 20
4.0803765467
 30
0.0
 10
5.2167498436
 20
3.9934682626
 30
0.0
 10
5.2239181642
 20
3.9124024813
 30
0.0
 10
5.2289489945
 20
3.8604001286
 30
0.0
 10
5.2314939401
 20
3.835491794
 30
0.0
  0
SPLINE
  5
33C
100
AcDbEntity
  8
ALL_ASSEMBLY_MEMBERS
100
AcDbSpline
 62
7
  6
CONTINUOUS
 70
0
 71
3
 72
32
 73
28
 74
0
 42
0.0000001
 43
0.0000001
 44
0.0000000001
 40
0.0
 40
0.0
 40
0.0
 40
0.0
 40
0.0151291022
 40
0.0300491779
 40
0.0448258859
 40
0.0595379939
 40
0.0742190069
 40
0.0888753648
 40
0.11813897
 40
0.1766589518
 40
0.2355221882
 40
0.2652045744
 40
0.2951147547
 40
0.3252892594
 40
0.3557315636
 40
0.3864232597
 40
0.4173454585
 40
0.4798120485
 40
0.5429986184
 40
0.6067861697
 40
0.6388715048
 40
0.6710688567
 40
0.7358015649
 40
0.8010190791
 40
0.866771933
 40
0.9330939415
 40
1.0
 40
1.0
 40
1.0
 40
1.0
 10
4.7294637432
 20
5.1385377318
 30
0.0
 10
4.7292202148
 20
5.1450371196
 30
0.0
 10
4.7286877869
 20
5.1579443285
 30
0.0
 10
4.7277389155
 20
5.1771916823
 30
0.0
 10
4.7266194231
 20
5.1962503635
 30
0.0
 10
4.725324879
 20
5.2151949067
 30
0.0
 10
4.7238703091
 20
5.2340758899
 30
0.0
 10
4.7217441595
 20
5.2591785608
 30
0.0
 10
4.7175702237
 20
5.3030202556
 30
0.0
 10
4.7104752331
 20
5.3656669462
 30
0.0
 10
4.7025238499
 20
5.4283882659
 30
0.0
 10
4.6959867982
 20
5.4788906573
 30
0.0
 10
4.6910529357
 20
5.5171645358
 30
0.0
 10
4.6861976303
 20
5.5557777992
 30
0.0
 10
4.6814393296
 20
5.5947416085
 30
0.0
 10
4.6767522963
 20
5.6340377554
 30
0.0
 10
4.6705587084
 20
5.6870187719
 30
0.0
 10
4.6629262335
 20
5.7538959465
 30
0.0
 10
4.6538302885
 20
5.8348262887
 30
0.0
 10
4.6461805232
 20
5.9027761637
 30
0.0
 10
4.6399511185
 20
5.9574795786
 30
0.0
 10
4.6336113492
 20
6.012579334
 30
0.0
 10
4.6255313734
 20
6.0818161841
 30
0.0
 10
4.6156549035
 20
6.1653665499
 30
0.0
 10
4.6056249403
 20
6.2495867255
 30
0.0
 10
4.5954401183
 20
6.3345194564
 30
0.0
 10
4.5885906278
 20
6.391382698
 30
0.0
 10
4.5851462249
 20
6.4199383978
 30
0.0
  0
SPLINE
  5
33D
100
AcDbEntity
  8
ALL_ASSEMBLY_MEMBERS
100
AcDbSpline
 62
7
  6
CONTINUOUS
 70
0
 71
3
 72
29
 73
25
 74
0
 42
0.0000001
 43
0.0000001
 44
0.0000000001
 40
0.0
 40
0.0
 40
0.0
 40
0.0
 40
0.0293064978
 40
0.058691611
 40
0.0882502936
 40
0.1180145319
 40
0.1479707611
 40
0.1781057688
 40
0.2388795461
 40
0.3002600997
 40
0.362174962
 40
0.3933136372
 40
0.424564157
 40
0.4559202769
 40
0.4873757903
 40
0.5505621614
 40
0.6140777633
 40
0.677877516
 40
0.7098729621
 40
0.7419276013
 40
0.8062033481
 40
0.8706738479
 40
0.9352923792
 40
1.0
 40
1.0
 40
1.0
 40
1.0
 10
4.7300266523
 20
5.2121890356
 30
0.0
 10
4.7296826195
 20
5.2240546856
 30
0.0
 10
4.7287643055
 20
5.2478117541
 30
0.0
 10
4.7267254079
 20
5.283501209
 30
0.0
 10
4.7240809545
 20
5.3193365245
 30
0.0
 10
4.7209042816
 20
5.3553604344
 30
0.0
 10
4.7172553348
 20
5.39157394
 30
0.0
 10
4.7118446222
 20
5.4402312318
 30
0.0
 10
4.704300122
 20
5.5014548603
 30
0.0
 10
4.6946024838
 20
5.5753788443
 30
0.0
 10
4.6865964924
 20
5.6374183249
 30
0.0
 10
4.6803367083
 20
5.6873772604
 30
0.0
 10
4.6757015636
 20
5.7250649849
 30
0.0
 10
4.671105999
 20
5.762886823
 30
0.0
 10
4.6649901705
 20
5.8135547194
 30
0.0
 10
4.657348826
 20
5.8771592544
 30
0.0
 10
4.6480713499
 20
5.9537625213
 30
0.0
 10
4.6400902643
 20
6.0177963667
 30
0.0
 10
4.6334775515
 20
6.0691582559
 30
0.0
 10
4.6266783757
 20
6.1206902756
 30
0.0
 10
4.6179080771
 20
6.185229916
 30
0.0
 10
4.6071554697
 20
6.2628109741
 30
0.0
 10
4.5963925139
 20
6.3405672068
 30
0.0
 10
4.589357867
 20
6.3924766247
 30
0.0
 10
4.5859044511
 20
6.4184580268
 30
0.0
  0
LINE
  5
33E
100
AcDbEntity
  8
ALL_ASSEMBLY_MEMBERS
100
AcDbLine
 62
7
  6
CONTINUOUS
 10
4.5856999913
 20
6.4199968523
 11
4.5822286036
 21
6.4463153226
  0
SPLINE
  5
33F
100
AcDbEntity
  8
ALL_ASSEMBLY_MEMBERS
100
AcDbSpline
 62
7
  6
CONTINUOUS
 70
0
 71
3
 72
23
 73
19
 74
0
 42
0.0000001
 43
0.0000001
 44
0.0000000001
 40
0.0
 40
0.0
 40
0.0
 40
0.0
 40
0.0111692075
 40
0.0241728216
 40
0.0389660283
 40
0.0554986598
 40
0.073720168
 40
0.093580618
 40
0.1380106377
 40
0.1883244336
 40
0.2440007899
 40
0.3045450698
 40
0.3694928334
 40
0.4384443781
 40
0.5110296553
 40
0.6655007947
 40
0.8296645254
 40
1.0
 40
1.0
 40
1.0
 40
1.0
 10
4.6177019496
 20
3.6846812745
 30
0.0
 10
4.6188056114
 20
3.6881342694
 30
0.0
 10
4.6209755697
 20
3.6956773052
 30
0.0
 10
4.624012538
 20
3.707955873
 30
0.0
 10
4.6270726446
 20
3.7220158904
 30
0.0
 10
4.6301492165
 20
3.7378009363
 30
0.0
 10
4.633237317
 20
3.7552563612
 30
0.0
 10
4.637527612
 20
3.7816913225
 30
0.0
 10
4.6428213103
 20
3.8185116247
 30
0.0
 10
4.6489728028
 20
3.866944367
 30
0.0
 10
4.655124631
 20
3.9206447689
 30
0.0
 10
4.661256846
 20
3.9791249625
 30
0.0
 10
4.6673513378
 20
4.0419392667
 30
0.0
 10
4.6733839978
 20
4.1086843926
 30
0.0
 10
4.6814793547
 20
4.2044156826
 30
0.0
 10
4.691217737
 20
4.3310182528
 30
0.0
 10
4.7021503634
 20
4.4893429925
 30
0.0
 10
4.7088874289
 20
4.5976999705
 30
0.0
 10
4.7121467142
 20
4.6528880034
 30
0.0
  0
LINE
  5
340
100
AcDbEntity
  8
ALL_ASSEMBLY_MEMBERS
100
AcDbLine
 62
7
  6
CONTINUOUS
 10
4.7122952181
 20
4.655404629
 11
4.7151773383
 21
4.705101321
  0
SPLINE
  5
341
100
AcDbEntity
  8
ALL_ASSEMBLY_MEMBERS
100
AcDbSpline
 62
7
  6
CONTINUOUS
 70
0
 71
3
 72
28
 73
24
 74
0
 42
0.0000001
 43
0.0000001
 44
0.0000000001
 40
0.0
 40
0.0
 40
0.0
 40
0.0
 40
0.0178276457
 40
0.0281745083
 40
0.0396771896
 40
0.0524756157
 40
0.0666869871
 40
0.0824227205
 40
0.0997904174
 40
0.1188923949
 40
0.1398250541
 40
0.1875494562
 40
0.2144474888
 40
0.2433051643
 40
0.3065978605
 40
0.3767301617
 40
0.4528724895
 40
0.4929564422
 40
0.534276239
 40
0.6203135804
 40
0.7104113424
 40
0.8040534331
 40
1.0
 40
1.0
 40
1.0
 40
1.0
 10
4.6177019496
 20
4.1020900699
 30
0.0
 10
4.6201444744
 20
4.1043994196
 30
0.0
 10
4.6236595871
 20
4.108424005
 30
0.0
 10
4.6279340323
 20
4.1145671276
 30
0.0
 10
4.6312871528
 20
4.1201803586
 30
0.0
 10
4.6346240981
 20
4.1266337975
 30
0.0
 10
4.6379451205
 20
4.1339810594
 30
0.0
 10
4.6412450288
 20
4.1422723869
 30
0.0
 10
4.6445190074
 20
4.151557672
 30
0.0
 10
4.6477628675
 20
4.1618853231
 30
0.0
 10
4.6522424453
 20
4.1778165258
 30
0.0
 10
4.6564025451
 20
4.1953547898
 30
0.0
 10
4.660360818
 20
4.2144605159
 30
0.0
 10
4.6645481113
 20
4.2365141535
 30
0.0
 10
4.6696053841
 20
4.2666951093
 30
0.0
 10
4.675338662
 20
4.3057926905
 30
0.0
 10
4.6799035765
 20
4.3406339802
 30
0.0
 10
4.6835009017
 20
4.3701207664
 30
0.0
 10
4.6871512174
 20
4.4014801898
 30
0.0
 10
4.6915856442
 20
4.4422414215
 30
0.0
 10
4.6966696822
 20
4.4928536756
 30
0.0
 10
4.7033229557
 20
4.5641341299
 30
0.0
 10
4.7078873955
 20
4.6185464959
 30
0.0
 10
4.7107950783
 20
4.6553776175
 30
0.0
  0
SPLINE
  5
342
100
AcDbEntity
  8
ALL_ASSEMBLY_MEMBERS
100
AcDbSpline
 62
7
  6
CONTINUOUS
 70
0
 71
3
 72
24
 73
20
 74
0
 42
0.0000001
 43
0.0000001
 44
0.0000000001
 40
0.0
 40
0.0
 40
0.0
 40
0.0
 40
0.1132934363
 40
0.2298831346
 40
0.2895192913
 40
0.3500855713
 40
0.4740268535
 40
0.537398832
 40
0.6016405776
 40
0.6340696687
 40
0.6666927824
 40
0.732467889
 40
0.7655886239
 40
0.7988383645
 40
0.8321966286
 40
0.8656465204
 40
0.8991723716
 40
0.9327547901
 40
1.0
 40
1.0
 40
1.0
 40
1.0
 10
4.3828671771
 20
7.1431491359
 30
0.0
 10
4.4009241351
 20
7.1227899616
 30
0.0
 10
4.4356103971
 20
7.07970684
 30
0.0
 10
4.4740903288
 20
7.0216613367
 30
0.0
 10
4.502262661
 20
6.9722317036
 30
0.0
 10
4.5289952941
 20
6.9200176898
 30
0.0
 10
4.5525699617
 20
6.8652469624
 30
0.0
 10
4.5729500756
 20
6.8083517851
 30
0.0
 10
4.58440485
 20
6.7716423303
 30
0.0
 10
4.5927368717
 20
6.741722687
 30
0.0
 10
4.6005384742
 20
6.7112798341
 30
0.0
 10
4.6074489589
 20
6.6804445262
 30
0.0
 10
4.6135379303
 20
6.6492915759
 30
0.0
 10
4.6177217047
 20
6.6257036166
 30
0.0
 10
4.6215168014
 20
6.6019702363
 30
0.0
 10
4.624970952
 20
6.5781181905
 30
0.0
 10
4.6281756308
 20
6.5541773851
 30
0.0
 10
4.6322275652
 20
6.5221609682
 30
0.0
 10
4.6351407932
 20
6.4981179772
 30
0.0
 10
4.6371423009
 20
6.4820901897
 30
0.0
  0
SPLINE
  5
343
100
AcDbEntity
  8
ALL_ASSEMBLY_MEMBERS
100
AcDbSpline
 62
7
  6
CONTINUOUS
 70
0
 71
3
 72
23
 73
19
 74
0
 42
0.0000001
 43
0.0000001
 44
0.0000000001
 40
0.0
 40
0.0
 40
0.0
 40
0.0
 40
0.0670452225
 40
0.1339497177
 40
0.1673080441
 40
0.2005703255
 40
0.2337143289
 40
0.266723647
 40
0.2995857908
 40
0.3322876048
 40
0.3971497076
 40
0.461220342
 40
0.5244498547
 40
0.5868060738
 40
0.6482856829
 40
0.7686100977
 40
0.885719445
 40
1.0
 40
1.0
 40
1.0
 40
1.0
 10
4.6371423009
 20
6.4820901897
 30
0.0
 10
4.6350068342
 20
6.4983178139
 30
0.0
 10
4.630717376
 20
6.5307359888
 30
0.0
 10
4.6248924603
 20
6.5711651882
 30
0.0
 10
4.6197040542
 20
6.6033475751
 30
0.0
 10
4.6154763751
 20
6.6273341015
 30
0.0
 10
4.6108386024
 20
6.6511584993
 30
0.0
 10
4.6057070716
 20
6.6747819423
 30
0.0
 10
4.6000660355
 20
6.6981779739
 30
0.0
 10
4.591920616
 20
6.7289611126
 30
0.0
 10
4.5805853581
 20
6.7667712365
 30
0.0
 10
4.5651835968
 20
6.8110982281
 30
0.0
 10
4.5480536901
 20
6.8541298645
 30
0.0
 10
4.5292361066
 20
6.8957588975
 30
0.0
 10
4.5022106807
 20
6.9489048561
 30
0.0
 10
4.4646678069
 20
7.0116150325
 30
0.0
 10
4.4137917216
 20
7.0809279719
 30
0.0
 10
4.3761750132
 20
7.1232007849
 30
0.0
 10
4.3566708123
 20
7.1431491359
 30
0.0
  0
SPLINE
  5
344
100
AcDbEntity
  8
ALL_ASSEMBLY_MEMBERS
100
AcDbSpline
 62
7
  6
CONTINUOUS
 70
0
 71
3
 72
9
 73
5
 74
0
 42
0.0000001
 43
0.0000001
 44
0.0000000001
 40
0.0
 40
0.0
 40
0.0
 40
0.0
 40
0.5015828437
 40
1.0
 40
1.0
 40
1.0
 40
1.0
 10
4.7839563589
 20
5.3402956907
 30
0.0
 10
4.7854319989
 20
5.3231920666
 30
0.0
 10
4.7879988726
 20
5.2890584434
 30
0.0
 10
4.7895484492
 20
5.2548604512
 30
0.0
 10
4.790024976
 20
5.2378082943
 30
0.0
  0
SPLINE
  5
345
100
AcDbEntity
  8
ALL_ASSEMBLY_MEMBERS
100
AcDbSpline
 62
7
  6
CONTINUOUS
 70
0
 71
3
 72
9
 73
5
 74
0
 42
0.0000001
 43
0.0000001
 44
0.0000000001
 40
0.0
 40
0.0
 40
0.0
 40
0.0
 40
0.4984551612
 40
1.0
 40
1.0
 40
1.0
 40
1.0
 10
4.7890094381
 20
5.2386074774
 30
0.0
 10
4.7885830599
 20
5.2555191451
 30
0.0
 10
4.7868123304
 20
5.2894138142
 30
0.0
 10
4.7853342802
 20
5.3233296514
 30
0.0
 10
4.7839563589
 20
5.3402956907
 30
0.0
  0
SPLINE
  5
346
100
AcDbEntity
  8
ALL_ASSEMBLY_MEMBERS
100
AcDbSpline
 62
7
  6
CONTINUOUS
 70
0
 71
3
 72
16
 73
12
 74
0
 42
0.0000001
 43
0.0000001
 44
0.0000000001
 40
0.0
 40
0.0
 40
0.0
 40
0.0
 40
0.2594167402
 40
0.3906148692
 40
0.5157782013
 40
0.6348871794
 40
0.7576110526
 40
0.8237490069
 40
0.8873126599
 40
0.9447330565
 40
1.0
 40
1.0
 40
1.0
 40
1.0
 10
4.789791186
 20
5.2372987656
 30
0.0
 10
4.7896976477
 20
5.2373186813
 30
0.0
 10
4.7895533864
 20
5.2373286452
 30
0.0
 10
4.7893647667
 20
5.2373528519
 30
0.0
 10
4.7892299672
 20
5.2373869629
 30
0.0
 10
4.7891084477
 20
5.2374514232
 30
0.0
 10
4.7890332029
 20
5.2375406099
 30
0.0
 10
4.788995146
 20
5.2376260488
 30
0.0
 10
4.7889803136
 20
5.2376940063
 30
0.0
 10
4.7889863271
 20
5.2377606296
 30
0.0
 10
4.7890128187
 20
5.237796291
 30
0.0
 10
4.7890292819
 20
5.2378082943
 30
0.0
  0
SPLINE
  5
347
100
AcDbEntity
  8
ALL_ASSEMBLY_MEMBERS
100
AcDbSpline
 62
7
  6
CONTINUOUS
 70
0
 71
3
 72
38
 73
34
 74
0
 42
0.0000001
 43
0.0000001
 44
0.0000000001
 40
0.0
 40
0.0
 40
0.0
 40
0.0
 40
0.0639050066
 40
0.0959361338
 40
0.128003253
 40
0.192201266
 40
0.2243116807
 40
0.2564160045
 40
0.3205639079
 40
0.3845606703
 40
0.4483253044
 40
0.5117805734
 40
0.5748537977
 40
0.6374701857
 40
0.6995570545
 40
0.7303828099
 40
0.7610539887
 40
0.7915629063
 40
0.8219013905
 40
0.837004069
 40
0.8520612478
 40
0.8670722814
 40
0.8820366021
 40
0.8969536419
 40
0.9118227438
 40
0.9266432674
 40
0.9340354221
 40
0.9414158603
 40
0.9561396842
 40
0.9634812538
 40
0.9708099948
 40
0.9854347369
 40
1.0
 40
1.0
 40
1.0
 40
1.0
 10
4.7696884969
 20
4.60992306
 30
0.0
 10
4.7704256305
 20
4.6232759035
 30
0.0
 10
4.7714282196
 20
4.6433272646
 30
0.0
 10
4.7727152784
 20
4.6700830765
 30
0.0
 10
4.7740322368
 20
4.6968988814
 30
0.0
 10
4.7754104708
 20
4.7237282111
 30
0.0
 10
4.7767474619
 20
4.7505674229
 30
0.0
 10
4.7780341065
 20
4.7773986005
 30
0.0
 10
4.7795691356
 20
4.8108982176
 30
0.0
 10
4.7813332283
 20
4.8510196629
 30
0.0
 10
4.7829858212
 20
4.8910008093
 30
0.0
 10
4.7845191597
 20
4.9307933043
 30
0.0
 10
4.7859133933
 20
4.9703505076
 30
0.0
 10
4.7871445856
 20
5.0096266415
 30
0.0
 10
4.788017331
 20
5.0421620955
 30
0.0
 10
4.7886041576
 20
5.0680174132
 30
0.0
 10
4.7889832072
 20
5.0872674544
 30
0.0
 10
4.7892946118
 20
5.1064167319
 30
0.0
 10
4.7894952549
 20
5.1223093068
 30
0.0
 10
4.7896214051
 20
5.1349689583
 30
0.0
 10
4.7896945932
 20
5.1444214374
 30
0.0
 10
4.7897409627
 20
5.1538451375
 30
0.0
 10
4.7897588556
 20
5.1632396014
 30
0.0
 10
4.7897616233
 20
5.1726043752
 30
0.0
 10
4.7897721806
 20
5.1819390364
 30
0.0
 10
4.7897559804
 20
5.1896990606
 30
0.0
 10
4.789692877
 20
5.1958916466
 30
0.0
 10
4.7895805432
 20
5.2020632657
 30
0.0
 10
4.7894252563
 20
5.2082234829
 30
0.0
 10
4.7893654369
 20
5.2143745379
 30
0.0
 10
4.7894174402
 20
5.2205055612
 30
0.0
 10
4.78973897
 20
5.2281406309
 30
0.0
 10
4.7898619462
 20
5.2342515661
 30
0.0
 10
4.789791186
 20
5.2372987656
 30
0.0
  0
SPLINE
  5
348
100
AcDbEntity
  8
ALL_ASSEMBLY_MEMBERS
100
AcDbSpline
 62
7
  6
CONTINUOUS
 70
0
 71
3
 72
15
 73
11
 74
0
 42
0.0000001
 43
0.0000001
 44
0.0000000001
 40
0.0
 40
0.0
 40
0.0
 40
0.0
 40
0.1179206703
 40
0.1780618627
 40
0.2389155391
 40
0.3625129086
 40
0.4881973407
 40
0.6154204609
 40
0.7435818169
 40
1.0
 40
1.0
 40
1.0
 40
1.0
 10
4.789791186
 20
5.2372987656
 30
0.0
 10
4.7906467639
 20
5.2126330792
 30
0.0
 10
4.7912932994
 20
5.1753637177
 30
0.0
 10
4.7912502199
 20
5.1253590732
 30
0.0
 10
4.7906963167
 20
5.0741686628
 30
0.0
 10
4.7892082242
 20
5.0092727139
 30
0.0
 10
4.7864241549
 20
4.9305189276
 30
0.0
 10
4.7828891796
 20
4.8508396841
 30
0.0
 10
4.7774479485
 20
4.7438584423
 30
0.0
 10
4.7728658517
 20
4.6634966474
 30
0.0
 10
4.7696884969
 20
4.60992306
 30
0.0
  0
SPLINE
  5
349
100
AcDbEntity
  8
ALL_ASSEMBLY_MEMBERS
100
AcDbSpline
 62
7
  6
CONTINUOUS
 70
0
 71
3
 72
11
 73
7
 74
0
 42
0.0000001
 43
0.0000001
 44
0.0000000001
 40
0.0
 40
0.0
 40
0.0
 40
0.0
 40
0.2804348539
 40
0.5423057064
 40
0.7830283286
 40
1.0
 40
1.0
 40
1.0
 40
1.0
 10
4.7390890463
 20
4.1492300095
 30
0.0
 10
4.7366715369
 20
4.1177557681
 30
0.0
 10
4.7318078184
 20
4.056905048
 30
0.0
 10
4.7241391749
 20
3.9690972758
 30
0.0
 10
4.7163692753
 20
3.8884723352
 30
0.0
 10
4.7108443349
 20
3.8372474943
 30
0.0
 10
4.7080262698
 20
3.8129873589
 30
0.0
  0
SPLINE
  5
34A
100
AcDbEntity
  8
ALL_ASSEMBLY_MEMBERS
100
AcDbSpline
 62
7
  6
CONTINUOUS
 70
0
 71
3
 72
16
 73
12
 74
0
 42
0.0000001
 43
0.0000001
 44
0.0000000001
 40
0.0
 40
0.0
 40
0.0
 40
0.0
 40
0.169899858
 40
0.3280825331
 40
0.4739350469
 40
0.6068784611
 40
0.7264217759
 40
0.8321017924
 40
0.9234454593
 40
0.9635974677
 40
1.0
 40
1.0
 40
1.0
 40
1.0
 10
4.7080262698
 20
3.8129873589
 30
0.0
 10
4.7067969029
 20
3.8024039958
 30
0.0
 10
4.7043486496
 20
3.7819756518
 30
0.0
 10
4.700547147
 20
3.7524985492
 30
0.0
 10
4.6967456293
 20
3.7253596259
 30
0.0
 10
4.6929460999
 20
3.700669268
 30
0.0
 10
4.6891559842
 20
3.6785290258
 30
0.0
 10
4.6853816829
 20
3.6590372993
 30
0.0
 10
4.6821351589
 20
3.6445188321
 30
0.0
 10
4.6795085243
 20
3.6343218966
 30
0.0
 10
4.6781925055
 20
3.6297041786
 30
0.0
 10
4.6775302225
 20
3.6275195337
 30
0.0
  0
SPLINE
  5
34B
100
AcDbEntity
  8
ALL_ASSEMBLY_MEMBERS
100
AcDbSpline
 62
7
  6
CONTINUOUS
 70
0
 71
3
 72
16
 73
12
 74
0
 42
0.0000001
 43
0.0000001
 44
0.0000000001
 40
0.0
 40
0.0
 40
0.0
 40
0.0
 40
0.0363706375
 40
0.0764979538
 40
0.1678116238
 40
0.2734853274
 40
0.3930340003
 40
0.5259837825
 40
0.6718454707
 40
0.8300588497
 40
1.0
 40
1.0
 40
1.0
 40
1.0
 10
4.6769879899
 20
3.6275195337
 30
0.0
 10
4.6776403723
 20
3.6297049227
 30
0.0
 10
4.6789374621
 20
3.6343239662
 30
0.0
 10
4.6815286041
 20
3.644523679
 30
0.0
 10
4.6847344722
 20
3.6590462067
 30
0.0
 10
4.6884619626
 20
3.6785437039
 30
0.0
 10
4.692204055
 20
3.7006910246
 30
0.0
 10
4.6959579221
 20
3.725388107
 30
0.0
 10
4.6997180035
 20
3.7525340024
 30
0.0
 10
4.7034858716
 20
3.7820186795
 30
0.0
 10
4.7059227925
 20
3.8024516154
 30
0.0
 10
4.7071500056
 20
3.8130371794
 30
0.0
  0
SPLINE
  5
34C
100
AcDbEntity
  8
ALL_ASSEMBLY_MEMBERS
100
AcDbSpline
 62
7
  6
CONTINUOUS
 70
0
 71
3
 72
17
 73
13
 74
0
 42
0.0000001
 43
0.0000001
 44
0.0000000001
 40
0.0
 40
0.0
 40
0.0
 40
0.0
 40
0.1053324336
 40
0.2169956076
 40
0.3345958432
 40
0.457754331
 40
0.5861720579
 40
0.6522675428
 40
0.7195743525
 40
0.7880494909
 40
0.8576443469
 40
1.0
 40
1.0
 40
1.0
 40
1.0
 10
4.7071500056
 20
3.8130371794
 30
0.0
 10
4.7085155447
 20
3.8248159011
 30
0.0
 10
4.7112414958
 20
3.8490914396
 30
0.0
 10
4.7152112004
 20
3.886548413
 30
0.0
 10
4.7191626186
 20
3.9260246526
 30
0.0
 10
4.7230700027
 20
3.967400097
 30
0.0
 10
4.7263139892
 20
4.0030140106
 30
0.0
 10
4.7289604523
 20
4.0323688835
 30
0.0
 10
4.731000752
 20
4.0550031048
 30
0.0
 10
4.7330638803
 20
4.0780308101
 30
0.0
 10
4.7358277051
 20
4.1094780037
 30
0.0
 10
4.7378213125
 20
4.1332547956
 30
0.0
 10
4.7390890463
 20
4.1492300095
 30
0.0
  0
SPLINE
  5
34D
100
AcDbEntity
  8
ALL_ASSEMBLY_MEMBERS
100
AcDbSpline
 62
7
  6
CONTINUOUS
 70
0
 71
3
 72
29
 73
25
 74
0
 42
0.0000001
 43
0.0000001
 44
0.0000000001
 40
0.0
 40
0.0
 40
0.0
 40
0.0
 40
0.0293467735
 40
0.0589147293
 40
0.0886348374
 40
0.1185129894
 40
0.1485464806
 40
0.1787298549
 40
0.239523583
 40
0.3008522454
 40
0.3317031905
 40
0.3626713923
 40
0.3937518281
 40
0.4249396842
 40
0.456230611
 40
0.4876204115
 40
0.5506800209
 40
0.6140855352
 40
0.6778048643
 40
0.7418058279
 40
0.8060545257
 40
0.870520964
 40
0.9351786267
 40
1.0
 40
1.0
 40
1.0
 40
1.0
 10
4.8300240862
 20
5.2557076348
 30
0.0
 10
4.8297492781
 20
5.2653682717
 30
0.0
 10
4.8290389574
 20
5.2847586158
 30
0.0
 10
4.8273832862
 20
5.313902421
 30
0.0
 10
4.8253310777
 20
5.3431957081
 30
0.0
 10
4.8228915455
 20
5.3726133169
 30
0.0
 10
4.8200621048
 20
5.4021490602
 30
0.0
 10
4.8158517704
 20
5.4417780521
 30
0.0
 10
4.8099017459
 20
5.4915835603
 30
0.0
 10
4.8033680217
 20
5.5415359639
 30
0.0
 10
4.7979615501
 20
5.5817292719
 30
0.0
 10
4.7938571974
 20
5.6120466007
 30
0.0
 10
4.7897585061
 20
5.6424766647
 30
0.0
 10
4.7857163941
 20
5.6730215264
 30
0.0
 10
4.7817303351
 20
5.7036764824
 30
0.0
 10
4.7764628199
 20
5.7447491785
 30
0.0
 10
4.7699610248
 20
5.796326155
 30
0.0
 10
4.7622138819
 20
5.8584771213
 30
0.0
 10
4.7544236738
 20
5.9209351378
 30
0.0
 10
4.746519338
 20
5.9836587129
 30
0.0
 10
4.7383977019
 20
6.0466028137
 30
0.0
 10
4.7298865157
 20
6.109713796
 30
0.0
 10
4.7210260045
 20
6.1729669585
 30
0.0
 10
4.7149626373
 20
6.2151740073
 30
0.0
 10
4.7119192796
 20
6.2363030685
 30
0.0
  0
LINE
  5
34E
100
AcDbEntity
  8
ALL_ASSEMBLY_MEMBERS
100
AcDbLine
 62
7
  6
CONTINUOUS
 10
4.7119192796
 20
6.2363030685
 11
4.7096584023
 21
6.2519920295
  0
LINE
  5
34F
100
AcDbEntity
  8
ALL_ASSEMBLY_MEMBERS
100
AcDbLine
 62
7
  6
CONTINUOUS
 10
4.7096584023
 20
6.2519920295
 11
4.700845767
 21
6.3132732407
  0
LINE
  5
350
100
AcDbEntity
  8
ALL_ASSEMBLY_MEMBERS
100
AcDbLine
 62
7
  6
CONTINUOUS
 10
4.700845767
 20
6.3132732407
 11
4.6945316029
 21
6.3576943774
  0
LINE
  5
351
100
AcDbEntity
  8
ALL_ASSEMBLY_MEMBERS
100
AcDbLine
 62
7
  6
CONTINUOUS
 10
4.6945316029
 20
6.3576943774
 11
4.6933712442
 21
6.3659370302
  0
SPLINE
  5
352
100
AcDbEntity
  8
ALL_ASSEMBLY_MEMBERS
100
AcDbSpline
 62
7
  6
CONTINUOUS
 70
0
 71
3
 72
15
 73
11
 74
0
 42
0.0000001
 43
0.0000001
 44
0.0000000001
 40
0.0
 40
0.0
 40
0.0
 40
0.0
 40
0.0992424321
 40
0.208033567
 40
0.3253606658
 40
0.4501475775
 40
0.5812496317
 40
0.7174578074
 40
0.8574910076
 40
1.0
 40
1.0
 40
1.0
 40
1.0
 10
4.753863538
 20
3.8350743101
 30
0.0
 10
4.7566222033
 20
3.8617060803
 30
0.0
 10
4.7620663394
 20
3.9175672984
 30
0.0
 10
4.7697711646
 20
4.0050073252
 30
0.0
 10
4.7773565244
 20
4.0993732317
 30
0.0
 10
4.7847762154
 20
4.1997887102
 30
0.0
 10
4.7920011702
 20
4.3053246407
 30
0.0
 10
4.7989950788
 20
4.4149979847
 30
0.0
 10
4.8057059067
 20
4.5277719759
 30
0.0
 10
4.8099464485
 20
4.6038801946
 30
0.0
 10
4.8120180175
 20
4.6422713463
 30
0.0
  0
LINE
  5
353
100
AcDbEntity
  8
ALL_ASSEMBLY_MEMBERS
100
AcDbLine
 62
7
  6
CONTINUOUS
 10
4.7207143619
 20
3.6000983169
 11
4.7177019496
 21
3.5887935544
  0
SPLINE
  5
354
100
AcDbEntity
  8
ALL_ASSEMBLY_MEMBERS
100
AcDbSpline
 62
7
  6
CONTINUOUS
 70
0
 71
3
 72
21
 73
17
 74
0
 42
0.0000001
 43
0.0000001
 44
0.0000000001
 40
0.0
 40
0.0
 40
0.0
 40
0.0
 40
0.0661236944
 40
0.1321232342
 40
0.1978941715
 40
0.2633340144
 40
0.2958979166
 40
0.3283412182
 40
0.3606550568
 40
0.3928301053
 40
0.456724548
 40
0.519969038
 40
0.6443289621
 40
0.7657471994
 40
0.8842431068
 40
1.0
 40
1.0
 40
1.0
 40
1.0
 10
4.7369339017
 20
6.4826465265
 30
0.0
 10
4.7350434369
 20
6.4964653384
 30
0.0
 10
4.7313799334
 20
6.5240923738
 30
0.0
 10
4.7256420556
 20
6.5654387918
 30
0.0
 10
4.7192577366
 20
6.6065468241
 30
0.0
 10
4.7130056332
 20
6.6405282521
 30
0.0
 10
4.7073103762
 20
6.6674491692
 30
0.0
 10
4.7026746372
 20
6.6874482171
 30
0.0
 10
4.6976806642
 20
6.7072762261
 30
0.0
 10
4.6905819553
 20
6.7334104174
 30
0.0
 10
4.6808990872
 20
6.7655984032
 30
0.0
 10
4.6637263456
 20
6.815801358
 30
0.0
 10
4.6391077567
 20
6.8762322287
 30
0.0
 10
4.6046224545
 20
6.9449835068
 30
0.0
 10
4.5657421414
 20
7.0092329948
 30
0.0
 10
4.5368455803
 20
7.049389097
 30
0.0
 10
4.5218012187
 20
7.0686203772
 30
0.0
  0
LINE
  5
355
100
AcDbEntity
  8
ALL_ASSEMBLY_MEMBERS
100
AcDbLine
 62
7
  6
CONTINUOUS
 10
4.7378948228
 20
6.4756353136
 11
4.7369339017
 21
6.4826465265
  0
SPLINE
  5
356
100
AcDbEntity
  8
ALL_ASSEMBLY_MEMBERS
100
AcDbSpline
 62
7
  6
CONTINUOUS
 70
0
 71
3
 72
35
 73
31
 74
0
 42
0.0000001
 43
0.0000001
 44
0.0000000001
 40
0.0
 40
0.0
 40
0.0
 40
0.0
 40
0.0145911775
 40
0.0292230018
 40
0.0438984643
 40
0.0586202519
 40
0.0882075134
 40
0.1179847178
 40
0.1479448802
 40
0.1780788644
 40
0.2388379688
 40
0.2694474053
 40
0.3001996489
 40
0.3310874407
 40
0.3621038638
 40
0.3932423902
 40
0.4244967104
 40
0.4558605635
 40
0.4873277312
 40
0.5505477543
 40
0.5822884943
 40
0.6141078119
 40
0.6459996346
 40
0.6779585129
 40
0.7099793754
 40
0.7420571124
 40
0.8063609168
 40
0.8708209148
 40
0.935386214
 40
1.0
 40
1.0
 40
1.0
 40
1.0
 10
4.8890109817
 20
5.2824481085
 30
0.0
 10
4.8888598573
 20
5.2882974815
 30
0.0
 10
4.8884857582
 20
5.3000108486
 30
0.0
 10
4.8876850505
 20
5.3175972184
 30
0.0
 10
4.8866597666
 20
5.335224254
 30
0.0
 10
4.8850634564
 20
5.3588243801
 30
0.0
 10
4.882719461
 20
5.3884430203
 30
0.0
 10
4.8793337368
 20
5.4241047026
 30
0.0
 10
4.875460478
 20
5.4599367956
 30
0.0
 10
4.8697537838
 20
5.5080646701
 30
0.0
 10
4.8634204822
 20
5.5563774403
 30
0.0
 10
4.8567972853
 20
5.6049000168
 30
0.0
 10
4.8517506184
 20
5.6415478928
 30
0.0
 10
4.8467323315
 20
5.6783643931
 30
0.0
 10
4.8418047708
 20
5.7153494568
 30
0.0
 10
4.8369501726
 20
5.7524923755
 30
0.0
 10
4.8321441376
 20
5.7897820787
 30
0.0
 10
4.8273635638
 20
5.8272079119
 30
0.0
 10
4.8209894776
 20
5.8773531583
 30
0.0
 10
4.8145913853
 20
5.9276477233
 30
0.0
 10
4.8080981354
 20
5.9780724811
 30
0.0
 10
4.8031468898
 20
6.0160288544
 30
0.0
 10
4.7980895905
 20
6.0540595334
 30
0.0
 10
4.792882345
 20
6.0921515754
 30
0.0
 10
4.7875286724
 20
6.1302985826
 30
0.0
 10
4.7802091184
 20
6.1812674441
 30
0.0
 10
4.7708076832
 20
6.2450790502
 30
0.0
 10
4.7594682043
 20
6.3217737374
 30
0.0
 10
4.7483688534
 20
6.3986294386
 30
0.0
 10
4.7413093541
 20
6.4499499871
 30
0.0
 10
4.7378948228
 20
6.4756353136
 30
0.0
  0
SPLINE
  5
357
100
AcDbEntity
  8
ALL_ASSEMBLY_MEMBERS
100
AcDbSpline
 62
7
  6
CONTINUOUS
 70
0
 71
3
 72
15
 73
11
 74
0
 42
0.0000001
 43
0.0000001
 44
0.0000000001
 40
0.0
 40
0.0
 40
0.0
 40
0.0
 40
0.0828915107
 40
0.1783724658
 40
0.2861605494
 40
0.4059514249
 40
0.5374808877
 40
0.6805079799
 40
0.8347836992
 40
1.0
 40
1.0
 40
1.0
 40
1.0
 10
4.7768603646
 20
3.5309269511
 30
0.0
 10
4.7781812831
 20
3.535949023
 30
0.0
 10
4.7807669609
 20
3.5468236025
 30
0.0
 10
4.784360947
 20
3.56438853
 30
0.0
 10
4.7879401002
 20
3.5843098366
 30
0.0
 10
4.7914995918
 20
3.6065244576
 30
0.0
 10
4.7950393933
 20
3.6309748927
 30
0.0
 10
4.7985626979
 20
3.657608347
 30
0.0
 10
4.8020721965
 20
3.6863707392
 30
0.0
 10
4.8043295522
 20
3.7062583967
 30
0.0
 10
4.8054621981
 20
3.716546499
 30
0.0
  0
SPLINE
  5
358
100
AcDbEntity
  8
ALL_ASSEMBLY_MEMBERS
100
AcDbSpline
 62
7
  6
CONTINUOUS
 70
0
 71
3
 72
28
 73
24
 74
0
 42
0.0000001
 43
0.0000001
 44
0.0000000001
 40
0.0
 40
0.0
 40
0.0
 40
0.0
 40
0.0432983736
 40
0.0912065587
 40
0.1433538131
 40
0.1993570482
 40
0.2588034079
 40
0.3212533104
 40
0.4532768939
 40
0.521848902
 40
0.5914232275
 40
0.6264176813
 40
0.6614596994
 40
0.6964806394
 40
0.7314130526
 40
0.766192185
 40
0.8007537927
 40
0.8350339877
 40
0.8689699022
 40
0.9024990209
 40
0.9355553829
 40
0.9680771631
 40
1.0
 40
1.0
 40
1.0
 40
1.0
 10
4.8056823508
 20
3.7185502463
 30
0.0
 10
4.8081450481
 20
3.7410100054
 30
0.0
 10
4.8129952296
 20
3.7883578037
 30
0.0
 10
4.8199094075
 20
3.862844559
 30
0.0
 10
4.8268263472
 20
3.943986973
 30
0.0
 10
4.8337178742
 20
4.0311724851
 30
0.0
 10
4.8405256851
 20
4.1237561866
 30
0.0
 10
4.8495965682
 20
4.2559485998
 30
0.0
 10
4.8580846565
 20
4.3929527916
 30
0.0
 10
4.8659562617
 20
4.5337157658
 30
0.0
 10
4.8706379627
 20
4.6239446666
 30
0.0
 10
4.8741905372
 20
4.6967110809
 30
0.0
 10
4.8767429231
 20
4.7514737534
 30
0.0
 10
4.8791466091
 20
4.8062107706
 30
0.0
 10
4.8813759889
 20
4.8608178809
 30
0.0
 10
4.8834231108
 20
4.9151922703
 30
0.0
 10
4.8852714177
 20
4.969233265
 30
0.0
 10
4.8868859781
 20
5.0228415869
 30
0.0
 10
4.8882229485
 20
5.0759186829
 30
0.0
 10
4.8892266025
 20
5.1283645011
 30
0.0
 10
4.8898152337
 20
5.1800789745
 30
0.0
 10
4.8898712285
 20
5.2309588178
 30
0.0
 10
4.8894316362
 20
5.2645871041
 30
0.0
 10
4.8890417458
 20
5.2812408213
 30
0.0
  0
SPLINE
  5
359
100
AcDbEntity
  8
ALL_ASSEMBLY_MEMBERS
100
AcDbSpline
 62
7
  6
CONTINUOUS
 70
0
 71
3
 72
27
 73
23
 74
0
 42
0.0000001
 43
0.0000001
 44
0.0000000001
 40
0.0
 40
0.0
 40
0.0
 40
0.0
 40
0.1948789752
 40
0.3825788835
 40
0.4712229097
 40
0.5553031585
 40
0.6340262185
 40
0.7066614975
 40
0.7725268322
 40
0.8309442991
 40
0.8813422616
 40
0.9033979363
 40
0.9232875069
 40
0.940958262
 40
0.9563581352
 40
0.9694498624
 40
0.9802156289
 40
0.9886406202
 40
0.9947145439
 40
0.9984432214
 40
0.9994565288
 40
1.0
 40
1.0
 40
1.0
 40
1.0
 10
5.3484436682
 20
6.4820669811
 30
0.0
 10
5.3522402581
 20
6.4815788128
 30
0.0
 10
5.3596953041
 20
6.4806338452
 30
0.0
 10
5.3688818911
 20
6.479503505
 30
0.0
 10
5.3759111663
 20
6.4786615634
 30
0.0
 10
5.3808164317
 20
6.4780854944
 30
0.0
 10
5.3854107888
 20
6.4775580796
 30
0.0
 10
5.3896511428
 20
6.4770841975
 30
0.0
 10
5.393496617
 20
6.4766682109
 30
0.0
 10
5.3969094314
 20
6.4763142437
 30
0.0
 10
5.399467798
 20
6.4760636043
 30
0.0
 10
5.4012740443
 20
6.4758979348
 30
0.0
 10
5.4024406482
 20
6.4757966844
 30
0.0
 10
5.4034775525
 20
6.4757130314
 30
0.0
 10
5.4043818625
 20
6.4756471836
 30
0.0
 10
5.4051516024
 20
6.4755993188
 30
0.0
 10
5.4057847069
 20
6.4755690632
 30
0.0
 10
5.4062816568
 20
6.4755566911
 30
0.0
 10
5.4066379619
 20
6.4755598892
 30
0.0
 10
5.4068532287
 20
6.4755786603
 30
0.0
 10
5.406951396
 20
6.4756028287
 30
0.0
 10
5.4069795247
 20
6.4756247566
 30
0.0
 10
5.4069808876
 20
6.4756353442
 30
0.0
  0
LINE
  5
35A
100
AcDbEntity
  8
ALL_ASSEMBLY_MEMBERS
100
AcDbLine
 62
7
  6
CONTINUOUS
 10
5.3473939627
 20
6.4756616161
 11
5.3482270109
 21
6.4820948451
  0
SPLINE
  5
35B
100
AcDbEntity
  8
ALL_ASSEMBLY_MEMBERS
100
AcDbSpline
 62
7
  6
CONTINUOUS
 70
0
 71
3
 72
30
 73
26
 74
0
 42
0.0000001
 43
0.0000001
 44
0.0000000001
 40
0.0
 40
0.0
 40
0.0
 40
0.0
 40
0.1947402603
 40
0.2900102319
 40
0.3824209347
 40
0.471079249
 40
0.5551866866
 40
0.6339490819
 40
0.7066319297
 40
0.7725493004
 40
0.831019286
 40
0.8814644562
 40
0.9035407146
 40
0.9234483963
 40
0.9411343484
 40
0.956545901
 40
0.9696447015
 40
0.9804118057
 40
0.9888305684
 40
0.9921548343
 40
0.9948871925
 40
0.9970273502
 40
0.9985773913
 40
0.9995475834
 40
1.0
 40
1.0
 40
1.0
 40
1.0
 10
5.3473939627
 20
6.4756616161
 30
0.0
 10
5.3512005389
 20
6.4751698136
 30
0.0
 10
5.3568703301
 20
6.4744449562
 30
0.0
 10
5.3643487185
 20
6.4735044984
 30
0.0
 10
5.3697536257
 20
6.4728328482
 30
0.0
 10
5.374941207
 20
6.4721964414
 30
0.0
 10
5.3798628109
 20
6.4716011669
 30
0.0
 10
5.3844728916
 20
6.4710525769
 30
0.0
 10
5.3887280811
 20
6.4705557826
 30
0.0
 10
5.3925871819
 20
6.4701154401
 30
0.0
 10
5.3960120703
 20
6.4697359235
 30
0.0
 10
5.3985793105
 20
6.4694623513
 30
0.0
 10
5.4003916433
 20
6.4692775921
 30
0.0
 10
5.4015620626
 20
6.4691625399
 30
0.0
 10
5.4026022054
 20
6.4690649893
 30
0.0
 10
5.4035092059
 20
6.4689852179
 30
0.0
 10
5.4042808951
 20
6.468923357
 30
0.0
 10
5.4049156514
 20
6.4688794033
 30
0.0
 10
5.4053588373
 20
6.4688558555
 30
0.0
 10
5.4056438553
 20
6.4688471152
 30
0.0
 10
5.40580577
 20
6.4688458118
 30
0.0
 10
5.4059314384
 20
6.4688480813
 30
0.0
 10
5.4060252261
 20
6.468856148
 30
0.0
 10
5.4060790549
 20
6.468864138
 30
0.0
 10
5.4061101886
 20
6.4688790772
 30
0.0
 10
5.4061114087
 20
6.4688879102
 30
0.0
  0
SPLINE
  5
35C
100
AcDbEntity
  8
ALL_ASSEMBLY_MEMBERS
100
AcDbSpline
 62
7
  6
CONTINUOUS
 70
0
 71
3
 72
24
 73
20
 74
0
 42
0.0000001
 43
0.0000001
 44
0.0000000001
 40
0.0
 40
0.0
 40
0.0
 40
0.0
 40
0.0592377378
 40
0.119160596
 40
0.1797004564
 40
0.2101806896
 40
0.2407903096
 40
0.3023718997
 40
0.3643952331
 40
0.4268099414
 40
0.4581482374
 40
0.4895657833
 40
0.5526240156
 40
0.6159589455
 40
0.6795458711
 40
0.743360921
 40
0.8073732051
 40
0.8715257012
 40
1.0
 40
1.0
 40
1.0
 40
1.0
 10
5.2015479159
 20
5.3397009238
 30
0.0
 10
5.2041013762
 20
5.3620759384
 30
0.0
 10
5.2092111707
 20
5.4070877837
 30
0.0
 10
5.2169609554
 20
5.4749630257
 30
0.0
 10
5.2236082858
 20
5.5319603905
 30
0.0
 10
5.22910637
 20
5.5778720251
 30
0.0
 10
5.2347679184
 20
5.6241627987
 30
0.0
 10
5.2420698617
 20
5.6823337396
 30
0.0
 10
5.2510530002
 20
5.7524794519
 30
0.0
 10
5.2586245394
 20
5.8112144931
 30
0.0
 10
5.2646807833
 20
5.8584132719
 30
0.0
 10
5.2707284627
 20
5.9058597861
 30
0.0
 10
5.2782732378
 20
5.9653779413
 30
0.0
 10
5.2874171393
 20
6.0370210018
 30
0.0
 10
5.2967799764
 20
6.1089260343
 30
0.0
 10
5.3064883715
 20
6.1810452944
 30
0.0
 10
5.3166353029
 20
6.2533212268
 30
0.0
 10
5.3303671879
 20
6.3499153442
 30
0.0
 10
5.3404737493
 20
6.4224471188
 30
0.0
 10
5.3467713517
 20
6.4708811285
 30
0.0
  0
LINE
  5
35D
100
AcDbEntity
  8
ALL_ASSEMBLY_MEMBERS
100
AcDbLine
 62
7
  6
CONTINUOUS
 10
5.3473937553
 20
6.4756616427
 11
5.3467713517
 21
6.4708811285
  0
SPLINE
  5
35E
100
AcDbEntity
  8
ALL_ASSEMBLY_MEMBERS
100
AcDbSpline
 62
7
  6
CONTINUOUS
 70
0
 71
3
 72
19
 73
15
 74
0
 42
0.0000001
 43
0.0000001
 44
0.0000000001
 40
0.0
 40
0.0
 40
0.0
 40
0.0
 40
0.1667442437
 40
0.328900999
 40
0.4810161964
 40
0.6190042403
 40
0.6817186871
 40
0.7398152471
 40
0.7931694869
 40
0.8418709494
 40
0.8861946349
 40
0.9266925956
 40
0.9642380725
 40
1.0
 40
1.0
 40
1.0
 40
1.0
 10
5.1963944611
 20
5.2386073267
 30
0.0
 10
5.2002332642
 20
5.2385162596
 30
0.0
 10
5.207801457
 20
5.2380225143
 30
0.0
 10
5.2187697115
 20
5.2363770224
 30
0.0
 10
5.2288976439
 20
5.2338820728
 30
0.0
 10
5.2365534407
 20
5.2310938608
 30
0.0
 10
5.2419140297
 20
5.2284780326
 30
0.0
 10
5.2453719412
 20
5.2264361318
 30
0.0
 10
5.2483635405
 20
5.2242684764
 30
0.0
 10
5.2508636518
 20
5.2219950946
 30
0.0
 10
5.2528477069
 20
5.2196312625
 30
0.0
 10
5.2542893826
 20
5.2171923755
 30
0.0
 10
5.2551723183
 20
5.2147060421
 30
0.0
 10
5.2553768105
 20
5.2130125783
 30
0.0
 10
5.2553773947
 20
5.2121890321
 30
0.0
  0
SPLINE
  5
35F
100
AcDbEntity
  8
ALL_ASSEMBLY_MEMBERS
100
AcDbSpline
 62
7
  6
CONTINUOUS
 70
0
 71
3
 72
19
 73
15
 74
0
 42
0.0000001
 43
0.0000001
 44
0.0000000001
 40
0.0
 40
0.0
 40
0.0
 40
0.0
 40
0.1667607186
 40
0.3289278276
 40
0.4810472253
 40
0.6190337116
 40
0.6817454922
 40
0.7398383394
 40
0.7931880588
 40
0.8418845245
 40
0.8862031899
 40
0.9266967186
 40
0.9642390908
 40
1.0
 40
1.0
 40
1.0
 40
1.0
 10
5.1963746173
 20
5.2378082942
 30
0.0
 10
5.2002132863
 20
5.2377183429
 30
0.0
 10
5.2077811761
 20
5.2372268556
 30
0.0
 10
5.2187490854
 20
5.2355847518
 30
0.0
 10
5.2288766219
 20
5.2330930689
 30
0.0
 10
5.2365321428
 20
5.2303074292
 30
0.0
 10
5.2418925116
 20
5.2276934744
 30
0.0
 10
5.2453502307
 20
5.2256528479
 30
0.0
 10
5.2483416527
 20
5.2234863471
 30
0.0
 10
5.2508416047
 20
5.2212139874
 30
0.0
 10
5.252825521
 20
5.2188510311
 30
0.0
 10
5.2542670753
 20
5.2164128609
 30
0.0
 10
5.2551498995
 20
5.2139270805
 30
0.0
 10
5.2553543141
 20
5.2122339397
 30
0.0
 10
5.2553548735
 20
5.2114105327
 30
0.0
  0
SPLINE
  5
360
100
AcDbEntity
  8
ALL_ASSEMBLY_MEMBERS
100
AcDbSpline
 62
7
  6
CONTINUOUS
 70
0
 71
3
 72
11
 73
7
 74
0
 42
0.0000001
 43
0.0000001
 44
0.0000000001
 40
0.0
 40
0.0
 40
0.0
 40
0.0
 40
0.2374131104
 40
0.4846595751
 40
0.7396160186
 40
1.0
 40
1.0
 40
1.0
 40
1.0
 10
5.2435721589
 20
4.1861464357
 30
0.0
 10
5.2410370064
 20
4.2196660607
 30
0.0
 10
5.2361039368
 20
4.2881120057
 30
0.0
 10
5.2290612255
 20
4.3925974985
 30
0.0
 10
5.2222094298
 20
4.5003549147
 30
0.0
 10
5.2178655759
 20
4.5731929047
 30
0.0
 10
5.2157594349
 20
4.6100005035
 30
0.0
  0
SPLINE
  5
361
100
AcDbEntity
  8
ALL_ASSEMBLY_MEMBERS
100
AcDbSpline
 62
7
  6
CONTINUOUS
 70
0
 71
3
 72
30
 73
26
 74
0
 42
0.0000001
 43
0.0000001
 44
0.0000000001
 40
0.0
 40
0.0
 40
0.0
 40
0.0
 40
0.1949303032
 40
0.2902544552
 40
0.3827013265
 40
0.4713842921
 40
0.5555038035
 40
0.634264947
 40
0.7069356423
 40
0.7728322045
 40
0.831275021
 40
0.8816906437
 40
0.9037516039
 40
0.9236436684
 40
0.9413136704
 40
0.9567089158
 40
0.9697912641
 40
0.9805415632
 40
0.9889425673
 40
0.9922571844
 40
0.9949789863
 40
0.9971070505
 40
0.9986421125
 40
0.9995907341
 40
1.0
 40
1.0
 40
1.0
 40
1.0
 10
5.2484699976
 20
6.4826465279
 30
0.0
 10
5.2522674897
 20
6.4821481149
 30
0.0
 10
5.2579228338
 20
6.48141216
 30
0.0
 10
5.2653810483
 20
6.4804544438
 30
0.0
 10
5.2707695122
 20
6.4797691325
 30
0.0
 10
5.2759404258
 20
6.4791182624
 30
0.0
 10
5.2808454048
 20
6.4785078615
 30
0.0
 10
5.2854390803
 20
6.4779436141
 30
0.0
 10
5.2896783215
 20
6.4774307737
 30
0.0
 10
5.2935222247
 20
6.4769741626
 30
0.0
 10
5.2969329816
 20
6.4765782938
 30
0.0
 10
5.2994892012
 20
6.4762905867
 30
0.0
 10
5.3012934617
 20
6.4760944059
 30
0.0
 10
5.3024584656
 20
6.4759712474
 30
0.0
 10
5.3034936271
 20
6.4758656831
 30
0.0
 10
5.3043960986
 20
6.4757780117
 30
0.0
 10
5.3051637447
 20
6.4757083888
 30
0.0
 10
5.3057949218
 20
6.4756568567
 30
0.0
 10
5.3062355009
 20
6.4756267653
 30
0.0
 10
5.3065185929
 20
6.4756127247
 30
0.0
 10
5.3066794577
 20
6.475607743
 30
0.0
 10
5.3068035874
 20
6.4756066814
 30
0.0
 10
5.306897269
 20
6.4756109124
 30
0.0
 10
5.3069480656
 20
6.4756164792
 30
0.0
 10
5.3069805176
 20
6.475627283
 30
0.0
 10
5.3069815658
 20
6.4756352558
 30
0.0
  0
LINE
  5
362
100
AcDbEntity
  8
ALL_ASSEMBLY_MEMBERS
100
AcDbLine
 62
7
  6
CONTINUOUS
 10
5.2948145115
 20
6.4695058644
 11
5.3060015365
 21
6.4681939278
  0
SPLINE
  5
363
100
AcDbEntity
  8
ALL_ASSEMBLY_MEMBERS
100
AcDbSpline
 62
7
  6
CONTINUOUS
 70
0
 71
3
 72
19
 73
15
 74
0
 42
0.0000001
 43
0.0000001
 44
0.0000000001
 40
0.0
 40
0.0
 40
0.0
 40
0.0
 40
0.1661409946
 40
0.3277484969
 40
0.4794302173
 40
0.6171613642
 40
0.6798340888
 40
0.7379572667
 40
0.7914147984
 40
0.8403032914
 40
0.8849030214
 40
0.925765345
 40
0.9637504958
 40
1.0
 40
1.0
 40
1.0
 40
1.0
 10
5.0963929175
 20
5.2824481059
 30
0.0
 10
5.1002324312
 20
5.2823594985
 30
0.0
 10
5.1078030942
 20
5.2818648159
 30
0.0
 10
5.1187745756
 20
5.2802008924
 30
0.0
 10
5.1289056745
 20
5.2776709005
 30
0.0
 10
5.136561451
 20
5.2748400981
 30
0.0
 10
5.1419203753
 20
5.2721834981
 30
0.0
 10
5.145378577
 20
5.2701080508
 30
0.0
 10
5.1483701816
 20
5.2679040024
 30
0.0
 10
5.1508699464
 20
5.2655917313
 30
0.0
 10
5.1528530826
 20
5.2631869328
 30
0.0
 10
5.1542931109
 20
5.2607057531
 30
0.0
 10
5.1551739446
 20
5.258176662
 30
0.0
 10
5.1553770971
 20
5.2564552916
 30
0.0
 10
5.1553772424
 20
5.2556173436
 30
0.0
  0
SPLINE
  5
364
100
AcDbEntity
  8
ALL_ASSEMBLY_MEMBERS
100
AcDbSpline
 62
7
  6
CONTINUOUS
 70
0
 71
3
 72
19
 73
15
 74
0
 42
0.0000001
 43
0.0000001
 44
0.0000000001
 40
0.0
 40
0.0
 40
0.0
 40
0.0
 40
0.1661341983
 40
0.3277294525
 40
0.4793963218
 40
0.617113391
 40
0.6797806888
 40
0.7379002892
 40
0.7913567967
 40
0.8402475793
 40
0.8848537415
 40
0.9257273841
 40
0.9637290672
 40
1.0
 40
1.0
 40
1.0
 40
1.0
 10
5.0963621534
 20
5.2812408213
 30
0.0
 10
5.1002015041
 20
5.2811538279
 30
0.0
 10
5.107771851
 20
5.280662151
 30
0.0
 10
5.1187430049
 20
5.2790019808
 30
0.0
 10
5.1288737383
 20
5.2764748312
 30
0.0
 10
5.1365291854
 20
5.2736455861
 30
0.0
 10
5.1418877899
 20
5.2709896748
 30
0.0
 10
5.1453457969
 20
5.2689144266
 30
0.0
 10
5.1483372225
 20
5.2667102807
 30
0.0
 10
5.1508368246
 20
5.2643976133
 30
0.0
 10
5.152819807
 20
5.2619921195
 30
0.0
 10
5.1542596802
 20
5.2595099623
 30
0.0
 10
5.15514036
 20
5.256979643
 30
0.0
 10
5.1553434161
 20
5.2552574084
 30
0.0
 10
5.155343542
 20
5.2544189744
 30
0.0
  0
SPLINE
  5
365
100
AcDbEntity
  8
ALL_ASSEMBLY_MEMBERS
100
AcDbSpline
 62
7
  6
CONTINUOUS
 70
0
 71
3
 72
11
 73
7
 74
0
 42
0.0000001
 43
0.0000001
 44
0.0000000001
 40
0.0
 40
0.0
 40
0.0
 40
0.0
 40
0.2253636334
 40
0.4625167974
 40
0.7189108117
 40
1.0
 40
1.0
 40
1.0
 40
1.0
 10
5.1553772197
 20
5.2551773481
 30
0.0
 10
5.1553776175
 20
5.2546132078
 30
0.0
 10
5.1555208475
 20
5.253451742
 30
0.0
 10
5.1561364336
 20
5.2517474923
 30
0.0
 10
5.1571386585
 20
5.2500756804
 30
0.0
 10
5.1580131173
 20
5.2490455133
 30
0.0
 10
5.1585025777
 20
5.2485400125
 30
0.0
  0
SPLINE
  5
366
100
AcDbEntity
  8
ALL_ASSEMBLY_MEMBERS
100
AcDbSpline
 62
7
  6
CONTINUOUS
 70
0
 71
3
 72
14
 73
10
 74
0
 42
0.0000001
 43
0.0000001
 44
0.0000000001
 40
0.0
 40
0.0
 40
0.0
 40
0.0
 40
0.0890995059
 40
0.1906422764
 40
0.3043191967
 40
0.4291030162
 40
0.704934934
 40
0.8515968156
 40
1.0
 40
1.0
 40
1.0
 40
1.0
 10
5.1585025777
 20
5.2485400125
 30
0.0
 10
5.1593145152
 20
5.2477014663
 30
0.0
 10
5.1612450399
 20
5.246092819
 30
0.0
 10
5.1646588789
 20
5.2440156661
 30
0.0
 10
5.1687151675
 20
5.2421544339
 30
0.0
 10
5.1750859281
 20
5.2399398815
 30
0.0
 10
5.182125977
 20
5.2384291213
 30
0.0
 10
5.1895562033
 20
5.2375599844
 30
0.0
 10
5.1934192357
 20
5.2373486503
 30
0.0
 10
5.1953628209
 20
5.2373035332
 30
0.0
  0
LINE
  5
367
100
AcDbEntity
  8
ALL_ASSEMBLY_MEMBERS
100
AcDbLine
 62
7
  6
CONTINUOUS
 10
5.2321280393
 20
3.8293505447
 11
5.2314925529
 21
3.8355133459
  0
SPLINE
  5
368
100
AcDbEntity
  8
ALL_ASSEMBLY_MEMBERS
100
AcDbSpline
 62
7
  6
CONTINUOUS
 70
0
 71
3
 72
11
 73
7
 74
0
 42
0.0000001
 43
0.0000001
 44
0.0000000001
 40
0.0
 40
0.0
 40
0.0
 40
0.0
 40
0.2240892318
 40
0.4606086624
 40
0.7173689332
 40
1.0
 40
1.0
 40
1.0
 40
1.0
 10
5.1553923132
 20
5.2557072793
 30
0.0
 10
5.1553927145
 20
5.2551219929
 30
0.0
 10
5.1555469726
 20
5.2539149209
 30
0.0
 10
5.1562084195
 20
5.2521473461
 30
0.0
 10
5.1572837623
 20
5.2504166779
 30
0.0
 10
5.1582194373
 20
5.2493551407
 30
0.0
 10
5.1587429234
 20
5.2488346745
 30
0.0
  0
SPLINE
  5
369
100
AcDbEntity
  8
ALL_ASSEMBLY_MEMBERS
100
AcDbSpline
 62
7
  6
CONTINUOUS
 70
0
 71
3
 72
14
 73
10
 74
0
 42
0.0000001
 43
0.0000001
 44
0.0000000001
 40
0.0
 40
0.0
 40
0.0
 40
0.0
 40
0.0898899185
 40
0.1920157231
 40
0.3060222598
 40
0.4308616899
 40
0.7061122066
 40
0.8522205926
 40
1.0
 40
1.0
 40
1.0
 40
1.0
 10
5.1587429234
 20
5.2488346745
 30
0.0
 10
5.1595713651
 20
5.2480110121
 30
0.0
 10
5.1615224285
 20
5.2464323926
 30
0.0
 10
5.1649469897
 20
5.2443925529
 30
0.0
 10
5.1689938401
 20
5.2425667877
 30
0.0
 10
5.1753203248
 20
5.2403969407
 30
0.0
 10
5.1822927164
 20
5.2389151567
 30
0.0
 10
5.1896418974
 20
5.2380616349
 30
0.0
 10
5.1934588935
 20
5.2378532923
 30
0.0
 10
5.1953789232
 20
5.2378082943
 30
0.0
  0
LINE
  5
36A
100
AcDbEntity
  8
ALL_ASSEMBLY_MEMBERS
100
AcDbLine
 62
7
  6
CONTINUOUS
 10
5.3069811244
 20
6.4756353137
 11
5.3100163995
 21
6.4754159909
  0
LINE
  5
36B
100
AcDbEntity
  8
ALL_ASSEMBLY_MEMBERS
100
AcDbLine
 62
7
  6
CONTINUOUS
 10
5.3123134092
 20
6.4751694257
 11
5.3467714171
 21
6.4708816418
  0
LINE
  5
36C
100
AcDbEntity
  8
ALL_ASSEMBLY_MEMBERS
100
AcDbLine
 62
7
  6
CONTINUOUS
 10
5.3075854558
 20
6.4802563186
 11
5.3106239517
 21
6.4800702079
  0
LINE
  5
36D
100
AcDbEntity
  8
ALL_ASSEMBLY_MEMBERS
100
AcDbLine
 62
7
  6
CONTINUOUS
 10
5.3106239517
 20
6.4800702079
 11
5.3192265787
 21
6.4791269265
  0
LINE
  5
36E
100
AcDbEntity
  8
ALL_ASSEMBLY_MEMBERS
100
AcDbLine
 62
7
  6
CONTINUOUS
 10
5.3192265787
 20
6.4791269265
 11
5.3473879966
 21
6.4756173144
  0
LINE
  5
36F
100
AcDbEntity
  8
ALL_ASSEMBLY_MEMBERS
100
AcDbLine
 62
7
  6
CONTINUOUS
 10
4.6784225432
 20
6.4756352833
 11
4.681307798
 21
6.4758074282
  0
SPLINE
  5
370
100
AcDbEntity
  8
ALL_ASSEMBLY_MEMBERS
100
AcDbSpline
 62
7
  6
CONTINUOUS
 70
0
 71
3
 72
12
 73
8
 74
0
 42
0.0000001
 43
0.0000001
 44
0.0000000001
 40
0.0
 40
0.0
 40
0.0
 40
0.0
 40
0.0742142807
 40
0.1676022962
 40
0.4037173369
 40
0.6890602742
 40
1.0
 40
1.0
 40
1.0
 40
1.0
 10
4.6835068674
 20
6.4760307441
 30
0.0
 10
4.684831297
 20
6.476170657
 30
0.0
 10
4.6878206979
 20
6.4765020273
 30
0.0
 10
4.6950171215
 20
6.4773383003
 30
0.0
 10
4.7059696503
 20
6.4786741028
 30
0.0
 10
4.7207897619
 20
6.4805444258
 30
0.0
 10
4.7314014364
 20
6.4819203963
 30
0.0
 10
4.7369339016
 20
6.4826465273
 30
0.0
  0
LINE
  5
371
100
AcDbEntity
  8
ALL_ASSEMBLY_MEMBERS
100
AcDbLine
 62
7
  6
CONTINUOUS
 10
4.6794023626
 20
6.4681939278
 11
4.6905893877
 21
6.4695058644
  0
SPLINE
  5
372
100
AcDbEntity
  8
ALL_ASSEMBLY_MEMBERS
100
AcDbSpline
 62
7
  6
CONTINUOUS
 70
0
 71
3
 72
19
 73
15
 74
0
 42
0.0000001
 43
0.0000001
 44
0.0000000001
 40
0.0
 40
0.0
 40
0.0
 40
0.0
 40
0.0362494944
 40
0.0742346337
 40
0.1150969458
 40
0.1596966656
 40
0.2085851506
 40
0.262042677
 40
0.3201658524
 40
0.3828385772
 40
0.5205697322
 40
0.672251468
 40
0.8338589888
 40
1.0
 40
1.0
 40
1.0
 40
1.0
 10
4.8300266537
 20
5.2556173435
 30
0.0
 10
4.8300267989
 20
5.2564552913
 30
0.0
 10
4.8302299511
 20
5.2581766613
 30
0.0
 10
4.8311107844
 20
5.2607057518
 30
0.0
 10
4.8325508125
 20
5.2631869308
 30
0.0
 10
4.8345339485
 20
5.2655917286
 30
0.0
 10
4.8370337133
 20
5.267903999
 30
0.0
 10
4.8400253179
 20
5.2701080468
 30
0.0
 10
4.8434835197
 20
5.2721834936
 30
0.0
 10
4.8488424445
 20
5.2748400933
 30
0.0
 10
4.8564982218
 20
5.2776708957
 30
0.0
 10
4.8666293215
 20
5.2802008886
 30
0.0
 10
4.8776008038
 20
5.2818648145
 30
0.0
 10
4.8851714676
 20
5.2823594996
 30
0.0
 10
4.8890109817
 20
5.2824481086
 30
0.0
  0
SPLINE
  5
373
100
AcDbEntity
  8
ALL_ASSEMBLY_MEMBERS
100
AcDbSpline
 62
7
  6
CONTINUOUS
 70
0
 71
3
 72
19
 73
15
 74
0
 42
0.0000001
 43
0.0000001
 44
0.0000000001
 40
0.0
 40
0.0
 40
0.0
 40
0.0
 40
0.0362709329
 40
0.0742726161
 40
0.1151462588
 40
0.1597524211
 40
0.2086432037
 40
0.2620997113
 40
0.3202193118
 40
0.3828866096
 40
0.5206036787
 40
0.6722705478
 40
0.8338658019
 40
1.0
 40
1.0
 40
1.0
 40
1.0
 10
4.8300603571
 20
5.2544189744
 30
0.0
 10
4.8300604831
 20
5.2552574084
 30
0.0
 10
4.8302635392
 20
5.256979643
 30
0.0
 10
4.831144219
 20
5.2595099623
 30
0.0
 10
4.8325840921
 20
5.2619921195
 30
0.0
 10
4.8345670745
 20
5.2643976133
 30
0.0
 10
4.8370666767
 20
5.2667102808
 30
0.0
 10
4.8400581023
 20
5.2689144267
 30
0.0
 10
4.8435161093
 20
5.2709896748
 30
0.0
 10
4.8488747137
 20
5.2736455862
 30
0.0
 10
4.8565301609
 20
5.2764748313
 30
0.0
 10
4.8666608943
 20
5.2790019808
 30
0.0
 10
4.8776320482
 20
5.2806621511
 30
0.0
 10
4.8852023951
 20
5.2811538279
 30
0.0
 10
4.8890417458
 20
5.2812408213
 30
0.0
  0
LINE
  5
374
100
AcDbEntity
  8
ALL_ASSEMBLY_MEMBERS
100
AcDbLine
 62
7
  6
CONTINUOUS
 10
4.7532339488
 20
3.8289545094
 11
4.753376128
 21
3.8303292328
  0
LINE
  5
375
100
AcDbEntity
  8
ALL_ASSEMBLY_MEMBERS
100
AcDbLine
 62
7
  6
CONTINUOUS
 10
4.753376128
 20
3.8303292328
 11
4.7536957027
 21
3.8334264428
  0
LINE
  5
376
100
AcDbEntity
  8
ALL_ASSEMBLY_MEMBERS
100
AcDbLine
 62
7
  6
CONTINUOUS
 10
4.7536957027
 20
3.8334264428
 11
4.7538577304
 21
3.8350072578
  0
LINE
  5
377
100
AcDbEntity
  8
ALL_ASSEMBLY_MEMBERS
100
AcDbLine
 62
7
  6
CONTINUOUS
 10
4.7207225523
 20
3.6001335975
 11
4.7207638907
 21
3.600302038
  0
SPLINE
  5
378
100
AcDbEntity
  8
ALL_ASSEMBLY_MEMBERS
100
AcDbSpline
 62
7
  6
CONTINUOUS
 70
0
 71
3
 72
27
 73
23
 74
0
 42
0.0000001
 43
0.0000001
 44
0.0000000001
 40
0.0
 40
0.0
 40
0.0
 40
0.0
 40
0.0005437324
 40
0.0015571013
 40
0.0052857266
 40
0.0113595313
 40
0.0197843835
 40
0.0305500069
 40
0.0436415951
 40
0.059041338
 40
0.0767119746
 40
0.0966014402
 40
0.1186570248
 40
0.1690548548
 40
0.2274722574
 40
0.2933375952
 40
0.3659729374
 40
0.4446961127
 40
0.5287765161
 40
0.6174207161
 40
0.8051209439
 40
1.0
 40
1.0
 40
1.0
 40
1.0
 10
4.57842259
 20
6.4756352899
 30
0.0
 10
4.5784239505
 20
6.4756246968
 30
0.0
 10
4.5784520651
 20
6.475602744
 30
0.0
 10
4.5785502406
 20
6.4755785399
 30
0.0
 10
4.5787654959
 20
6.4755597323
 30
0.0
 10
4.5791218027
 20
6.4755564959
 30
0.0
 10
4.5796187476
 20
6.4755688321
 30
0.0
 10
4.5802518516
 20
6.4755990544
 30
0.0
 10
4.5810215914
 20
6.4756468893
 30
0.0
 10
4.5819259033
 20
6.4757127105
 30
0.0
 10
4.5829628111
 20
6.4757963405
 30
0.0
 10
4.5841294203
 20
6.4758975713
 30
0.0
 10
4.5859356773
 20
6.4760632184
 30
0.0
 10
4.5884940613
 20
6.4763138399
 30
0.0
 10
4.5919069012
 20
6.4766677996
 30
0.0
 10
4.595752407
 20
6.4770837916
 30
0.0
 10
4.5999927983
 20
6.4775576912
 30
0.0
 10
4.6045871971
 20
6.4780851349
 30
0.0
 10
4.6094925078
 20
6.4786612436
 30
0.0
 10
4.6165218468
 20
6.4795032519
 30
0.0
 10
4.6257085096
 20
6.4806336952
 30
0.0
 10
4.6331636141
 20
6.4815787585
 30
0.0
 10
4.636960231
 20
6.4820669775
 30
0.0
  0
LINE
  5
379
100
AcDbEntity
  8
ALL_ASSEMBLY_MEMBERS
100
AcDbLine
 62
7
  6
CONTINUOUS
 10
4.6380102746
 20
6.4756616597
 11
4.6371772753
 21
6.4820948973
  0
SPLINE
  5
37A
100
AcDbEntity
  8
ALL_ASSEMBLY_MEMBERS
100
AcDbSpline
 62
7
  6
CONTINUOUS
 70
0
 71
3
 72
30
 73
26
 74
0
 42
0.0000001
 43
0.0000001
 44
0.0000000001
 40
0.0
 40
0.0
 40
0.0
 40
0.0
 40
0.0004524164
 40
0.0014226096
 40
0.0029726528
 40
0.0051128136
 40
0.0078451758
 40
0.0111694465
 40
0.0195882215
 40
0.0303553413
 40
0.0434541606
 40
0.0588657348
 40
0.0765517107
 40
0.0964594181
 40
0.1185357037
 40
0.1689809323
 40
0.2274509786
 40
0.2933684044
 40
0.3660512964
 40
0.4448137199
 40
0.5289211643
 40
0.617579464
 40
0.7099901309
 40
0.8052600328
 40
1.0
 40
1.0
 40
1.0
 40
1.0
 10
4.5792924905
 20
6.4688879102
 30
0.0
 10
4.5792937106
 20
6.4688790772
 30
0.0
 10
4.5793248445
 20
6.4688641379
 30
0.0
 10
4.5793786736
 20
6.4688561479
 30
0.0
 10
4.5794724621
 20
6.4688480812
 30
0.0
 10
4.5795981314
 20
6.4688458118
 30
0.0
 10
4.5797600472
 20
6.4688471152
 30
0.0
 10
4.5800450673
 20
6.4688558557
 30
0.0
 10
4.5804882564
 20
6.4688794038
 30
0.0
 10
4.5811230172
 20
6.468923358
 30
0.0
 10
4.581894712
 20
6.4689852195
 30
0.0
 10
4.582801719
 20
6.4690649916
 30
0.0
 10
4.5838418692
 20
6.4691625431
 30
0.0
 10
4.5850122967
 20
6.4692775962
 30
0.0
 10
4.5868246421
 20
6.4694623568
 30
0.0
 10
4.5893918999
 20
6.4697359313
 30
0.0
 10
4.5928168115
 20
6.4701154507
 30
0.0
 10
4.5966759376
 20
6.4705557964
 30
0.0
 10
4.6009311541
 20
6.4710525941
 30
0.0
 10
4.6055412629
 20
6.4716011878
 30
0.0
 10
4.6104628955
 20
6.4721964662
 30
0.0
 10
4.6156505058
 20
6.4728328769
 30
0.0
 10
4.6210554419
 20
6.4735045311
 30
0.0
 10
4.6285338654
 20
6.4744449939
 30
0.0
 10
4.6342036823
 20
6.4751698549
 30
0.0
 10
4.6380102746
 20
6.4756616597
 30
0.0
  0
SPLINE
  5
37B
100
AcDbEntity
  8
ALL_ASSEMBLY_MEMBERS
100
AcDbSpline
 62
7
  6
CONTINUOUS
 70
0
 71
3
 72
25
 73
21
 74
0
 42
0.0000001
 43
0.0000001
 44
0.0000000001
 40
0.0
 40
0.0
 40
0.0
 40
0.0
 40
0.1284707282
 40
0.1926218422
 40
0.2566331113
 40
0.2885672813
 40
0.3204471312
 40
0.3840324669
 40
0.4473656728
 40
0.5104224071
 40
0.5418393982
 40
0.5731773109
 40
0.6355917692
 40
0.6976155382
 40
0.759198238
 40
0.7898086572
 40
0.8202898474
 40
0.8808321308
 40
0.9407581801
 40
1.0
 40
1.0
 40
1.0
 40
1.0
 10
4.6386325773
 20
6.4708808955
 30
0.0
 10
4.6449324983
 20
6.4224738258
 30
0.0
 10
4.655032935
 20
6.3499810879
 30
0.0
 10
4.6687555178
 20
6.2534384876
 30
0.0
 10
4.6772134939
 20
6.1931968724
 30
0.0
 10
4.6837680602
 20
6.1450710634
 30
0.0
 10
4.6901740585
 20
6.0970885447
 30
0.0
 10
4.6979667611
 20
6.0372547628
 30
0.0
 10
4.7071032658
 20
5.9656499658
 30
0.0
 10
4.7146411167
 20
5.9061634051
 30
0.0
 10
4.7206830718
 20
5.8587418335
 30
0.0
 10
4.7267336799
 20
5.8115674016
 30
0.0
 10
4.7342984657
 20
5.7528622016
 30
0.0
 10
4.7432750423
 20
5.6827517332
 30
0.0
 10
4.7505736934
 20
5.6246098004
 30
0.0
 10
4.7562344809
 20
5.5783419434
 30
0.0
 10
4.7617332635
 20
5.5324526879
 30
0.0
 10
4.7683836513
 20
5.4754828102
 30
0.0
 10
4.7761390581
 20
5.4076397814
 30
0.0
 10
4.781252862
 20
5.362649002
 30
0.0
 10
4.7838081332
 20
5.3402842626
 30
0.0
  0
SPLINE
  5
37C
100
AcDbEntity
  8
ALL_ASSEMBLY_MEMBERS
100
AcDbSpline
 62
7
  6
CONTINUOUS
 70
0
 71
3
 72
19
 73
15
 74
0
 42
0.0000001
 43
0.0000001
 44
0.0000000001
 40
0.0
 40
0.0
 40
0.0
 40
0.0
 40
0.035761874
 40
0.0733073053
 40
0.1138052306
 40
0.1581288917
 40
0.2068303399
 40
0.2601845746
 40
0.3182811373
 40
0.3809955931
 40
0.5189836698
 40
0.6710989115
 40
0.8332557141
 40
1.0
 40
1.0
 40
1.0
 40
1.0
 10
4.7300265026
 20
5.212189032
 30
0.0
 10
4.7300270865
 20
5.2130125769
 30
0.0
 10
4.7302315783
 20
5.2147060383
 30
0.0
 10
4.7311145137
 20
5.2171923683
 30
0.0
 10
4.732556189
 20
5.2196312523
 30
0.0
 10
4.7345402439
 20
5.2219950819
 30
0.0
 10
4.737040355
 20
5.2242684618
 30
0.0
 10
4.7400319542
 20
5.2264361159
 30
0.0
 10
4.7434898657
 20
5.2284780161
 30
0.0
 10
4.7488504551
 20
5.2310938443
 30
0.0
 10
4.7565062524
 20
5.2338820577
 30
0.0
 10
4.7666341856
 20
5.2363770113
 30
0.0
 10
4.7776024409
 20
5.2380225093
 30
0.0
 10
4.7851706345
 20
5.2385162601
 30
0.0
 10
4.7890094381
 20
5.2386073303
 30
0.0
  0
LINE
  5
37D
100
AcDbEntity
  8
ALL_ASSEMBLY_MEMBERS
100
AcDbLine
 62
7
  6
CONTINUOUS
 10
4.6380101437
 20
6.4756616427
 11
4.6386325773
 21
6.4708808955
  0
SPLINE
  5
37E
100
AcDbEntity
  8
ALL_ASSEMBLY_MEMBERS
100
AcDbSpline
 62
7
  6
CONTINUOUS
 70
0
 71
3
 72
19
 73
15
 74
0
 42
0.0000001
 43
0.0000001
 44
0.0000000001
 40
0.0
 40
0.0
 40
0.0
 40
0.0
 40
0.0357609094
 40
0.0733032817
 40
0.1137968105
 40
0.1581154761
 40
0.2068119419
 40
0.2601616614
 40
0.3182545086
 40
0.3809662892
 40
0.5189527754
 40
0.6710721729
 40
0.8332392816
 40
1.0
 40
1.0
 40
1.0
 40
1.0
 10
4.7300490257
 20
5.2114105327
 30
0.0
 10
4.7300495851
 20
5.2122339397
 30
0.0
 10
4.7302539998
 20
5.2139270805
 30
0.0
 10
4.7311368239
 20
5.2164128609
 30
0.0
 10
4.7325783783
 20
5.2188510311
 30
0.0
 10
4.7345622945
 20
5.2212139874
 30
0.0
 10
4.7370622465
 20
5.2234863471
 30
0.0
 10
4.7400536685
 20
5.2256528479
 30
0.0
 10
4.7435113877
 20
5.2276934744
 30
0.0
 10
4.7488717565
 20
5.2303074292
 30
0.0
 10
4.7565272773
 20
5.233093069
 30
0.0
 10
4.7666548138
 20
5.2355847518
 30
0.0
 10
4.7776227231
 20
5.2372268555
 30
0.0
 10
4.7851906129
 20
5.2377183429
 30
0.0
 10
4.7890292819
 20
5.2378082941
 30
0.0
  0
SPLINE
  5
37F
100
AcDbEntity
  8
ALL_ASSEMBLY_MEMBERS
100
AcDbSpline
 62
7
  6
CONTINUOUS
 70
0
 71
3
 72
14
 73
10
 74
0
 42
0.0000001
 43
0.0000001
 44
0.0000000001
 40
0.0
 40
0.0
 40
0.0
 40
0.0
 40
0.1486187826
 40
0.2954723557
 40
0.5715048038
 40
0.696268395
 40
0.8098302499
 40
0.9111712048
 40
1.0
 40
1.0
 40
1.0
 40
1.0
 10
4.7900410783
 20
5.2373035334
 30
0.0
 10
4.7919930556
 20
5.2373488454
 30
0.0
 10
4.7958724906
 20
5.2375615963
 30
0.0
 10
4.8033315616
 20
5.2384371481
 30
0.0
 10
4.8103956178
 20
5.2399592899
 30
0.0
 10
4.8167818557
 20
5.2421910248
 30
0.0
 10
4.8208412415
 20
5.244065838
 30
0.0
 10
4.8242509271
 20
5.2461572362
 30
0.0
 10
4.8261737415
 20
5.2477772446
 30
0.0
 10
4.8269795493
 20
5.2486213824
 30
0.0
  0
SPLINE
  5
380
100
AcDbEntity
  8
ALL_ASSEMBLY_MEMBERS
100
AcDbSpline
 62
7
  6
CONTINUOUS
 70
0
 71
3
 72
11
 73
7
 74
0
 42
0.0000001
 43
0.0000001
 44
0.0000000001
 40
0.0
 40
0.0
 40
0.0
 40
0.0
 40
0.2805255551
 40
0.5367885041
 40
0.7741743227
 40
1.0
 40
1.0
 40
1.0
 40
1.0
 10
4.8269795493
 20
5.2486213824
 30
0.0
 10
4.8274571673
 20
5.2491217194
 30
0.0
 10
4.8283103602
 20
5.2501410163
 30
0.0
 10
4.8292871888
 20
5.2517924636
 30
0.0
 10
4.8298868708
 20
5.2534748081
 30
0.0
 10
4.8300262839
 20
5.2546205192
 30
0.0
 10
4.8300266765
 20
5.2551773481
 30
0.0
  0
SPLINE
  5
381
100
AcDbEntity
  8
ALL_ASSEMBLY_MEMBERS
100
AcDbSpline
 62
7
  6
CONTINUOUS
 70
0
 71
3
 72
14
 73
10
 74
0
 42
0.0000001
 43
0.0000001
 44
0.0000000001
 40
0.0
 40
0.0
 40
0.0
 40
0.0
 40
0.1485960716
 40
0.2954311042
 40
0.5714438359
 40
0.6962087381
 40
0.8097806345
 40
0.9111412616
 40
1.0
 40
1.0
 40
1.0
 40
1.0
 10
4.790024976
 20
5.2378082943
 30
0.0
 10
4.7919770107
 20
5.2378540424
 30
0.0
 10
4.7958565832
 20
5.2380677847
 30
0.0
 10
4.8033159917
 20
5.2389457051
 30
0.0
 10
4.8103803435
 20
5.2404708091
 30
0.0
 10
4.8167666255
 20
5.2427059531
 30
0.0
 10
4.8208261643
 20
5.244583425
 30
0.0
 10
4.8242359746
 20
5.2466775704
 30
0.0
 10
4.8261586922
 20
5.2482994391
 30
0.0
 10
4.8269644485
 20
5.2491444723
 30
0.0
  0
SPLINE
  5
382
100
AcDbEntity
  8
ALL_ASSEMBLY_MEMBERS
100
AcDbSpline
 62
7
  6
CONTINUOUS
 70
0
 71
3
 72
11
 73
7
 74
0
 42
0.0000001
 43
0.0000001
 44
0.0000000001
 40
0.0
 40
0.0
 40
0.0
 40
0.0
 40
0.2804833479
 40
0.536740196
 40
0.7741454342
 40
1.0
 40
1.0
 40
1.0
 40
1.0
 10
4.8269644485
 20
5.2491444723
 30
0.0
 10
4.8274421077
 20
5.2496454152
 30
0.0
 10
4.8282953627
 20
5.2506659301
 30
0.0
 10
4.8292721707
 20
5.2523191328
 30
0.0
 10
4.8298718127
 20
5.2540031468
 30
0.0
 10
4.8300112039
 20
5.2551499193
 30
0.0
 10
4.830011586
 20
5.2557072793
 30
0.0
  0
SPLINE
  5
383
100
AcDbEntity
  8
ALL_ASSEMBLY_MEMBERS
100
AcDbSpline
 62
7
  6
CONTINUOUS
 70
0
 71
3
 72
17
 73
13
 74
0
 42
0.0000001
 43
0.0000001
 44
0.0000000001
 40
0.0
 40
0.0
 40
0.0
 40
0.0
 40
0.1800318054
 40
0.3550762078
 40
0.5184504181
 40
0.6648947054
 40
0.789832774
 40
0.8893868351
 40
0.9285890528
 40
0.9602150086
 40
0.9840637394
 40
1.0
 40
1.0
 40
1.0
 40
1.0
 10
4.6386324818
 20
6.4708816418
 30
0.0
 10
4.6409964091
 20
6.4711919266
 30
0.0
 10
4.6456594225
 20
6.4717989863
 30
0.0
 10
4.6524697689
 20
6.4726711672
 30
0.0
 10
4.6588408252
 20
6.4734717575
 30
0.0
 10
4.6645554455
 20
6.474173927
 30
0.0
 10
4.6694332981
 20
6.4747555289
 30
0.0
 10
4.672902917
 20
6.4751521026
 30
0.0
 10
4.6751464739
 20
6.475392592
 30
0.0
 10
4.676394037
 20
6.4755181877
 30
0.0
 10
4.6773359291
 20
6.4756026921
 30
0.0
 10
4.6778615373
 20
6.4756413072
 30
0.0
 10
4.6780723898
 20
6.4756503806
 30
0.0
  0
LINE
  5
384
100
AcDbEntity
  8
ALL_ASSEMBLY_MEMBERS
100
AcDbLine
 62
7
  6
CONTINUOUS
 10
4.6780723898
 20
6.4756503806
 11
4.6784227748
 21
6.4756353137
  0
LINE
  5
385
100
AcDbEntity
  8
ALL_ASSEMBLY_MEMBERS
100
AcDbLine
 62
7
  6
CONTINUOUS
 10
4.6380159024
 20
6.4756173144
 11
4.6661773205
 21
6.4791269266
  0
SPLINE
  5
386
100
AcDbEntity
  8
ALL_ASSEMBLY_MEMBERS
100
AcDbSpline
 62
7
  6
CONTINUOUS
 70
0
 71
3
 72
22
 73
18
 74
0
 42
0.0000001
 43
0.0000001
 44
0.0000000001
 40
0.0
 40
0.0
 40
0.0
 40
0.0
 40
0.2245358702
 40
0.4238160565
 40
0.5959988137
 40
0.6713536311
 40
0.7392443207
 40
0.7994670389
 40
0.8519206222
 40
0.8965302601
 40
0.9332226669
 40
0.9619278206
 40
0.9825841468
 40
0.9898829
 40
0.9951662022
 40
0.9984675771
 40
1.0
 40
1.0
 40
1.0
 40
1.0
 10
4.6661773205
 20
6.4791269266
 30
0.0
 10
4.6670476443
 20
6.479228321
 30
0.0
 10
4.6686906407
 20
6.4794176397
 30
0.0
 10
4.6710019876
 20
6.47967635
 30
0.0
 10
4.6727355908
 20
6.4798631075
 30
0.0
 10
4.6739600037
 20
6.4799893395
 30
0.0
 10
4.6747501104
 20
6.4800678862
 30
0.0
 10
4.6754515931
 20
6.4801343881
 30
0.0
 10
4.6760629796
 20
6.4801887549
 30
0.0
 10
4.6765831881
 20
6.4802309893
 30
0.0
 10
4.6770115479
 20
6.4802610969
 30
0.0
 10
4.6773465696
 20
6.4802792885
 30
0.0
 10
4.6775683057
 20
6.4802851887
 30
0.0
 10
4.677697159
 20
6.4802830621
 30
0.0
 10
4.6777604683
 20
6.4802776575
 30
0.0
 10
4.6777967025
 20
6.4802724036
 30
0.0
 10
4.6778177073
 20
6.4802622531
 30
0.0
 10
4.6778184434
 20
6.4802563186
 30
0.0
  0
SPLINE
  5
387
100
AcDbEntity
  8
ALL_ASSEMBLY_MEMBERS
100
AcDbSpline
 62
7
  6
CONTINUOUS
 70
0
 71
3
 72
21
 73
17
 74
0
 42
0.0000001
 43
0.0000001
 44
0.0000000001
 40
0.0
 40
0.0
 40
0.0
 40
0.0
 40
0.0661235343
 40
0.1321228628
 40
0.1978935049
 40
0.2633330662
 40
0.2958965843
 40
0.3283398156
 40
0.3606537444
 40
0.3928286676
 40
0.4567226042
 40
0.5199668639
 40
0.6443267791
 40
0.7657449062
 40
0.8842408131
 40
1.0
 40
1.0
 40
1.0
 40
1.0
 10
5.2484699975
 20
6.4826465265
 30
0.0
 10
5.2503604219
 20
6.4964651069
 30
0.0
 10
5.2540243285
 20
6.5240915986
 30
0.0
 10
5.2597606444
 20
6.5654375008
 30
0.0
 10
5.2661470377
 20
6.6065444149
 30
0.0
 10
5.2723962986
 20
6.6405256444
 30
0.0
 10
5.2780921359
 20
6.6674458983
 30
0.0
 10
5.2827298008
 20
6.6874441136
 30
0.0
 10
5.2877235633
 20
6.7072718328
 30
0.0
 10
5.2948200088
 20
6.7334061103
 30
0.0
 10
5.3045014634
 20
6.7655938804
 30
0.0
 10
5.3216769575
 20
6.8157949085
 30
0.0
 10
5.3462925762
 20
6.876225792
 30
0.0
 10
5.3807774914
 20
6.9449760877
 30
0.0
 10
5.4196567853
 20
7.0092254297
 30
0.0
 10
5.4485529634
 20
7.0493815254
 30
0.0
 10
5.4635970931
 20
7.0686131545
 30
0.0
  0
LINE
  5
388
100
AcDbEntity
  8
ALL_ASSEMBLY_MEMBERS
100
AcDbLine
 62
7
  6
CONTINUOUS
 10
5.2475090763
 20
6.4756353136
 11
5.2484699975
 21
6.4826465265
  0
SPLINE
  5
389
100
AcDbEntity
  8
ALL_ASSEMBLY_MEMBERS
100
AcDbSpline
 62
7
  6
CONTINUOUS
 70
0
 71
3
 72
35
 73
31
 74
0
 42
0.0000001
 43
0.0000001
 44
0.0000000001
 40
0.0
 40
0.0
 40
0.0
 40
0.0
 40
0.0145911911
 40
0.0292230907
 40
0.0438985632
 40
0.0586202835
 40
0.0882076221
 40
0.1179848955
 40
0.1479450975
 40
0.1780791244
 40
0.238838305
 40
0.2694477822
 40
0.3002000653
 40
0.331087895
 40
0.3621043576
 40
0.3932429223
 40
0.4244972694
 40
0.4558611438
 40
0.4873283202
 40
0.5505483299
 40
0.5822890463
 40
0.614108337
 40
0.6460000965
 40
0.6779588908
 40
0.7099796941
 40
0.74205739
 40
0.8063610941
 40
0.8708210071
 40
0.9353862521
 40
1.0
 40
1.0
 40
1.0
 40
1.0
 10
5.0963929175
 20
5.2824481085
 30
0.0
 10
5.0965440493
 20
5.2882974867
 30
0.0
 10
5.0969182052
 20
5.3000108863
 30
0.0
 10
5.0977186237
 20
5.3175973112
 30
0.0
 10
5.0987445771
 20
5.3352243152
 30
0.0
 10
5.1003402948
 20
5.3588244865
 30
0.0
 10
5.1026842942
 20
5.3884431636
 30
0.0
 10
5.1060702362
 20
5.4241048982
 30
0.0
 10
5.1099434479
 20
5.4599370572
 30
0.0
 10
5.1156501852
 20
5.5080649901
 30
0.0
 10
5.1219832229
 20
5.5563778602
 30
0.0
 10
5.1286068812
 20
5.6049004372
 30
0.0
 10
5.1336534933
 20
5.6415483686
 30
0.0
 10
5.1386709923
 20
5.6783650231
 30
0.0
 10
5.1435992008
 20
5.7153500463
 30
0.0
 10
5.148454067
 20
5.7524929731
 30
0.0
 10
5.1532597118
 20
5.7897827615
 30
0.0
 10
5.1580404152
 20
5.8272086009
 30
0.0
 10
5.164414587
 20
5.8773538432
 30
0.0
 10
5.1708126357
 20
5.9276484023
 30
0.0
 10
5.1773059562
 20
5.9780731249
 30
0.0
 10
5.182257168
 20
6.0160294568
 30
0.0
 10
5.1873145112
 20
6.0540600591
 30
0.0
 10
5.1925213462
 20
6.0921520737
 30
0.0
 10
5.1978751823
 20
6.1302989839
 30
0.0
 10
5.205195022
 20
6.1812677226
 30
0.0
 10
5.2145961611
 20
6.2450792801
 30
0.0
 10
5.2259356331
 20
6.3217738711
 30
0.0
 10
5.237035076
 20
6.3986294872
 30
0.0
 10
5.2440945503
 20
6.4499500019
 30
0.0
 10
5.2475090763
 20
6.4756353136
 30
0.0
  0
SPLINE
  5
38A
100
AcDbEntity
  8
ALL_ASSEMBLY_MEMBERS
100
AcDbSpline
 62
7
  6
CONTINUOUS
 70
0
 71
3
 72
15
 73
11
 74
0
 42
0.0000001
 43
0.0000001
 44
0.0000000001
 40
0.0
 40
0.0
 40
0.0
 40
0.0
 40
0.0828989561
 40
0.1783842679
 40
0.2861740662
 40
0.4059645803
 40
0.5374922711
 40
0.6805165504
 40
0.8347886876
 40
1.0
 40
1.0
 40
1.0
 40
1.0
 10
5.2085436489
 20
3.5309269511
 30
0.0
 10
5.2072231149
 20
3.5359477176
 30
0.0
 10
5.2046381123
 20
3.546819173
 30
0.0
 10
5.2010449447
 20
3.5643786948
 30
0.0
 10
5.1974666197
 20
3.5842932801
 30
0.0
 10
5.1939080184
 20
3.606500003
 30
0.0
 10
5.1903691376
 20
3.630941478
 30
0.0
 10
5.186846754
 20
3.6575650061
 30
0.0
 10
5.1833381613
 20
3.686316523
 30
0.0
 10
5.1810813476
 20
3.7061966163
 30
0.0
 10
5.1799489726
 20
3.7164807715
 30
0.0
  0
LINE
  5
38B
100
AcDbEntity
  8
ALL_ASSEMBLY_MEMBERS
100
AcDbLine
 62
7
  6
CONTINUOUS
 10
5.1799489726
 20
3.7164807715
 11
5.1797228613
 21
3.7185385678
  0
SPLINE
  5
38C
100
AcDbEntity
  8
ALL_ASSEMBLY_MEMBERS
100
AcDbSpline
 62
7
  6
CONTINUOUS
 70
0
 71
3
 72
28
 73
24
 74
0
 42
0.0000001
 43
0.0000001
 44
0.0000000001
 40
0.0
 40
0.0
 40
0.0
 40
0.0
 40
0.0432975081
 40
0.0912049909
 40
0.1433517006
 40
0.1993542855
 40
0.2588003336
 40
0.3212501648
 40
0.4532740327
 40
0.5218462919
 40
0.5914209249
 40
0.6264155673
 40
0.661457784
 40
0.6964789167
 40
0.7314115353
 40
0.7661908675
 40
0.8007526581
 40
0.8350330567
 40
0.8689691932
 40
0.9024984919
 40
0.9355550227
 40
0.9680770036
 40
1.0
 40
1.0
 40
1.0
 40
1.0
 10
5.1797228613
 20
3.7185385678
 30
0.0
 10
5.1772601086
 20
3.7409980371
 30
0.0
 10
5.1724097302
 20
3.7883453525
 30
0.0
 10
5.1654956391
 20
3.8628315736
 30
0.0
 10
5.1585787034
 20
3.9439736073
 30
0.0
 10
5.1516870169
 20
4.0311589769
 30
0.0
 10
5.1448792128
 20
4.1237428372
 30
0.0
 10
5.1358080856
 20
4.2559361792
 30
0.0
 10
5.1273199317
 20
4.3929416421
 30
0.0
 10
5.1194481245
 20
4.5337061061
 30
0.0
 10
5.1147665777
 20
4.6239360844
 30
0.0
 10
5.1112136926
 20
4.6967033939
 30
0.0
 10
5.1086611466
 20
4.751466774
 30
0.0
 10
5.1062575135
 20
4.806204517
 30
0.0
 10
5.1040281866
 20
4.8608123523
 30
0.0
 10
5.101980944
 20
4.9151874529
 30
0.0
 10
5.1001325934
 20
4.9692291586
 30
0.0
 10
5.0985179984
 20
5.0228381999
 30
0.0
 10
5.0971810282
 20
5.0759160107
 30
0.0
 10
5.0961773249
 20
5.1283625197
 30
0.0
 10
5.0955886579
 20
5.1800776679
 30
0.0
 10
5.0955326586
 20
5.2309581691
 30
0.0
 10
5.0959722442
 20
5.2645868961
 30
0.0
 10
5.0963621534
 20
5.2812408213
 30
0.0
  0
SPLINE
  5
38D
100
AcDbEntity
  8
ALL_ASSEMBLY_MEMBERS
100
AcDbSpline
 62
7
  6
CONTINUOUS
 70
0
 71
3
 72
28
 73
24
 74
0
 42
0.0000001
 43
0.0000001
 44
0.0000000001
 40
0.0
 40
0.0
 40
0.0
 40
0.0
 40
0.0294321276
 40
0.0589945934
 40
0.0887095258
 40
0.1185830941
 40
0.1486123835
 40
0.1787919265
 40
0.2395789573
 40
0.3009019578
 40
0.3627162208
 40
0.3937944467
 40
0.4249802322
 40
0.4562692023
 40
0.487657132
 40
0.5507131753
 40
0.6141151843
 40
0.6778308951
 40
0.7418278447
 40
0.8060719784
 40
0.8705332916
 40
0.9351852884
 40
1.0
 40
1.0
 40
1.0
 40
1.0
 10
5.1553772469
 20
5.2556173435
 30
0.0
 10
5.1556533099
 20
5.2653394357
 30
0.0
 10
5.1563670924
 20
5.2848229019
 30
0.0
 10
5.1580313909
 20
5.3140915761
 30
0.0
 10
5.1600943087
 20
5.3434803842
 30
0.0
 10
5.1625465069
 20
5.3729942568
 30
0.0
 10
5.16538992
 20
5.4026270609
 30
0.0
 10
5.1696209645
 20
5.4423868906
 30
0.0
 10
5.175599109
 20
5.4923575096
 30
0.0
 10
5.1834892677
 20
5.5526224597
 30
0.0
 10
5.1903460777
 20
5.6031204476
 30
0.0
 10
5.1958159076
 20
5.6437563391
 30
0.0
 10
5.1998693211
 20
5.6744045953
 30
0.0
 10
5.2038654088
 20
5.7051635723
 30
0.0
 10
5.2091475168
 20
5.7463756197
 30
0.0
 10
5.2156683204
 20
5.7981275562
 30
0.0
 10
5.2234403653
 20
5.86048909
 30
0.0
 10
5.2312586449
 20
5.9231582049
 30
0.0
 10
5.2391935634
 20
5.9860931752
 30
0.0
 10
5.2473550798
 20
6.0492478172
 30
0.0
 10
5.2559100173
 20
6.1125689416
 30
0.0
 10
5.2648143718
 20
6.1760321033
 30
0.0
 10
5.2709022719
 20
6.2183797709
 30
0.0
 10
5.2739565919
 20
6.2395792586
 30
0.0
  0
LINE
  5
38E
100
AcDbEntity
  8
ALL_ASSEMBLY_MEMBERS
100
AcDbLine
 62
7
  6
CONTINUOUS
 10
5.2739565919
 20
6.2395792586
 11
5.2792378551
 21
6.2762271885
  0
SPLINE
  5
38F
100
AcDbEntity
  8
ALL_ASSEMBLY_MEMBERS
100
AcDbSpline
 62
7
  6
CONTINUOUS
 70
0
 71
3
 72
14
 73
10
 74
0
 42
0.0000001
 43
0.0000001
 44
0.0000000001
 40
0.0
 40
0.0
 40
0.0
 40
0.0
 40
0.1000288534
 40
0.2090772968
 40
0.3262605809
 40
0.4506647865
 40
0.5813065832
 40
0.7171490878
 40
1.0
 40
1.0
 40
1.0
 40
1.0
 10
5.2314939401
 20
3.835491794
 30
0.0
 10
5.2289389203
 20
3.8601776484
 30
0.0
 10
5.2238893909
 20
3.9118055594
 30
0.0
 10
5.2167127765
 20
3.9924346625
 30
0.0
 10
5.2096332967
 20
4.0791415772
 30
0.0
 10
5.2026914096
 20
4.1712329966
 30
0.0
 10
5.1959111831
 20
4.2679777527
 30
0.0
 10
5.1870024336
 20
4.4039798002
 30
0.0
 10
5.1808536121
 20
4.507679185
 30
0.0
 10
5.1769328177
 20
4.577746488
 30
0.0
  0
LINE
  5
390
100
AcDbEntity
  8
ALL_ASSEMBLY_MEMBERS
100
AcDbLine
 62
7
  6
CONTINUOUS
 10
5.2647051619
 20
3.6000349824
 11
5.2677019496
 21
3.588793444
  0
SPLINE
  5
391
100
AcDbEntity
  8
ALL_ASSEMBLY_MEMBERS
100
AcDbSpline
 62
7
  6
CONTINUOUS
 70
0
 71
3
 72
24
 73
20
 74
0
 42
0.0000001
 43
0.0000001
 44
0.0000000001
 40
0.0
 40
0.0
 40
0.0
 40
0.0
 40
0.1132933427
 40
0.2298828727
 40
0.2895189217
 40
0.3500851239
 40
0.4740263099
 40
0.5373983615
 40
0.5694162415
 40
0.6016436574
 40
0.6666925941
 40
0.7324678594
 40
0.765588614
 40
0.7988383399
 40
0.8321965767
 40
0.865646453
 40
0.899172309
 40
0.9327547497
 40
1.0
 40
1.0
 40
1.0
 40
1.0
 10
5.602536722
 20
7.1431491359
 30
0.0
 10
5.5844797657
 20
7.1227899749
 30
0.0
 10
5.5497936384
 20
7.0797068028
 30
0.0
 10
5.5113135372
 20
7.0216614844
 30
0.0
 10
5.4831411201
 20
6.9722319872
 30
0.0
 10
5.4564088911
 20
6.9200177053
 30
0.0
 10
5.4328354148
 20
6.8652470646
 30
0.0
 10
5.4150657644
 20
6.8156389416
 30
0.0
 10
5.4056277719
 20
6.7864719262
 30
0.0
 10
5.3966786879
 20
6.7567308683
 30
0.0
 10
5.386566789
 20
6.7188813161
 30
0.0
 10
5.3779520672
 20
6.6804450154
 30
0.0
 10
5.3718612441
 20
6.6492921967
 30
0.0
 10
5.3676766492
 20
6.62570441
 30
0.0
 10
5.3638812344
 20
6.6019710718
 30
0.0
 10
5.3604274059
 20
6.5781189783
 30
0.0
 10
5.3572235611
 20
6.5541780463
 30
0.0
 10
5.3531733352
 20
6.5221613825
 30
0.0
 10
5.350261935
 20
6.4981181445
 30
0.0
 10
5.348261784
 20
6.4820901711
 30
0.0
  0
SPLINE
  5
392
100
AcDbEntity
  8
ALL_ASSEMBLY_MEMBERS
100
AcDbSpline
 62
7
  6
CONTINUOUS
 70
0
 71
3
 72
23
 73
19
 74
0
 42
0.0000001
 43
0.0000001
 44
0.0000000001
 40
0.0
 40
0.0
 40
0.0
 40
0.0
 40
0.0670510857
 40
0.1005309305
 40
0.1339600253
 40
0.2005696236
 40
0.2337124703
 40
0.2667255659
 40
0.3322879525
 40
0.3971389578
 40
0.461203945
 40
0.5244301056
 40
0.5867856037
 40
0.6482575071
 40
0.7088577979
 40
0.7686066149
 40
0.8857101881
 40
1.0
 40
1.0
 40
1.0
 40
1.0
 10
5.348261784
 20
6.4820901711
 30
0.0
 10
5.3503953541
 20
6.4983199693
 30
0.0
 10
5.3536364603
 20
6.5226482765
 30
0.0
 10
5.3582159353
 20
6.5550305845
 30
0.0
 10
5.3630092584
 20
6.5872724113
 30
0.0
 10
5.3683191089
 20
6.6193564619
 30
0.0
 10
5.3745622016
 20
6.6511646347
 30
0.0
 10
5.3814334685
 20
6.6825808826
 30
0.0
 10
5.3911987903
 20
6.7212790547
 30
0.0
 10
5.4048056315
 20
6.7667816685
 30
0.0
 10
5.4202111163
 20
6.811104535
 30
0.0
 10
5.4373544725
 20
6.8541296461
 30
0.0
 10
5.4561682872
 20
6.8957576386
 30
0.0
 10
5.4765848739
 20
6.9359053419
 30
0.0
 10
5.4985218919
 20
6.9745136393
 30
0.0
 10
5.5294894014
 20
7.0235403207
 30
0.0
 10
5.5716112429
 20
7.0809270583
 30
0.0
 10
5.6092287738
 20
7.1231986232
 30
0.0
 10
5.6287351587
 20
7.1431491359
 30
0.0
  0
SPLINE
  5
393
100
AcDbEntity
  8
ALL_ASSEMBLY_MEMBERS
100
AcDbSpline
 62
7
  6
CONTINUOUS
 70
0
 71
3
 72
9
 73
5
 74
0
 42
0.0000001
 43
0.0000001
 44
0.0000000001
 40
0.0
 40
0.0
 40
0.0
 40
0.0
 40
0.5015659186
 40
1.0
 40
1.0
 40
1.0
 40
1.0
 10
5.2013996524
 20
5.3397123384
 30
0.0
 10
5.1999362455
 20
5.3227064581
 30
0.0
 10
5.1973894948
 20
5.2887670086
 30
0.0
 10
5.1958525921
 20
5.2547638298
 30
0.0
 10
5.1953789232
 20
5.2378082943
 30
0.0
  0
SPLINE
  5
394
100
AcDbEntity
  8
ALL_ASSEMBLY_MEMBERS
100
AcDbSpline
 62
7
  6
CONTINUOUS
 70
0
 71
3
 72
9
 73
5
 74
0
 42
0.0000001
 43
0.0000001
 44
0.0000000001
 40
0.0
 40
0.0
 40
0.0
 40
0.0
 40
0.4984723073
 40
1.0
 40
1.0
 40
1.0
 40
1.0
 10
5.1963944611
 20
5.2386074774
 30
0.0
 10
5.1968183708
 20
5.2554225397
 30
0.0
 10
5.1985770734
 20
5.289122476
 30
0.0
 10
5.200033737
 20
5.3228440453
 30
0.0
 10
5.2013996524
 20
5.3397123384
 30
0.0
  0
SPLINE
  5
395
100
AcDbEntity
  8
ALL_ASSEMBLY_MEMBERS
100
AcDbSpline
 62
7
  6
CONTINUOUS
 70
0
 71
3
 72
15
 73
11
 74
0
 42
0.0000001
 43
0.0000001
 44
0.0000000001
 40
0.0
 40
0.0
 40
0.0
 40
0.0
 40
0.1179208207
 40
0.1780619644
 40
0.2389155125
 40
0.362512449
 40
0.4881963722
 40
0.6154190955
 40
0.7435803771
 40
1.0
 40
1.0
 40
1.0
 40
1.0
 10
5.1956127137
 20
5.2372987664
 30
0.0
 10
5.1947573027
 20
5.2126360359
 30
0.0
 10
5.1941107634
 20
5.1753711746
 30
0.0
 10
5.1941536264
 20
5.1253725958
 30
0.0
 10
5.1947072732
 20
5.0741885153
 30
0.0
 10
5.1961949882
 20
5.0093006516
 30
0.0
 10
5.1989782318
 20
4.9305566753
 30
0.0
 10
5.2025118435
 20
4.8508872535
 30
0.0
 10
5.2079514124
 20
4.7439187228
 30
0.0
 10
5.2125333261
 20
4.6635663999
 30
0.0
 10
5.2157107007
 20
4.609999028
 30
0.0
  0
SPLINE
  5
396
100
AcDbEntity
  8
ALL_ASSEMBLY_MEMBERS
100
AcDbSpline
 62
7
  6
CONTINUOUS
 70
0
 71
3
 72
29
 73
25
 74
0
 42
0.0000001
 43
0.0000001
 44
0.0000000001
 40
0.0
 40
0.0
 40
0.0
 40
0.0
 40
0.063902451
 40
0.1280099356
 40
0.1922216816
 40
0.2564428334
 40
0.3205916494
 40
0.3845884028
 40
0.448354556
 40
0.5118120664
 40
0.5748841514
 40
0.6374959486
 40
0.6995802911
 40
0.7304060199
 40
0.7610769592
 40
0.7915841973
 40
0.8219192581
 40
0.8520750285
 40
0.8820474594
 40
0.911832603
 40
0.9266538606
 40
0.9414263927
 40
0.9708184526
 40
1.0
 40
1.0
 40
1.0
 40
1.0
 10
5.2157107007
 20
4.609999028
 30
0.0
 10
5.2149740716
 20
4.6233496084
 30
0.0
 10
5.2135686632
 20
4.6500974896
 30
0.0
 10
5.2115904879
 20
4.6902691107
 30
0.0
 10
5.2096557273
 20
4.7305095901
 30
0.0
 10
5.2077146095
 20
4.7707584208
 30
0.0
 10
5.2058311318
 20
4.8109649856
 30
0.0
 10
5.2040603943
 20
4.8510814074
 30
0.0
 10
5.2024142856
 20
4.8910583594
 30
0.0
 10
5.2008834254
 20
4.9308462667
 30
0.0
 10
5.1994847475
 20
4.9703973945
 30
0.0
 10
5.1982625689
 20
5.0096669579
 30
0.0
 10
5.197400866
 20
5.0421969087
 30
0.0
 10
5.1967966264
 20
5.0680478296
 30
0.0
 10
5.1963915915
 20
5.0872944106
 30
0.0
 10
5.1960667221
 20
5.1064398586
 30
0.0
 10
5.1958486023
 20
5.1254791183
 30
0.0
 10
5.1957749529
 20
5.1444075407
 30
0.0
 10
5.19576224
 20
5.163220886
 30
0.0
 10
5.1957243796
 20
5.1788257213
 30
0.0
 10
5.1956246054
 20
5.1912497388
 30
0.0
 10
5.1954972878
 20
5.2035912232
 30
0.0
 10
5.1953718238
 20
5.2189376112
 30
0.0
 10
5.1954708916
 20
5.2311944949
 30
0.0
 10
5.1956127137
 20
5.2372987664
 30
0.0
  0
SPLINE
  5
397
100
AcDbEntity
  8
ALL_ASSEMBLY_MEMBERS
100
AcDbSpline
 62
7
  6
CONTINUOUS
 70
0
 71
3
 72
16
 73
12
 74
0
 42
0.0000001
 43
0.0000001
 44
0.0000000001
 40
0.0
 40
0.0
 40
0.0
 40
0.0
 40
0.2594150809
 40
0.3906106865
 40
0.5157729031
 40
0.6348840608
 40
0.7576133134
 40
0.8237508825
 40
0.8873124099
 40
0.9447322072
 40
1.0
 40
1.0
 40
1.0
 40
1.0
 10
5.1956127137
 20
5.2372987664
 30
0.0
 10
5.19570625
 20
5.2373186773
 30
0.0
 10
5.1958505061
 20
5.23732864
 30
0.0
 10
5.1960391191
 20
5.2373528489
 30
0.0
 10
5.1961739141
 20
5.2373869632
 30
0.0
 10
5.1962954304
 20
5.2374514271
 30
0.0
 10
5.1963706756
 20
5.2375406124
 30
0.0
 10
5.1964087365
 20
5.2376260481
 30
0.0
 10
5.1964235716
 20
5.2376940024
 30
0.0
 10
5.1964175618
 20
5.2377606231
 30
0.0
 10
5.1963910775
 20
5.2377962872
 30
0.0
 10
5.1963746173
 20
5.2378082943
 30
0.0
  0
SPLINE
  5
398
100
AcDbEntity
  8
ALL_ASSEMBLY_MEMBERS
100
AcDbSpline
 62
7
  6
CONTINUOUS
 70
0
 71
3
 72
12
 73
8
 74
0
 42
0.0000001
 43
0.0000001
 44
0.0000000001
 40
0.0
 40
0.0
 40
0.0
 40
0.0
 40
0.2819320359
 40
0.5445822394
 40
0.7849577251
 40
0.8958713606
 40
1.0
 40
1.0
 40
1.0
 40
1.0
 10
5.2435186992
 20
4.1861433333
 30
0.0
 10
5.2461364412
 20
4.1510296628
 30
0.0
 10
5.2514067683
 20
4.0832194122
 30
0.0
 10
5.2597506189
 20
3.9855390417
 30
0.0
 10
5.2669907138
 20
3.9092036668
 30
0.0
 10
5.2728920499
 20
3.8526321542
 30
0.0
 10
5.2758716637
 20
3.825940502
 30
0.0
 10
5.2773718949
 20
3.8130224698
 30
0.0
  0
SPLINE
  5
399
100
AcDbEntity
  8
ALL_ASSEMBLY_MEMBERS
100
AcDbSpline
 62
7
  6
CONTINUOUS
 70
0
 71
3
 72
16
 73
12
 74
0
 42
0.0000001
 43
0.0000001
 44
0.0000000001
 40
0.0
 40
0.0
 40
0.0
 40
0.0
 40
0.1699023393
 40
0.328088454
 40
0.4739360564
 40
0.6068771521
 40
0.7264244861
 40
0.832109383
 40
0.9234518244
 40
0.9636011825
 40
1.0
 40
1.0
 40
1.0
 40
1.0
 10
5.2773718949
 20
3.8130224698
 30
0.0
 10
5.2786012439
 20
3.8024369214
 30
0.0
 10
5.2810498565
 20
3.7820043295
 30
0.0
 10
5.2848526771
 20
3.7525216683
 30
0.0
 10
5.2886559424
 20
3.725378003
 30
0.0
 10
5.2924562582
 20
3.7006831999
 30
0.0
 10
5.2962466116
 20
3.6785382761
 30
0.0
 10
5.3000212715
 20
3.6590423063
 30
0.0
 10
5.3032682627
 20
3.644520997
 30
0.0
 10
5.305895216
 20
3.6343225808
 30
0.0
 10
5.3072113588
 20
3.6297043699
 30
0.0
 10
5.307873694
 20
3.6275195337
 30
0.0
  0
SPLINE
  5
39A
100
AcDbEntity
  8
ALL_ASSEMBLY_MEMBERS
100
AcDbSpline
 62
7
  6
CONTINUOUS
 70
0
 71
3
 72
16
 73
12
 74
0
 42
0.0000001
 43
0.0000001
 44
0.0000000001
 40
0.0
 40
0.0
 40
0.0
 40
0.0
 40
0.0363669275
 40
0.0764911782
 40
0.167799216
 40
0.2734659933
 40
0.3930094494
 40
0.5259603975
 40
0.6718307231
 40
0.8300514576
 40
1.0
 40
1.0
 40
1.0
 40
1.0
 10
5.3084163475
 20
3.6275195337
 30
0.0
 10
5.3077637107
 20
3.6297057649
 30
0.0
 10
5.3064660783
 20
3.6343266449
 30
0.0
 10
5.3038737913
 20
3.6445305599
 30
0.0
 10
5.3006665438
 20
3.6590592123
 30
0.0
 10
5.2969380658
 20
3.678565248
 30
0.0
 10
5.2931951572
 20
3.700722843
 30
0.0
 10
5.289440066
 20
3.7254323523
 30
0.0
 10
5.2856776498
 20
3.7525925015
 30
0.0
 10
5.281906403
 20
3.7820928436
 30
0.0
 10
5.2794684731
 20
3.8025367059
 30
0.0
 10
5.2782413457
 20
3.8131279796
 30
0.0
  0
SPLINE
  5
39B
100
AcDbEntity
  8
ALL_ASSEMBLY_MEMBERS
100
AcDbSpline
 62
7
  6
CONTINUOUS
 70
0
 71
3
 72
16
 73
12
 74
0
 42
0.0000001
 43
0.0000001
 44
0.0000000001
 40
0.0
 40
0.0
 40
0.0
 40
0.0
 40
0.104132887
 40
0.2150501318
 40
0.3322873973
 40
0.4554270878
 40
0.584134748
 40
0.6504742623
 40
0.7180775373
 40
0.8568503953
 40
1.0
 40
1.0
 40
1.0
 40
1.0
 10
5.2782413457
 20
3.8131279796
 30
0.0
 10
5.2767446507
 20
3.8260458777
 30
0.0
 10
5.2737618661
 20
3.8527358791
 30
0.0
 10
5.2694311808
 20
3.8940062251
 30
0.0
 10
5.2651169539
 20
3.9376641151
 30
0.0
 10
5.2608207415
 20
3.9835555917
 30
0.0
 10
5.2572569015
 20
4.0231312871
 30
0.0
 10
5.2543691276
 20
4.0558042118
 30
0.0
 10
5.2514044255
 20
4.0897321841
 30
0.0
 10
5.2477061406
 20
4.13322477
 30
0.0
 10
5.2448914017
 20
4.1683193175
 30
0.0
 10
5.2435186992
 20
4.1861433333
 30
0.0
  0
ENDSEC
  0
SECTION
  2
OBJECTS
  0
DICTIONARY
  5
C
100
AcDbDictionary
280
0
281
1
  3
ACAD_GROUP
350
D
  3
ACAD_MLINESTYLE
350
17
  3
ACAD_LAYOUT
350
1A
  3
ACAD_PLOTSETTINGS
350
19
  3
ACAD_PLOTSTYLENAME
350
E
  0
DICTIONARY
  5
D
102
{ACAD_REACTORS
330
C
102
}
100
AcDbDictionary
280
0
281
1
  0
ACDBDICTIONARYWDFLT
  5
E
102
{ACAD_REACTORS
330
C
102
}
100
AcDbDictionary
281
1
  3
Normal
350
F
100
AcDbDictionaryWithDefault
340
F
  0
DICTIONARY
  5
17
102
{ACAD_REACTORS
330
C
102
}
100
AcDbDictionary
280
0
281
1
  3
Standard
350
18
  0
DICTIONARY
  5
19
102
{ACAD_REACTORS
330
C
102
}
100
AcDbDictionary
281
1
  0
DICTIONARY
  5
1A
102
{ACAD_REACTORS
330
C
102
}
100
AcDbDictionary
281
1
  3
Model
350
39C
  3
Layout1
350
39D
  0
ACDBPLACEHOLDER
  5
F
102
{ACAD_REACTORS
330
E
102
}
  0
MLINESTYLE
  5
18
102
{ACAD_REACTORS
330
17
102
}
100
AcDbMlineStyle
  2
STANDARD
 70
0
  3

 62
256
 51
90.0
 52
90.0
 71
2
 49
0.5
 62
256
  6
BYLAYER
 49
-0.5
 62
256
  6
BYLAYER
  0
LAYOUT
  5
39C
102
{ACAD_REACTORS
330
1A
102
}
100
AcDbPlotSettings
  1

  2
none_device
  4
ANSI_A_(11.00_x_8.50_Inches)
  6

 40
0.0
 41
0.0
 42
0.0
 43
0.0
 44
279.4
 45
215.9
 46
0.0
 47
0.0
 48
0.0
 49
0.0
140
0.0
141
0.0
142
1.0
143
1.0
 70
1024
 72
0
 73
0
 74
0
  7

 75
0
147
1.0
148
0.0
149
0.0
100
AcDbLayout
  1
Model
 70
0
 71
0
 10
0.0
 20
0.0
 11
11.0
 21
8.5
 12
0.0
 22
0.0
 32
0.0
 14
0.0
 24
0.0
 34
0.0
 15
0.0
 25
0.0
 35
0.0
146
0.0
 13
0.0
 23
0.0
 33
0.0
 16
1.0
 26
0.0
 36
0.0
 17
0.0
 27
1.0
 37
0.0
 76
0
330
213
345
0
346
0
  0
LAYOUT
  5
39D
102
{ACAD_REACTORS
330
1A
102
}
100
AcDbPlotSettings
  1

  2
none_device
  4
ANSI_A_(11.00_x_8.50_Inches)
  6

 40
0.0
 41
0.0
 42
0.0
 43
0.0
 44
279.4
 45
215.9
 46
0.0
 47
0.0
 48
0.0
 49
0.0
140
0.0
141
0.0
142
1.0
143
1.0
 70
0
 72
0
 73
0
 74
0
  7

 75
0
147
1.0
148
0.0
149
0.0
100
AcDbLayout
  1
Layout1
 70
0
 71
1
 10
0.0
 20
0.0
 11
11.0
 21
8.5
 12
0.0
 22
0.0
 32
0.0
 14
0.0
 24
0.0
 34
0.0
 15
0.0
 25
0.0
 35
0.0
146
0.0
 13
0.0
 23
0.0
 33
0.0
 16
1.0
 26
0.0
 36
0.0
 17
0.0
 27
1.0
 37
0.0
 76
0
330
214
345
0
346
0
  0
ENDSEC
  0
EOF
