999
DXF file: 80-09_front.dxf
999
Pro/ENGINEER 2013150 by Parametric Technology Corporation
  0
SECTION
  2
HEADER
  9
$ACADVER
  1
AC1021
  9
$DWGCODEPAGE
  3
ANSI_1252
  9
$EXTMAX
 10
11.0
 20
8.5
 30
0.0
  9
$EXTMIN
 10
0.0
 20
0.0
 30
0.0
  9
$LIMMIN
 10
0.0
 20
0.0
  9
$LIMMAX
 10
11.0
 20
8.5
  9
$VIEWCTR
 10
5.5
 20
4.25
  9
$VIEWSIZE
 40
8.5
  9
$CLAYER
  8
0
  9
$LTSCALE
 40
0.605
  9
$CELTYPE
  6
BYLAYER
  9
$DIMSCALE
 40
1.0
  9
$DIMASZ
 40
0.1
  9
$DIMEXO
 40
0.0625
  9
$DIMDLI
 40
0.418
  9
$DIMEXE
 40
0.125
  9
$DIMCEN
 40
0.099
  9
$DIMLFAC
 40
1.0
  9
$DIMBLK
  1
_FILLED
  9
$DIMTXT
 40
0.08
  9
$DIMTOL
 70
1
  9
$DIMLIM
 70
0
  9
$DIMTFAC
 40
1.0
  9
$DIMTP
 40
0.001
  9
$DIMTM
 40
0.001
  9
$DIMGAP
 40
0.09
  9
$DIMDSEP
 70
46
  9
$PDMODE
 70
3
  9
$PDSIZE
 40
0.06
  9
$HANDSEED
  5
253
  9
$TILEMODE
 70
1
  9
$MEASUREMENT
 70
0
  9
$INSUNITS
 70
1
  0
ENDSEC
  0
SECTION
  2
CLASSES
  0
CLASS
  1
ACDBDICTIONARYWDFLT
  2
AcDbDictionaryWithDefault
  3
AutoCAD 2000
 90
0
 91
1
280
0
281
0
  0
CLASS
  1
ACDBPLACEHOLDER
  2
AcDbPlaceHolder
  3
AutoCAD 2000
 90
0
 91
1
280
0
281
0
  0
CLASS
  1
LAYOUT
  2
AcDbLayout
  3
AutoCAD 2000
 90
0
 91
0
280
0
281
0
  0
ENDSEC
  0
SECTION
  2
TABLES
  0
TABLE
  2
VPORT
  5
8
100
AcDbSymbolTable
 70
2
  0
VPORT
  5
1F4
100
AcDbSymbolTableRecord
100
AcDbViewportTableRecord
  2
*ACTIVE
 70
0
 10
0.0
 20
0.0
 11
1.0
 21
1.0
 12
5.5
 22
4.25
 13
0.0
 23
0.0
 14
1.0
 24
1.0
 15
0.0
 25
0.0
 16
0.0
 26
0.0
 36
1.0
 17
0.0
 27
0.0
 37
0.0
 40
8.5
 41
1.2941176471
 42
50.0
 43
0.0
 44
0.0
 50
0.0
 51
0.0
 71
0
 72
100
 73
1
 74
1
 75
0
 76
0
 77
0
 78
0
  0
ENDTAB
  0
TABLE
  2
LTYPE
  5
5
100
AcDbSymbolTable
 70
6
  0
LTYPE
  5
14
100
AcDbSymbolTableRecord
100
AcDbLinetypeTableRecord
  2
BYBLOCK
 70
0
  3

 72
65
 73
0
 40
0.0
  0
LTYPE
  5
15
100
AcDbSymbolTableRecord
100
AcDbLinetypeTableRecord
  2
BYLAYER
 70
0
  3

 72
65
 73
0
 40
0.0
  0
LTYPE
  5
16
100
AcDbSymbolTableRecord
100
AcDbLinetypeTableRecord
  2
CONTINUOUS
 70
64
  3
Solid line
 72
65
 73
0
 40
0.0
  0
LTYPE
  5
1F5
100
AcDbSymbolTableRecord
100
AcDbLinetypeTableRecord
  2
CENTER
 70
64
  3
____ _ ____ _ ____ _ ____ _ ____ _ ____ _ ____
 72
65
 73
4
 40
0.6
 49
0.375
 74
0
 49
-0.075
 74
0
 49
0.075
 74
0
 49
-0.075
 74
0
  0
LTYPE
  5
1F6
100
AcDbSymbolTableRecord
100
AcDbLinetypeTableRecord
  2
HIDDEN
 70
64
  3
- - - - - - - - - - - - - - - - - - - -
 72
65
 73
2
 40
0.2
 49
0.1
 74
0
 49
-0.1
 74
0
  0
LTYPE
  5
1F7
100
AcDbSymbolTableRecord
100
AcDbLinetypeTableRecord
  2
PHANTOM
 70
64
  3
_____ _ _ _____ _ _ _____ _ _ _____
 72
65
 73
6
 40
0.8
 49
0.45
 74
0
 49
-0.05
 74
0
 49
0.1
 74
0
 49
-0.05
 74
0
 49
0.1
 74
0
 49
-0.05
 74
0
  0
LTYPE
  5
1F8
100
AcDbSymbolTableRecord
100
AcDbLinetypeTableRecord
  2
DOT
 70
64
  3
. . . . . . . . . . . . . . . . . . . .
 72
65
 73
2
 40
0.2
 49
0.1
 74
0
 49
-0.1
 74
0
  0
LTYPE
  5
1F9
100
AcDbSymbolTableRecord
100
AcDbLinetypeTableRecord
  2
DASHED
 70
64
  3
- - - - - - - - - - - - - - - - - - - -
 72
65
 73
2
 40
0.2
 49
0.1
 74
0
 49
-0.1
 74
0
  0
ENDTAB
  0
TABLE
  2
LAYER
  5
2
100
AcDbSymbolTable
 70
36
  0
LAYER
  5
10
100
AcDbSymbolTableRecord
100
AcDbLayerTableRecord
  2
0
 70
0
 62
7
  6
CONTINUOUS
370
-3
390
F
  0
LAYER
  5
1FA
100
AcDbSymbolTableRecord
100
AcDbLayerTableRecord
  2
DEFAULT_1
 70
0
 62
7
  6
CENTER
370
-3
390
F
  0
LAYER
  5
1FB
100
AcDbSymbolTableRecord
100
AcDbLayerTableRecord
  2
DEFAULT_2
 70
0
 62
8
  6
HIDDEN
370
-3
390
F
  0
LAYER
  5
1FC
100
AcDbSymbolTableRecord
100
AcDbLayerTableRecord
  2
DEFAULT_3
 70
0
 62
7
  6
PHANTOM
370
-3
390
F
  0
LAYER
  5
1FD
100
AcDbSymbolTableRecord
100
AcDbLayerTableRecord
  2
DEFAULT_DATUM_CURVES
 70
0
 62
7
  6
CONTINUOUS
370
-3
390
F
  0
ENDTAB
  0
TABLE
  2
STYLE
  5
3
100
AcDbSymbolTable
 70
1
  0
STYLE
  5
11
100
AcDbSymbolTableRecord
100
AcDbTextStyleTableRecord
  2
STANDARD
 70
0
 40
0.0
 41
0.8
 50
0.0
 71
0
 42
0.2
  3
txt
  4

  0
STYLE
  5
1FE
100
AcDbSymbolTableRecord
100
AcDbTextStyleTableRecord
  2
TEXTSTYLE_1
 70
0
 40
0.0
 41
0.8
 50
0.0
 71
0
 42
0.2
  3
gdt
  4

  0
ENDTAB
  0
TABLE
  2
VIEW
  5
6
100
AcDbSymbolTable
 70
0
  0
ENDTAB
  0
TABLE
  2
UCS
  5
7
100
AcDbSymbolTable
 70
0
  0
ENDTAB
  0
TABLE
  2
APPID
  5
9
100
AcDbSymbolTable
 70
1
  0
APPID
  5
1FF
100
AcDbSymbolTableRecord
100
AcDbRegAppTableRecord
  2
ACAD
 70
0
  0
ENDTAB
  0
TABLE
  2
BLOCK_RECORD
  5
1
100
AcDbSymbolTable
 70
0
  0
BLOCK_RECORD
  5
200
100
AcDbSymbolTableRecord
100
AcDbBlockTableRecord
  2
*Model_Space
  0
BLOCK_RECORD
  5
201
100
AcDbSymbolTableRecord
100
AcDbBlockTableRecord
  2
*Paper_Space
  0
ENDTAB
  0
TABLE
  2
DIMSTYLE
  5
A
100
AcDbSymbolTable
 70
1
100
AcDbDimStyleTable
 71
0
  0
DIMSTYLE
105
202
100
AcDbSymbolTableRecord
100
AcDbDimStyleTableRecord
  2
STANDARD
 70
0
  3

  4

 40
1.0
 41
0.1
 42
0.0625
 43
0.38
 44
0.125
 45
0.0
 46
0.0
 47
0.001
 48
0.001
140
0.08
141
0.09
142
0.0
143
25.4
144
1.0
145
0.0
146
1.0
147
0.09
 71
1.0
 72
0.0
 73
1
 74
1
 75
0
 76
0
 77
0
 78
4
170
0
171
2
172
0
173
0
174
0
175
0
176
0
177
0
178
0
270
2
271
3
272
3
273
2
274
2
275
0
280
0
281
0
282
0
283
1
284
4
285
0
286
0
287
3
288
0
340
11
278
46
  0
ENDTAB
  0
ENDSEC
  0
SECTION
  2
BLOCKS
  0
BLOCK
  5
20
100
AcDbEntity
  8
0
100
AcDbBlockBegin
  2
*Model_Space
 70
0
 10
0.0
 20
0.0
 30
0.0
  3
*Model_Space
  1

  0
ENDBLK
  5
21
100
AcDbEntity
  8
0
100
AcDbBlockEnd
  0
BLOCK
  5
1C
100
AcDbEntity
  8
0
100
AcDbBlockBegin
  2
*Paper_Space
 70
0
 10
0.0
 20
0.0
 30
0.0
  3
*Paper_Space
  1

  0
ENDBLK
  5
1D
100
AcDbEntity
  8
0
100
AcDbBlockEnd
  0
ENDSEC
  0
SECTION
  2
ENTITIES
  0
LINE
  5
203
100
AcDbEntity
  8
0
100
AcDbLine
 62
7
  6
CONTINUOUS
 10
0.0
 20
0.0
 11
0.0
 21
8.5
  0
LINE
  5
204
100
AcDbEntity
  8
0
100
AcDbLine
 62
7
  6
CONTINUOUS
 10
0.0
 20
0.0
 11
11.0
 21
0.0
  0
LINE
  5
205
100
AcDbEntity
  8
0
100
AcDbLine
 62
7
  6
CONTINUOUS
 10
0.0
 20
8.5
 11
11.0
 21
8.5
  0
LINE
  5
206
100
AcDbEntity
  8
0
100
AcDbLine
 62
7
  6
CONTINUOUS
 10
11.0
 20
0.0
 11
11.0
 21
8.5
  0
LINE
  5
207
100
AcDbEntity
  8
0
100
AcDbLine
 62
7
  6
CONTINUOUS
 10
6.2318578899
 20
1.3272338001
 11
3.2791019844
 21
1.3272338001
  0
LINE
  5
208
100
AcDbEntity
  8
0
100
AcDbLine
 62
7
  6
CONTINUOUS
 10
6.2318578899
 20
1.5634542726
 11
3.2791019844
 21
1.5634542726
  0
LINE
  5
209
100
AcDbEntity
  8
0
100
AcDbLine
 62
9
  6
CONTINUOUS
 10
3.2791019844
 20
1.5634542726
 11
3.2791019844
 21
1.3272338001
  0
LINE
  5
20A
100
AcDbEntity
  8
0
100
AcDbLine
 62
7
  6
CONTINUOUS
 10
5.4698679669
 20
5.1946264835
 11
5.4700468663
 21
5.1946998853
  0
LINE
  5
20B
100
AcDbEntity
  8
0
100
AcDbLine
 62
9
  6
CONTINUOUS
 10
4.1351059214
 20
5.6973125403
 11
4.1351059214
 21
5.4610920679
  0
LINE
  5
20C
100
AcDbEntity
  8
0
100
AcDbLine
 62
9
  6
CONTINUOUS
 10
1.9194905644
 20
2.1157106733
 11
1.7550540323
 21
1.9468561278
  0
LINE
  5
20D
100
AcDbEntity
  8
0
100
AcDbLine
 62
7
  6
CONTINUOUS
 10
5.1024287561
 20
5.839256495
 11
5.1024287561
 21
5.3191477259
  0
LINE
  5
20E
100
AcDbEntity
  8
0
100
AcDbLine
 62
9
  6
CONTINUOUS
 10
5.1073833282
 20
5.8514629394
 11
5.1073836254
 21
5.8515366274
  0
LINE
  5
20F
100
AcDbEntity
  8
0
100
AcDbLine
 62
9
  6
CONTINUOUS
 10
5.1073837448
 20
5.3068570043
 11
5.107380898
 21
5.3076652754
  0
LINE
  5
210
100
AcDbEntity
  8
0
100
AcDbLine
 62
9
  6
CONTINUOUS
 10
5.107381027
 20
5.7254991752
 11
5.1073833282
 21
5.8514629394
  0
LINE
  5
211
100
AcDbEntity
  8
0
100
AcDbLine
 62
9
  6
CONTINUOUS
 10
5.107380898
 20
5.3076652754
 11
5.1073810374
 21
5.4329054128
  0
LINE
  5
212
100
AcDbEntity
  8
0
100
AcDbLine
 62
9
  6
CONTINUOUS
 10
5.6732611689
 20
5.8515476039
 11
5.6732640157
 21
5.8507393335
  0
LINE
  5
213
100
AcDbEntity
  8
0
100
AcDbLine
 62
9
  6
CONTINUOUS
 10
5.6732638763
 20
5.4329054127
 11
5.6732615855
 21
5.306941666
  0
LINE
  5
214
100
AcDbEntity
  8
0
100
AcDbLine
 62
9
  6
CONTINUOUS
 10
5.6732640157
 20
5.8507393335
 11
5.6732638764
 21
5.7254991953
  0
LINE
  5
215
100
AcDbEntity
  8
0
100
AcDbLine
 62
7
  6
CONTINUOUS
 10
5.6782161577
 20
5.3191481132
 11
5.6782161577
 21
5.8392568822
  0
LINE
  5
216
100
AcDbEntity
  8
0
100
AcDbLine
 62
9
  6
CONTINUOUS
 10
6.2318578899
 20
1.3272338001
 11
6.2318578899
 21
1.5634542726
  0
LINE
  5
217
100
AcDbEntity
  8
0
100
AcDbLine
 62
9
  6
CONTINUOUS
 10
6.2318578899
 20
5.4610920679
 11
6.2318578899
 21
5.6973125403
  0
LINE
  5
218
100
AcDbEntity
  8
0
100
AcDbLine
 62
7
  6
CONTINUOUS
 10
5.3105980474
 20
5.19469991
 11
5.3107772381
 21
5.1946264156
  0
LINE
  5
219
100
AcDbEntity
  8
0
100
AcDbLine
 62
7
  6
CONTINUOUS
 10
4.1351059214
 20
5.4610920679
 11
5.1024287561
 21
5.4610920679
  0
LINE
  5
21A
100
AcDbEntity
  8
0
100
AcDbLine
 62
7
  6
CONTINUOUS
 10
5.6782161577
 20
5.4610920679
 11
6.2318578899
 21
5.4610920679
  0
LINE
  5
21B
100
AcDbEntity
  8
0
100
AcDbLine
 62
9
  6
CONTINUOUS
 10
5.6782161577
 20
5.5792023041
 11
5.672114152
 21
5.5792023041
  0
LINE
  5
21C
100
AcDbEntity
  8
0
100
AcDbLine
 62
9
  6
CONTINUOUS
 10
5.1024287561
 20
5.5792023041
 11
5.1085307617
 21
5.5792023041
  0
LINE
  5
21D
100
AcDbEntity
  8
0
100
AcDbLine
 62
7
  6
CONTINUOUS
 10
6.2318578899
 20
5.6973125403
 11
5.6782161577
 21
5.6973125403
  0
LINE
  5
21E
100
AcDbEntity
  8
0
100
AcDbLine
 62
7
  6
CONTINUOUS
 10
5.1024287561
 20
5.6973125403
 11
4.1351059214
 21
5.6973125403
  0
ARC
  5
21F
100
AcDbEntity
  8
0
100
AcDbCircle
 62
7
  6
CONTINUOUS
 10
3.2791019844
 20
3.5122731702
 40
2.1850393701
100
AcDbArc
 50
225.7671539101
 51
270.0
  0
ARC
  5
220
100
AcDbEntity
  8
0
100
AcDbCircle
 62
7
  6
CONTINUOUS
 10
3.2791019844
 20
3.5122731702
 40
1.9488188976
100
AcDbArc
 50
225.7680875538
 51
270.0
  0
ARC
  5
221
100
AcDbEntity
  8
0
100
AcDbCircle
 62
7
  6
CONTINUOUS
 10
1.837295291
 20
2.0312609352
 40
0.117846494
100
AcDbArc
 50
45.775093321
 51
225.7438234337
  0
ARC
  5
222
100
AcDbEntity
  8
0
100
AcDbCircle
 62
7
  6
CONTINUOUS
 10
6.2318578899
 20
3.5122731702
 40
2.1850393701
100
AcDbArc
 50
270.0
 51
90.0
  0
ARC
  5
223
100
AcDbEntity
  8
0
100
AcDbCircle
 62
7
  6
CONTINUOUS
 10
6.2318578899
 20
3.5122731702
 40
1.9488188976
100
AcDbArc
 50
270.0
 51
90.0
  0
ARC
  5
224
100
AcDbEntity
  8
0
100
AcDbCircle
 62
7
  6
CONTINUOUS
 10
4.1351335603
 20
5.5792022562
 40
0.1178428061
100
AcDbArc
 50
179.9999767249
 51
269.9864019129
  0
ARC
  5
225
100
AcDbEntity
  8
0
100
AcDbCircle
 62
7
  6
CONTINUOUS
 10
4.1351335603
 20
5.5792023519
 40
0.1178428061
100
AcDbArc
 50
90.0135980869
 51
180.0000232753
  0
ARC
  5
226
100
AcDbEntity
  8
0
100
AcDbCircle
 62
7
  6
CONTINUOUS
 10
5.6604996222
 20
5.3191459653
 40
0.0177165354
100
AcDbArc
 50
316.0934998219
 51
360.0
  0
ARC
  5
227
100
AcDbEntity
  8
0
100
AcDbCircle
 62
7
  6
CONTINUOUS
 10
5.1201452915
 20
5.3191459653
 40
0.0177165354
100
AcDbArc
 50
180.0
 51
223.9065001781
  0
ARC
  5
228
100
AcDbEntity
  8
0
100
AcDbCircle
 62
7
  6
CONTINUOUS
 10
5.1201452915
 20
5.8392586428
 40
0.0177165354
100
AcDbArc
 50
136.0934998219
 51
180.0
  0
ARC
  5
229
100
AcDbEntity
  8
0
100
AcDbCircle
 62
7
  6
CONTINUOUS
 10
5.3903224569
 20
5.5792023041
 40
0.7875
100
AcDbArc
 50
188.6263341008
 51
351.3736957775
  0
ARC
  5
22A
100
AcDbEntity
  8
0
100
AcDbCircle
 62
7
  6
CONTINUOUS
 10
5.3903224569
 20
5.5792023041
 40
0.7875
100
AcDbArc
 50
8.6263698265
 51
171.3736802796
  0
ARC
  5
22B
100
AcDbEntity
  8
0
100
AcDbCircle
 62
7
  6
CONTINUOUS
 10
5.3903224569
 20
5.5792023041
 40
0.6934615385
100
AcDbArc
 50
9.8071244558
 51
170.1928755442
  0
ARC
  5
22C
100
AcDbEntity
  8
0
100
AcDbCircle
 62
7
  6
CONTINUOUS
 10
5.3903224569
 20
5.5792023041
 40
0.6934615385
100
AcDbArc
 50
189.8071244558
 51
350.1928755442
  0
ARC
  5
22D
100
AcDbEntity
  8
0
100
AcDbCircle
 62
9
  6
CONTINUOUS
 10
5.3903224569
 20
5.5792023041
 40
0.6573880172
100
AcDbArc
 50
10.3511877742
 51
169.6475698109
  0
ARC
  5
22E
100
AcDbEntity
  8
0
100
AcDbCircle
 62
9
  6
CONTINUOUS
 10
5.3903224569
 20
5.5792023041
 40
0.6573880172
100
AcDbArc
 50
190.3511877742
 51
349.6475698109
  0
ARC
  5
22F
100
AcDbEntity
  8
0
100
AcDbCircle
 62
9
  6
CONTINUOUS
 10
5.3903224569
 20
5.5792023041
 40
0.624951954
100
AcDbArc
 50
10.8966324046
 51
169.1028047621
  0
ARC
  5
230
100
AcDbEntity
  8
0
100
AcDbCircle
 62
9
  6
CONTINUOUS
 10
5.3903224569
 20
5.5792023041
 40
0.624951954
100
AcDbArc
 50
190.8966324046
 51
349.1028047621
  0
ARC
  5
231
100
AcDbEntity
  8
0
100
AcDbCircle
 62
7
  6
CONTINUOUS
 10
5.3903224569
 20
5.5792023041
 40
0.3927165354
100
AcDbArc
 50
223.8191298089
 51
258.375975347
  0
ARC
  5
232
100
AcDbEntity
  8
0
100
AcDbCircle
 62
7
  6
CONTINUOUS
 10
5.3903224569
 20
5.5792023041
 40
0.3927165354
100
AcDbArc
 50
281.6254240718
 51
316.18107148
  0
ARC
  5
233
100
AcDbEntity
  8
0
100
AcDbCircle
 62
7
  6
CONTINUOUS
 10
5.3903224569
 20
5.5792023041
 40
0.3927165354
100
AcDbArc
 50
43.8191298016
 51
136.1810715707
  0
ARC
  5
234
100
AcDbEntity
  8
0
100
AcDbCircle
 62
9
  6
CONTINUOUS
 10
5.3903224569
 20
5.5792023041
 40
0.3357391784
100
AcDbArc
 50
149.0685490307
 51
159.3974864357
  0
ARC
  5
235
100
AcDbEntity
  8
0
100
AcDbCircle
 62
9
  6
CONTINUOUS
 10
5.3903224569
 20
5.5792023041
 40
0.3357391784
100
AcDbArc
 50
200.6025135643
 51
210.9314509693
  0
ARC
  5
236
100
AcDbEntity
  8
0
100
AcDbCircle
 62
9
  6
CONTINUOUS
 10
5.3903224569
 20
5.5792023041
 40
0.3357391784
100
AcDbArc
 50
329.0685490307
 51
339.3974864357
  0
ARC
  5
237
100
AcDbEntity
  8
0
100
AcDbCircle
 62
9
  6
CONTINUOUS
 10
5.3903224569
 20
5.5792023041
 40
0.3357391784
100
AcDbArc
 50
20.6025135643
 51
30.9314509693
  0
ARC
  5
238
100
AcDbEntity
  8
0
100
AcDbCircle
 62
7
  6
CONTINUOUS
 10
5.3903224569
 20
5.5792023041
 40
0.33
100
AcDbArc
 50
20.9797616413
 51
29.2297007456
  0
ARC
  5
239
100
AcDbEntity
  8
0
100
AcDbCircle
 62
7
  6
CONTINUOUS
 10
5.3903224569
 20
5.5792023041
 40
0.33
100
AcDbArc
 50
330.7702992544
 51
339.0202383587
  0
ARC
  5
23A
100
AcDbEntity
  8
0
100
AcDbCircle
 62
7
  6
CONTINUOUS
 10
5.3903224569
 20
5.5792023041
 40
0.33
100
AcDbArc
 50
200.9797616413
 51
209.2297007456
  0
ARC
  5
23B
100
AcDbEntity
  8
0
100
AcDbCircle
 62
7
  6
CONTINUOUS
 10
5.3903224569
 20
5.5792023041
 40
0.33
100
AcDbArc
 50
150.7702992544
 51
159.0202383587
  0
ARC
  5
23C
100
AcDbEntity
  8
0
100
AcDbCircle
 62
9
  6
CONTINUOUS
 10
5.3903224569
 20
5.5792023041
 40
0.3185250323
100
AcDbArc
 50
27.3420045
 51
152.658019637
  0
ARC
  5
23D
100
AcDbEntity
  8
0
100
AcDbCircle
 62
9
  6
CONTINUOUS
 10
5.3903224569
 20
5.5792023041
 40
0.3185250323
100
AcDbArc
 50
207.3419802012
 51
332.6580196466
  0
CIRCLE
  5
23E
100
AcDbEntity
  8
0
100
AcDbCircle
 62
9
  6
CONTINUOUS
 10
5.3903224569
 20
5.5792023041
 40
0.2385182963
  0
ARC
  5
23F
100
AcDbEntity
  8
0
100
AcDbCircle
 62
7
  6
CONTINUOUS
 10
5.6604996222
 20
5.8392586428
 40
0.0177165354
100
AcDbArc
 50
0.0
 51
43.9065001781
  0
SPLINE
  5
240
100
AcDbEntity
  8
0
100
AcDbSpline
 62
7
  6
CONTINUOUS
 70
0
 71
3
 72
24
 73
20
 74
0
 42
0.0000001
 43
0.0000001
 44
0.0000000001
 40
0.0
 40
0.0
 40
0.0
 40
0.0
 40
0.0013834819
 40
0.0050584658
 40
0.0111004493
 40
0.0195100098
 40
0.0302781699
 40
0.0433829238
 40
0.0587871241
 40
0.0764521409
 40
0.118406806
 40
0.1688522017
 40
0.2272882816
 40
0.2931711484
 40
0.3658529536
 40
0.4446523938
 40
0.6174558179
 40
0.8050037392
 40
1.0
 40
1.0
 40
1.0
 40
1.0
 10
5.4700468661
 20
5.1946998758
 30
0.0
 10
5.4700468761
 20
5.1947366573
 30
0.0
 10
5.4698603085
 20
5.194769147
 30
0.0
 10
5.4696201242
 20
5.1948218614
 30
0.0
 10
5.4691121024
 20
5.1948684235
 30
0.0
 10
5.4684560584
 20
5.1949211218
 30
0.0
 10
5.4675944424
 20
5.1949719016
 30
0.0
 10
5.4665531968
 20
5.1950232181
 30
0.0
 10
5.4653260475
 20
5.1950737469
 30
0.0
 10
5.4633329391
 20
5.1951443747
 30
0.0
 10
5.4604077213
 20
5.1952274068
 30
0.0
 10
5.4563986344
 20
5.195318122
 30
0.0
 10
5.4517530632
 20
5.1954034296
 30
0.0
 10
5.4465161529
 20
5.1954823304
 30
0.0
 10
5.4407377014
 20
5.1955540484
 30
0.0
 10
5.4321166398
 20
5.1956416279
 30
0.0
 10
5.4204415596
 20
5.1957258056
 30
0.0
 10
5.4056770767
 20
5.1957866423
 30
0.0
 10
5.3955066691
 20
5.1958002129
 30
0.0
 10
5.3903224569
 20
5.1958002201
 30
0.0
  0
SPLINE
  5
241
100
AcDbEntity
  8
0
100
AcDbSpline
 62
7
  6
CONTINUOUS
 70
0
 71
3
 72
11
 73
7
 74
0
 42
0.0000001
 43
0.0000001
 44
0.0000000001
 40
0.0
 40
0.0
 40
0.0
 40
0.0
 40
0.3269547279
 40
0.6211584002
 40
0.8532419544
 40
1.0
 40
1.0
 40
1.0
 40
1.0
 10
5.3903224569
 20
5.1936030318
 30
0.0
 10
5.398623271
 20
5.1936030431
 30
0.0
 10
5.4143933396
 20
5.1936363321
 30
0.0
 10
5.4360556405
 20
5.1937766053
 30
0.0
 10
5.4531409415
 20
5.1940073047
 30
0.0
 10
5.4627583162
 20
5.1942094
 30
0.0
 10
5.466480567
 20
5.1943749961
 30
0.0
  0
LINE
  5
242
100
AcDbEntity
  8
0
100
AcDbLine
 62
7
  6
CONTINUOUS
 10
5.466480567
 20
5.1943749961
 11
5.4698675784
 21
5.1946263049
  0
SPLINE
  5
243
100
AcDbEntity
  8
0
100
AcDbSpline
 62
7
  6
CONTINUOUS
 70
0
 71
3
 72
24
 73
20
 74
0
 42
0.0000001
 43
0.0000001
 44
0.0000000001
 40
0.0
 40
0.0
 40
0.0
 40
0.0
 40
0.1949954136
 40
0.3825391809
 40
0.5553412621
 40
0.6341398508
 40
0.7068219829
 40
0.7727056083
 40
0.8311428459
 40
0.8815902841
 40
0.9235456637
 40
0.9412115258
 40
0.9566165256
 40
0.9697216135
 40
0.9804895962
 40
0.9888993662
 40
0.9949417057
 40
0.9986168462
 40
1.0
 40
1.0
 40
1.0
 40
1.0
 10
5.3903224569
 20
5.1958008173
 30
0.0
 10
5.3851382668
 20
5.1958008245
 30
0.0
 10
5.3749679923
 20
5.195786557
 30
0.0
 10
5.3602036779
 20
5.1957257863
 30
0.0
 10
5.3485287649
 20
5.1956416955
 30
0.0
 10
5.3399077528
 20
5.1955540727
 30
0.0
 10
5.3341292947
 20
5.1954823566
 30
0.0
 10
5.3288923244
 20
5.1954034623
 30
0.0
 10
5.3242466477
 20
5.1953181521
 30
0.0
 10
5.3202374565
 20
5.1952274363
 30
0.0
 10
5.3173121428
 20
5.1951443947
 30
0.0
 10
5.3153189719
 20
5.1950737646
 30
0.0
 10
5.3140917692
 20
5.1950232334
 30
0.0
 10
5.3130505003
 20
5.1949719163
 30
0.0
 10
5.312188869
 20
5.1949211279
 30
0.0
 10
5.3115328303
 20
5.1948684344
 30
0.0
 10
5.3110247528
 20
5.1948218541
 30
0.0
 10
5.3107846276
 20
5.1947691699
 30
0.0
 10
5.3105980023
 20
5.1947366468
 30
0.0
 10
5.3105980502
 20
5.194699874
 30
0.0
  0
LINE
  5
244
100
AcDbEntity
  8
0
100
AcDbLine
 62
7
  6
CONTINUOUS
 10
5.3107776448
 20
5.194626243
 11
5.3140818175
 21
5.1943786806
  0
SPLINE
  5
245
100
AcDbEntity
  8
0
100
AcDbSpline
 62
7
  6
CONTINUOUS
 70
0
 71
3
 72
11
 73
7
 74
0
 42
0.0000001
 43
0.0000001
 44
0.0000000001
 40
0.0
 40
0.0
 40
0.0
 40
0.0
 40
0.1460814833
 40
0.3780280575
 40
0.672522186
 40
1.0
 40
1.0
 40
1.0
 40
1.0
 10
5.3140818175
 20
5.1943786806
 30
0.0
 10
5.3177908336
 20
5.1942115867
 30
0.0
 10
5.3273980106
 20
5.1940093752
 30
0.0
 10
5.344488496
 20
5.1937771796
 30
0.0
 10
5.3661915034
 20
5.1936369356
 30
0.0
 10
5.3819993455
 20
5.1936024232
 30
0.0
 10
5.3903224569
 20
5.1936024346
 30
0.0
  0
SPLINE
  5
246
100
AcDbEntity
  8
0
100
AcDbSpline
 62
9
  6
CONTINUOUS
 70
0
 71
3
 72
11
 73
7
 74
0
 42
0.0000001
 43
0.0000001
 44
0.0000000001
 40
0.0
 40
0.0
 40
0.0
 40
0.0
 40
0.2941608251
 40
0.5576498108
 40
0.7897755823
 40
1.0
 40
1.0
 40
1.0
 40
1.0
 10
5.6732638976
 20
5.7254991539
 30
0.0
 10
5.6740021857
 20
5.725087126
 30
0.0
 10
5.6753439309
 20
5.7241937436
 30
0.0
 10
5.6769653351
 20
5.7225754183
 30
0.0
 10
5.677975679
 20
5.7207823511
 30
0.0
 10
5.6782161576
 20
5.7195035251
 30
0.0
 10
5.6782161577
 20
5.718899296
 30
0.0
  0
SPLINE
  5
247
100
AcDbEntity
  8
0
100
AcDbSpline
 62
9
  6
CONTINUOUS
 70
0
 71
3
 72
13
 73
9
 74
0
 42
0.0000001
 43
0.0000001
 44
0.0000000001
 40
0.0
 40
0.0
 40
0.0
 40
0.0
 40
0.131324947
 40
0.2621465223
 40
0.3919280775
 40
0.5200576885
 40
0.7684355134
 40
1.0
 40
1.0
 40
1.0
 40
1.0
 10
5.1085311682
 20
5.5792048381
 30
0.0
 10
5.1085051489
 20
5.585609138
 30
0.0
 10
5.1085213163
 20
5.5983933674
 30
0.0
 10
5.1084444902
 20
5.6175064929
 30
0.0
 10
5.1083349605
 20
5.6364635996
 30
0.0
 10
5.1081369259
 20
5.6611531269
 30
0.0
 10
5.1078327562
 20
5.6908056011
 30
0.0
 10
5.1075199847
 20
5.7142089785
 30
0.0
 10
5.107382958
 20
5.7255009037
 30
0.0
  0
SPLINE
  5
248
100
AcDbEntity
  8
0
100
AcDbSpline
 62
9
  6
CONTINUOUS
 70
0
 71
3
 72
11
 73
7
 74
0
 42
0.0000001
 43
0.0000001
 44
0.0000000001
 40
0.0
 40
0.0
 40
0.0
 40
0.0
 40
0.2102244177
 40
0.4423501892
 40
0.7058391749
 40
1.0
 40
1.0
 40
1.0
 40
1.0
 10
5.1024287561
 20
5.718899296
 30
0.0
 10
5.1024287561
 20
5.7195035251
 30
0.0
 10
5.1026692348
 20
5.7207823511
 30
0.0
 10
5.1036795787
 20
5.7225754183
 30
0.0
 10
5.1053009828
 20
5.7241937436
 30
0.0
 10
5.106642728
 20
5.725087126
 30
0.0
 10
5.1073810161
 20
5.7254991539
 30
0.0
  0
SPLINE
  5
249
100
AcDbEntity
  8
0
100
AcDbSpline
 62
9
  6
CONTINUOUS
 70
0
 71
3
 72
13
 73
9
 74
0
 42
0.0000001
 43
0.0000001
 44
0.0000000001
 40
0.0
 40
0.0
 40
0.0
 40
0.0
 40
0.1313280342
 40
0.2621539704
 40
0.3919365604
 40
0.5200677034
 40
0.7684404072
 40
1.0
 40
1.0
 40
1.0
 40
1.0
 10
5.1085311682
 20
5.57919977
 30
0.0
 10
5.1084959618
 20
5.5727953638
 30
0.0
 10
5.1085186633
 20
5.5600107226
 30
0.0
 10
5.1084480095
 20
5.5408971709
 30
0.0
 10
5.108332495
 20
5.5219397594
 30
0.0
 10
5.1081396427
 20
5.4972503144
 30
0.0
 10
5.1078216684
 20
5.467598418
 30
0.0
 10
5.1075372089
 20
5.4441951693
 30
0.0
 10
5.107382958
 20
5.4329037054
 30
0.0
  0
SPLINE
  5
24A
100
AcDbEntity
  8
0
100
AcDbSpline
 62
9
  6
CONTINUOUS
 70
0
 71
3
 72
11
 73
7
 74
0
 42
0.0000001
 43
0.0000001
 44
0.0000000001
 40
0.0
 40
0.0
 40
0.0
 40
0.0
 40
0.2941608251
 40
0.5576498108
 40
0.7897755823
 40
1.0
 40
1.0
 40
1.0
 40
1.0
 10
5.1073810161
 20
5.4329054543
 30
0.0
 10
5.106642728
 20
5.4333174822
 30
0.0
 10
5.1053009828
 20
5.4342108646
 30
0.0
 10
5.1036795787
 20
5.4358291898
 30
0.0
 10
5.1026692348
 20
5.4376222571
 30
0.0
 10
5.1024287561
 20
5.438901083
 30
0.0
 10
5.1024287561
 20
5.4395053121
 30
0.0
  0
SPLINE
  5
24B
100
AcDbEntity
  8
0
100
AcDbSpline
 62
9
  6
CONTINUOUS
 70
0
 71
3
 72
13
 73
9
 74
0
 42
0.0000001
 43
0.0000001
 44
0.0000000001
 40
0.0
 40
0.0
 40
0.0
 40
0.0
 40
0.131324947
 40
0.2621465222
 40
0.3919280774
 40
0.5200576882
 40
0.7684355131
 40
1.0
 40
1.0
 40
1.0
 40
1.0
 10
5.6721137455
 20
5.57919977
 30
0.0
 10
5.6721397647
 20
5.5727954701
 30
0.0
 10
5.6721235974
 20
5.5600112408
 30
0.0
 10
5.6722004235
 20
5.5408981152
 30
0.0
 10
5.6723099532
 20
5.5219410086
 30
0.0
 10
5.6725079878
 20
5.4972514813
 30
0.0
 10
5.6728121575
 20
5.4675990071
 30
0.0
 10
5.6731249291
 20
5.4441956297
 30
0.0
 10
5.6732619557
 20
5.4329037045
 30
0.0
  0
SPLINE
  5
24C
100
AcDbEntity
  8
0
100
AcDbSpline
 62
9
  6
CONTINUOUS
 70
0
 71
3
 72
11
 73
7
 74
0
 42
0.0000001
 43
0.0000001
 44
0.0000000001
 40
0.0
 40
0.0
 40
0.0
 40
0.0
 40
0.2102244177
 40
0.4423501892
 40
0.7058391749
 40
1.0
 40
1.0
 40
1.0
 40
1.0
 10
5.6782161577
 20
5.4395053121
 30
0.0
 10
5.6782161576
 20
5.438901083
 30
0.0
 10
5.677975679
 20
5.4376222571
 30
0.0
 10
5.6769653351
 20
5.4358291898
 30
0.0
 10
5.6753439309
 20
5.4342108646
 30
0.0
 10
5.6740021857
 20
5.4333174822
 30
0.0
 10
5.6732638976
 20
5.4329054543
 30
0.0
  0
SPLINE
  5
24D
100
AcDbEntity
  8
0
100
AcDbSpline
 62
9
  6
CONTINUOUS
 70
0
 71
3
 72
13
 73
9
 74
0
 42
0.0000001
 43
0.0000001
 44
0.0000000001
 40
0.0
 40
0.0
 40
0.0
 40
0.0
 40
0.1313279754
 40
0.2621538526
 40
0.3919363847
 40
0.5200674671
 40
0.7684400406
 40
1.0
 40
1.0
 40
1.0
 40
1.0
 10
5.6721137455
 20
5.5792048381
 30
0.0
 10
5.6721489518
 20
5.5856092452
 30
0.0
 10
5.6721262503
 20
5.5983938878
 30
0.0
 10
5.6721969044
 20
5.6175074418
 30
0.0
 10
5.6723124187
 20
5.6364648555
 30
0.0
 10
5.6725052701
 20
5.6611543024
 30
0.0
 10
5.6728232627
 20
5.6908062241
 30
0.0
 10
5.6731076917
 20
5.7142094978
 30
0.0
 10
5.6732618256
 20
5.7255009875
 30
0.0
  0
SPLINE
  5
24E
100
AcDbEntity
  8
0
100
AcDbSpline
 62
7
  6
CONTINUOUS
 70
0
 71
3
 72
11
 73
7
 74
0
 42
0.0000001
 43
0.0000001
 44
0.0000000001
 40
0.0
 40
0.0
 40
0.0
 40
0.0
 40
0.201124743
 40
0.4215819399
 40
0.6838007348
 40
1.0
 40
1.0
 40
1.0
 40
1.0
 10
5.478905134
 20
4.8608208502
 30
0.0
 10
5.478905134
 20
4.863574677
 30
0.0
 10
5.4776663958
 20
4.8694161377
 30
0.0
 10
5.4720918217
 20
4.8771875366
 30
0.0
 10
5.4632281843
 20
4.8837921995
 30
0.0
 10
5.4559810481
 20
4.8871001382
 30
0.0
 10
5.4519291757
 20
4.8886253932
 30
0.0
  0
SPLINE
  5
24F
100
AcDbEntity
  8
0
100
AcDbSpline
 62
7
  6
CONTINUOUS
 70
0
 71
3
 72
11
 73
7
 74
0
 42
0.0000001
 43
0.0000001
 44
0.0000000001
 40
0.0
 40
0.0
 40
0.0
 40
0.0
 40
0.3161991131
 40
0.5784200863
 40
0.7988750383
 40
1.0
 40
1.0
 40
1.0
 40
1.0
 10
5.3287145202
 20
4.8886250014
 30
0.0
 10
5.324662786
 20
4.8870997704
 30
0.0
 10
5.3174159298
 20
4.88379172
 30
0.0
 10
5.3085527625
 20
4.8771870392
 30
0.0
 10
5.3029784248
 20
4.8694158507
 30
0.0
 10
5.3017397797
 20
4.8635745937
 30
0.0
 10
5.3017397797
 20
4.8608208502
 30
0.0
  0
SPLINE
  5
250
100
AcDbEntity
  8
0
100
AcDbSpline
 62
7
  6
CONTINUOUS
 70
0
 71
3
 72
23
 73
19
 74
0
 42
0.0000001
 43
0.0000001
 44
0.0000000001
 40
0.0
 40
0.0
 40
0.0
 40
0.0
 40
0.0383478814
 40
0.0818294326
 40
0.1325463711
 40
0.1914845469
 40
0.2588046372
 40
0.333899283
 40
0.4151939727
 40
0.5000001837
 40
0.5848063879
 40
0.6661010964
 40
0.7411957429
 40
0.8085157859
 40
0.8674538158
 40
0.9181707469
 40
0.9616522477
 40
1.0
 40
1.0
 40
1.0
 40
1.0
 10
5.3017397797
 20
4.8608208502
 30
0.0
 10
5.3017397797
 20
4.8580427327
 30
0.0
 10
5.3029856053
 20
4.8520880845
 30
0.0
 10
5.3079222151
 20
4.8437172106
 30
0.0
 10
5.3157332292
 20
4.8357228125
 30
0.0
 10
5.3262977351
 20
4.8283523276
 30
0.0
 10
5.3394597765
 20
4.821944839
 30
0.0
 10
5.3549155054
 20
4.8169125517
 30
0.0
 10
5.3721334168
 20
4.8136725104
 30
0.0
 10
5.3903225147
 20
4.8125507344
 30
0.0
 10
5.4085116433
 20
4.8136722489
 30
0.0
 10
5.42572954
 20
4.8169124482
 30
0.0
 10
5.4411851949
 20
4.8219449363
 30
0.0
 10
5.4543472229
 20
4.8283523963
 30
0.0
 10
5.464911771
 20
4.8357228035
 30
0.0
 10
5.4727227408
 20
4.8437172319
 30
0.0
 10
5.4776593111
 20
4.8520881087
 30
0.0
 10
5.478905134
 20
4.858042742
 30
0.0
 10
5.478905134
 20
4.8608208502
 30
0.0
  0
ENDSEC
  0
SECTION
  2
OBJECTS
  0
DICTIONARY
  5
C
100
AcDbDictionary
280
0
281
1
  3
ACAD_GROUP
350
D
  3
ACAD_MLINESTYLE
350
17
  3
ACAD_LAYOUT
350
1A
  3
ACAD_PLOTSETTINGS
350
19
  3
ACAD_PLOTSTYLENAME
350
E
  0
DICTIONARY
  5
D
102
{ACAD_REACTORS
330
C
102
}
100
AcDbDictionary
280
0
281
1
  0
ACDBDICTIONARYWDFLT
  5
E
102
{ACAD_REACTORS
330
C
102
}
100
AcDbDictionary
281
1
  3
Normal
350
F
100
AcDbDictionaryWithDefault
340
F
  0
DICTIONARY
  5
17
102
{ACAD_REACTORS
330
C
102
}
100
AcDbDictionary
280
0
281
1
  3
Standard
350
18
  0
DICTIONARY
  5
19
102
{ACAD_REACTORS
330
C
102
}
100
AcDbDictionary
281
1
  0
DICTIONARY
  5
1A
102
{ACAD_REACTORS
330
C
102
}
100
AcDbDictionary
281
1
  3
Model
350
251
  3
Layout1
350
252
  0
ACDBPLACEHOLDER
  5
F
102
{ACAD_REACTORS
330
E
102
}
  0
MLINESTYLE
  5
18
102
{ACAD_REACTORS
330
17
102
}
100
AcDbMlineStyle
  2
STANDARD
 70
0
  3

 62
256
 51
90.0
 52
90.0
 71
2
 49
0.5
 62
256
  6
BYLAYER
 49
-0.5
 62
256
  6
BYLAYER
  0
LAYOUT
  5
251
102
{ACAD_REACTORS
330
1A
102
}
100
AcDbPlotSettings
  1

  2
none_device
  4
ANSI_A_(11.00_x_8.50_Inches)
  6

 40
0.0
 41
0.0
 42
0.0
 43
0.0
 44
279.4
 45
215.9
 46
0.0
 47
0.0
 48
0.0
 49
0.0
140
0.0
141
0.0
142
1.0
143
1.0
 70
1024
 72
0
 73
0
 74
0
  7

 75
0
147
1.0
148
0.0
149
0.0
100
AcDbLayout
  1
Model
 70
0
 71
0
 10
0.0
 20
0.0
 11
11.0
 21
8.5
 12
0.0
 22
0.0
 32
0.0
 14
0.0
 24
0.0
 34
0.0
 15
0.0
 25
0.0
 35
0.0
146
0.0
 13
0.0
 23
0.0
 33
0.0
 16
1.0
 26
0.0
 36
0.0
 17
0.0
 27
1.0
 37
0.0
 76
0
330
200
345
0
346
0
  0
LAYOUT
  5
252
102
{ACAD_REACTORS
330
1A
102
}
100
AcDbPlotSettings
  1

  2
none_device
  4
ANSI_A_(11.00_x_8.50_Inches)
  6

 40
0.0
 41
0.0
 42
0.0
 43
0.0
 44
279.4
 45
215.9
 46
0.0
 47
0.0
 48
0.0
 49
0.0
140
0.0
141
0.0
142
1.0
143
1.0
 70
0
 72
0
 73
0
 74
0
  7

 75
0
147
1.0
148
0.0
149
0.0
100
AcDbLayout
  1
Layout1
 70
0
 71
1
 10
0.0
 20
0.0
 11
11.0
 21
8.5
 12
0.0
 22
0.0
 32
0.0
 14
0.0
 24
0.0
 34
0.0
 15
0.0
 25
0.0
 35
0.0
146
0.0
 13
0.0
 23
0.0
 33
0.0
 16
1.0
 26
0.0
 36
0.0
 17
0.0
 27
1.0
 37
0.0
 76
0
330
201
345
0
346
0
  0
ENDSEC
  0
EOF
