999
DXF file: 80-09_right.dxf
999
Pro/ENGINEER 2013150 by Parametric Technology Corporation
  0
SECTION
  2
HEADER
  9
$ACADVER
  1
AC1021
  9
$DWGCODEPAGE
  3
ANSI_1252
  9
$EXTMAX
 10
11.0
 20
8.5
 30
0.0
  9
$EXTMIN
 10
0.0
 20
0.0
 30
0.0
  9
$LIMMIN
 10
0.0
 20
0.0
  9
$LIMMAX
 10
11.0
 20
8.5
  9
$VIEWCTR
 10
5.5
 20
4.25
  9
$VIEWSIZE
 40
8.5
  9
$CLAYER
  8
0
  9
$LTSCALE
 40
0.605
  9
$CELTYPE
  6
BYLAYER
  9
$DIMSCALE
 40
1.0
  9
$DIMASZ
 40
0.1
  9
$DIMEXO
 40
0.0625
  9
$DIMDLI
 40
0.418
  9
$DIMEXE
 40
0.125
  9
$DIMCEN
 40
0.099
  9
$DIMLFAC
 40
1.0
  9
$DIMBLK
  1
_FILLED
  9
$DIMTXT
 40
0.08
  9
$DIMTOL
 70
1
  9
$DIMLIM
 70
0
  9
$DIMTFAC
 40
1.0
  9
$DIMTP
 40
0.001
  9
$DIMTM
 40
0.001
  9
$DIMGAP
 40
0.09
  9
$DIMDSEP
 70
46
  9
$PDMODE
 70
3
  9
$PDSIZE
 40
0.06
  9
$HANDSEED
  5
264
  9
$TILEMODE
 70
1
  9
$MEASUREMENT
 70
0
  9
$INSUNITS
 70
1
  0
ENDSEC
  0
SECTION
  2
CLASSES
  0
CLASS
  1
ACDBDICTIONARYWDFLT
  2
AcDbDictionaryWithDefault
  3
AutoCAD 2000
 90
0
 91
1
280
0
281
0
  0
CLASS
  1
ACDBPLACEHOLDER
  2
AcDbPlaceHolder
  3
AutoCAD 2000
 90
0
 91
1
280
0
281
0
  0
CLASS
  1
LAYOUT
  2
AcDbLayout
  3
AutoCAD 2000
 90
0
 91
0
280
0
281
0
  0
ENDSEC
  0
SECTION
  2
TABLES
  0
TABLE
  2
VPORT
  5
8
100
AcDbSymbolTable
 70
2
  0
VPORT
  5
1F4
100
AcDbSymbolTableRecord
100
AcDbViewportTableRecord
  2
*ACTIVE
 70
0
 10
0.0
 20
0.0
 11
1.0
 21
1.0
 12
5.5
 22
4.25
 13
0.0
 23
0.0
 14
1.0
 24
1.0
 15
0.0
 25
0.0
 16
0.0
 26
0.0
 36
1.0
 17
0.0
 27
0.0
 37
0.0
 40
8.5
 41
1.2941176471
 42
50.0
 43
0.0
 44
0.0
 50
0.0
 51
0.0
 71
0
 72
100
 73
1
 74
1
 75
0
 76
0
 77
0
 78
0
  0
ENDTAB
  0
TABLE
  2
LTYPE
  5
5
100
AcDbSymbolTable
 70
6
  0
LTYPE
  5
14
100
AcDbSymbolTableRecord
100
AcDbLinetypeTableRecord
  2
BYBLOCK
 70
0
  3

 72
65
 73
0
 40
0.0
  0
LTYPE
  5
15
100
AcDbSymbolTableRecord
100
AcDbLinetypeTableRecord
  2
BYLAYER
 70
0
  3

 72
65
 73
0
 40
0.0
  0
LTYPE
  5
16
100
AcDbSymbolTableRecord
100
AcDbLinetypeTableRecord
  2
CONTINUOUS
 70
64
  3
Solid line
 72
65
 73
0
 40
0.0
  0
LTYPE
  5
1F5
100
AcDbSymbolTableRecord
100
AcDbLinetypeTableRecord
  2
CENTER
 70
64
  3
____ _ ____ _ ____ _ ____ _ ____ _ ____ _ ____
 72
65
 73
4
 40
0.6
 49
0.375
 74
0
 49
-0.075
 74
0
 49
0.075
 74
0
 49
-0.075
 74
0
  0
LTYPE
  5
1F6
100
AcDbSymbolTableRecord
100
AcDbLinetypeTableRecord
  2
HIDDEN
 70
64
  3
- - - - - - - - - - - - - - - - - - - -
 72
65
 73
2
 40
0.2
 49
0.1
 74
0
 49
-0.1
 74
0
  0
LTYPE
  5
1F7
100
AcDbSymbolTableRecord
100
AcDbLinetypeTableRecord
  2
PHANTOM
 70
64
  3
_____ _ _ _____ _ _ _____ _ _ _____
 72
65
 73
6
 40
0.8
 49
0.45
 74
0
 49
-0.05
 74
0
 49
0.1
 74
0
 49
-0.05
 74
0
 49
0.1
 74
0
 49
-0.05
 74
0
  0
LTYPE
  5
1F8
100
AcDbSymbolTableRecord
100
AcDbLinetypeTableRecord
  2
DOT
 70
64
  3
. . . . . . . . . . . . . . . . . . . .
 72
65
 73
2
 40
0.2
 49
0.1
 74
0
 49
-0.1
 74
0
  0
LTYPE
  5
1F9
100
AcDbSymbolTableRecord
100
AcDbLinetypeTableRecord
  2
DASHED
 70
64
  3
- - - - - - - - - - - - - - - - - - - -
 72
65
 73
2
 40
0.2
 49
0.1
 74
0
 49
-0.1
 74
0
  0
ENDTAB
  0
TABLE
  2
LAYER
  5
2
100
AcDbSymbolTable
 70
36
  0
LAYER
  5
10
100
AcDbSymbolTableRecord
100
AcDbLayerTableRecord
  2
0
 70
0
 62
7
  6
CONTINUOUS
370
-3
390
F
  0
LAYER
  5
1FA
100
AcDbSymbolTableRecord
100
AcDbLayerTableRecord
  2
DEFAULT_1
 70
0
 62
7
  6
CENTER
370
-3
390
F
  0
LAYER
  5
1FB
100
AcDbSymbolTableRecord
100
AcDbLayerTableRecord
  2
DEFAULT_2
 70
0
 62
8
  6
HIDDEN
370
-3
390
F
  0
LAYER
  5
1FC
100
AcDbSymbolTableRecord
100
AcDbLayerTableRecord
  2
DEFAULT_3
 70
0
 62
7
  6
PHANTOM
370
-3
390
F
  0
LAYER
  5
1FD
100
AcDbSymbolTableRecord
100
AcDbLayerTableRecord
  2
DEFAULT_DATUM_CURVES
 70
0
 62
7
  6
CONTINUOUS
370
-3
390
F
  0
ENDTAB
  0
TABLE
  2
STYLE
  5
3
100
AcDbSymbolTable
 70
1
  0
STYLE
  5
11
100
AcDbSymbolTableRecord
100
AcDbTextStyleTableRecord
  2
STANDARD
 70
0
 40
0.0
 41
0.8
 50
0.0
 71
0
 42
0.2
  3
txt
  4

  0
STYLE
  5
1FE
100
AcDbSymbolTableRecord
100
AcDbTextStyleTableRecord
  2
TEXTSTYLE_1
 70
0
 40
0.0
 41
0.8
 50
0.0
 71
0
 42
0.2
  3
gdt
  4

  0
ENDTAB
  0
TABLE
  2
VIEW
  5
6
100
AcDbSymbolTable
 70
0
  0
ENDTAB
  0
TABLE
  2
UCS
  5
7
100
AcDbSymbolTable
 70
0
  0
ENDTAB
  0
TABLE
  2
APPID
  5
9
100
AcDbSymbolTable
 70
1
  0
APPID
  5
1FF
100
AcDbSymbolTableRecord
100
AcDbRegAppTableRecord
  2
ACAD
 70
0
  0
ENDTAB
  0
TABLE
  2
BLOCK_RECORD
  5
1
100
AcDbSymbolTable
 70
0
  0
BLOCK_RECORD
  5
200
100
AcDbSymbolTableRecord
100
AcDbBlockTableRecord
  2
*Model_Space
  0
BLOCK_RECORD
  5
201
100
AcDbSymbolTableRecord
100
AcDbBlockTableRecord
  2
*Paper_Space
  0
ENDTAB
  0
TABLE
  2
DIMSTYLE
  5
A
100
AcDbSymbolTable
 70
1
100
AcDbDimStyleTable
 71
0
  0
DIMSTYLE
105
202
100
AcDbSymbolTableRecord
100
AcDbDimStyleTableRecord
  2
STANDARD
 70
0
  3

  4

 40
1.0
 41
0.1
 42
0.0625
 43
0.38
 44
0.125
 45
0.0
 46
0.0
 47
0.001
 48
0.001
140
0.08
141
0.09
142
0.0
143
25.4
144
1.0
145
0.0
146
1.0
147
0.09
 71
1.0
 72
0.0
 73
1
 74
1
 75
0
 76
0
 77
0
 78
4
170
0
171
2
172
0
173
0
174
0
175
0
176
0
177
0
178
0
270
2
271
3
272
3
273
2
274
2
275
0
280
0
281
0
282
0
283
1
284
4
285
0
286
0
287
3
288
0
340
11
278
46
  0
ENDTAB
  0
ENDSEC
  0
SECTION
  2
BLOCKS
  0
BLOCK
  5
20
100
AcDbEntity
  8
0
100
AcDbBlockBegin
  2
*Model_Space
 70
0
 10
0.0
 20
0.0
 30
0.0
  3
*Model_Space
  1

  0
ENDBLK
  5
21
100
AcDbEntity
  8
0
100
AcDbBlockEnd
  0
BLOCK
  5
1C
100
AcDbEntity
  8
0
100
AcDbBlockBegin
  2
*Paper_Space
 70
0
 10
0.0
 20
0.0
 30
0.0
  3
*Paper_Space
  1

  0
ENDBLK
  5
1D
100
AcDbEntity
  8
0
100
AcDbBlockEnd
  0
ENDSEC
  0
SECTION
  2
ENTITIES
  0
LINE
  5
203
100
AcDbEntity
  8
0
100
AcDbLine
 62
7
  6
CONTINUOUS
 10
0.0
 20
0.0
 11
0.0
 21
8.5
  0
LINE
  5
204
100
AcDbEntity
  8
0
100
AcDbLine
 62
7
  6
CONTINUOUS
 10
0.0
 20
0.0
 11
11.0
 21
0.0
  0
LINE
  5
205
100
AcDbEntity
  8
0
100
AcDbLine
 62
7
  6
CONTINUOUS
 10
0.0
 20
8.5
 11
11.0
 21
8.5
  0
LINE
  5
206
100
AcDbEntity
  8
0
100
AcDbLine
 62
7
  6
CONTINUOUS
 10
11.0
 20
0.0
 11
11.0
 21
8.5
  0
LINE
  5
207
100
AcDbEntity
  8
0
100
AcDbLine
 62
9
  6
CONTINUOUS
 10
3.8135793813
 20
5.4395053121
 11
3.8032164293
 21
5.4329054542
  0
LINE
  5
208
100
AcDbEntity
  8
0
100
AcDbLine
 62
7
  6
CONTINUOUS
 10
4.4780145055
 20
5.8200031524
 11
4.5090786533
 21
5.8362417386
  0
LINE
  5
209
100
AcDbEntity
  8
0
100
AcDbLine
 62
9
  6
CONTINUOUS
 10
4.2802852773
 20
5.6594764575
 11
4.2919714228
 21
5.6632689372
  0
LINE
  5
20A
100
AcDbEntity
  8
0
100
AcDbLine
 62
7
  6
CONTINUOUS
 10
4.5931286759
 20
5.3479874068
 11
4.5524576074
 21
5.3234788583
  0
LINE
  5
20B
100
AcDbEntity
  8
0
100
AcDbLine
 62
7
  6
CONTINUOUS
 10
6.2586145154
 20
6.2687243365
 11
6.4630618743
 21
6.3667023041
  0
LINE
  5
20C
100
AcDbEntity
  8
0
100
AcDbLine
 62
9
  6
CONTINUOUS
 10
3.7331871446
 20
5.3406822636
 11
3.7331871446
 21
5.8177223451
  0
LINE
  5
20D
100
AcDbEntity
  8
0
100
AcDbLine
 62
9
  6
CONTINUOUS
 10
3.8032170309
 20
5.8977284449
 11
3.8032150449
 21
5.7255009875
  0
LINE
  5
20E
100
AcDbEntity
  8
0
100
AcDbLine
 62
9
  6
CONTINUOUS
 10
3.8032151517
 20
5.4329037045
 11
3.803217032
 21
5.2606761607
  0
LINE
  5
20F
100
AcDbEntity
  8
0
100
AcDbLine
 62
7
  6
CONTINUOUS
 10
3.9095185672
 20
5.5792023041
 11
3.9095185672
 21
1.4453440364
  0
LINE
  5
210
100
AcDbEntity
  8
0
100
AcDbLine
 62
7
  6
CONTINUOUS
 10
4.1457390396
 20
5.5792023041
 11
4.1457390396
 21
1.4453440364
  0
LINE
  5
211
100
AcDbEntity
  8
0
100
AcDbLine
 62
9
  6
CONTINUOUS
 10
4.2919714228
 20
5.8743684569
 11
4.2919714228
 21
5.6632689409
  0
LINE
  5
212
100
AcDbEntity
  8
0
100
AcDbLine
 62
9
  6
CONTINUOUS
 10
4.2919714228
 20
5.2840361512
 11
4.2919714228
 21
5.4951356761
  0
LINE
  5
213
100
AcDbEntity
  8
0
100
AcDbLine
 62
9
  6
CONTINUOUS
 10
4.3638108154
 20
5.3357655995
 11
4.3638108154
 21
5.8226390086
  0
LINE
  5
214
100
AcDbEntity
  8
0
100
AcDbLine
 62
9
  6
CONTINUOUS
 10
4.4780145055
 20
5.8200031524
 11
4.4780145055
 21
5.3384014557
  0
LINE
  5
215
100
AcDbEntity
  8
0
100
AcDbLine
 62
9
  6
CONTINUOUS
 10
4.5090786533
 20
5.3221628696
 11
4.5090786533
 21
5.8362417386
  0
LINE
  5
216
100
AcDbEntity
  8
0
100
AcDbLine
 62
9
  6
CONTINUOUS
 10
4.5524576074
 20
5.8349257498
 11
4.5524576074
 21
5.3234788583
  0
LINE
  5
217
100
AcDbEntity
  8
0
100
AcDbLine
 62
9
  6
CONTINUOUS
 10
4.5931286759
 20
5.3479874068
 11
4.5931286759
 21
5.8104172013
  0
LINE
  5
218
100
AcDbEntity
  8
0
100
AcDbLine
 62
9
  6
CONTINUOUS
 10
4.6489258475
 20
5.3601233793
 11
4.6489258475
 21
5.7982812288
  0
LINE
  5
219
100
AcDbEntity
  8
0
100
AcDbLine
 62
9
  6
CONTINUOUS
 10
4.7983750087
 20
5.2940868634
 11
4.7983750087
 21
5.8643177447
  0
LINE
  5
21A
100
AcDbEntity
  8
0
100
AcDbLine
 62
7
  6
CONTINUOUS
 10
4.8130618743
 20
5.8604523041
 11
4.8130618743
 21
5.2979523041
  0
LINE
  5
21B
100
AcDbEntity
  8
0
100
AcDbLine
 62
9
  6
CONTINUOUS
 10
4.8969592311
 20
5.2641702702
 11
4.8969592311
 21
5.8942343379
  0
LINE
  5
21C
100
AcDbEntity
  8
0
100
AcDbLine
 62
9
  6
CONTINUOUS
 10
4.9294625047
 20
5.2777655962
 11
4.9294625047
 21
5.880639012
  0
LINE
  5
21D
100
AcDbEntity
  8
0
100
AcDbLine
 62
9
  6
CONTINUOUS
 10
5.2412114806
 20
5.2434631257
 11
5.2412114806
 21
5.9149414825
  0
LINE
  5
21E
100
AcDbEntity
  8
0
100
AcDbLine
 62
9
  6
CONTINUOUS
 10
3.8032164293
 20
5.7254991539
 11
3.8135793813
 21
5.7188992961
  0
LINE
  5
21F
100
AcDbEntity
  8
0
100
AcDbLine
 62
9
  6
CONTINUOUS
 10
6.1044333092
 20
6.2041542581
 11
6.1044333092
 21
4.9542622824
  0
LINE
  5
220
100
AcDbEntity
  8
0
100
AcDbLine
 62
9
  6
CONTINUOUS
 10
6.1344650907
 20
4.9218142869
 11
6.1344650907
 21
6.2365903213
  0
LINE
  5
221
100
AcDbEntity
  8
0
100
AcDbLine
 62
9
  6
CONTINUOUS
 10
6.209310148
 20
4.8904793663
 11
6.209310148
 21
6.2679252418
  0
LINE
  5
222
100
AcDbEntity
  8
0
100
AcDbLine
 62
7
  6
CONTINUOUS
 10
6.2416950329
 20
4.8948624958
 11
6.2416051814
 21
4.8948630447
  0
LINE
  5
223
100
AcDbEntity
  8
0
100
AcDbLine
 62
7
  6
CONTINUOUS
 10
4.4780145055
 20
5.3384014557
 11
4.5090786533
 21
5.3221628696
  0
LINE
  5
224
100
AcDbEntity
  8
0
100
AcDbLine
 62
9
  6
CONTINUOUS
 10
6.2586145154
 20
6.2687243365
 11
6.2586145154
 21
4.8916584975
  0
LINE
  5
225
100
AcDbEntity
  8
0
100
AcDbLine
 62
9
  6
CONTINUOUS
 10
4.2919714228
 20
5.4951356709
 11
4.2802852773
 21
5.4989281506
  0
LINE
  5
226
100
AcDbEntity
  8
0
100
AcDbLine
 62
7
  6
CONTINUOUS
 10
6.4630618743
 20
4.7917023041
 11
6.4630618743
 21
6.3667023041
  0
LINE
  5
227
100
AcDbEntity
  8
0
100
AcDbLine
 62
7
  6
CONTINUOUS
 10
6.4187707692
 20
4.8129280733
 11
6.4630618743
 21
4.7917023041
  0
LINE
  5
228
100
AcDbEntity
  8
0
100
AcDbLine
 62
7
  6
CONTINUOUS
 10
4.5931286759
 20
5.8104172013
 11
4.5524576074
 21
5.8349257498
  0
LINE
  5
229
100
AcDbEntity
  8
0
100
AcDbLine
 62
9
  6
CONTINUOUS
 10
3.7763903544
 20
5.5792023041
 11
3.7630120812
 21
5.5792023041
  0
LINE
  5
22A
100
AcDbEntity
  8
0
100
AcDbLine
 62
9
  6
CONTINUOUS
 10
4.2941048944
 20
5.5792023041
 11
4.3052791968
 21
5.5792023041
  0
ARC
  5
22B
100
AcDbEntity
  8
0
100
AcDbCircle
 62
7
  6
CONTINUOUS
 10
4.4423274422
 20
1.4261624703
 40
3.9
100
AcDbArc
 50
64.7745607532
 51
78.179746384
  0
ARC
  5
22C
100
AcDbEntity
  8
0
100
AcDbCircle
 62
7
  6
CONTINUOUS
 10
4.9085447475
 20
3.6538845669
 40
1.624015748
100
AcDbArc
 50
78.179746384
 51
89.2619946283
  0
ARC
  5
22D
100
AcDbEntity
  8
0
100
AcDbCircle
 62
7
  6
CONTINUOUS
 10
4.5958112048
 20
4.9378262276
 40
0.4606299213
100
AcDbArc
 50
120.2423718621
 51
131.2707449165
  0
ARC
  5
22E
100
AcDbEntity
  8
0
100
AcDbCircle
 62
7
  6
CONTINUOUS
 10
4.6176884755
 20
5.0872995421
 40
0.2746062992
100
AcDbArc
 50
48.8537031516
 51
83.4682776146
  0
ARC
  5
22F
100
AcDbEntity
  8
0
100
AcDbCircle
 62
7
  6
CONTINUOUS
 10
3.9413891225
 20
5.4522710065
 40
0.2362204724
100
AcDbArc
 50
208.1896692764
 51
234.2020433332
  0
ARC
  5
230
100
AcDbEntity
  8
0
100
AcDbCircle
 62
7
  6
CONTINUOUS
 10
4.4232980948
 20
5.2337298631
 40
0.1181102362
100
AcDbArc
 50
62.4019669871
 51
120.2423718621
  0
ARC
  5
231
100
AcDbEntity
  8
0
100
AcDbCircle
 62
7
  6
CONTINUOUS
 10
4.0276288034
 20
1.4453440364
 40
0.1181102362
100
AcDbArc
 50
180.0
 51
360.0
  0
ARC
  5
232
100
AcDbEntity
  8
0
100
AcDbCircle
 62
7
  6
CONTINUOUS
 10
4.6388492759
 20
5.2721156899
 40
0.0885826772
100
AcDbArc
 50
83.4682776146
 51
121.073335
  0
ARC
  5
233
100
AcDbEntity
  8
0
100
AcDbCircle
 62
7
  6
CONTINUOUS
 10
4.8618118743
 20
5.2979523041
 40
0.04875
100
AcDbArc
 50
180.0
 51
316.134741094
  0
ARC
  5
234
100
AcDbEntity
  8
0
100
AcDbCircle
 62
7
  6
CONTINUOUS
 10
4.5295973074
 20
5.3614147168
 40
0.0442913386
100
AcDbArc
 50
242.4019669872
 51
301.073335
  0
ARC
  5
235
100
AcDbEntity
  8
0
100
AcDbCircle
 62
7
  6
CONTINUOUS
 10
4.9288920204
 20
5.2334779318
 40
0.0442913386
100
AcDbArc
 50
89.2619946282
 51
136.1347410936
  0
ARC
  5
236
100
AcDbEntity
  8
0
100
AcDbCircle
 62
7
  6
CONTINUOUS
 10
4.8042036066
 20
5.3007574222
 40
0.0088582677
100
AcDbArc
 50
228.8537031516
 51
360.0
  0
ARC
  5
237
100
AcDbEntity
  8
0
100
AcDbCircle
 62
7
  6
CONTINUOUS
 10
4.1782193546
 20
5.5792023041
 40
0.5049212598
100
AcDbArc
 50
151.8105159176
 51
208.1894840824
  0
ARC
  5
238
100
AcDbEntity
  8
0
100
AcDbCircle
 62
7
  6
CONTINUOUS
 10
4.0329285317
 20
5.5792023041
 40
0.3927165354
100
AcDbArc
 50
286.6989401607
 51
311.2707449165
  0
ARC
  5
239
100
AcDbEntity
  8
0
100
AcDbCircle
 62
7
  6
CONTINUOUS
 10
4.0329285317
 20
5.5792023041
 40
0.3927165354
100
AcDbArc
 50
234.2018795995
 51
251.6821827917
  0
ARC
  5
23A
100
AcDbEntity
  8
0
100
AcDbCircle
 62
7
  6
CONTINUOUS
 10
4.0329285317
 20
5.5792023041
 40
0.3927165354
100
AcDbArc
 50
48.7292550835
 51
125.7981204005
  0
ARC
  5
23B
100
AcDbEntity
  8
0
100
AcDbCircle
 62
9
  6
CONTINUOUS
 10
4.0329285317
 20
5.5792023041
 40
0.272342465
100
AcDbArc
 50
212.4918633228
 51
243.0446306954
  0
ARC
  5
23C
100
AcDbEntity
  8
0
100
AcDbCircle
 62
9
  6
CONTINUOUS
 10
4.0329285317
 20
5.5792023041
 40
0.272342465
100
AcDbArc
 50
294.4778351004
 51
342.0203080571
  0
ARC
  5
23D
100
AcDbEntity
  8
0
100
AcDbCircle
 62
9
  6
CONTINUOUS
 10
4.0329285317
 20
5.5792023041
 40
0.272342465
100
AcDbArc
 50
17.9796912817
 51
147.5081367044
  0
ARC
  5
23E
100
AcDbEntity
  8
0
100
AcDbCircle
 62
9
  6
CONTINUOUS
 10
4.0329285317
 20
5.5792023041
 40
0.2600563387
100
AcDbArc
 50
295.7089848978
 51
342.0203094491
  0
ARC
  5
23F
100
AcDbEntity
  8
0
100
AcDbCircle
 62
9
  6
CONTINUOUS
 10
4.0329285317
 20
5.5792023041
 40
0.2600563387
100
AcDbArc
 50
212.491855952
 51
241.6569752337
  0
ARC
  5
240
100
AcDbEntity
  8
0
100
AcDbCircle
 62
9
  6
CONTINUOUS
 10
4.0329285317
 20
5.5792023041
 40
0.2600563387
100
AcDbArc
 50
17.9796905509
 51
147.508144048
  0
ARC
  5
241
100
AcDbEntity
  8
0
100
AcDbCircle
 62
7
  6
CONTINUOUS
 10
3.9413891225
 20
5.7061336016
 40
0.2362204724
100
AcDbArc
 50
125.7979566711
 51
151.8103307235
  0
ARC
  5
242
100
AcDbEntity
  8
0
100
AcDbCircle
 62
7
  6
CONTINUOUS
 10
4.0276288034
 20
5.5792023041
 40
0.1402559055
100
AcDbArc
 50
327.4024246366
 51
212.5994232577
  0
ARC
  5
243
100
AcDbEntity
  8
0
100
AcDbCircle
 62
7
  6
CONTINUOUS
 10
4.0276288034
 20
5.5792023041
 40
0.1225393701
100
AcDbArc
 50
344.5912749428
 51
195.4087250572
  0
ARC
  5
244
100
AcDbEntity
  8
0
100
AcDbCircle
 62
7
  6
CONTINUOUS
 10
4.4232980948
 20
5.924674745
 40
0.1181102362
100
AcDbArc
 50
239.7576281379
 51
297.5980330129
  0
ARC
  5
245
100
AcDbEntity
  8
0
100
AcDbCircle
 62
7
  6
CONTINUOUS
 10
4.0276288034
 20
5.5792023041
 40
0.1181102362
100
AcDbArc
 50
0.0
 51
180.0
  0
ARC
  5
246
100
AcDbEntity
  8
0
100
AcDbCircle
 62
7
  6
CONTINUOUS
 10
4.9085447475
 20
7.5045200413
 40
1.624015748
100
AcDbArc
 50
270.7380053717
 51
281.820253616
  0
ARC
  5
247
100
AcDbEntity
  8
0
100
AcDbCircle
 62
7
  6
CONTINUOUS
 10
4.5958112048
 20
6.2205783805
 40
0.4606299213
100
AcDbArc
 50
228.7292550835
 51
239.7576281379
  0
ARC
  5
248
100
AcDbEntity
  8
0
100
AcDbCircle
 62
7
  6
CONTINUOUS
 10
4.6176884755
 20
6.071105066
 40
0.2746062992
100
AcDbArc
 50
276.5317223854
 51
311.1462968484
  0
ARC
  5
249
100
AcDbEntity
  8
0
100
AcDbCircle
 62
7
  6
CONTINUOUS
 10
4.6388492759
 20
5.8862889183
 40
0.0885826772
100
AcDbArc
 50
238.926665
 51
276.5317223854
  0
ARC
  5
24A
100
AcDbEntity
  8
0
100
AcDbCircle
 62
7
  6
CONTINUOUS
 10
4.8618118743
 20
5.8604523041
 40
0.04875
100
AcDbArc
 50
43.865258906
 51
180.0
  0
ARC
  5
24B
100
AcDbEntity
  8
0
100
AcDbCircle
 62
7
  6
CONTINUOUS
 10
4.5295973074
 20
5.7969898913
 40
0.0442913386
100
AcDbArc
 50
58.926665
 51
117.5980330128
  0
ARC
  5
24C
100
AcDbEntity
  8
0
100
AcDbCircle
 62
7
  6
CONTINUOUS
 10
4.9288920204
 20
5.9249266764
 40
0.0442913386
100
AcDbArc
 50
223.8652589064
 51
270.7380053718
  0
ARC
  5
24D
100
AcDbEntity
  8
0
100
AcDbCircle
 62
7
  6
CONTINUOUS
 10
4.8042036066
 20
5.857647186
 40
0.0088582677
100
AcDbArc
 50
0.0
 51
131.1462968484
  0
ARC
  5
24E
100
AcDbEntity
  8
0
100
AcDbCircle
 62
7
  6
CONTINUOUS
 10
4.4423274422
 20
9.7322421378
 40
3.9
100
AcDbArc
 50
281.820253616
 51
295.2254392468
  0
ARC
  5
24F
100
AcDbEntity
  8
0
100
AcDbCircle
 62
7
  6
CONTINUOUS
 10
6.2330927243
 20
4.8364248009
 40
0.0590551181
100
AcDbArc
 50
81.7122709159
 51
113.7482224283
  0
ARC
  5
250
100
AcDbEntity
  8
0
100
AcDbCircle
 62
7
  6
CONTINUOUS
 10
6.0792651404
 20
4.900826851
 40
0.0590551181
100
AcDbArc
 50
20.8171798159
 51
64.7745607534
  0
ARC
  5
251
100
AcDbEntity
  8
0
100
AcDbCircle
 62
7
  6
CONTINUOUS
 10
6.1867734128
 20
4.9417023041
 40
0.0559615385
100
AcDbArc
 50
200.817179816
 51
293.7482224283
  0
ARC
  5
252
100
AcDbEntity
  8
0
100
AcDbCircle
 62
7
  6
CONTINUOUS
 10
6.2411657848
 20
4.8553985183
 40
0.0394673602
100
AcDbArc
 50
88.1848407189
 51
88.5703167629
  0
ARC
  5
253
100
AcDbEntity
  8
0
100
AcDbCircle
 62
7
  6
CONTINUOUS
 10
6.2330927243
 20
6.3219798072
 40
0.0590551181
100
AcDbArc
 50
246.2517775717
 51
295.6052889794
  0
ARC
  5
254
100
AcDbEntity
  8
0
100
AcDbCircle
 62
7
  6
CONTINUOUS
 10
6.0792651404
 20
6.2575777572
 40
0.0590551181
100
AcDbArc
 50
295.2254392466
 51
339.1828201841
  0
ARC
  5
255
100
AcDbEntity
  8
0
100
AcDbCircle
 62
7
  6
CONTINUOUS
 10
6.1867734128
 20
6.2167023041
 40
0.0559615385
100
AcDbArc
 50
66.2517775717
 51
159.182820184
  0
SPLINE
  5
256
100
AcDbEntity
  8
0
100
AcDbSpline
 62
9
  6
CONTINUOUS
 70
0
 71
3
 72
12
 73
8
 74
0
 42
0.0000001
 43
0.0000001
 44
0.0000000001
 40
0.0
 40
0.0
 40
0.0
 40
0.0
 40
0.1250667756
 40
0.2501301741
 40
0.5001175963
 40
0.7500793936
 40
1.0
 40
1.0
 40
1.0
 40
1.0
 10
3.7630117283
 20
5.57919977
 30
0.0
 10
3.7630343779
 20
5.5727924078
 30
0.0
 10
3.7633996537
 20
5.5599737659
 30
0.0
 10
3.7657747099
 20
5.5344488656
 30
0.0
 10
3.771764665
 20
5.5028900551
 30
0.0
 10
3.784153557
 20
5.4663870629
 30
0.0
 10
3.7962234785
 20
5.4436301313
 30
0.0
 10
3.8032151517
 20
5.4329037045
 30
0.0
  0
SPLINE
  5
257
100
AcDbEntity
  8
0
100
AcDbSpline
 62
9
  6
CONTINUOUS
 70
0
 71
3
 72
9
 73
5
 74
0
 42
0.0000001
 43
0.0000001
 44
0.0000000001
 40
0.0
 40
0.0
 40
0.0
 40
0.0
 40
0.5009141106
 40
1.0
 40
1.0
 40
1.0
 40
1.0
 10
4.2802852827
 20
5.6594764593
 30
0.0
 10
4.284496855
 20
5.6464989209
 30
0.0
 10
4.2914976252
 20
5.6200834989
 30
0.0
 10
4.2941048788
 20
5.592796328
 30
0.0
 10
4.2941048945
 20
5.5792023041
 30
0.0
  0
SPLINE
  5
258
100
AcDbEntity
  8
0
100
AcDbSpline
 62
9
  6
CONTINUOUS
 70
0
 71
3
 72
9
 73
5
 74
0
 42
0.0000001
 43
0.0000001
 44
0.0000000001
 40
0.0
 40
0.0
 40
0.0
 40
0.0
 40
0.4990858923
 40
1.0
 40
1.0
 40
1.0
 40
1.0
 10
4.2941048944
 20
5.5792023041
 30
0.0
 10
4.2941048777
 20
5.5656082801
 30
0.0
 10
4.2914976257
 20
5.5383211092
 30
0.0
 10
4.284496855
 20
5.5119056872
 30
0.0
 10
4.2802852827
 20
5.4989281489
 30
0.0
  0
SPLINE
  5
259
100
AcDbEntity
  8
0
100
AcDbSpline
 62
9
  6
CONTINUOUS
 70
0
 71
3
 72
10
 73
6
 74
0
 42
0.0000001
 43
0.0000001
 44
0.0000000001
 40
0.0
 40
0.0
 40
0.0
 40
0.0
 40
0.249435499
 40
0.4995152586
 40
1.0
 40
1.0
 40
1.0
 40
1.0
 10
3.8135793774
 20
5.4395053096
 30
0.0
 10
3.8070491934
 20
5.449758883
 30
0.0
 10
3.7958477593
 20
5.4715408996
 30
0.0
 10
3.7806258856
 20
5.5179684563
 30
0.0
 10
3.7763903533
 20
5.554810774
 30
0.0
 10
3.7763903544
 20
5.5792023041
 30
0.0
  0
SPLINE
  5
25A
100
AcDbEntity
  8
0
100
AcDbSpline
 62
9
  6
CONTINUOUS
 70
0
 71
3
 72
10
 73
6
 74
0
 42
0.0000001
 43
0.0000001
 44
0.0000000001
 40
0.0
 40
0.0
 40
0.0
 40
0.0
 40
0.5004847432
 40
0.7505645014
 40
1.0
 40
1.0
 40
1.0
 40
1.0
 10
3.7763903544
 20
5.5792023041
 30
0.0
 10
3.7763903539
 20
5.6035938343
 30
0.0
 10
3.7806258855
 20
5.640436152
 30
0.0
 10
3.7958477594
 20
5.6868637087
 30
0.0
 10
3.8070491933
 20
5.7086457252
 30
0.0
 10
3.8135793774
 20
5.7188992986
 30
0.0
  0
SPLINE
  5
25B
100
AcDbEntity
  8
0
100
AcDbSpline
 62
9
  6
CONTINUOUS
 70
0
 71
3
 72
13
 73
9
 74
0
 42
0.0000001
 43
0.0000001
 44
0.0000000001
 40
0.0
 40
0.0
 40
0.0
 40
0.0
 40
0.125053157
 40
0.2501012777
 40
0.3751522189
 40
0.5001966467
 40
0.750121838
 40
1.0
 40
1.0
 40
1.0
 40
1.0
 10
3.7630117283
 20
5.5792048381
 30
0.0
 10
3.7630423578
 20
5.5856123458
 30
0.0
 10
3.7634016887
 20
5.5984303642
 30
0.0
 10
3.7651793304
 20
5.617583633
 30
0.0
 10
3.7681723257
 20
5.6365852155
 30
0.0
 10
3.773826186
 20
5.6615905959
 30
0.0
 10
3.7841630899
 20
5.6920158374
 30
0.0
 10
3.7962095709
 20
5.7147840749
 30
0.0
 10
3.8032150449
 20
5.7255009875
 30
0.0
  0
SPLINE
  5
25C
100
AcDbEntity
  8
0
100
AcDbSpline
 62
9
  6
CONTINUOUS
 70
0
 71
3
 72
9
 73
5
 74
0
 42
0.0000001
 43
0.0000001
 44
0.0000000001
 40
0.0
 40
0.0
 40
0.0
 40
0.0
 40
0.4999629946
 40
1.0
 40
1.0
 40
1.0
 40
1.0
 10
4.3052791969
 20
5.5792023041
 30
0.0
 10
4.3052791822
 20
5.593425659
 30
0.0
 10
4.3028044254
 20
5.6219193203
 30
0.0
 10
4.2960637193
 20
5.6496448053
 30
0.0
 10
4.2919714228
 20
5.6632689322
 30
0.0
  0
SPLINE
  5
25D
100
AcDbEntity
  8
0
100
AcDbSpline
 62
9
  6
CONTINUOUS
 70
0
 71
3
 72
9
 73
5
 74
0
 42
0.0000001
 43
0.0000001
 44
0.0000000001
 40
0.0
 40
0.0
 40
0.0
 40
0.0
 40
0.5000369127
 40
1.0
 40
1.0
 40
1.0
 40
1.0
 10
4.2919714228
 20
5.4951356761
 30
0.0
 10
4.2960637185
 20
5.5087598005
 30
0.0
 10
4.3028044274
 20
5.536485285
 30
0.0
 10
4.3052791811
 20
5.5649789466
 30
0.0
 10
4.3052791969
 20
5.5792023041
 30
0.0
  0
SPLINE
  5
25E
100
AcDbEntity
  8
0
100
AcDbSpline
 62
7
  6
CONTINUOUS
 70
0
 71
3
 72
27
 73
23
 74
0
 42
0.0000001
 43
0.0000001
 44
0.0000000001
 40
0.0
 40
0.0
 40
0.0
 40
0.0
 40
0.0003495719
 40
0.0013985269
 40
0.0031468653
 40
0.0055945871
 40
0.0087409158
 40
0.0125790536
 40
0.0222922943
 40
0.0346573133
 40
0.0495971107
 40
0.0670333337
 40
0.0868668044
 40
0.1332634907
 40
0.1878618333
 40
0.2497440558
 40
0.3180000597
 40
0.3917492871
 40
0.470198403
 40
0.6381775782
 40
0.8165773593
 40
1.0
 40
1.0
 40
1.0
 40
1.0
 10
6.4187690088
 20
4.8129298487
 30
0.0
 10
6.4187699356
 20
4.812918148
 30
0.0
 10
6.4187027133
 20
4.8129851966
 30
0.0
 10
6.4186378095
 20
4.8129975359
 30
0.0
 10
6.4184716078
 20
4.8131112124
 30
0.0
 10
6.4182661963
 20
4.8132266345
 30
0.0
 10
6.4179913923
 20
4.8133924561
 30
0.0
 10
6.417510544
 20
4.8136768045
 30
0.0
 10
6.416761345
 20
4.8141220016
 30
0.0
 10
6.415692093
 20
4.8147545975
 30
0.0
 10
6.4143984306
 20
4.8155186524
 30
0.0
 10
6.4128879934
 20
4.8164082476
 30
0.0
 10
6.4104654961
 20
4.8178306998
 30
0.0
 10
6.4069618501
 20
4.8198760738
 30
0.0
 10
6.4022282459
 20
4.8226149392
 30
0.0
 10
6.3968454006
 20
4.8256971267
 30
0.0
 10
6.3908870591
 20
4.829068143
 30
0.0
 10
6.3844235126
 20
4.8326756179
 30
0.0
 10
6.3750034893
 20
4.8378559465
 30
0.0
 10
6.3624321572
 20
4.8445972711
 30
0.0
 10
6.3466244881
 20
4.8527573571
 30
0.0
 10
6.3357338368
 20
4.8581429032
 30
0.0
 10
6.3301878585
 20
4.8608208502
 30
0.0
  0
SPLINE
  5
25F
100
AcDbEntity
  8
0
100
AcDbSpline
 62
7
  6
CONTINUOUS
 70
0
 71
3
 72
9
 73
5
 74
0
 42
0.0000001
 43
0.0000001
 44
0.0000000001
 40
0.0
 40
0.0
 40
0.0
 40
0.0
 40
0.2835602438
 40
1.0
 40
1.0
 40
1.0
 40
1.0
 10
6.3301878585
 20
4.8608208502
 30
0.0
 10
6.3235530648
 20
4.8640245456
 30
0.0
 10
6.3000296805
 20
4.8750608707
 30
0.0
 10
6.2760359215
 20
4.8850991282
 30
0.0
 10
6.2586145154
 20
4.8916584975
 30
0.0
  0
SPLINE
  5
260
100
AcDbEntity
  8
0
100
AcDbSpline
 62
7
  6
CONTINUOUS
 70
0
 71
3
 72
9
 73
5
 74
0
 42
0.0000001
 43
0.0000001
 44
0.0000000001
 40
0.0
 40
0.0
 40
0.0
 40
0.0
 40
0.3688651793
 40
1.0
 40
1.0
 40
1.0
 40
1.0
 10
6.2586145154
 20
4.8916584975
 30
0.0
 10
6.256708799
 20
4.8923760226
 30
0.0
 10
6.251419803
 20
4.8940012266
 30
0.0
 10
6.2458983563
 20
4.8947358551
 30
0.0
 10
6.2424159216
 20
4.8948460744
 30
0.0
  0
LINE
  5
261
100
AcDbEntity
  8
0
100
AcDbLine
 62
7
  6
CONTINUOUS
 10
6.242150499
 20
4.8948535923
 11
6.2416950329
 21
4.8948624958
  0
ENDSEC
  0
SECTION
  2
OBJECTS
  0
DICTIONARY
  5
C
100
AcDbDictionary
280
0
281
1
  3
ACAD_GROUP
350
D
  3
ACAD_MLINESTYLE
350
17
  3
ACAD_LAYOUT
350
1A
  3
ACAD_PLOTSETTINGS
350
19
  3
ACAD_PLOTSTYLENAME
350
E
  0
DICTIONARY
  5
D
102
{ACAD_REACTORS
330
C
102
}
100
AcDbDictionary
280
0
281
1
  0
ACDBDICTIONARYWDFLT
  5
E
102
{ACAD_REACTORS
330
C
102
}
100
AcDbDictionary
281
1
  3
Normal
350
F
100
AcDbDictionaryWithDefault
340
F
  0
DICTIONARY
  5
17
102
{ACAD_REACTORS
330
C
102
}
100
AcDbDictionary
280
0
281
1
  3
Standard
350
18
  0
DICTIONARY
  5
19
102
{ACAD_REACTORS
330
C
102
}
100
AcDbDictionary
281
1
  0
DICTIONARY
  5
1A
102
{ACAD_REACTORS
330
C
102
}
100
AcDbDictionary
281
1
  3
Model
350
262
  3
Layout1
350
263
  0
ACDBPLACEHOLDER
  5
F
102
{ACAD_REACTORS
330
E
102
}
  0
MLINESTYLE
  5
18
102
{ACAD_REACTORS
330
17
102
}
100
AcDbMlineStyle
  2
STANDARD
 70
0
  3

 62
256
 51
90.0
 52
90.0
 71
2
 49
0.5
 62
256
  6
BYLAYER
 49
-0.5
 62
256
  6
BYLAYER
  0
LAYOUT
  5
262
102
{ACAD_REACTORS
330
1A
102
}
100
AcDbPlotSettings
  1

  2
none_device
  4
ANSI_A_(11.00_x_8.50_Inches)
  6

 40
0.0
 41
0.0
 42
0.0
 43
0.0
 44
279.4
 45
215.9
 46
0.0
 47
0.0
 48
0.0
 49
0.0
140
0.0
141
0.0
142
1.0
143
1.0
 70
1024
 72
0
 73
0
 74
0
  7

 75
0
147
1.0
148
0.0
149
0.0
100
AcDbLayout
  1
Model
 70
0
 71
0
 10
0.0
 20
0.0
 11
11.0
 21
8.5
 12
0.0
 22
0.0
 32
0.0
 14
0.0
 24
0.0
 34
0.0
 15
0.0
 25
0.0
 35
0.0
146
0.0
 13
0.0
 23
0.0
 33
0.0
 16
1.0
 26
0.0
 36
0.0
 17
0.0
 27
1.0
 37
0.0
 76
0
330
200
345
0
346
0
  0
LAYOUT
  5
263
102
{ACAD_REACTORS
330
1A
102
}
100
AcDbPlotSettings
  1

  2
none_device
  4
ANSI_A_(11.00_x_8.50_Inches)
  6

 40
0.0
 41
0.0
 42
0.0
 43
0.0
 44
279.4
 45
215.9
 46
0.0
 47
0.0
 48
0.0
 49
0.0
140
0.0
141
0.0
142
1.0
143
1.0
 70
0
 72
0
 73
0
 74
0
  7

 75
0
147
1.0
148
0.0
149
0.0
100
AcDbLayout
  1
Layout1
 70
0
 71
1
 10
0.0
 20
0.0
 11
11.0
 21
8.5
 12
0.0
 22
0.0
 32
0.0
 14
0.0
 24
0.0
 34
0.0
 15
0.0
 25
0.0
 35
0.0
146
0.0
 13
0.0
 23
0.0
 33
0.0
 16
1.0
 26
0.0
 36
0.0
 17
0.0
 27
1.0
 37
0.0
 76
0
330
201
345
0
346
0
  0
ENDSEC
  0
EOF
