999
DXF file: 80-27_right.dxf
999
Pro/ENGINEER 2013150 by Parametric Technology Corporation
  0
SECTION
  2
HEADER
  9
$ACADVER
  1
AC1021
  9
$DWGCODEPAGE
  3
ANSI_1252
  9
$EXTMAX
 10
11.0
 20
8.5
 30
0.0
  9
$EXTMIN
 10
0.0
 20
0.0
 30
0.0
  9
$LIMMIN
 10
0.0
 20
0.0
  9
$LIMMAX
 10
11.0
 20
8.5
  9
$VIEWCTR
 10
5.5
 20
4.25
  9
$VIEWSIZE
 40
8.5
  9
$CLAYER
  8
0
  9
$LTSCALE
 40
0.605
  9
$CELTYPE
  6
BYLAYER
  9
$DIMSCALE
 40
1.0
  9
$DIMASZ
 40
0.1
  9
$DIMEXO
 40
0.0625
  9
$DIMDLI
 40
0.418
  9
$DIMEXE
 40
0.125
  9
$DIMCEN
 40
0.099
  9
$DIMLFAC
 40
1.0
  9
$DIMBLK
  1
_FILLED
  9
$DIMTXT
 40
0.08
  9
$DIMTOL
 70
1
  9
$DIMLIM
 70
0
  9
$DIMTFAC
 40
1.0
  9
$DIMTP
 40
0.001
  9
$DIMTM
 40
0.001
  9
$DIMGAP
 40
0.09
  9
$DIMDSEP
 70
46
  9
$PDMODE
 70
3
  9
$PDSIZE
 40
0.06
  9
$HANDSEED
  5
262
  9
$TILEMODE
 70
1
  9
$MEASUREMENT
 70
0
  9
$INSUNITS
 70
1
  0
ENDSEC
  0
SECTION
  2
CLASSES
  0
CLASS
  1
ACDBDICTIONARYWDFLT
  2
AcDbDictionaryWithDefault
  3
AutoCAD 2000
 90
0
 91
1
280
0
281
0
  0
CLASS
  1
ACDBPLACEHOLDER
  2
AcDbPlaceHolder
  3
AutoCAD 2000
 90
0
 91
1
280
0
281
0
  0
CLASS
  1
LAYOUT
  2
AcDbLayout
  3
AutoCAD 2000
 90
0
 91
0
280
0
281
0
  0
ENDSEC
  0
SECTION
  2
TABLES
  0
TABLE
  2
VPORT
  5
8
100
AcDbSymbolTable
 70
2
  0
VPORT
  5
1F4
100
AcDbSymbolTableRecord
100
AcDbViewportTableRecord
  2
*ACTIVE
 70
0
 10
0.0
 20
0.0
 11
1.0
 21
1.0
 12
5.5
 22
4.25
 13
0.0
 23
0.0
 14
1.0
 24
1.0
 15
0.0
 25
0.0
 16
0.0
 26
0.0
 36
1.0
 17
0.0
 27
0.0
 37
0.0
 40
8.5
 41
1.2941176471
 42
50.0
 43
0.0
 44
0.0
 50
0.0
 51
0.0
 71
0
 72
100
 73
1
 74
1
 75
0
 76
0
 77
0
 78
0
  0
ENDTAB
  0
TABLE
  2
LTYPE
  5
5
100
AcDbSymbolTable
 70
6
  0
LTYPE
  5
14
100
AcDbSymbolTableRecord
100
AcDbLinetypeTableRecord
  2
BYBLOCK
 70
0
  3

 72
65
 73
0
 40
0.0
  0
LTYPE
  5
15
100
AcDbSymbolTableRecord
100
AcDbLinetypeTableRecord
  2
BYLAYER
 70
0
  3

 72
65
 73
0
 40
0.0
  0
LTYPE
  5
16
100
AcDbSymbolTableRecord
100
AcDbLinetypeTableRecord
  2
CONTINUOUS
 70
64
  3
Solid line
 72
65
 73
0
 40
0.0
  0
LTYPE
  5
1F5
100
AcDbSymbolTableRecord
100
AcDbLinetypeTableRecord
  2
CENTER
 70
64
  3
____ _ ____ _ ____ _ ____ _ ____ _ ____ _ ____
 72
65
 73
4
 40
0.6
 49
0.375
 74
0
 49
-0.075
 74
0
 49
0.075
 74
0
 49
-0.075
 74
0
  0
LTYPE
  5
1F6
100
AcDbSymbolTableRecord
100
AcDbLinetypeTableRecord
  2
HIDDEN
 70
64
  3
- - - - - - - - - - - - - - - - - - - -
 72
65
 73
2
 40
0.2
 49
0.1
 74
0
 49
-0.1
 74
0
  0
LTYPE
  5
1F7
100
AcDbSymbolTableRecord
100
AcDbLinetypeTableRecord
  2
PHANTOM
 70
64
  3
_____ _ _ _____ _ _ _____ _ _ _____
 72
65
 73
6
 40
0.8
 49
0.45
 74
0
 49
-0.05
 74
0
 49
0.1
 74
0
 49
-0.05
 74
0
 49
0.1
 74
0
 49
-0.05
 74
0
  0
LTYPE
  5
1F8
100
AcDbSymbolTableRecord
100
AcDbLinetypeTableRecord
  2
DOT
 70
64
  3
. . . . . . . . . . . . . . . . . . . .
 72
65
 73
2
 40
0.2
 49
0.1
 74
0
 49
-0.1
 74
0
  0
LTYPE
  5
1F9
100
AcDbSymbolTableRecord
100
AcDbLinetypeTableRecord
  2
DASHED
 70
64
  3
- - - - - - - - - - - - - - - - - - - -
 72
65
 73
2
 40
0.2
 49
0.1
 74
0
 49
-0.1
 74
0
  0
ENDTAB
  0
TABLE
  2
LAYER
  5
2
100
AcDbSymbolTable
 70
36
  0
LAYER
  5
10
100
AcDbSymbolTableRecord
100
AcDbLayerTableRecord
  2
0
 70
0
 62
7
  6
CONTINUOUS
370
-3
390
F
  0
LAYER
  5
1FA
100
AcDbSymbolTableRecord
100
AcDbLayerTableRecord
  2
DEFAULT_1
 70
0
 62
7
  6
CENTER
370
-3
390
F
  0
LAYER
  5
1FB
100
AcDbSymbolTableRecord
100
AcDbLayerTableRecord
  2
DEFAULT_2
 70
0
 62
8
  6
HIDDEN
370
-3
390
F
  0
LAYER
  5
1FC
100
AcDbSymbolTableRecord
100
AcDbLayerTableRecord
  2
DEFAULT_3
 70
0
 62
7
  6
PHANTOM
370
-3
390
F
  0
LAYER
  5
1FD
100
AcDbSymbolTableRecord
100
AcDbLayerTableRecord
  2
DEFAULT_DATUM_CURVES
 70
0
 62
7
  6
CONTINUOUS
370
-3
390
F
  0
ENDTAB
  0
TABLE
  2
STYLE
  5
3
100
AcDbSymbolTable
 70
1
  0
STYLE
  5
11
100
AcDbSymbolTableRecord
100
AcDbTextStyleTableRecord
  2
STANDARD
 70
0
 40
0.0
 41
0.8
 50
0.0
 71
0
 42
0.2
  3
txt
  4

  0
STYLE
  5
1FE
100
AcDbSymbolTableRecord
100
AcDbTextStyleTableRecord
  2
TEXTSTYLE_1
 70
0
 40
0.0
 41
0.8
 50
0.0
 71
0
 42
0.2
  3
gdt
  4

  0
ENDTAB
  0
TABLE
  2
VIEW
  5
6
100
AcDbSymbolTable
 70
0
  0
ENDTAB
  0
TABLE
  2
UCS
  5
7
100
AcDbSymbolTable
 70
0
  0
ENDTAB
  0
TABLE
  2
APPID
  5
9
100
AcDbSymbolTable
 70
1
  0
APPID
  5
1FF
100
AcDbSymbolTableRecord
100
AcDbRegAppTableRecord
  2
ACAD
 70
0
  0
ENDTAB
  0
TABLE
  2
BLOCK_RECORD
  5
1
100
AcDbSymbolTable
 70
0
  0
BLOCK_RECORD
  5
200
100
AcDbSymbolTableRecord
100
AcDbBlockTableRecord
  2
*Model_Space
  0
BLOCK_RECORD
  5
201
100
AcDbSymbolTableRecord
100
AcDbBlockTableRecord
  2
*Paper_Space
  0
ENDTAB
  0
TABLE
  2
DIMSTYLE
  5
A
100
AcDbSymbolTable
 70
1
100
AcDbDimStyleTable
 71
0
  0
DIMSTYLE
105
202
100
AcDbSymbolTableRecord
100
AcDbDimStyleTableRecord
  2
STANDARD
 70
0
  3

  4

 40
1.0
 41
0.1
 42
0.0625
 43
0.38
 44
0.125
 45
0.0
 46
0.0
 47
0.001
 48
0.001
140
0.08
141
0.09
142
0.0
143
25.4
144
1.0
145
0.0
146
1.0
147
0.09
 71
1.0
 72
0.0
 73
1
 74
1
 75
0
 76
0
 77
0
 78
4
170
0
171
2
172
0
173
0
174
0
175
0
176
0
177
0
178
0
270
2
271
3
272
3
273
2
274
2
275
0
280
0
281
0
282
0
283
1
284
4
285
0
286
0
287
3
288
0
340
11
278
46
  0
ENDTAB
  0
ENDSEC
  0
SECTION
  2
BLOCKS
  0
BLOCK
  5
20
100
AcDbEntity
  8
0
100
AcDbBlockBegin
  2
*Model_Space
 70
0
 10
0.0
 20
0.0
 30
0.0
  3
*Model_Space
  1

  0
ENDBLK
  5
21
100
AcDbEntity
  8
0
100
AcDbBlockEnd
  0
BLOCK
  5
1C
100
AcDbEntity
  8
0
100
AcDbBlockBegin
  2
*Paper_Space
 70
0
 10
0.0
 20
0.0
 30
0.0
  3
*Paper_Space
  1

  0
ENDBLK
  5
1D
100
AcDbEntity
  8
0
100
AcDbBlockEnd
  0
ENDSEC
  0
SECTION
  2
ENTITIES
  0
LINE
  5
203
100
AcDbEntity
  8
0
100
AcDbLine
 62
7
  6
CONTINUOUS
 10
0.0
 20
0.0
 11
0.0
 21
8.5
  0
LINE
  5
204
100
AcDbEntity
  8
0
100
AcDbLine
 62
7
  6
CONTINUOUS
 10
0.0
 20
0.0
 11
11.0
 21
0.0
  0
LINE
  5
205
100
AcDbEntity
  8
0
100
AcDbLine
 62
7
  6
CONTINUOUS
 10
0.0
 20
8.5
 11
11.0
 21
8.5
  0
LINE
  5
206
100
AcDbEntity
  8
0
100
AcDbLine
 62
7
  6
CONTINUOUS
 10
11.0
 20
0.0
 11
11.0
 21
8.5
  0
LINE
  5
207
100
AcDbEntity
  8
0
100
AcDbLine
 62
9
  6
CONTINUOUS
 10
3.4609174852
 20
4.7971461462
 11
3.4609174852
 21
5.4331995883
  0
LINE
  5
208
100
AcDbEntity
  8
0
100
AcDbLine
 62
9
  6
CONTINUOUS
 10
3.5681071342
 20
4.9289102109
 11
3.5542898649
 21
4.9201104004
  0
LINE
  5
209
100
AcDbEntity
  8
0
100
AcDbLine
 62
9
  6
CONTINUOUS
 10
3.554290667
 20
5.539874388
 11
3.5542880189
 21
5.3102377782
  0
LINE
  5
20A
100
AcDbEntity
  8
0
100
AcDbLine
 62
9
  6
CONTINUOUS
 10
3.5542881613
 20
4.9201080674
 11
3.5542906684
 21
4.6904713424
  0
LINE
  5
20B
100
AcDbEntity
  8
0
100
AcDbLine
 62
7
  6
CONTINUOUS
 10
3.6960260487
 20
5.1151728669
 11
3.6960260487
 21
1.8474563315
  0
LINE
  5
20C
100
AcDbEntity
  8
0
100
AcDbLine
 62
7
  6
CONTINUOUS
 10
4.4540206331
 20
5.4362406647
 11
4.4954394968
 21
5.4578921129
  0
LINE
  5
20D
100
AcDbEntity
  8
0
100
AcDbLine
 62
9
  6
CONTINUOUS
 10
4.1903816621
 20
5.2222050715
 11
4.2059631894
 21
5.2272617111
  0
LINE
  5
20E
100
AcDbEntity
  8
0
100
AcDbLine
 62
7
  6
CONTINUOUS
 10
4.0109866786
 20
5.1151728669
 11
4.0109866786
 21
1.8474563315
  0
LINE
  5
20F
100
AcDbEntity
  8
0
100
AcDbLine
 62
7
  6
CONTINUOUS
 10
6.8281539795
 20
6.0345355768
 11
7.1007504581
 21
6.1651728669
  0
LINE
  5
210
100
AcDbEntity
  8
0
100
AcDbLine
 62
9
  6
CONTINUOUS
 10
4.2059631894
 20
5.5087277373
 11
4.2059631894
 21
5.227261716
  0
LINE
  5
211
100
AcDbEntity
  8
0
100
AcDbLine
 62
9
  6
CONTINUOUS
 10
4.2059631894
 20
4.7216179964
 11
4.2059631894
 21
5.0030840296
  0
LINE
  5
212
100
AcDbEntity
  8
0
100
AcDbLine
 62
7
  6
CONTINUOUS
 10
4.6075061936
 20
4.8068863372
 11
4.5532781022
 21
4.7742082726
  0
LINE
  5
213
100
AcDbEntity
  8
0
100
AcDbLine
 62
9
  6
CONTINUOUS
 10
4.3017490463
 20
4.7905905941
 11
4.3017490463
 21
5.4397551396
  0
LINE
  5
214
100
AcDbEntity
  8
0
100
AcDbLine
 62
9
  6
CONTINUOUS
 10
4.4540206331
 20
5.4362406647
 11
4.4540206331
 21
4.7941050691
  0
LINE
  5
215
100
AcDbEntity
  8
0
100
AcDbLine
 62
9
  6
CONTINUOUS
 10
4.4954394968
 20
4.7724536209
 11
4.4954394968
 21
5.4578921129
  0
LINE
  5
216
100
AcDbEntity
  8
0
100
AcDbLine
 62
9
  6
CONTINUOUS
 10
4.5532781022
 20
5.4561374612
 11
4.5532781022
 21
4.7742082726
  0
LINE
  5
217
100
AcDbEntity
  8
0
100
AcDbLine
 62
9
  6
CONTINUOUS
 10
4.6075061936
 20
4.8068863372
 11
4.6075061936
 21
5.4234593965
  0
LINE
  5
218
100
AcDbEntity
  8
0
100
AcDbLine
 62
9
  6
CONTINUOUS
 10
4.6819024224
 20
4.8230676339
 11
4.6819024224
 21
5.4072780999
  0
LINE
  5
219
100
AcDbEntity
  8
0
100
AcDbLine
 62
9
  6
CONTINUOUS
 10
4.8811679707
 20
4.735018946
 11
4.8811679707
 21
5.4953267877
  0
LINE
  5
21A
100
AcDbEntity
  8
0
100
AcDbLine
 62
7
  6
CONTINUOUS
 10
4.9007504581
 20
5.4901728669
 11
4.9007504581
 21
4.7401728669
  0
LINE
  5
21B
100
AcDbEntity
  8
0
100
AcDbLine
 62
9
  6
CONTINUOUS
 10
5.0126136005
 20
4.6951301551
 11
5.0126136005
 21
5.5352155787
  0
LINE
  5
21C
100
AcDbEntity
  8
0
100
AcDbLine
 62
9
  6
CONTINUOUS
 10
5.0559512986
 20
4.7132572564
 11
5.0559512986
 21
5.5170884774
  0
LINE
  5
21D
100
AcDbEntity
  8
0
100
AcDbLine
 62
9
  6
CONTINUOUS
 10
5.4716165998
 20
4.667520629
 11
5.4716165998
 21
5.5628251048
  0
LINE
  5
21E
100
AcDbEntity
  8
0
100
AcDbLine
 62
7
  6
CONTINUOUS
 10
6.8055946696
 20
4.2027197892
 11
6.8054748676
 21
4.2027205211
  0
LINE
  5
21F
100
AcDbEntity
  8
0
100
AcDbLine
 62
7
  6
CONTINUOUS
 10
4.4540206331
 20
4.7941050691
 11
4.4954394968
 21
4.7724536209
  0
LINE
  5
220
100
AcDbEntity
  8
0
100
AcDbLine
 62
9
  6
CONTINUOUS
 10
3.5542898649
 20
5.3102353334
 11
3.5681071342
 21
5.3014355229
  0
LINE
  5
221
100
AcDbEntity
  8
0
100
AcDbLine
 62
9
  6
CONTINUOUS
 10
4.2059631894
 20
5.0030840227
 11
4.1903816621
 21
5.0081406623
  0
LINE
  5
222
100
AcDbEntity
  8
0
100
AcDbLine
 62
7
  6
CONTINUOUS
 10
7.0416956514
 20
4.0934738925
 11
7.1007504581
 21
4.0651728669
  0
LINE
  5
223
100
AcDbEntity
  8
0
100
AcDbLine
 62
7
  6
CONTINUOUS
 10
4.6075061936
 20
5.4234593965
 11
4.5532781022
 21
5.4561374612
  0
LINE
  5
224
100
AcDbEntity
  8
0
100
AcDbLine
 62
9
  6
CONTINUOUS
 10
3.5185217649
 20
5.1151728669
 11
3.5006840674
 21
5.1151728669
  0
LINE
  5
225
100
AcDbEntity
  8
0
100
AcDbLine
 62
9
  6
CONTINUOUS
 10
4.2088078183
 20
5.1151728669
 11
4.2237068882
 21
5.1151728669
  0
LINE
  5
226
100
AcDbEntity
  8
0
100
AcDbLine
 62
9
  6
CONTINUOUS
 10
6.622579038
 20
5.9484421389
 11
6.622579038
 21
4.2819195046
  0
LINE
  5
227
100
AcDbEntity
  8
0
100
AcDbLine
 62
9
  6
CONTINUOUS
 10
6.6626214133
 20
4.2386555106
 11
6.6626214133
 21
5.9916902231
  0
LINE
  5
228
100
AcDbEntity
  8
0
100
AcDbLine
 62
9
  6
CONTINUOUS
 10
6.762414823
 20
4.1968756165
 11
6.762414823
 21
6.0334701172
  0
LINE
  5
229
100
AcDbEntity
  8
0
100
AcDbLine
 62
9
  6
CONTINUOUS
 10
6.8281539795
 20
6.0345355768
 11
6.8281539795
 21
4.1984477914
  0
LINE
  5
22A
100
AcDbEntity
  8
0
100
AcDbLine
 62
7
  6
CONTINUOUS
 10
7.1007504581
 20
4.0651728669
 11
7.1007504581
 21
6.1651728669
  0
ARC
  5
22B
100
AcDbEntity
  8
0
100
AcDbCircle
 62
7
  6
CONTINUOUS
 10
4.406437882
 20
-0.4222135781
 40
5.2
100
AcDbArc
 50
64.7745607532
 51
78.179746384
  0
ARC
  5
22C
100
AcDbEntity
  8
0
100
AcDbCircle
 62
7
  6
CONTINUOUS
 10
5.0280609557
 20
2.5480825506
 40
2.1653543307
100
AcDbArc
 50
78.179746384
 51
89.2619946283
  0
ARC
  5
22D
100
AcDbEntity
  8
0
100
AcDbCircle
 62
7
  6
CONTINUOUS
 10
4.6110828988
 20
4.2600047649
 40
0.6141732283
100
AcDbArc
 50
120.2423718621
 51
131.2707449165
  0
ARC
  5
22E
100
AcDbEntity
  8
0
100
AcDbCircle
 62
7
  6
CONTINUOUS
 10
4.640252593
 20
4.4593025176
 40
0.3661417323
100
AcDbArc
 50
48.8537031516
 51
83.4682776146
  0
ARC
  5
22F
100
AcDbEntity
  8
0
100
AcDbCircle
 62
7
  6
CONTINUOUS
 10
3.7385201224
 20
4.9459311368
 40
0.3149606299
100
AcDbArc
 50
208.1896692764
 51
234.2020433332
  0
ARC
  5
230
100
AcDbEntity
  8
0
100
AcDbCircle
 62
7
  6
CONTINUOUS
 10
3.8535063636
 20
1.8474563315
 40
0.157480315
100
AcDbArc
 50
180.0
 51
360.0
  0
ARC
  5
231
100
AcDbEntity
  8
0
100
AcDbCircle
 62
7
  6
CONTINUOUS
 10
4.3810654187
 20
4.6545429456
 40
0.157480315
100
AcDbArc
 50
62.4019669871
 51
120.2423718621
  0
ARC
  5
232
100
AcDbEntity
  8
0
100
AcDbCircle
 62
7
  6
CONTINUOUS
 10
4.6684669935
 20
4.705724048
 40
0.1181102362
100
AcDbArc
 50
83.4682776146
 51
121.073335
  0
ARC
  5
233
100
AcDbEntity
  8
0
100
AcDbCircle
 62
7
  6
CONTINUOUS
 10
4.9657504581
 20
4.7401728669
 40
0.065
100
AcDbArc
 50
180.0
 51
316.134741094
  0
ARC
  5
234
100
AcDbEntity
  8
0
100
AcDbCircle
 62
7
  6
CONTINUOUS
 10
4.5227977022
 20
4.8247894172
 40
0.0590551181
100
AcDbArc
 50
242.4019669872
 51
301.073335
  0
ARC
  5
235
100
AcDbEntity
  8
0
100
AcDbCircle
 62
7
  6
CONTINUOUS
 10
5.0551906529
 20
4.6542070371
 40
0.0590551181
100
AcDbArc
 50
89.2619946282
 51
136.1347410936
  0
ARC
  5
236
100
AcDbEntity
  8
0
100
AcDbCircle
 62
7
  6
CONTINUOUS
 10
4.8889394345
 20
4.7439130244
 40
0.0118110236
100
AcDbArc
 50
228.8537031516
 51
360.0
  0
ARC
  5
237
100
AcDbEntity
  8
0
100
AcDbCircle
 62
7
  6
CONTINUOUS
 10
4.0542937652
 20
5.1151728669
 40
0.6732283465
100
AcDbArc
 50
151.8105159176
 51
208.1894840824
  0
ARC
  5
238
100
AcDbEntity
  8
0
100
AcDbCircle
 62
7
  6
CONTINUOUS
 10
3.8605726679
 20
5.1151728669
 40
0.5236220472
100
AcDbArc
 50
286.6989401607
 51
311.2707449165
  0
ARC
  5
239
100
AcDbEntity
  8
0
100
AcDbCircle
 62
7
  6
CONTINUOUS
 10
3.8605726679
 20
5.1151728669
 40
0.5236220472
100
AcDbArc
 50
234.2018795995
 51
251.6821827917
  0
ARC
  5
23A
100
AcDbEntity
  8
0
100
AcDbCircle
 62
7
  6
CONTINUOUS
 10
3.8605726679
 20
5.1151728669
 40
0.5236220472
100
AcDbArc
 50
48.7292550835
 51
125.7981204005
  0
ARC
  5
23B
100
AcDbEntity
  8
0
100
AcDbCircle
 62
9
  6
CONTINUOUS
 10
3.8605726679
 20
5.1151728669
 40
0.3631232866
100
AcDbArc
 50
212.4918633228
 51
243.0446306954
  0
ARC
  5
23C
100
AcDbEntity
  8
0
100
AcDbCircle
 62
9
  6
CONTINUOUS
 10
3.8605726679
 20
5.1151728669
 40
0.3631232866
100
AcDbArc
 50
294.4778351004
 51
342.0203080571
  0
ARC
  5
23D
100
AcDbEntity
  8
0
100
AcDbCircle
 62
9
  6
CONTINUOUS
 10
3.8605726679
 20
5.1151728669
 40
0.3631232866
100
AcDbArc
 50
17.9796912817
 51
147.5081367044
  0
ARC
  5
23E
100
AcDbEntity
  8
0
100
AcDbCircle
 62
9
  6
CONTINUOUS
 10
3.8605726679
 20
5.1151728669
 40
0.346741785
100
AcDbArc
 50
295.7089848978
 51
342.0203094491
  0
ARC
  5
23F
100
AcDbEntity
  8
0
100
AcDbCircle
 62
9
  6
CONTINUOUS
 10
3.8605726679
 20
5.1151728669
 40
0.346741785
100
AcDbArc
 50
212.491855952
 51
241.6569752337
  0
ARC
  5
240
100
AcDbEntity
  8
0
100
AcDbCircle
 62
9
  6
CONTINUOUS
 10
3.8605726679
 20
5.1151728669
 40
0.346741785
100
AcDbArc
 50
17.9796905509
 51
147.508144048
  0
ARC
  5
241
100
AcDbEntity
  8
0
100
AcDbCircle
 62
7
  6
CONTINUOUS
 10
3.7385201224
 20
5.2844145969
 40
0.3149606299
100
AcDbArc
 50
125.7979566711
 51
151.8103307235
  0
ARC
  5
242
100
AcDbEntity
  8
0
100
AcDbCircle
 62
7
  6
CONTINUOUS
 10
3.8535063636
 20
5.1151728669
 40
0.187007874
100
AcDbArc
 50
327.4024246366
 51
212.5994232577
  0
ARC
  5
243
100
AcDbEntity
  8
0
100
AcDbCircle
 62
7
  6
CONTINUOUS
 10
3.8535063636
 20
5.1151728669
 40
0.1633858268
100
AcDbArc
 50
344.5912749428
 51
195.4087250572
  0
ARC
  5
244
100
AcDbEntity
  8
0
100
AcDbCircle
 62
7
  6
CONTINUOUS
 10
3.8535063636
 20
5.1151728669
 40
0.157480315
100
AcDbArc
 50
0.0
 51
180.0
  0
ARC
  5
245
100
AcDbEntity
  8
0
100
AcDbCircle
 62
7
  6
CONTINUOUS
 10
4.3810654187
 20
5.5758027881
 40
0.157480315
100
AcDbArc
 50
239.7576281379
 51
297.5980330129
  0
ARC
  5
246
100
AcDbEntity
  8
0
100
AcDbCircle
 62
7
  6
CONTINUOUS
 10
5.0280609557
 20
7.6822631831
 40
2.1653543307
100
AcDbArc
 50
270.7380053717
 51
281.820253616
  0
ARC
  5
247
100
AcDbEntity
  8
0
100
AcDbCircle
 62
7
  6
CONTINUOUS
 10
4.6110828988
 20
5.9703409688
 40
0.6141732283
100
AcDbArc
 50
228.7292550835
 51
239.7576281379
  0
ARC
  5
248
100
AcDbEntity
  8
0
100
AcDbCircle
 62
7
  6
CONTINUOUS
 10
4.640252593
 20
5.7710432162
 40
0.3661417323
100
AcDbArc
 50
276.5317223854
 51
311.1462968484
  0
ARC
  5
249
100
AcDbEntity
  8
0
100
AcDbCircle
 62
7
  6
CONTINUOUS
 10
4.6684669935
 20
5.5246216858
 40
0.1181102362
100
AcDbArc
 50
238.926665
 51
276.5317223854
  0
ARC
  5
24A
100
AcDbEntity
  8
0
100
AcDbCircle
 62
7
  6
CONTINUOUS
 10
4.9657504581
 20
5.4901728669
 40
0.065
100
AcDbArc
 50
43.865258906
 51
180.0
  0
ARC
  5
24B
100
AcDbEntity
  8
0
100
AcDbCircle
 62
7
  6
CONTINUOUS
 10
4.5227977022
 20
5.4055563166
 40
0.0590551181
100
AcDbArc
 50
58.926665
 51
117.5980330128
  0
ARC
  5
24C
100
AcDbEntity
  8
0
100
AcDbCircle
 62
7
  6
CONTINUOUS
 10
5.0551906529
 20
5.5761386966
 40
0.0590551181
100
AcDbArc
 50
223.8652589064
 51
270.7380053718
  0
ARC
  5
24D
100
AcDbEntity
  8
0
100
AcDbCircle
 62
7
  6
CONTINUOUS
 10
4.8889394345
 20
5.4864327094
 40
0.0118110236
100
AcDbArc
 50
0.0
 51
131.1462968484
  0
ARC
  5
24E
100
AcDbEntity
  8
0
100
AcDbCircle
 62
7
  6
CONTINUOUS
 10
4.406437882
 20
10.6525593119
 40
5.2
100
AcDbArc
 50
281.820253616
 51
295.2254392468
  0
ARC
  5
24F
100
AcDbEntity
  8
0
100
AcDbCircle
 62
7
  6
CONTINUOUS
 10
6.7941249248
 20
4.1248028627
 40
0.0787401575
100
AcDbArc
 50
81.7122709159
 51
113.7482224283
  0
ARC
  5
250
100
AcDbEntity
  8
0
100
AcDbCircle
 62
7
  6
CONTINUOUS
 10
6.5890214796
 20
4.2106722627
 40
0.0787401575
100
AcDbArc
 50
20.8171798159
 51
64.7745607534
  0
ARC
  5
251
100
AcDbEntity
  8
0
100
AcDbCircle
 62
7
  6
CONTINUOUS
 10
6.7323658427
 20
4.2651728669
 40
0.0746153846
100
AcDbArc
 50
200.817179816
 51
293.7482224283
  0
ARC
  5
252
100
AcDbEntity
  8
0
100
AcDbCircle
 62
7
  6
CONTINUOUS
 10
6.7941249248
 20
6.1055428711
 40
0.0787401575
100
AcDbArc
 50
246.2517775717
 51
295.6052889794
  0
ARC
  5
253
100
AcDbEntity
  8
0
100
AcDbCircle
 62
7
  6
CONTINUOUS
 10
6.5890214796
 20
6.0196734711
 40
0.0787401575
100
AcDbArc
 50
295.2254392466
 51
339.1828201841
  0
ARC
  5
254
100
AcDbEntity
  8
0
100
AcDbCircle
 62
7
  6
CONTINUOUS
 10
6.7323658427
 20
5.9651728669
 40
0.0746153846
100
AcDbArc
 50
66.2517775717
 51
159.182820184
  0
SPLINE
  5
255
100
AcDbEntity
  8
0
100
AcDbSpline
 62
9
  6
CONTINUOUS
 70
0
 71
3
 72
14
 73
10
 74
0
 42
0.0000001
 43
0.0000001
 44
0.0000000001
 40
0.0
 40
0.0
 40
0.0
 40
0.0
 40
0.1250208547
 40
0.2500383335
 40
0.3750574009
 40
0.5000724076
 40
0.7499424263
 40
0.8749748327
 40
1.0
 40
1.0
 40
1.0
 40
1.0
 10
3.5006835968
 20
5.1151694882
 30
0.0
 10
3.5007137963
 20
5.1066263385
 30
0.0
 10
3.5012005694
 20
5.0895356036
 30
0.0
 10
3.5035774785
 20
5.0639998802
 30
0.0
 10
3.5075618673
 20
5.0386628274
 30
0.0
 10
3.515102484
 20
5.0053276332
 30
0.0
 10
3.5261403519
 20
4.9728362649
 30
0.0
 10
3.5409233787
 20
4.9420041558
 30
0.0
 10
3.5496229134
 20
4.9272653585
 30
0.0
 10
3.5542881613
 20
4.9201080674
 30
0.0
  0
SPLINE
  5
256
100
AcDbEntity
  8
0
100
AcDbSpline
 62
9
  6
CONTINUOUS
 70
0
 71
3
 72
9
 73
5
 74
0
 42
0.0000001
 43
0.0000001
 44
0.0000000001
 40
0.0
 40
0.0
 40
0.0
 40
0.0
 40
0.5009141106
 40
1.0
 40
1.0
 40
1.0
 40
1.0
 10
4.1903816693
 20
5.2222050738
 30
0.0
 10
4.1959970991
 20
5.2049016893
 30
0.0
 10
4.2053314593
 20
5.1696811266
 30
0.0
 10
4.2088077974
 20
5.1332982321
 30
0.0
 10
4.2088078183
 20
5.1151728669
 30
0.0
  0
SPLINE
  5
257
100
AcDbEntity
  8
0
100
AcDbSpline
 62
9
  6
CONTINUOUS
 70
0
 71
3
 72
9
 73
5
 74
0
 42
0.0000001
 43
0.0000001
 44
0.0000000001
 40
0.0
 40
0.0
 40
0.0
 40
0.0
 40
0.4990858923
 40
1.0
 40
1.0
 40
1.0
 40
1.0
 10
4.2088078183
 20
5.1151728669
 30
0.0
 10
4.208807796
 20
5.0970475015
 30
0.0
 10
4.20533146
 20
5.0606646071
 30
0.0
 10
4.1959970991
 20
5.0254440443
 30
0.0
 10
4.1903816693
 20
5.0081406599
 30
0.0
  0
SPLINE
  5
258
100
AcDbEntity
  8
0
100
AcDbSpline
 62
9
  6
CONTINUOUS
 70
0
 71
3
 72
11
 73
7
 74
0
 42
0.0000001
 43
0.0000001
 44
0.0000000001
 40
0.0
 40
0.0
 40
0.0
 40
0.0
 40
0.2491938844
 40
0.4990314053
 40
0.7493352739
 40
1.0
 40
1.0
 40
1.0
 40
1.0
 10
3.5681071289
 20
4.9289102076
 30
0.0
 10
3.5594002169
 20
4.9425816388
 30
0.0
 10
3.5444655804
 20
4.9716160815
 30
0.0
 10
3.5292397041
 20
5.0180846754
 30
0.0
 10
3.520398888
 20
5.0662472759
 30
0.0
 10
3.5185217642
 20
5.0988686086
 30
0.0
 10
3.5185217649
 20
5.1151728669
 30
0.0
  0
SPLINE
  5
259
100
AcDbEntity
  8
0
100
AcDbSpline
 62
9
  6
CONTINUOUS
 70
0
 71
3
 72
11
 73
7
 74
0
 42
0.0000001
 43
0.0000001
 44
0.0000000001
 40
0.0
 40
0.0
 40
0.0
 40
0.0
 40
0.2506647459
 40
0.5009685965
 40
0.750806116
 40
1.0
 40
1.0
 40
1.0
 40
1.0
 10
3.5185217649
 20
5.1151728669
 30
0.0
 10
3.5185217646
 20
5.1314771264
 30
0.0
 10
3.5203988881
 20
5.1640984593
 30
0.0
 10
3.5292397046
 20
5.2122610597
 30
0.0
 10
3.5444655805
 20
5.2587296524
 30
0.0
 10
3.5594002169
 20
5.2877640951
 30
0.0
 10
3.5681071289
 20
5.3014355262
 30
0.0
  0
SPLINE
  5
25A
100
AcDbEntity
  8
0
100
AcDbSpline
 62
9
  6
CONTINUOUS
 70
0
 71
3
 72
13
 73
9
 74
0
 42
0.0000001
 43
0.0000001
 44
0.0000000001
 40
0.0
 40
0.0
 40
0.0
 40
0.0
 40
0.125053157
 40
0.2501012777
 40
0.3751522189
 40
0.5001966467
 40
0.750121838
 40
1.0
 40
1.0
 40
1.0
 40
1.0
 10
3.5006835968
 20
5.1151762456
 30
0.0
 10
3.5007244361
 20
5.1237195891
 30
0.0
 10
3.5012035439
 20
5.1408102803
 30
0.0
 10
3.503573733
 20
5.1663479722
 30
0.0
 10
3.5075643933
 20
5.1916834155
 30
0.0
 10
3.5151028738
 20
5.2250239226
 30
0.0
 10
3.5288854122
 20
5.2655909113
 30
0.0
 10
3.544947387
 20
5.2959485613
 30
0.0
 10
3.5542880189
 20
5.3102377782
 30
0.0
  0
SPLINE
  5
25B
100
AcDbEntity
  8
0
100
AcDbSpline
 62
9
  6
CONTINUOUS
 70
0
 71
3
 72
10
 73
6
 74
0
 42
0.0000001
 43
0.0000001
 44
0.0000000001
 40
0.0
 40
0.0
 40
0.0
 40
0.0
 40
0.2500837763
 40
0.5001717602
 40
1.0
 40
1.0
 40
1.0
 40
1.0
 10
4.2237068883
 20
5.1151728669
 30
0.0
 10
4.2237068785
 20
5.1246629452
 30
0.0
 10
4.2228947847
 20
5.1436535475
 30
0.0
 10
4.2181562937
 20
5.1813365747
 30
0.0
 10
4.2114195848
 20
5.2090962019
 30
0.0
 10
4.2059631894
 20
5.2272617044
 30
0.0
  0
SPLINE
  5
25C
100
AcDbEntity
  8
0
100
AcDbSpline
 62
9
  6
CONTINUOUS
 70
0
 71
3
 72
10
 73
6
 74
0
 42
0.0000001
 43
0.0000001
 44
0.0000000001
 40
0.0
 40
0.0
 40
0.0
 40
0.0
 40
0.4998281484
 40
0.7499161758
 40
1.0
 40
1.0
 40
1.0
 40
1.0
 10
4.2059631894
 20
5.0030840296
 30
0.0
 10
4.2114195838
 20
5.0212495287
 30
0.0
 10
4.2181562984
 20
5.0490091532
 30
0.0
 10
4.2228947784
 20
5.0866921814
 30
0.0
 10
4.2237068777
 20
5.1056827868
 30
0.0
 10
4.2237068883
 20
5.1151728669
 30
0.0
  0
SPLINE
  5
25D
100
AcDbEntity
  8
0
100
AcDbSpline
 62
7
  6
CONTINUOUS
 70
0
 71
3
 72
27
 73
23
 74
0
 42
0.0000001
 43
0.0000001
 44
0.0000000001
 40
0.0
 40
0.0
 40
0.0
 40
0.0
 40
0.0003495719
 40
0.0013985269
 40
0.0031468653
 40
0.0055945871
 40
0.0087409158
 40
0.0125790536
 40
0.0222922943
 40
0.0346573133
 40
0.0495971107
 40
0.0670333337
 40
0.0868668044
 40
0.1332634907
 40
0.1878618333
 40
0.2497440558
 40
0.3180000597
 40
0.3917492871
 40
0.470198403
 40
0.6381775782
 40
0.8165773593
 40
1.0
 40
1.0
 40
1.0
 40
1.0
 10
7.0416933041
 20
4.0934762597
 30
0.0
 10
7.0416945399
 20
4.0934606588
 30
0.0
 10
7.0416049102
 20
4.093550057
 30
0.0
 10
7.0415183717
 20
4.0935665093
 30
0.0
 10
7.0412967695
 20
4.0937180779
 30
0.0
 10
7.0410228874
 20
4.0938719741
 30
0.0
 10
7.0406564821
 20
4.0940930696
 30
0.0
 10
7.0400153511
 20
4.0944722007
 30
0.0
 10
7.039016419
 20
4.0950657969
 30
0.0
 10
7.0375907497
 20
4.0959092581
 30
0.0
 10
7.0358658666
 20
4.096927998
 30
0.0
 10
7.0338519502
 20
4.0981141249
 30
0.0
 10
7.0306219538
 20
4.1000107279
 30
0.0
 10
7.0259504258
 20
4.1027378931
 30
0.0
 10
7.0196389535
 20
4.1063897138
 30
0.0
 10
7.0124618265
 20
4.1104992971
 30
0.0
 10
7.0045173711
 20
4.1149939855
 30
0.0
 10
6.9958993092
 20
4.119803952
 30
0.0
 10
6.9833392782
 20
4.1267110568
 30
0.0
 10
6.9665775019
 20
4.1356994895
 30
0.0
 10
6.9455006099
 20
4.1465796043
 30
0.0
 10
6.9309797415
 20
4.1537603324
 30
0.0
 10
6.9235851038
 20
4.1573309283
 30
0.0
  0
SPLINE
  5
25E
100
AcDbEntity
  8
0
100
AcDbSpline
 62
7
  6
CONTINUOUS
 70
0
 71
3
 72
9
 73
5
 74
0
 42
0.0000001
 43
0.0000001
 44
0.0000000001
 40
0.0
 40
0.0
 40
0.0
 40
0.0
 40
0.2835602438
 40
1.0
 40
1.0
 40
1.0
 40
1.0
 10
6.9235851038
 20
4.1573309283
 30
0.0
 10
6.9147387121
 20
4.1616025223
 30
0.0
 10
6.8833741997
 20
4.1763176224
 30
0.0
 10
6.851382521
 20
4.1897019657
 30
0.0
 10
6.8281539795
 20
4.1984477914
 30
0.0
  0
SPLINE
  5
25F
100
AcDbEntity
  8
0
100
AcDbSpline
 62
7
  6
CONTINUOUS
 70
0
 71
3
 72
9
 73
5
 74
0
 42
0.0000001
 43
0.0000001
 44
0.0000000001
 40
0.0
 40
0.0
 40
0.0
 40
0.0
 40
0.4097071878
 40
1.0
 40
1.0
 40
1.0
 40
1.0
 10
6.8281539795
 20
4.1984477914
 30
0.0
 10
6.8252089608
 20
4.1995566264
 30
0.0
 10
6.8178200274
 20
4.2017466761
 30
0.0
 10
6.8101278186
 20
4.2026386001
 30
0.0
 10
6.8055946696
 20
4.2027197892
 30
0.0
  0
ENDSEC
  0
SECTION
  2
OBJECTS
  0
DICTIONARY
  5
C
100
AcDbDictionary
280
0
281
1
  3
ACAD_GROUP
350
D
  3
ACAD_MLINESTYLE
350
17
  3
ACAD_LAYOUT
350
1A
  3
ACAD_PLOTSETTINGS
350
19
  3
ACAD_PLOTSTYLENAME
350
E
  0
DICTIONARY
  5
D
102
{ACAD_REACTORS
330
C
102
}
100
AcDbDictionary
280
0
281
1
  0
ACDBDICTIONARYWDFLT
  5
E
102
{ACAD_REACTORS
330
C
102
}
100
AcDbDictionary
281
1
  3
Normal
350
F
100
AcDbDictionaryWithDefault
340
F
  0
DICTIONARY
  5
17
102
{ACAD_REACTORS
330
C
102
}
100
AcDbDictionary
280
0
281
1
  3
Standard
350
18
  0
DICTIONARY
  5
19
102
{ACAD_REACTORS
330
C
102
}
100
AcDbDictionary
281
1
  0
DICTIONARY
  5
1A
102
{ACAD_REACTORS
330
C
102
}
100
AcDbDictionary
281
1
  3
Model
350
260
  3
Layout1
350
261
  0
ACDBPLACEHOLDER
  5
F
102
{ACAD_REACTORS
330
E
102
}
  0
MLINESTYLE
  5
18
102
{ACAD_REACTORS
330
17
102
}
100
AcDbMlineStyle
  2
STANDARD
 70
0
  3

 62
256
 51
90.0
 52
90.0
 71
2
 49
0.5
 62
256
  6
BYLAYER
 49
-0.5
 62
256
  6
BYLAYER
  0
LAYOUT
  5
260
102
{ACAD_REACTORS
330
1A
102
}
100
AcDbPlotSettings
  1

  2
none_device
  4
ANSI_A_(11.00_x_8.50_Inches)
  6

 40
0.0
 41
0.0
 42
0.0
 43
0.0
 44
279.4
 45
215.9
 46
0.0
 47
0.0
 48
0.0
 49
0.0
140
0.0
141
0.0
142
1.0
143
1.0
 70
1024
 72
0
 73
0
 74
0
  7

 75
0
147
1.0
148
0.0
149
0.0
100
AcDbLayout
  1
Model
 70
0
 71
0
 10
0.0
 20
0.0
 11
11.0
 21
8.5
 12
0.0
 22
0.0
 32
0.0
 14
0.0
 24
0.0
 34
0.0
 15
0.0
 25
0.0
 35
0.0
146
0.0
 13
0.0
 23
0.0
 33
0.0
 16
1.0
 26
0.0
 36
0.0
 17
0.0
 27
1.0
 37
0.0
 76
0
330
200
345
0
346
0
  0
LAYOUT
  5
261
102
{ACAD_REACTORS
330
1A
102
}
100
AcDbPlotSettings
  1

  2
none_device
  4
ANSI_A_(11.00_x_8.50_Inches)
  6

 40
0.0
 41
0.0
 42
0.0
 43
0.0
 44
279.4
 45
215.9
 46
0.0
 47
0.0
 48
0.0
 49
0.0
140
0.0
141
0.0
142
1.0
143
1.0
 70
0
 72
0
 73
0
 74
0
  7

 75
0
147
1.0
148
0.0
149
0.0
100
AcDbLayout
  1
Layout1
 70
0
 71
1
 10
0.0
 20
0.0
 11
11.0
 21
8.5
 12
0.0
 22
0.0
 32
0.0
 14
0.0
 24
0.0
 34
0.0
 15
0.0
 25
0.0
 35
0.0
146
0.0
 13
0.0
 23
0.0
 33
0.0
 16
1.0
 26
0.0
 36
0.0
 17
0.0
 27
1.0
 37
0.0
 76
0
330
201
345
0
346
0
  0
ENDSEC
  0
EOF
