999
DXF file: E:\BT Custom\CADOUTPUT\_RIGHT.dxf
999
Pro/ENGINEER 2018400 by Parametric Technology Corporation
  0
SECTION
  2
HEADER
  9
$ACADVER
  1
AC1018
  9
$DWGCODEPAGE
  3
ANSI_1252
  9
$EXTMAX
 10
22.0
 20
17.0
 30
0.0
  9
$EXTMIN
 10
0.0
 20
0.0
 30
0.0
  9
$LIMMIN
 10
0.0
 20
0.0
  9
$LIMMAX
 10
22.0
 20
17.0
  9
$VIEWCTR
 10
11.0
 20
8.5
  9
$VIEWSIZE
 40
17.0
  9
$CLAYER
  8
0
  9
$LTSCALE
 40
1.21
  9
$CELTYPE
  6
BYLAYER
  9
$DIMSCALE
 40
1.0
  9
$DIMASZ
 40
0.1
  9
$DIMEXO
 40
0.0625
  9
$DIMDLI
 40
0.836
  9
$DIMEXE
 40
0.125
  9
$DIMCEN
 40
0.198
  9
$DIMLFAC
 40
1.0
  9
$DIMBLK
  1
_FILLED
  9
$DIMALT
 70
1
  9
$DIMALTD
 70
2
  9
$DIMALTTD
 70
2
  9
$DIMALTF
 40
25.4
  9
$DIMTXT
 40
0.08
  9
$DIMTOL
 70
1
  9
$DIMLIM
 70
0
  9
$DIMTFAC
 40
1.0
  9
$DIMTP
 40
0.001
  9
$DIMTM
 40
0.001
  9
$DIMGAP
 40
0.09
  9
$DIMDSEP
 70
46
  9
$AUNITS
 70
0
  9
$PDMODE
 70
3
  9
$PDSIZE
 40
0.06
  9
$HANDSEED
  5
2BA
  9
$TILEMODE
 70
1
  9
$MEASUREMENT
 70
0
  9
$INSUNITS
 70
1
  0
ENDSEC
  0
SECTION
  2
CLASSES
  0
CLASS
  1
ACDBDICTIONARYWDFLT
  2
AcDbDictionaryWithDefault
  3
AutoCAD 2000
 90
0
 91
1
280
0
281
0
  0
CLASS
  1
ACDBPLACEHOLDER
  2
AcDbPlaceHolder
  3
AutoCAD 2000
 90
0
 91
1
280
0
281
0
  0
CLASS
  1
LAYOUT
  2
AcDbLayout
  3
AutoCAD 2000
 90
0
 91
0
280
0
281
0
  0
ENDSEC
  0
SECTION
  2
TABLES
  0
TABLE
  2
VPORT
  5
8
100
AcDbSymbolTable
 70
2
  0
VPORT
  5
1F4
100
AcDbSymbolTableRecord
100
AcDbViewportTableRecord
  2
*ACTIVE
 70
0
 10
0.0
 20
0.0
 11
1.0
 21
1.0
 12
11.0
 22
8.5
 13
0.0
 23
0.0
 14
1.0
 24
1.0
 15
0.0
 25
0.0
 16
0.0
 26
0.0
 36
1.0
 17
0.0
 27
0.0
 37
0.0
 40
17.0
 41
1.2941176471
 42
50.0
 43
0.0
 44
0.0
 50
0.0
 51
0.0
 71
0
 72
100
 73
1
 74
1
 75
0
 76
0
 77
0
 78
0
  0
ENDTAB
  0
TABLE
  2
LTYPE
  5
5
100
AcDbSymbolTable
 70
6
  0
LTYPE
  5
14
100
AcDbSymbolTableRecord
100
AcDbLinetypeTableRecord
  2
BYBLOCK
 70
0
  3

 72
65
 73
0
 40
0.0
  0
LTYPE
  5
15
100
AcDbSymbolTableRecord
100
AcDbLinetypeTableRecord
  2
BYLAYER
 70
0
  3

 72
65
 73
0
 40
0.0
  0
LTYPE
  5
16
100
AcDbSymbolTableRecord
100
AcDbLinetypeTableRecord
  2
CONTINUOUS
 70
64
  3
Solid line
 72
65
 73
0
 40
0.0
  0
LTYPE
  5
1F5
100
AcDbSymbolTableRecord
100
AcDbLinetypeTableRecord
  2
CENTER
 70
64
  3
____ _ ____ _ ____ _ ____ _ ____ _ ____ _ ____
 72
65
 73
4
 40
0.6
 49
0.375
 74
0
 49
-0.075
 74
0
 49
0.075
 74
0
 49
-0.075
 74
0
  0
LTYPE
  5
1F6
100
AcDbSymbolTableRecord
100
AcDbLinetypeTableRecord
  2
HIDDEN
 70
64
  3
- - - - - - - - - - - - - - - - - - - -
 72
65
 73
2
 40
0.2
 49
0.1
 74
0
 49
-0.1
 74
0
  0
LTYPE
  5
1F7
100
AcDbSymbolTableRecord
100
AcDbLinetypeTableRecord
  2
PHANTOM
 70
64
  3
_____ _ _ _____ _ _ _____ _ _ _____
 72
65
 73
6
 40
0.8
 49
0.45
 74
0
 49
-0.05
 74
0
 49
0.1
 74
0
 49
-0.05
 74
0
 49
0.1
 74
0
 49
-0.05
 74
0
  0
LTYPE
  5
1F8
100
AcDbSymbolTableRecord
100
AcDbLinetypeTableRecord
  2
DOT
 70
64
  3
. . . . . . . . . . . . . . . . . . . .
 72
65
 73
2
 40
0.2
 49
0.1
 74
0
 49
-0.1
 74
0
  0
LTYPE
  5
1F9
100
AcDbSymbolTableRecord
100
AcDbLinetypeTableRecord
  2
DASHED
 70
64
  3
- - - - - - - - - - - - - - - - - - - -
 72
65
 73
2
 40
0.2
 49
0.1
 74
0
 49
-0.1
 74
0
  0
ENDTAB
  0
TABLE
  2
LAYER
  5
2
100
AcDbSymbolTable
 70
36
  0
LAYER
  5
10
100
AcDbSymbolTableRecord
100
AcDbLayerTableRecord
  2
0
 70
0
 62
7
  6
CONTINUOUS
370
-3
390
F
  0
LAYER
  5
1FA
100
AcDbSymbolTableRecord
100
AcDbLayerTableRecord
  2
DEFAULT_1
 70
0
 62
7
  6
CENTER
370
-3
390
F
  0
LAYER
  5
1FB
100
AcDbSymbolTableRecord
100
AcDbLayerTableRecord
  2
DEFAULT_2
 70
0
 62
8
  6
HIDDEN
370
-3
390
F
  0
LAYER
  5
1FC
100
AcDbSymbolTableRecord
100
AcDbLayerTableRecord
  2
DEFAULT_3
 70
0
 62
7
  6
PHANTOM
370
-3
390
F
  0
LAYER
  5
1FD
100
AcDbSymbolTableRecord
100
AcDbLayerTableRecord
  2
ALL_FEATURES
 70
0
 62
7
  6
CONTINUOUS
370
-3
390
F
  0
LAYER
  5
1FE
100
AcDbSymbolTableRecord
100
AcDbLayerTableRecord
  2
AXES_FEATURES
 70
0
 62
7
  6
CONTINUOUS
370
-3
390
F
  0
LAYER
  5
1FF
100
AcDbSymbolTableRecord
100
AcDbLayerTableRecord
  2
DIMENSIONS
 70
0
 62
7
  6
CONTINUOUS
370
-3
390
F
  0
ENDTAB
  0
TABLE
  2
STYLE
  5
3
100
AcDbSymbolTable
 70
1
  0
STYLE
  5
11
100
AcDbSymbolTableRecord
100
AcDbTextStyleTableRecord
  2
STANDARD
 70
0
 40
0.0
 41
0.8
 50
0.0
 71
0
 42
0.2
  3
txt
  4

  0
STYLE
  5
200
100
AcDbSymbolTableRecord
100
AcDbTextStyleTableRecord
  2
TEXTSTYLE_1
 70
0
 40
0.0
 41
0.8
 50
0.0
 71
0
 42
0.2
  3
gdt
  4

  0
ENDTAB
  0
TABLE
  2
VIEW
  5
6
100
AcDbSymbolTable
 70
0
  0
ENDTAB
  0
TABLE
  2
UCS
  5
7
100
AcDbSymbolTable
 70
0
  0
ENDTAB
  0
TABLE
  2
APPID
  5
9
100
AcDbSymbolTable
 70
1
  0
APPID
  5
201
100
AcDbSymbolTableRecord
100
AcDbRegAppTableRecord
  2
ACAD
 70
0
  0
ENDTAB
  0
TABLE
  2
BLOCK_RECORD
  5
1
100
AcDbSymbolTable
 70
0
  0
BLOCK_RECORD
  5
202
100
AcDbSymbolTableRecord
100
AcDbBlockTableRecord
  2
*Model_Space
  0
BLOCK_RECORD
  5
203
100
AcDbSymbolTableRecord
100
AcDbBlockTableRecord
  2
*Paper_Space
  0
BLOCK_RECORD
  5
204
100
AcDbSymbolTableRecord
100
AcDbBlockTableRecord
  2
_FILLED
  0
ENDTAB
  0
TABLE
  2
DIMSTYLE
  5
A
100
AcDbSymbolTable
 70
1
100
AcDbDimStyleTable
 71
0
  0
DIMSTYLE
105
205
100
AcDbSymbolTableRecord
100
AcDbDimStyleTableRecord
  2
STANDARD
 70
0
  3

  4

 40
1.0
 41
0.1
 42
0.0625
 43
0.38
 44
0.125
 45
0.0
 46
0.0
 47
0.001
 48
0.001
140
0.08
141
0.09
142
0.0
143
25.4
144
1.0
145
0.0
146
1.0
147
0.09
 71
1.0
 72
0.0
 73
1
 74
1
 75
0
 76
0
 77
0
 78
4
 79
1
170
1
171
2
172
0
173
0
174
0
175
0
176
0
177
0
178
0
270
2
179
3
271
3
272
3
273
2
274
2
275
0
280
0
281
0
282
0
283
1
284
4
285
0
286
0
287
3
288
0
340
11
278
46
341
204
342
204
343
204
344
204
  0
ENDTAB
  0
ENDSEC
  0
SECTION
  2
BLOCKS
  0
BLOCK
  5
20
100
AcDbEntity
  8
0
100
AcDbBlockBegin
  2
*Model_Space
 70
0
 10
0.0
 20
0.0
 30
0.0
  3
*Model_Space
  1

  0
ENDBLK
  5
21
100
AcDbEntity
  8
0
100
AcDbBlockEnd
  0
BLOCK
  5
1C
100
AcDbEntity
  8
0
100
AcDbBlockBegin
  2
*Paper_Space
 70
0
 10
0.0
 20
0.0
 30
0.0
  3
*Paper_Space
  1

  0
ENDBLK
  5
1D
100
AcDbEntity
  8
0
100
AcDbBlockEnd
  0
BLOCK
  5
206
100
AcDbEntity
  8
0
100
AcDbBlockBegin
  2
_FILLED
 70
64
 10
0.0
 20
0.0
  3
_FILLED
  1

  0
SOLID
  5
207
100
AcDbEntity
  8
0
  6
BYBLOCK
 62
0
100
AcDbTrace
 10
0.0
 20
0.0
 11
-1.0
 21
0.2
 12
-1.0
 22
-0.2
 13
-1.0
 23
-0.2
  0
ENDBLK
  5
208
100
AcDbEntity
  8
0
  6
BYBLOCK
 62
0
100
AcDbBlockEnd
  0
ENDSEC
  0
SECTION
  2
ENTITIES
  0
LINE
  5
209
100
AcDbEntity
  8
0
100
AcDbLine
 62
7
  6
CONTINUOUS
 10
7.5663691873
 20
10.8580791496
 11
7.4995781684
 21
10.6745723333
  0
LINE
  5
20A
100
AcDbEntity
  8
0
100
AcDbLine
 62
7
  6
CONTINUOUS
 10
7.0166003898
 20
10.1957793141
 11
7.0437802334
 21
10.2392908581
  0
LINE
  5
20B
100
AcDbEntity
  8
0
100
AcDbLine
 62
7
  6
CONTINUOUS
 10
8.2692838357
 20
10.6022234941
 11
8.2024978454
 21
10.4187304938
  0
LINE
  5
20C
100
AcDbEntity
  8
0
100
AcDbLine
 62
7
  6
CONTINUOUS
 10
11.914301321
 20
5.9629846259
 11
14.0142999888
 21
5.9629846259
  0
LINE
  5
20D
100
AcDbEntity
  8
0
100
AcDbLine
 62
9
  6
CONTINUOUS
 10
11.9139133236
 20
5.9907664105
 11
11.927614523
 21
5.9907664105
  0
LINE
  5
20E
100
AcDbEntity
  8
0
100
AcDbLine
 62
9
  6
CONTINUOUS
 10
14.0009866144
 20
5.9907664105
 11
14.0146878138
 21
5.9907664105
  0
LINE
  5
20F
100
AcDbEntity
  8
0
100
AcDbLine
 62
7
  6
CONTINUOUS
 10
8.2647180685
 20
9.7415016302
 11
8.2718657817
 21
9.7923042734
  0
LINE
  5
210
100
AcDbEntity
  8
0
100
AcDbLine
 62
9
  6
CONTINUOUS
 10
13.8836632786
 20
6.2355811044
 11
12.0449378587
 21
6.2355811044
  0
LINE
  5
211
100
AcDbEntity
  8
0
100
AcDbLine
 62
9
  6
CONTINUOUS
 10
13.882597819
 20
6.301320261
 11
12.0460033183
 21
6.301320261
  0
LINE
  5
212
100
AcDbEntity
  8
0
100
AcDbLine
 62
9
  6
CONTINUOUS
 10
13.8408179249
 20
6.4011136707
 11
12.0877832124
 21
6.4011136707
  0
LINE
  5
213
100
AcDbEntity
  8
0
100
AcDbLine
 62
9
  6
CONTINUOUS
 10
12.0853699616
 20
6.4031341295
 11
12.0915603051
 21
6.4031341295
  0
LINE
  5
214
100
AcDbEntity
  8
0
100
AcDbLine
 62
9
  6
CONTINUOUS
 10
13.8297824004
 20
6.4031341295
 11
13.8432311758
 21
6.4031341295
  0
LINE
  5
215
100
AcDbEntity
  8
0
100
AcDbLine
 62
9
  6
CONTINUOUS
 10
12.1310312966
 20
6.441156046
 11
13.7975698407
 21
6.441156046
  0
LINE
  5
216
100
AcDbEntity
  8
0
100
AcDbLine
 62
9
  6
CONTINUOUS
 10
12.0887037652
 20
6.4480594807
 11
12.1340401316
 21
6.4480594807
  0
LINE
  5
217
100
AcDbEntity
  8
0
100
AcDbLine
 62
9
  6
CONTINUOUS
 10
13.7945610058
 20
6.4480594807
 11
13.8398973722
 21
6.4480594807
  0
LINE
  5
218
100
AcDbEntity
  8
0
100
AcDbLine
 62
9
  6
CONTINUOUS
 10
13.7902906251
 20
6.6041770013
 11
13.7265177962
 21
6.6041770013
  0
LINE
  5
219
100
AcDbEntity
  8
0
100
AcDbLine
 62
9
  6
CONTINUOUS
 10
12.2020833412
 20
6.6041770013
 11
12.1383105122
 21
6.6041770013
  0
LINE
  5
21A
100
AcDbEntity
  8
0
100
AcDbLine
 62
9
  6
CONTINUOUS
 10
13.7472385394
 20
6.6700587653
 11
13.6978034875
 21
6.6700587653
  0
LINE
  5
21B
100
AcDbEntity
  8
0
100
AcDbLine
 62
9
  6
CONTINUOUS
 10
12.2307976499
 20
6.6700587653
 11
12.181362598
 21
6.6700587653
  0
LINE
  5
21C
100
AcDbEntity
  8
0
100
AcDbLine
 62
9
  6
CONTINUOUS
 10
13.4119528065
 20
7.5921184841
 11
12.5166483308
 21
7.5921184841
  0
LINE
  5
21D
100
AcDbEntity
  8
0
100
AcDbLine
 62
9
  6
CONTINUOUS
 10
13.3663416006
 20
7.9993289207
 11
12.5622595367
 21
7.9993289207
  0
LINE
  5
21E
100
AcDbEntity
  8
0
100
AcDbLine
 62
9
  6
CONTINUOUS
 10
13.3871303221
 20
8.0539696888
 11
12.5414708152
 21
8.0539696888
  0
LINE
  5
21F
100
AcDbEntity
  8
0
100
AcDbLine
 62
7
  6
CONTINUOUS
 10
13.3392907699
 20
8.1629846259
 11
12.5893103674
 21
8.1629846259
  0
LINE
  5
220
100
AcDbEntity
  8
0
100
AcDbLine
 62
9
  6
CONTINUOUS
 10
13.2202060805
 20
8.3283389566
 11
12.7083950569
 21
8.3283389566
  0
LINE
  5
221
100
AcDbEntity
  8
0
100
AcDbLine
 62
9
  6
CONTINUOUS
 10
12.7712785094
 20
8.4369501845
 11
12.6649529111
 21
8.4369453412
  0
LINE
  5
222
100
AcDbEntity
  8
0
100
AcDbLine
 62
9
  6
CONTINUOUS
 10
13.2636469112
 20
8.4369439548
 11
13.157318888
 21
8.4369466892
  0
LINE
  5
223
100
AcDbEntity
  8
0
100
AcDbLine
 62
7
  6
CONTINUOUS
 10
7.1542461547
 20
9.9560012422
 11
8.0051489215
 21
9.6462979628
  0
LINE
  5
224
100
AcDbEntity
  8
0
100
AcDbLine
 62
9
  6
CONTINUOUS
 10
13.3860115267
 20
8.807990557
 11
13.3683869922
 21
8.807990557
  0
LINE
  5
225
100
AcDbEntity
  8
0
100
AcDbLine
 62
9
  6
CONTINUOUS
 10
12.5602735542
 20
8.807990557
 11
12.5425896106
 21
8.807990557
  0
LINE
  5
226
100
AcDbEntity
  8
0
100
AcDbLine
 62
9
  6
CONTINUOUS
 10
13.3737493876
 20
8.9417622694
 11
13.3134737944
 21
8.9417622694
  0
LINE
  5
227
100
AcDbEntity
  8
0
100
AcDbLine
 62
9
  6
CONTINUOUS
 10
12.6152141943
 20
8.9417622694
 11
12.5548517498
 21
8.9417622694
  0
LINE
  5
228
100
AcDbEntity
  8
0
100
AcDbLine
 62
9
  6
CONTINUOUS
 10
8.2431275413
 20
9.7258019852
 11
7.0230481559
 21
10.1698745649
  0
LINE
  5
229
100
AcDbEntity
  8
0
100
AcDbLine
 62
7
  6
CONTINUOUS
 10
7.0166003898
 20
10.1957793141
 11
8.2647180685
 21
9.7415016302
  0
LINE
  5
22A
100
AcDbEntity
  8
0
100
AcDbLine
 62
7
  6
CONTINUOUS
 10
8.2718657817
 20
9.7923042734
 11
7.0437802334
 21
10.2392908581
  0
LINE
  5
22B
100
AcDbEntity
  8
0
100
AcDbLine
 62
7
  6
CONTINUOUS
 10
8.2279483258
 20
9.8920240928
 11
7.1415216208
 21
10.2874510751
  0
LINE
  5
22C
100
AcDbEntity
  8
0
100
AcDbLine
 62
7
  6
CONTINUOUS
 10
12.7280800962
 20
9.0612855696
 11
12.9110734723
 21
9.0612855696
  0
LINE
  5
22D
100
AcDbEntity
  8
0
100
AcDbLine
 62
7
  6
CONTINUOUS
 10
13.0175288334
 20
9.0612855696
 11
13.2005210411
 21
9.0612855696
  0
LINE
  5
22E
100
AcDbEntity
  8
0
100
AcDbLine
 62
7
  6
CONTINUOUS
 10
13.2005210411
 20
9.1340307304
 11
12.7280800962
 21
9.1340307304
  0
LINE
  5
22F
100
AcDbEntity
  8
0
100
AcDbLine
 62
9
  6
CONTINUOUS
 10
8.2213067957
 20
10.176475593
 11
7.329451228
 21
10.501084473
  0
LINE
  5
230
100
AcDbEntity
  8
0
100
AcDbLine
 62
9
  6
CONTINUOUS
 10
8.2417103012
 20
10.1910839492
 11
7.3232113063
 21
10.5253902435
  0
LINE
  5
231
100
AcDbEntity
  8
0
100
AcDbLine
 62
7
  6
CONTINUOUS
 10
8.2660232873
 20
10.3054891873
 11
7.378124748
 21
10.6286578267
  0
LINE
  5
232
100
AcDbEntity
  8
0
100
AcDbLine
 62
7
  6
CONTINUOUS
 10
7.4995781684
 20
10.6745723333
 11
8.2024978454
 21
10.4187304938
  0
LINE
  5
233
100
AcDbEntity
  8
0
100
AcDbLine
 62
9
  6
CONTINUOUS
 10
7.5663691873
 20
10.8580791496
 11
8.2692838357
 21
10.6022234941
  0
LINE
  5
234
100
AcDbEntity
  8
0
100
AcDbLine
 62
7
  6
CONTINUOUS
 10
13.9353795343
 20
8.1658337389
 11
14.1102886381
 21
8.0648499208
  0
LINE
  5
235
100
AcDbEntity
  8
0
100
AcDbLine
 62
9
  6
CONTINUOUS
 10
14.2161248805
 20
8.0908240584
 11
13.9049556762
 21
8.2704776823
  0
LINE
  5
236
100
AcDbEntity
  8
0
100
AcDbLine
 62
9
  6
CONTINUOUS
 10
12.5627257655
 20
10.2529836285
 11
13.3658753718
 21
10.2529836285
  0
LINE
  5
237
100
AcDbEntity
  8
0
100
AcDbLine
 62
9
  6
CONTINUOUS
 10
14.3858973134
 20
8.1782016424
 11
13.8957406671
 21
8.461193714
  0
LINE
  5
238
100
AcDbEntity
  8
0
100
AcDbLine
 62
9
  6
CONTINUOUS
 10
14.402416659
 20
8.1911783626
 11
13.8987196867
 21
8.4819886952
  0
LINE
  5
239
100
AcDbEntity
  8
0
100
AcDbLine
 62
7
  6
CONTINUOUS
 10
14.041014984
 20
8.5311220024
 11
14.3738198291
 21
8.3389770354
  0
LINE
  5
23A
100
AcDbEntity
  8
0
100
AcDbLine
 62
9
  6
CONTINUOUS
 10
12.5527821456
 20
10.3877151251
 11
13.3758189918
 21
10.3877151251
  0
LINE
  5
23B
100
AcDbEntity
  8
0
100
AcDbLine
 62
9
  6
CONTINUOUS
 10
13.3790403079
 20
10.4401770567
 11
12.5495611545
 21
10.4401767264
  0
LINE
  5
23C
100
AcDbEntity
  8
0
100
AcDbLine
 62
7
  6
CONTINUOUS
 10
12.5194186789
 20
10.4865678194
 11
11.2190102792
 21
10.4865678194
  0
LINE
  5
23D
100
AcDbEntity
  8
0
100
AcDbLine
 62
7
  6
CONTINUOUS
 10
12.5194186789
 20
10.4722141535
 11
12.5194186789
 21
11.2489529813
  0
LINE
  5
23E
100
AcDbEntity
  8
0
100
AcDbLine
 62
7
  6
CONTINUOUS
 10
13.8836632786
 20
6.2355811044
 11
14.0143005687
 21
5.9629846259
  0
LINE
  5
23F
100
AcDbEntity
  8
0
100
AcDbLine
 62
7
  6
CONTINUOUS
 10
12.6887100175
 20
11.4616268415
 11
12.6887100175
 21
11.4061113808
  0
LINE
  5
240
100
AcDbEntity
  8
0
100
AcDbLine
 62
7
  6
CONTINUOUS
 10
12.7083950569
 20
8.3283389566
 11
12.7083950569
 21
8.1629846259
  0
LINE
  5
241
100
AcDbEntity
  8
0
100
AcDbLine
 62
7
  6
CONTINUOUS
 10
12.7280800962
 20
9.1340307304
 11
12.7280800962
 21
9.0612855696
  0
LINE
  5
242
100
AcDbEntity
  8
0
100
AcDbLine
 62
7
  6
CONTINUOUS
 10
12.5194186789
 20
11.2345993155
 11
11.2401259554
 21
11.2345993155
  0
LINE
  5
243
100
AcDbEntity
  8
0
100
AcDbLine
 62
7
  6
CONTINUOUS
 10
13.7472385394
 20
6.6700587653
 11
13.6455652203
 21
6.9946875346
  0
LINE
  5
244
100
AcDbEntity
  8
0
100
AcDbLine
 62
7
  6
CONTINUOUS
 10
13.2005210411
 20
9.1340307304
 11
13.2005210411
 21
9.0612855696
  0
LINE
  5
245
100
AcDbEntity
  8
0
100
AcDbLine
 62
7
  6
CONTINUOUS
 10
13.2202060805
 20
8.3283389566
 11
13.2202060805
 21
8.1629846259
  0
LINE
  5
246
100
AcDbEntity
  8
0
100
AcDbLine
 62
7
  6
CONTINUOUS
 10
13.2398911199
 20
11.4616268415
 11
13.2398911199
 21
11.4061113808
  0
LINE
  5
247
100
AcDbEntity
  8
0
100
AcDbLine
 62
7
  6
CONTINUOUS
 10
12.0449378587
 20
6.2355811044
 11
11.9143005687
 21
5.9629846259
  0
LINE
  5
248
100
AcDbEntity
  8
0
100
AcDbLine
 62
9
  6
CONTINUOUS
 10
12.6887100175
 20
11.4061113808
 11
13.2398911199
 21
11.4061113808
  0
LINE
  5
249
100
AcDbEntity
  8
0
100
AcDbLine
 62
7
  6
CONTINUOUS
 10
13.2398911199
 20
11.4616268415
 11
12.6887100175
 21
11.4616268415
  0
LINE
  5
24A
100
AcDbEntity
  8
0
100
AcDbLine
 62
9
  6
CONTINUOUS
 10
12.7640381015
 20
11.536123592
 11
13.1645630359
 21
11.536123592
  0
LINE
  5
24B
100
AcDbEntity
  8
0
100
AcDbLine
 62
9
  6
CONTINUOUS
 10
12.6690261548
 20
11.3720165716
 11
13.2595747375
 21
11.3720165091
  0
LINE
  5
24C
100
AcDbEntity
  8
0
100
AcDbLine
 62
9
  6
CONTINUOUS
 10
12.6456886944
 20
11.7351838168
 11
13.282912443
 21
11.7351838167
  0
LINE
  5
24D
100
AcDbEntity
  8
0
100
AcDbLine
 62
9
  6
CONTINUOUS
 10
13.3030723917
 20
11.7827473927
 11
12.6255287457
 21
11.7827473927
  0
LINE
  5
24E
100
AcDbEntity
  8
0
100
AcDbLine
 62
7
  6
CONTINUOUS
 10
12.7196351835
 20
11.8712823785
 11
13.2089659539
 21
11.8712823785
  0
LINE
  5
24F
100
AcDbEntity
  8
0
100
AcDbLine
 62
7
  6
CONTINUOUS
 10
13.5207186058
 20
7.4425027001
 11
13.9375953654
 21
8.1645544283
  0
LINE
  5
250
100
AcDbEntity
  8
0
100
AcDbLine
 62
7
  6
CONTINUOUS
 10
13.5888297624
 20
7.1667738965
 11
14.1080728071
 21
8.0661292314
  0
ARC
  5
251
100
AcDbEntity
  8
0
100
AcDbCircle
 62
7
  6
CONTINUOUS
 10
5.0956554752
 20
9.0675296162
 40
7.4803149606
100
AcDbArc
 50
341.3065927239
 51
356.6980097417
  0
ARC
  5
252
100
AcDbEntity
  8
0
100
AcDbCircle
 62
7
  6
CONTINUOUS
 10
5.0956554752
 20
9.0675296162
 40
7.4803149606
100
AcDbArc
 50
335.7125535145
 51
338.2977797104
  0
ARC
  5
253
100
AcDbEntity
  8
0
100
AcDbCircle
 62
7
  6
CONTINUOUS
 10
5.0956554752
 20
9.0675296162
 40
7.4803149606
100
AcDbArc
 50
339.0979989929
 51
339.1337523565
  0
ARC
  5
254
100
AcDbEntity
  8
0
100
AcDbCircle
 62
7
  6
CONTINUOUS
 10
7.4269141237
 20
8.657297202
 40
5.2
100
AcDbArc
 50
334.7745607532
 51
348.179746384
  0
ARC
  5
255
100
AcDbEntity
  8
0
100
AcDbCircle
 62
7
  6
CONTINUOUS
 10
10.3972102524
 20
8.0356741283
 40
2.1653543307
100
AcDbArc
 50
348.179746384
 51
359.0382521844
  0
ARC
  5
256
100
AcDbEntity
  8
0
100
AcDbCircle
 62
7
  6
CONTINUOUS
 10
12.964299559
 20
8.7220395052
 40
0.4133861897
100
AcDbArc
 50
316.3973015095
 51
55.1499994638
  0
ARC
  5
257
100
AcDbEntity
  8
0
100
AcDbCircle
 62
7
  6
CONTINUOUS
 10
12.2486760359
 20
6.4831679733
 40
0.1637795276
100
AcDbArc
 50
132.366182821
 51
192.3782380265
  0
ARC
  5
258
100
AcDbEntity
  8
0
100
AcDbCircle
 62
7
  6
CONTINUOUS
 10
12.5509147419
 20
8.3283389566
 40
0.157480315
100
AcDbArc
 50
0.0
 51
43.6028189727
  0
ARC
  5
259
100
AcDbEntity
  8
0
100
AcDbCircle
 62
7
  6
CONTINUOUS
 10
12.0321898165
 20
6.7205318358
 40
0.157480315
100
AcDbArc
 50
312.366182821
 51
341.3065927239
  0
ARC
  5
25A
100
AcDbEntity
  8
0
100
AcDbCircle
 62
7
  6
CONTINUOUS
 10
12.4503134898
 20
8.7342671182
 40
0.1181102362
100
AcDbArc
 50
25.2249134853
 51
38.6228909659
  0
ARC
  5
25B
100
AcDbEntity
  8
0
100
AcDbCircle
 62
7
  6
CONTINUOUS
 10
12.6183219418
 20
8.8684964369
 40
0.0969347589
100
AcDbArc
 50
130.9023843955
 51
218.6228909659
  0
ARC
  5
25C
100
AcDbEntity
  8
0
100
AcDbCircle
 62
7
  6
CONTINUOUS
 10
11.9739305645
 20
6.2696101592
 40
0.0787401575
100
AcDbArc
 50
334.3947110206
 51
23.7482224283
  0
ARC
  5
25D
100
AcDbEntity
  8
0
100
AcDbCircle
 62
7
  6
CONTINUOUS
 10
12.0597999645
 20
6.4747136044
 40
0.0787401575
100
AcDbArc
 50
290.817179816
 51
334.7745607532
  0
ARC
  5
25E
100
AcDbEntity
  8
0
100
AcDbCircle
 62
7
  6
CONTINUOUS
 10
12.4835304718
 20
8.0006505646
 40
0.0787401575
100
AcDbArc
 50
359.0382521845
 51
42.6215575008
  0
ARC
  5
25F
100
AcDbEntity
  8
0
100
AcDbCircle
 62
7
  6
CONTINUOUS
 10
12.0117940196
 20
6.4311803977
 40
0.0787401575
100
AcDbArc
 50
339.1337523565
 51
12.3782380263
  0
ARC
  5
260
100
AcDbEntity
  8
0
100
AcDbCircle
 62
7
  6
CONTINUOUS
 10
12.1143005687
 20
6.3313692413
 40
0.0746153846
100
AcDbArc
 50
110.817179816
 51
203.7482224283
  0
ARC
  5
261
100
AcDbEntity
  8
0
100
AcDbCircle
 62
7
  6
CONTINUOUS
 10
12.5893005687
 20
8.0979846259
 40
0.065
100
AcDbArc
 50
90.0
 51
222.6215575009
  0
ARC
  5
262
100
AcDbEntity
  8
0
100
AcDbCircle
 62
7
  6
CONTINUOUS
 10
11.9318561074
 20
5.9826696652
 40
0.0196850394
100
AcDbArc
 50
155.7125535146
 51
222.3732123038
  0
ARC
  5
263
100
AcDbEntity
  8
0
100
AcDbCircle
 62
7
  6
CONTINUOUS
 10
11.3107572616
 20
12.3228593131
 40
1.8385826772
100
AcDbArc
 50
225.7382978078
 51
267.1397112714
  0
ARC
  5
264
100
AcDbEntity
  8
0
100
AcDbCircle
 62
7
  6
CONTINUOUS
 10
9.2792611986
 20
10.2345993155
 40
1.8228346457
100
AcDbArc
 50
45.8410848891
 51
159.9988738416
  0
ARC
  5
265
100
AcDbEntity
  8
0
100
AcDbCircle
 62
7
  6
CONTINUOUS
 10
11.3107572616
 20
12.3228593131
 40
1.0905511811
100
AcDbArc
 50
225.7030049559
 51
266.2865445924
  0
ARC
  5
266
100
AcDbEntity
  8
0
100
AcDbCircle
 62
7
  6
CONTINUOUS
 10
9.2792611986
 20
10.2345993155
 40
1.0748031496
100
AcDbArc
 50
45.8768117621
 51
159.9988738416
  0
ARC
  5
267
100
AcDbEntity
  8
0
100
AcDbCircle
 62
7
  6
CONTINUOUS
 10
12.9637222669
 20
10.8599402294
 40
0.589688326
100
AcDbArc
 50
221.1099094459
 51
225.3849310374
  0
ARC
  5
268
100
AcDbEntity
  8
0
100
AcDbCircle
 62
7
  6
CONTINUOUS
 10
6.8663464489
 20
10.7189938292
 40
0.5118110236
100
AcDbArc
 50
302.5238036902
 51
334.8011356126
  0
ARC
  5
269
100
AcDbEntity
  8
0
100
AcDbCircle
 62
7
  6
CONTINUOUS
 10
8.7161350725
 20
10.0457258306
 40
0.5118110236
100
AcDbArc
 50
165.1988643874
 51
197.4761963099
  0
ARC
  5
26A
100
AcDbEntity
  8
0
100
AcDbCircle
 62
7
  6
CONTINUOUS
 10
6.8608016016
 20
9.923168809
 40
0.2952755906
100
AcDbArc
 50
6.38406293
 51
56.6689969628
  0
ARC
  5
26B
100
AcDbEntity
  8
0
100
AcDbCircle
 62
7
  6
CONTINUOUS
 10
8.2088362095
 20
9.432524337
 40
0.2952755906
100
AcDbArc
 50
83.3310030371
 51
133.61593707
  0
ARC
  5
26C
100
AcDbEntity
  8
0
100
AcDbCircle
 62
7
  6
CONTINUOUS
 10
12.8422533246
 20
11.6466662115
 40
0.2559055119
100
AcDbArc
 50
118.6301608289
 51
147.8753227608
  0
ARC
  5
26D
100
AcDbEntity
  8
0
100
AcDbCircle
 62
7
  6
CONTINUOUS
 10
7.3364070171
 20
10.7846870593
 40
0.1968503937
100
AcDbArc
 50
297.4983891809
 51
325.9868744661
  0
ARC
  5
26E
100
AcDbEntity
  8
0
100
AcDbCircle
 62
7
  6
CONTINUOUS
 10
8.3982745807
 20
10.3981988734
 40
0.1968503937
100
AcDbArc
 50
174.0131255339
 51
202.5016108191
  0
ARC
  5
26F
100
AcDbEntity
  8
0
100
AcDbCircle
 62
7
  6
CONTINUOUS
 10
12.6131194663
 20
11.5811082022
 40
0.157480315
100
AcDbArc
 50
343.4021578651
 51
78.0642554374
  0
ARC
  5
270
100
AcDbEntity
  8
0
100
AcDbCircle
 62
7
  6
CONTINUOUS
 10
8.1580817608
 20
9.8017235437
 40
0.1141732283
100
AcDbArc
 50
355.2677302386
 51
52.2704707756
  0
ARC
  5
271
100
AcDbEntity
  8
0
100
AcDbCircle
 62
7
  6
CONTINUOUS
 10
7.1369984406
 20
10.1733674789
 40
0.1141732283
100
AcDbArc
 50
87.7295292243
 51
144.7322697614
  0
ARC
  5
272
100
AcDbEntity
  8
0
100
AcDbCircle
 62
7
  6
CONTINUOUS
 10
12.6583950569
 20
11.5676128192
 40
0.1102362205
100
AcDbArc
 50
285.9620141631
 51
343.4021578651
  0
ARC
  5
273
100
AcDbEntity
  8
0
100
AcDbCircle
 62
7
  6
CONTINUOUS
 10
12.6310565802
 20
10.3257593474
 40
0.0998268776
100
AcDbArc
 50
141.6376820188
 51
226.8042401372
  0
ARC
  5
274
100
AcDbEntity
  8
0
100
AcDbCircle
 62
7
  6
CONTINUOUS
 10
7.357926708
 20
10.573164168
 40
0.0590551181
100
AcDbArc
 50
70.0
 51
233.9955935591
  0
ARC
  5
275
100
AcDbEntity
  8
0
100
AcDbCircle
 62
7
  6
CONTINUOUS
 10
8.2458252473
 20
10.2499955286
 40
0.0590551181
100
AcDbArc
 50
266.0044064409
 51
70.0
  0
ARC
  5
276
100
AcDbEntity
  8
0
100
AcDbCircle
 62
7
  6
CONTINUOUS
 10
12.6493399388
 20
11.4061113808
 40
0.0393700787
100
AcDbArc
 50
300.0000000001
 51
360.0
  0
ARC
  5
277
100
AcDbEntity
  8
0
100
AcDbCircle
 62
7
  6
CONTINUOUS
 10
12.5219119959
 20
10.4121494649
 40
0.0393700787
100
AcDbArc
 50
321.6376820223
 51
45.388829375
  0
ARC
  5
278
100
AcDbEntity
  8
0
100
AcDbCircle
 62
7
  6
CONTINUOUS
 10
12.65220254
 20
11.7659989397
 40
0.031496063
100
AcDbArc
 50
147.8753227608
 51
258.0642554376
  0
ARC
  5
279
100
AcDbEntity
  8
0
100
AcDbCircle
 62
7
  6
CONTINUOUS
 10
8.2454136301
 20
9.7453538284
 40
0.0196850394
100
AcDbArc
 50
263.3310030364
 51
348.7148681666
  0
ARC
  5
27A
100
AcDbEntity
  8
0
100
AcDbCircle
 62
7
  6
CONTINUOUS
 10
7.0338645929
 20
10.1863216153
 40
0.0196850394
100
AcDbArc
 50
151.2851318334
 51
236.6689969636
  0
ARC
  5
27B
100
AcDbEntity
  8
0
100
AcDbCircle
 62
7
  6
CONTINUOUS
 10
8.2403386525
 20
10.171446756
 40
0.0196850394
100
AcDbArc
 50
86.0044064409
 51
165.1988643878
  0
ARC
  5
27C
100
AcDbEntity
  8
0
100
AcDbCircle
 62
7
  6
CONTINUOUS
 10
7.3116395057
 20
10.509465602
 40
0.0196850394
100
AcDbArc
 50
334.8011356122
 51
53.9955935591
  0
ARC
  5
27D
100
AcDbEntity
  8
0
100
AcDbCircle
 62
7
  6
CONTINUOUS
 10
13.6799251015
 20
6.4831679733
 40
0.1637795276
100
AcDbArc
 50
347.6217619735
 51
47.633817179
  0
ARC
  5
27E
100
AcDbEntity
  8
0
100
AcDbCircle
 62
7
  6
CONTINUOUS
 10
13.8964113209
 20
6.7205318358
 40
0.157480315
100
AcDbArc
 50
198.6934072761
 51
227.633817179
  0
ARC
  5
27F
100
AcDbEntity
  8
0
100
AcDbCircle
 62
7
  6
CONTINUOUS
 10
13.9546705729
 20
6.2696101592
 40
0.0787401575
100
AcDbArc
 50
156.2517775717
 51
205.6052889794
  0
ARC
  5
280
100
AcDbEntity
  8
0
100
AcDbCircle
 62
7
  6
CONTINUOUS
 10
13.8688011728
 20
6.4747136044
 40
0.0787401575
100
AcDbArc
 50
205.2254392468
 51
249.182820184
  0
ARC
  5
281
100
AcDbEntity
  8
0
100
AcDbCircle
 62
7
  6
CONTINUOUS
 10
13.9168071177
 20
6.4311803977
 40
0.0787401575
100
AcDbArc
 50
167.6217619737
 51
200.8662476435
  0
ARC
  5
282
100
AcDbEntity
  8
0
100
AcDbCircle
 62
7
  6
CONTINUOUS
 10
13.8143005687
 20
6.3313692413
 40
0.0746153846
100
AcDbArc
 50
336.2517775717
 51
69.182820184
  0
ARC
  5
283
100
AcDbEntity
  8
0
100
AcDbCircle
 62
7
  6
CONTINUOUS
 10
13.99674503
 20
5.9826696652
 40
0.0196850394
100
AcDbArc
 50
317.6267876962
 51
24.2874464854
  0
ARC
  5
284
100
AcDbEntity
  8
0
100
AcDbCircle
 62
7
  6
CONTINUOUS
 10
14.2008746937
 20
8.228848876
 40
0.2050322691
100
AcDbArc
 50
349.4129209507
 51
32.4882056497
  0
ARC
  5
285
100
AcDbEntity
  8
0
100
AcDbCircle
 62
7
  6
CONTINUOUS
 10
14.1716458758
 20
8.3730914101
 40
0.2050322691
100
AcDbArc
 50
350.4223570183
 51
129.5776429817
  0
ARC
  5
286
100
AcDbEntity
  8
0
100
AcDbCircle
 62
7
  6
CONTINUOUS
 10
14.032113768
 20
8.3262830419
 40
0.2050322691
100
AcDbArc
 50
87.5117943553
 51
130.586886591
  0
ARC
  5
287
100
AcDbEntity
  8
0
100
AcDbCircle
 62
7
  6
CONTINUOUS
 10
13.7374502277
 20
8.3579648023
 40
0.188976378
100
AcDbArc
 50
332.4221969366
 51
33.1103303279
  0
ARC
  5
288
100
AcDbEntity
  8
0
100
AcDbCircle
 62
7
  6
CONTINUOUS
 10
13.3776863955
 20
8.3283389566
 40
0.157480315
100
AcDbArc
 50
136.3971810273
 51
180.0
  0
ARC
  5
289
100
AcDbEntity
  8
0
100
AcDbCircle
 62
7
  6
CONTINUOUS
 10
13.9747496131
 20
8.2340247156
 40
0.0787401575
100
AcDbArc
 50
152.4221969366
 51
240.0
  0
ARC
  5
28A
100
AcDbEntity
  8
0
100
AcDbCircle
 62
7
  6
CONTINUOUS
 10
14.1496587169
 20
8.1330408975
 40
0.0787401575
100
AcDbArc
 50
240.0
 51
327.5778030634
  0
ARC
  5
28B
100
AcDbEntity
  8
0
100
AcDbCircle
 62
7
  6
CONTINUOUS
 10
13.4450706655
 20
8.0006505646
 40
0.0787401575
100
AcDbArc
 50
137.3784424992
 51
180.9617478155
  0
ARC
  5
28C
100
AcDbEntity
  8
0
100
AcDbCircle
 62
7
  6
CONTINUOUS
 10
13.3393005687
 20
8.0979846259
 40
0.065
100
AcDbArc
 50
317.3784424991
 51
90.0
  0
ARC
  5
28D
100
AcDbEntity
  8
0
100
AcDbCircle
 62
7
  6
CONTINUOUS
 10
12.9643005687
 20
8.5927816326
 40
0.5905511811
100
AcDbArc
 50
66.4218215218
 51
113.5781784782
  0
ARC
  5
28E
100
AcDbEntity
  8
0
100
AcDbCircle
 62
7
  6
CONTINUOUS
 10
12.9643044063
 20
8.7220394144
 40
0.4133881604
100
AcDbArc
 50
124.8503147109
 51
223.6024195207
  0
CIRCLE
  5
28F
100
AcDbEntity
  8
0
100
AcDbCircle
 62
7
  6
CONTINUOUS
 10
12.9643005687
 20
8.722039744
 40
0.344488189
  0
CIRCLE
  5
290
100
AcDbEntity
  8
0
100
AcDbCircle
 62
9
  6
CONTINUOUS
 10
12.9643005687
 20
8.722039744
 40
0.2173185922
  0
CIRCLE
  5
291
100
AcDbEntity
  8
0
100
AcDbCircle
 62
7
  6
CONTINUOUS
 10
12.9643005687
 20
8.722039744
 40
0.2129060297
  0
CIRCLE
  5
292
100
AcDbEntity
  8
0
100
AcDbCircle
 62
9
  6
CONTINUOUS
 10
12.9643005687
 20
8.722039744
 40
0.1951201355
  0
CIRCLE
  5
293
100
AcDbEntity
  8
0
100
AcDbCircle
 62
9
  6
CONTINUOUS
 10
12.9643005687
 20
8.722039744
 40
0.1809214834
  0
CIRCLE
  5
294
100
AcDbEntity
  8
0
100
AcDbCircle
 62
9
  6
CONTINUOUS
 10
12.9643005687
 20
8.722039744
 40
0.1469261122
  0
CIRCLE
  5
295
100
AcDbEntity
  8
0
100
AcDbCircle
 62
9
  6
CONTINUOUS
 10
12.9643005687
 20
8.722039744
 40
0.1244000272
  0
ARC
  5
296
100
AcDbEntity
  8
0
100
AcDbCircle
 62
7
  6
CONTINUOUS
 10
13.4782876475
 20
8.7342671182
 40
0.1181102362
100
AcDbArc
 50
141.3771090341
 51
154.7382642844
  0
ARC
  5
297
100
AcDbEntity
  8
0
100
AcDbCircle
 62
7
  6
CONTINUOUS
 10
13.3102791956
 20
8.8684964369
 40
0.0969347589
100
AcDbArc
 50
321.3771090341
 51
49.0976156045
  0
ARC
  5
298
100
AcDbEntity
  8
0
100
AcDbCircle
 62
7
  6
CONTINUOUS
 10
13.9090808741
 20
8.4698935133
 40
0.0159263187
100
AcDbArc
 50
130.5846014566
 51
213.1103303156
  0
ARC
  5
299
100
AcDbEntity
  8
0
100
AcDbCircle
 62
7
  6
CONTINUOUS
 10
15.5313908849
 20
8.0356741283
 40
2.1653543307
100
AcDbArc
 50
180.9617478156
 51
191.820253616
  0
ARC
  5
29A
100
AcDbEntity
  8
0
100
AcDbCircle
 62
7
  6
CONTINUOUS
 10
14.3756436731
 20
7.9895036448
 40
0.188976378
100
AcDbArc
 50
86.8896696721
 51
147.5778030634
  0
ARC
  5
29B
100
AcDbEntity
  8
0
100
AcDbCircle
 62
7
  6
CONTINUOUS
 10
14.3867614571
 20
8.1941045001
 40
0.0159263187
100
AcDbArc
 50
266.8896696844
 51
349.4153985435
  0
ARC
  5
29C
100
AcDbEntity
  8
0
100
AcDbCircle
 62
7
  6
CONTINUOUS
 10
20.8329456621
 20
9.0675296162
 40
7.4803149606
100
AcDbArc
 50
183.2986692915
 51
190.2884607738
  0
ARC
  5
29D
100
AcDbEntity
  8
0
100
AcDbCircle
 62
7
  6
CONTINUOUS
 10
20.8329456621
 20
9.0675296162
 40
7.4803149606
100
AcDbArc
 50
201.7022202896
 51
204.2874464855
  0
ARC
  5
29E
100
AcDbEntity
  8
0
100
AcDbCircle
 62
7
  6
CONTINUOUS
 10
20.8329456621
 20
9.0675296162
 40
7.4803149606
100
AcDbArc
 50
200.8662476435
 51
200.9020010071
  0
ARC
  5
29F
100
AcDbEntity
  8
0
100
AcDbCircle
 62
7
  6
CONTINUOUS
 10
18.5016870137
 20
8.657297202
 40
5.2
100
AcDbArc
 50
191.820253616
 51
205.2254392468
  0
ARC
  5
2A0
100
AcDbEntity
  8
0
100
AcDbCircle
 62
7
  6
CONTINUOUS
 10
12.9643010516
 20
10.8605828382
 40
0.5905520101
100
AcDbArc
 50
120.0000047702
 51
138.8799299607
  0
ARC
  5
2A1
100
AcDbEntity
  8
0
100
AcDbCircle
 62
7
  6
CONTINUOUS
 10
12.9643098415
 20
10.8605827769
 40
0.5905419778
100
AcDbArc
 50
314.6105831784
 51
60.0008456989
  0
ARC
  5
2A2
100
AcDbEntity
  8
0
100
AcDbCircle
 62
7
  6
CONTINUOUS
 10
13.0863478127
 20
11.6466662115
 40
0.2559055119
100
AcDbArc
 50
32.1246772392
 51
61.3698391711
  0
ARC
  5
2A3
100
AcDbEntity
  8
0
100
AcDbCircle
 62
7
  6
CONTINUOUS
 10
12.9643005687
 20
11.7962725108
 40
0.2559055118
100
AcDbArc
 50
17.0445678349
 51
162.9554321651
  0
ARC
  5
2A4
100
AcDbEntity
  8
0
100
AcDbCircle
 62
7
  6
CONTINUOUS
 10
13.315481671
 20
11.5811082022
 40
0.157480315
100
AcDbArc
 50
101.9357445625
 51
196.5978421349
  0
ARC
  5
2A5
100
AcDbEntity
  8
0
100
AcDbCircle
 62
7
  6
CONTINUOUS
 10
13.2702060805
 20
11.5676128192
 40
0.1102362205
100
AcDbArc
 50
196.597842135
 51
254.0379858369
  0
ARC
  5
2A6
100
AcDbEntity
  8
0
100
AcDbCircle
 62
7
  6
CONTINUOUS
 10
13.2975445572
 20
10.3257593474
 40
0.0998268776
100
AcDbArc
 50
313.1957598628
 51
38.3623179812
  0
ARC
  5
2A7
100
AcDbEntity
  8
0
100
AcDbCircle
 62
7
  6
CONTINUOUS
 10
13.2792611986
 20
11.4061113808
 40
0.0393700787
100
AcDbArc
 50
180.0
 51
239.9999999999
  0
ARC
  5
2A8
100
AcDbEntity
  8
0
100
AcDbCircle
 62
7
  6
CONTINUOUS
 10
13.4066891414
 20
10.4121494649
 40
0.0393700787
100
AcDbArc
 50
134.611170625
 51
218.3623179777
  0
ARC
  5
2A9
100
AcDbEntity
  8
0
100
AcDbCircle
 62
7
  6
CONTINUOUS
 10
13.2763985974
 20
11.7659989397
 40
0.031496063
100
AcDbArc
 50
281.9357445624
 51
32.1246772392
  0
LINE
  5
2AA
100
AcDbEntity
  8
0
100
AcDbLine
 62
7
  6
CONTINUOUS
 10
10.0275428542
 20
11.0061410269
 11
10.0473984347
 21
11.0265447258
  0
LINE
  5
2AB
100
AcDbEntity
  8
0
100
AcDbLine
 62
7
  6
CONTINUOUS
 10
10.0473984347
 20
11.0265447258
 11
10.0540258678
 21
11.0333570909
  0
LINE
  5
2AC
100
AcDbEntity
  8
0
100
AcDbLine
 62
7
  6
CONTINUOUS
 10
10.0540258678
 20
11.0333570909
 11
10.2883314492
 21
11.2742403317
  0
LINE
  5
2AD
100
AcDbEntity
  8
0
100
AcDbLine
 62
7
  6
CONTINUOUS
 10
10.2883314492
 20
11.2742403317
 11
10.5226809444
 21
11.5150808416
  0
LINE
  5
2AE
100
AcDbEntity
  8
0
100
AcDbLine
 62
7
  6
CONTINUOUS
 10
10.5226809444
 20
11.5150808416
 11
10.5491433315
 21
11.5423171297
  0
LINE
  5
2AF
100
AcDbEntity
  8
0
100
AcDbLine
 62
7
  6
CONTINUOUS
 10
11.2190102792
 20
10.4865678194
 11
11.2198948364
 21
10.524542918
  0
LINE
  5
2B0
100
AcDbEntity
  8
0
100
AcDbLine
 62
7
  6
CONTINUOUS
 10
11.2198948364
 20
10.524542918
 11
11.2288517922
 21
10.8605839908
  0
LINE
  5
2B1
100
AcDbEntity
  8
0
100
AcDbLine
 62
7
  6
CONTINUOUS
 10
11.2288517922
 20
10.8605839908
 11
11.2388545878
 21
11.1966253612
  0
LINE
  5
2B2
100
AcDbEntity
  8
0
100
AcDbLine
 62
7
  6
CONTINUOUS
 10
11.2388545878
 20
11.1966253612
 11
11.2391521657
 21
11.206140452
  0
LINE
  5
2B3
100
AcDbEntity
  8
0
100
AcDbLine
 62
7
  6
CONTINUOUS
 10
11.2391521657
 20
11.206140452
 11
11.2401262339
 21
11.2345993155
  0
SPLINE
  5
2B4
100
AcDbEntity
  8
0
100
AcDbSpline
 62
7
  6
CONTINUOUS
 70
0
 71
3
 72
29
 73
25
 74
0
 42
0.0000001
 43
0.0000001
 44
0.0000000001
 40
0.0
 40
0.0
 40
0.0
 40
0.0
 40
0.03219088
 40
0.0626203959
 40
0.0933838458
 40
0.1250653048
 40
0.1574601667
 40
0.1903275796
 40
0.256310663
 40
0.320707006
 40
0.383156013
 40
0.4441739939
 40
0.5043132346
 40
0.5641789416
 40
0.6243625346
 40
0.685223683
 40
0.7470152016
 40
0.8099977385
 40
0.8419943447
 40
0.8739232627
 40
0.9053478388
 40
0.9362567809
 40
0.9673083145
 40
1.0
 40
1.0
 40
1.0
 40
1.0
 10
12.5548517498
 20
8.9417622694
 30
0.0
 10
12.5657586745
 20
8.9512109385
 30
0.0
 10
12.5845051948
 20
8.9727796799
 30
0.0
 10
12.6018267392
 20
9.0113761886
 30
0.0
 10
12.6104695802
 20
9.0522908811
 30
0.0
 10
12.6142769664
 20
9.0946715211
 30
0.0
 10
12.6157847528
 20
9.1381182569
 30
0.0
 10
12.6151515969
 20
9.1969656173
 30
0.0
 10
12.6110285253
 20
9.27004683
 30
0.0
 10
12.6054993404
 20
9.3563055038
 30
0.0
 10
12.6007524346
 20
9.4403897307
 30
0.0
 10
12.5975114481
 20
9.5226388555
 30
0.0
 10
12.5965964789
 20
9.6037973676
 30
0.0
 10
12.5989032457
 20
9.6845677046
 30
0.0
 10
12.6048931134
 20
9.7654612578
 30
0.0
 10
12.6125508311
 20
9.8470626685
 30
0.0
 10
12.620167396
 20
9.9299316159
 30
0.0
 10
12.6248514154
 20
10.0000655861
 30
0.0
 10
12.6269498161
 20
10.0569240646
 30
0.0
 10
12.6263599984
 20
10.0996992427
 30
0.0
 10
12.6216777522
 20
10.1417947024
 30
0.0
 10
12.6109590697
 20
10.1824812308
 30
0.0
 10
12.5920390743
 20
10.2208374627
 30
0.0
 10
12.5734095186
 20
10.2429524043
 30
0.0
 10
12.5627257655
 20
10.2529836285
 30
0.0
  0
SPLINE
  5
2B5
100
AcDbEntity
  8
0
100
AcDbSpline
 62
7
  6
CONTINUOUS
 70
0
 71
3
 72
29
 73
25
 74
0
 42
0.0000001
 43
0.0000001
 44
0.0000000001
 40
0.0
 40
0.0
 40
0.0
 40
0.0
 40
0.03219088
 40
0.0626203959
 40
0.0933838458
 40
0.1250653048
 40
0.1574601667
 40
0.1903275796
 40
0.256310663
 40
0.320707006
 40
0.383156013
 40
0.4441739939
 40
0.5043132346
 40
0.5641789416
 40
0.6243625346
 40
0.685223683
 40
0.7470152016
 40
0.8099977385
 40
0.8419943447
 40
0.8739232627
 40
0.9053478388
 40
0.9362567809
 40
0.9673083145
 40
1.0
 40
1.0
 40
1.0
 40
1.0
 10
13.3737493876
 20
8.9417622694
 30
0.0
 10
13.3628424628
 20
8.9512109385
 30
0.0
 10
13.3440959426
 20
8.9727796799
 30
0.0
 10
13.3267743981
 20
9.0113761886
 30
0.0
 10
13.3181315571
 20
9.0522908811
 30
0.0
 10
13.314324171
 20
9.0946715211
 30
0.0
 10
13.3128163846
 20
9.1381182569
 30
0.0
 10
13.3134495404
 20
9.1969656173
 30
0.0
 10
13.3175726121
 20
9.27004683
 30
0.0
 10
13.323101797
 20
9.3563055038
 30
0.0
 10
13.3278487027
 20
9.4403897307
 30
0.0
 10
13.3310896892
 20
9.5226388555
 30
0.0
 10
13.3320046584
 20
9.6037973676
 30
0.0
 10
13.3296978916
 20
9.6845677046
 30
0.0
 10
13.3237080239
 20
9.7654612578
 30
0.0
 10
13.3160503063
 20
9.8470626685
 30
0.0
 10
13.3084337414
 20
9.9299316159
 30
0.0
 10
13.3037497219
 20
10.0000655861
 30
0.0
 10
13.3016513213
 20
10.0569240646
 30
0.0
 10
13.302241139
 20
10.0996992427
 30
0.0
 10
13.3069233852
 20
10.1417947024
 30
0.0
 10
13.3176420676
 20
10.1824812308
 30
0.0
 10
13.3365620631
 20
10.2208374627
 30
0.0
 10
13.3551916187
 20
10.2429524043
 30
0.0
 10
13.3658753718
 20
10.2529836285
 30
0.0
  0
LINE
  5
2B6
100
AcDbEntity
  8
0
100
AcDbLine
 62
7
  6
CONTINUOUS
 10
13.6455652203
 20
6.9946875346
 11
13.6453111907
 21
6.9953802508
  0
SPLINE
  5
2B7
100
AcDbEntity
  8
0
100
AcDbSpline
 62
7
  6
CONTINUOUS
 70
0
 71
3
 72
27
 73
23
 74
0
 42
0.0000001
 43
0.0000001
 44
0.0000000001
 40
0.0
 40
0.0
 40
0.0
 40
0.0
 40
0.0939560449
 40
0.2247483303
 40
0.3604149674
 40
0.4968209511
 40
0.5648752997
 40
0.6326919669
 40
0.7001665425
 40
0.7671513802
 40
0.8333812777
 40
0.8660513978
 40
0.8982471851
 40
0.929681123
 40
0.9449347445
 40
0.9596885652
 40
0.973648569
 40
0.9862085181
 40
0.9915818222
 40
0.9959720253
 40
0.998936815
 40
1.0
 40
1.0
 40
1.0
 40
1.0
 10
13.6453111907
 20
6.9953802508
 30
0.0
 10
13.6371454134
 20
7.0176573655
 30
0.0
 10
13.6183244677
 20
7.0712087977
 30
0.0
 10
13.5907958521
 20
7.1579805035
 30
0.0
 10
13.5633662238
 20
7.2559673514
 30
0.0
 10
13.5429129717
 20
7.3394039102
 30
0.0
 10
13.5280556133
 20
7.4065391288
 30
0.0
 10
13.5176830531
 20
7.4568329824
 30
0.0
 10
13.5080538053
 20
7.5069991363
 30
0.0
 10
13.4991519347
 20
7.5568923167
 30
0.0
 10
13.4923057352
 20
7.5982208242
 30
0.0
 10
13.4871831076
 20
7.6309276475
 30
0.0
 10
13.483555981
 20
7.6549741899
 30
0.0
 10
13.4806912682
 20
7.6746875369
 30
0.0
 10
13.4785204742
 20
7.6900505755
 30
0.0
 10
13.4769923377
 20
7.7010481045
 30
0.0
 10
13.475588706
 20
7.7113754473
 30
0.0
 10
13.4745028377
 20
7.7193572604
 30
0.0
 10
13.4737849856
 20
7.7249464294
 30
0.0
 10
13.4733136723
 20
7.7281311357
 30
0.0
 10
13.4731396476
 20
7.7302427289
 30
0.0
 10
13.472891754
 20
7.7312469173
 30
0.0
 10
13.4729064741
 20
7.7315149978
 30
0.0
  0
ENDSEC
  0
SECTION
  2
OBJECTS
  0
DICTIONARY
  5
C
100
AcDbDictionary
280
0
281
1
  3
ACAD_GROUP
350
D
  3
ACAD_MLINESTYLE
350
17
  3
ACAD_LAYOUT
350
1A
  3
ACAD_PLOTSETTINGS
350
19
  3
ACAD_PLOTSTYLENAME
350
E
  0
DICTIONARY
  5
D
102
{ACAD_REACTORS
330
C
102
}
100
AcDbDictionary
280
0
281
1
  0
ACDBDICTIONARYWDFLT
  5
E
102
{ACAD_REACTORS
330
C
102
}
100
AcDbDictionary
281
1
  3
Normal
350
F
100
AcDbDictionaryWithDefault
340
F
  0
DICTIONARY
  5
17
102
{ACAD_REACTORS
330
C
102
}
100
AcDbDictionary
280
0
281
1
  3
Standard
350
18
  0
DICTIONARY
  5
19
102
{ACAD_REACTORS
330
C
102
}
100
AcDbDictionary
281
1
  0
DICTIONARY
  5
1A
102
{ACAD_REACTORS
330
C
102
}
100
AcDbDictionary
281
1
  3
Model
350
2B8
  3
Layout1
350
2B9
  0
ACDBPLACEHOLDER
  5
F
102
{ACAD_REACTORS
330
E
102
}
  0
MLINESTYLE
  5
18
102
{ACAD_REACTORS
330
17
102
}
100
AcDbMlineStyle
  2
STANDARD
 70
0
  3

 62
256
 51
90.0
 52
90.0
 71
2
 49
0.5
 62
256
  6
BYLAYER
 49
-0.5
 62
256
  6
BYLAYER
  0
LAYOUT
  5
2B8
102
{ACAD_REACTORS
330
1A
102
}
100
AcDbPlotSettings
  1

  2
none_device
  4
ANSI_C_(22.00_x_17.00_Inches)
  6

 40
0.0
 41
0.0
 42
0.0
 43
0.0
 44
558.8
 45
431.8
 46
0.0
 47
0.0
 48
0.0
 49
0.0
140
0.0
141
0.0
142
1.0
143
1.0
 70
1024
 72
0
 73
0
 74
0
  7

 75
0
147
1.0
148
0.0
149
0.0
100
AcDbLayout
  1
Model
 70
0
 71
0
 10
0.0
 20
0.0
 11
22.0
 21
17.0
 12
0.0
 22
0.0
 32
0.0
 14
0.0
 24
0.0
 34
0.0
 15
0.0
 25
0.0
 35
0.0
146
0.0
 13
0.0
 23
0.0
 33
0.0
 16
1.0
 26
0.0
 36
0.0
 17
0.0
 27
1.0
 37
0.0
 76
0
330
202
345
0
346
0
  0
LAYOUT
  5
2B9
102
{ACAD_REACTORS
330
1A
102
}
100
AcDbPlotSettings
  1

  2
none_device
  4
ANSI_C_(22.00_x_17.00_Inches)
  6

 40
0.0
 41
0.0
 42
0.0
 43
0.0
 44
558.8
 45
431.8
 46
0.0
 47
0.0
 48
0.0
 49
0.0
140
0.0
141
0.0
142
1.0
143
1.0
 70
0
 72
0
 73
0
 74
0
  7

 75
0
147
1.0
148
0.0
149
0.0
100
AcDbLayout
  1
Layout1
 70
0
 71
1
 10
0.0
 20
0.0
 11
22.0
 21
17.0
 12
0.0
 22
0.0
 32
0.0
 14
0.0
 24
0.0
 34
0.0
 15
0.0
 25
0.0
 35
0.0
146
0.0
 13
0.0
 23
0.0
 33
0.0
 16
1.0
 26
0.0
 36
0.0
 17
0.0
 27
1.0
 37
0.0
 76
0
330
203
345
0
346
0
  0
ENDSEC
  0
EOF
