  0
SECTION
  2
HEADER
  9
$ACADVER
  1
AC1021
  9
$DWGCODEPAGE
  3
ANSI_1252
  9
$EXTMAX
 10
11.6929133858
 20
8.2677165354
 30
0.0
  9
$EXTMIN
 10
0.0
 20
0.0
 30
0.0
  9
$LIMMIN
 10
0.0
 20
0.0
  9
$LIMMAX
 10
11.6929133858
 20
8.2677165354
  9
$VIEWCTR
 10
5.8464566929
 20
4.1338582677
  9
$VIEWSIZE
 40
8.2677165354
  9
$CLAYER
  8
0
  9
$LTSCALE
 40
0.6431102362
  9
$CELTYPE
  6
BYLAYER
  9
$DIMSCALE
 40
1.0
  9
$DIMASZ
 40
0.1875
  9
$DIMEXO
 40
0.0730807087
  9
$DIMDLI
 40
0.4443307087
  9
$DIMEXE
 40
0.2104724409
  9
$DIMCEN
 40
0.1052362205
  9
$DIMLFAC
 40
1.0
  9
$DIMBLK
  1
_CLOSED
  9
$DIMTXT
 40
0.15625
  9
$DIMTOL
 70
0
  9
$DIMLIM
 70
0
  9
$DIMTFAC
 40
1.0
  9
$PDMODE
 70
3
  9
$PDSIZE
 40
0.3125
  9
$HANDSEED
  5
308
  9
$TILEMODE
 70
1
  9
$MEASUREMENT
 70
0
  9
$INSUNITS
 70
1
  0
ENDSEC
  0
SECTION
  2
CLASSES
  0
CLASS
  1
ACDBDICTIONARYWDFLT
  2
AcDbDictionaryWithDefault
  3
AutoCAD 2000
 90
0
 91
1
280
0
281
0
  0
CLASS
  1
ACDBPLACEHOLDER
  2
AcDbPlaceHolder
  3
AutoCAD 2000
 90
0
 91
1
280
0
281
0
  0
CLASS
  1
LAYOUT
  2
AcDbLayout
  3
AutoCAD 2000
 90
0
 91
0
280
0
281
0
  0
ENDSEC
  0
SECTION
  2
TABLES
  0
TABLE
  2
VPORT
  5
8
100
AcDbSymbolTable
 70
2
  0
VPORT
  5
1F4
100
AcDbSymbolTableRecord
100
AcDbViewportTableRecord
  2
*ACTIVE
 70
0
 10
0.0
 20
0.0
 11
1.0
 21
1.0
 12
5.8464566929
 22
4.1338582677
 13
0.0
 23
0.0
 14
1.0
 24
1.0
 15
0.0
 25
0.0
 16
0.0
 26
0.0
 36
1.0
 17
0.0
 27
0.0
 37
0.0
 40
8.2677165354
 41
1.4142857143
 42
50.0
 43
0.0
 44
0.0
 50
0.0
 51
0.0
 71
0
 72
100
 73
1
 74
1
 75
0
 76
0
 77
0
 78
0
  0
ENDTAB
  0
TABLE
  2
LTYPE
  5
5
100
AcDbSymbolTable
 70
6
  0
LTYPE
  5
14
100
AcDbSymbolTableRecord
100
AcDbLinetypeTableRecord
  2
BYBLOCK
 70
0
  3

 72
65
 73
0
 40
0.0
  0
LTYPE
  5
15
100
AcDbSymbolTableRecord
100
AcDbLinetypeTableRecord
  2
BYLAYER
 70
0
  3

 72
65
 73
0
 40
0.0
  0
LTYPE
  5
16
100
AcDbSymbolTableRecord
100
AcDbLinetypeTableRecord
  2
CONTINUOUS
 70
64
  3
Solid line
 72
65
 73
0
 40
0.0
  0
LTYPE
  5
1F5
100
AcDbSymbolTableRecord
100
AcDbLinetypeTableRecord
  2
CENTER
 70
64
  3
____ _ ____ _ ____ _ ____ _ ____ _ ____ _ ____
 72
65
 73
4
 40
0.6
 49
0.375
 74
0
 49
-0.075
 74
0
 49
0.075
 74
0
 49
-0.075
 74
0
  0
LTYPE
  5
1F6
100
AcDbSymbolTableRecord
100
AcDbLinetypeTableRecord
  2
HIDDEN
 70
64
  3
- - - - - - - - - - - - - - - - - - - -
 72
65
 73
2
 40
0.2
 49
0.1
 74
0
 49
-0.1
 74
0
  0
LTYPE
  5
1F7
100
AcDbSymbolTableRecord
100
AcDbLinetypeTableRecord
  2
PHANTOM
 70
64
  3
_____ _ _ _____ _ _ _____ _ _ _____
 72
65
 73
6
 40
0.8
 49
0.45
 74
0
 49
-0.05
 74
0
 49
0.1
 74
0
 49
-0.05
 74
0
 49
0.1
 74
0
 49
-0.05
 74
0
  0
LTYPE
  5
1F8
100
AcDbSymbolTableRecord
100
AcDbLinetypeTableRecord
  2
DOT
 70
64
  3
. . . . . . . . . . . . . . . . . . . .
 72
65
 73
2
 40
0.2
 49
0.1
 74
0
 49
-0.1
 74
0
  0
LTYPE
  5
1F9
100
AcDbSymbolTableRecord
100
AcDbLinetypeTableRecord
  2
DASHED
 70
64
  3
- - - - - - - - - - - - - - - - - - - -
 72
65
 73
2
 40
0.2
 49
0.1
 74
0
 49
-0.1
 74
0
  0
ENDTAB
  0
TABLE
  2
LAYER
  5
2
100
AcDbSymbolTable
 70
36
  0
LAYER
  5
10
100
AcDbSymbolTableRecord
100
AcDbLayerTableRecord
  2
0
 70
0
 62
7
  6
CONTINUOUS
370
-3
390
F
  0
LAYER
  5
1FA
100
AcDbSymbolTableRecord
100
AcDbLayerTableRecord
  2
DEFAULT_1
 70
0
 62
7
  6
CENTER
370
-3
390
F
  0
LAYER
  5
1FB
100
AcDbSymbolTableRecord
100
AcDbLayerTableRecord
  2
DEFAULT_2
 70
0
 62
8
  6
HIDDEN
370
-3
390
F
  0
LAYER
  5
1FC
100
AcDbSymbolTableRecord
100
AcDbLayerTableRecord
  2
DEFAULT_3
 70
0
 62
7
  6
PHANTOM
370
-3
390
F
  0
LAYER
  5
1FD
100
AcDbSymbolTableRecord
100
AcDbLayerTableRecord
  2
DEFAULT_COORDINATE_SYSTEM
 70
0
 62
7
  6
CONTINUOUS
370
-3
390
F
  0
LAYER
  5
1FE
100
AcDbSymbolTableRecord
100
AcDbLayerTableRecord
  2
DEFAULT_DATUM_AXES
 70
0
 62
7
  6
CONTINUOUS
370
-3
390
F
  0
LAYER
  5
1FF
100
AcDbSymbolTableRecord
100
AcDbLayerTableRecord
  2
DEFAULT_DATUM_CURVES
 70
0
 62
7
  6
CONTINUOUS
370
-3
390
F
  0
LAYER
  5
200
100
AcDbSymbolTableRecord
100
AcDbLayerTableRecord
  2
DEFAULT_DATUM_PLANES
 70
0
 62
7
  6
CONTINUOUS
370
-3
390
F
  0
ENDTAB
  0
TABLE
  2
STYLE
  5
3
100
AcDbSymbolTable
 70
1
  0
STYLE
  5
11
100
AcDbSymbolTableRecord
100
AcDbTextStyleTableRecord
  2
STANDARD
 70
0
 40
0.0
 41
0.8
 50
0.0
 71
0
 42
0.2
  3
txt
  4

  0
STYLE
  5
201
100
AcDbSymbolTableRecord
100
AcDbTextStyleTableRecord
  2
TEXTSTYLE_1
 70
0
 40
0.0
 41
0.8
 50
0.0
 71
0
 42
0.2
  3
gdt
  4

  0
ENDTAB
  0
TABLE
  2
VIEW
  5
6
100
AcDbSymbolTable
 70
0
  0
ENDTAB
  0
TABLE
  2
UCS
  5
7
100
AcDbSymbolTable
 70
0
  0
ENDTAB
  0
TABLE
  2
APPID
  5
9
100
AcDbSymbolTable
 70
1
  0
APPID
  5
202
100
AcDbSymbolTableRecord
100
AcDbRegAppTableRecord
  2
ACAD
 70
0
  0
ENDTAB
  0
TABLE
  2
BLOCK_RECORD
  5
1
100
AcDbSymbolTable
 70
0
  0
BLOCK_RECORD
  5
203
100
AcDbSymbolTableRecord
100
AcDbBlockTableRecord
  2
*Model_Space
  0
BLOCK_RECORD
  5
204
100
AcDbSymbolTableRecord
100
AcDbBlockTableRecord
  2
*Paper_Space
  0
ENDTAB
  0
TABLE
  2
DIMSTYLE
  5
A
100
AcDbSymbolTable
 70
1
100
AcDbDimStyleTable
 71
0
  0
DIMSTYLE
105
205
100
AcDbSymbolTableRecord
100
AcDbDimStyleTableRecord
  2
STANDARD
 70
0
  3

  4

 40
1.0
 41
0.1875
 42
0.0625
 43
0.38
 44
0.18
 45
0.0
 46
0.0
 47
0.001
 48
0.001
140
0.15625
141
0.09
142
0.0
143
25.4
144
1.0
145
0.0
146
1.0
147
0.09
 71
0.0
 72
0.0
 73
1
 74
1
 75
0
 76
0
 77
0
 78
4
170
0
171
2
172
0
173
0
174
0
175
0
176
0
177
0
178
0
270
2
271
3
272
3
273
2
274
2
275
0
280
0
281
0
282
0
283
1
284
4
285
0
286
0
287
3
288
0
340
11
  0
ENDTAB
  0
ENDSEC
  0
SECTION
  2
BLOCKS
  0
BLOCK
  5
20
100
AcDbEntity
  8
0
100
AcDbBlockBegin
  2
*Model_Space
 70
0
 10
0.0
 20
0.0
 30
0.0
  3
*Model_Space
  1

  0
ENDBLK
  5
21
100
AcDbEntity
  8
0
100
AcDbBlockEnd
  0
BLOCK
  5
1C
100
AcDbEntity
  8
0
100
AcDbBlockBegin
  2
*Paper_Space
 70
0
 10
0.0
 20
0.0
 30
0.0
  3
*Paper_Space
  1

  0
ENDBLK
  5
1D
100
AcDbEntity
  8
0
100
AcDbBlockEnd
  0
ENDSEC
  0
SECTION
  2
ENTITIES
  0
LINE
  5
206
100
AcDbEntity
  8
0
100
AcDbLine
 62
9
  6
CONTINUOUS
 10
1.3214766115
 20
5.8203428323
 11
1.3214766115
 21
6.2107649776
  0
LINE
  5
207
100
AcDbEntity
  8
0
100
AcDbLine
 62
9
  6
CONTINUOUS
 10
1.4496842575
 20
5.7870217949
 11
1.4496842575
 21
6.2440860151
  0
LINE
  5
208
100
AcDbEntity
  8
0
100
AcDbLine
 62
9
  6
CONTINUOUS
 10
1.4973769216
 20
5.7809100096
 11
1.4973769216
 21
6.2501978003
  0
LINE
  5
209
100
AcDbEntity
  8
0
100
AcDbLine
 62
9
  6
CONTINUOUS
 10
1.846217008
 20
5.6442460659
 11
1.846217008
 21
6.3868617441
  0
LINE
  5
20A
100
AcDbEntity
  8
0
100
AcDbLine
 62
9
  6
CONTINUOUS
 10
2.3109495448
 20
5.7719779254
 11
2.3109495448
 21
6.2591298846
  0
LINE
  5
20B
100
AcDbEntity
  8
0
100
AcDbLine
 62
9
  6
CONTINUOUS
 10
2.9972364465
 20
5.8203518928
 11
2.9972364465
 21
6.2107559172
  0
LINE
  5
20C
100
AcDbEntity
  8
0
100
AcDbLine
 62
9
  6
CONTINUOUS
 10
3.3467239401
 20
5.775553905
 11
3.3467239401
 21
6.255553905
  0
LINE
  5
20D
100
AcDbEntity
  8
0
100
AcDbLine
 62
6
  6
CONTINUOUS
 10
3.3647582072
 20
6.015553905
 11
3.3647582072
 21
5.791424058
  0
LWPOLYLINE
  5
20E
100
AcDbEntity
  8
0
100
AcDbPolyline
 62
6
  6
CONTINUOUS
 90
7
 70
0
 10
5.0337327743
 20
6.5949199436
 10
4.9952293631
 20
6.543429198
 10
4.9598945295
 20
6.4885960797
 10
4.9287438798
 20
6.4318777167
 10
4.9024315758
 20
6.374931453
 10
4.8811849884
 20
6.319584916
 10
4.8648607843
 20
6.2677837877
  0
LINE
  5
20F
100
AcDbEntity
  8
0
100
AcDbLine
 62
9
  6
CONTINUOUS
 10
3.7547582072
 20
4.950553905
 11
3.7547582072
 21
5.3095616503
  0
LINE
  5
210
100
AcDbEntity
  8
0
100
AcDbLine
 62
9
  6
CONTINUOUS
 10
3.7547582072
 20
6.7215461596
 11
3.7547582072
 21
7.080553905
  0
LINE
  5
211
100
AcDbEntity
  8
0
100
AcDbLine
 62
9
  6
CONTINUOUS
 10
5.3292582072
 20
2.890553905
 11
6.1802582072
 21
2.890553905
  0
LINE
  5
212
100
AcDbEntity
  8
0
100
AcDbLine
 62
6
  6
CONTINUOUS
 10
4.8316640249
 20
5.7711896403
 11
4.8391837427
 21
5.6854283121
  0
LINE
  5
213
100
AcDbEntity
  8
0
100
AcDbLine
 62
6
  6
CONTINUOUS
 10
4.8317101013
 20
5.7705108392
 11
4.8316639324
 21
5.7711910048
  0
LWPOLYLINE
  5
214
100
AcDbEntity
  8
0
100
AcDbPolyline
 62
6
  6
CONTINUOUS
 90
3
 70
0
 10
4.8320114609
 20
6.0800786432
 10
4.8274156554
 20
5.9870304735
 10
4.826712287
 20
5.951775286
  0
LINE
  5
215
100
AcDbEntity
  8
0
100
AcDbLine
 62
6
  6
CONTINUOUS
 10
4.8391837427
 20
5.6854283121
 11
4.8502989524
 21
5.5970227534
  0
LWPOLYLINE
  5
216
100
AcDbEntity
  8
0
100
AcDbPolyline
 62
6
  6
CONTINUOUS
 90
3
 70
0
 10
5.2990286674
 20
3.4415816592
 10
5.3048217747
 20
3.3730115579
 10
5.3103597934
 20
3.2998800318
  0
LINE
  5
217
100
AcDbEntity
  8
0
100
AcDbLine
 62
6
  6
CONTINUOUS
 10
5.3103597934
 20
3.2998800318
 11
5.3113877211
 21
3.2852697248
  0
LINE
  5
218
100
AcDbEntity
  8
0
100
AcDbLine
 62
6
  6
CONTINUOUS
 10
5.3112167743
 20
3.2877253501
 11
5.3155379573
 21
3.2220092311
  0
LINE
  5
219
100
AcDbEntity
  8
0
100
AcDbLine
 62
9
  6
CONTINUOUS
 10
5.3216361925
 20
3.1109925144
 11
5.3216398755
 21
3.1109304556
  0
LINE
  5
21A
100
AcDbEntity
  8
0
100
AcDbLine
 62
9
  6
CONTINUOUS
 10
5.3242433626
 20
3.0523791527
 11
5.3242464508
 21
3.0523258769
  0
LINE
  5
21B
100
AcDbEntity
  8
0
100
AcDbLine
 62
6
  6
CONTINUOUS
 10
5.3155379573
 20
3.2220092311
 11
5.3216361925
 21
3.1109925144
  0
LWPOLYLINE
  5
21C
100
AcDbEntity
  8
0
100
AcDbPolyline
 62
6
  6
CONTINUOUS
 90
3
 70
0
 10
5.3216361747
 20
3.1109928837
 10
5.3234651067
 20
3.0708976435
 10
5.3242433626
 20
3.0523791527
  0
LWPOLYLINE
  5
21D
100
AcDbEntity
  8
0
100
AcDbPolyline
 62
6
  6
CONTINUOUS
 90
4
 70
0
 10
5.3242433619
 20
3.0523791702
 10
5.3262134106
 20
3.0001260998
 10
5.3279335247
 20
2.944844432
 10
5.3292580057
 20
2.8905634628
  0
LWPOLYLINE
  5
21E
100
AcDbEntity
  8
0
100
AcDbPolyline
 62
6
  6
CONTINUOUS
 90
13
 70
0
 10
5.3292582072
 20
2.890553905
 10
5.3302759027
 20
2.8315037973
 10
5.3308547497
 20
2.7694296
 10
5.3309278361
 20
2.7072049715
 10
5.3304913153
 20
2.6450180643
 10
5.3295478264
 20
2.5830551923
 10
5.3281006306
 20
2.5215008984
 10
5.3261572718
 20
2.4605115342
 10
5.3237423849
 20
2.4001469899
 10
5.3208742876
 20
2.3404713626
 10
5.3175630859
 20
2.281597745
 10
5.3138310959
 20
2.2236462161
 10
5.3099038491
 20
2.1692729278
  0
LINE
  5
21F
100
AcDbEntity
  8
0
100
AcDbLine
 62
9
  6
CONTINUOUS
 10
5.3095794059
 20
2.1541668061
 11
5.3099038491
 21
2.1692729278
  0
LINE
  5
220
100
AcDbEntity
  8
0
100
AcDbLine
 62
6
  6
CONTINUOUS
 10
5.2397591003
 20
1.5457104836
 11
5.2451416057
 21
1.6152652428
  0
LINE
  5
221
100
AcDbEntity
  8
0
100
AcDbLine
 62
9
  6
CONTINUOUS
 10
4.935352218
 20
5.2318558277
 11
4.9343270348
 21
5.2347111708
  0
LINE
  5
222
100
AcDbEntity
  8
0
100
AcDbLine
 62
9
  6
CONTINUOUS
 10
4.9343270348
 20
5.2347111708
 11
4.934325359
 21
5.2347163759
  0
LWPOLYLINE
  5
223
100
AcDbEntity
  8
0
100
AcDbPolyline
 62
6
  6
CONTINUOUS
 90
4
 70
0
 10
4.934325359
 20
5.2347163759
 10
4.9481223413
 20
5.1914455089
 10
4.9624857003
 20
5.1455645323
 10
4.974963357
 20
5.1050148497
  0
LINE
  5
224
100
AcDbEntity
  8
0
100
AcDbLine
 62
9
  6
CONTINUOUS
 10
4.9749696091
 20
5.1050115478
 11
4.9750082786
 21
5.1048844603
  0
LWPOLYLINE
  5
225
100
AcDbEntity
  8
0
100
AcDbPolyline
 62
6
  6
CONTINUOUS
 90
7
 70
0
 10
4.9750082786
 20
5.1048844603
 10
5.0527894984
 20
4.833409894
 10
5.1214976173
 20
4.5578406035
 10
5.1805106218
 20
4.2802983417
 10
5.2298304187
 20
4.0012072888
 10
5.2693994166
 20
3.7208822761
 10
5.2990283841
 20
3.4415848484
  0
LWPOLYLINE
  5
226
100
AcDbEntity
  8
0
100
AcDbPolyline
 62
6
  6
CONTINUOUS
 90
5
 70
0
 10
4.8502989524
 20
5.5970227534
 10
4.8650946954
 20
5.5077744243
 10
4.8842709093
 20
5.4161451482
 10
4.9077459961
 20
5.3236621726
 10
4.9343270353
 20
5.2347111694
  0
LINE
  5
227
100
AcDbEntity
  8
0
100
AcDbLine
 62
9
  6
CONTINUOUS
 10
5.7547582072
 20
1.0617604133
 11
5.7547582072
 21
6.083053905
  0
LWPOLYLINE
  5
228
100
AcDbEntity
  8
0
100
AcDbPolyline
 62
6
  6
CONTINUOUS
 90
11
 70
0
 10
5.3099039282
 20
2.1692739681
 10
5.3046662723
 20
2.1043639681
 10
5.2988083596
 20
2.0394176992
 10
5.292561634
 20
1.9767707207
 10
5.285973505
 20
1.9163323917
 10
5.2791056558
 20
1.8581314216
 10
5.2720347648
 20
1.8023155187
 10
5.264895982
 20
1.7493620671
 10
5.2578712264
 20
1.69990551
 10
5.2511632832
 20
1.6546299904
 10
5.2451411053
 20
1.6152650168
  0
LINE
  5
229
100
AcDbEntity
  8
0
100
AcDbLine
 62
6
  6
CONTINUOUS
 10
6.204850142
 20
2.1043639696
 11
6.1996124863
 21
2.1692739681
  0
LINE
  5
22A
100
AcDbEntity
  8
0
100
AcDbLine
 62
6
  6
CONTINUOUS
 10
6.2643746467
 20
1.615265316
 11
6.269757315
 21
1.5457157653
  0
LWPOLYLINE
  5
22B
100
AcDbEntity
  8
0
100
AcDbPolyline
 62
6
  6
CONTINUOUS
 90
13
 70
0
 10
6.1996125654
 20
2.1692729278
 10
6.1956853186
 20
2.2236462161
 10
6.1919533285
 20
2.281597745
 10
6.1886421269
 20
2.3404713626
 10
6.1857740295
 20
2.4001469899
 10
6.1833591427
 20
2.4605115342
 10
6.1814157839
 20
2.5215008984
 10
6.1799685881
 20
2.5830551923
 10
6.1790250992
 20
2.6450180643
 10
6.1785885784
 20
2.7072049715
 10
6.1786616648
 20
2.7694296
 10
6.1792405118
 20
2.8315037973
 10
6.1802582068
 20
2.8905538848
  0
LINE
  5
22C
100
AcDbEntity
  8
0
100
AcDbLine
 62
9
  6
CONTINUOUS
 10
6.1999370086
 20
2.1541668061
 11
6.1996125654
 21
2.1692729278
  0
LINE
  5
22D
100
AcDbEntity
  8
0
100
AcDbLine
 62
9
  6
CONTINUOUS
 10
6.5741641964
 20
5.2318558277
 11
6.5751893797
 21
5.2347111708
  0
LWPOLYLINE
  5
22E
100
AcDbEntity
  8
0
100
AcDbPolyline
 62
6
  6
CONTINUOUS
 90
10
 70
0
 10
6.2643753091
 20
1.6152650169
 10
6.2583531298
 20
1.6546300001
 10
6.2516451867
 20
1.6999055193
 10
6.2446204312
 20
1.749362076
 10
6.2374816486
 20
1.802315527
 10
6.2304107577
 20
1.858131429
 10
6.2235429088
 20
1.9163323979
 10
6.21695478
 20
1.9767707255
 10
6.2107080546
 20
2.0394177023
 10
6.204850142
 20
2.1043639696
  0
LINE
  5
22F
100
AcDbEntity
  8
0
100
AcDbLine
 62
6
  6
CONTINUOUS
 10
6.1802582072
 20
2.890553905
 11
6.1815828898
 21
2.944844432
  0
LINE
  5
230
100
AcDbEntity
  8
0
100
AcDbLine
 62
6
  6
CONTINUOUS
 10
6.1815828898
 20
2.944844432
 11
6.1833030039
 21
3.0001260998
  0
LINE
  5
231
100
AcDbEntity
  8
0
100
AcDbLine
 62
6
  6
CONTINUOUS
 10
6.1833030039
 20
3.0001260998
 11
6.1852730526
 21
3.0523791702
  0
LWPOLYLINE
  5
232
100
AcDbEntity
  8
0
100
AcDbPolyline
 62
6
  6
CONTINUOUS
 90
3
 70
0
 10
6.1852730519
 20
3.0523791527
 10
6.1869721883
 20
3.091624477
 10
6.1878802398
 20
3.1109928837
  0
LINE
  5
233
100
AcDbEntity
  8
0
100
AcDbLine
 62
6
  6
CONTINUOUS
 10
6.187880222
 20
3.1109925144
 11
6.1939784572
 21
3.2220092311
  0
LINE
  5
234
100
AcDbEntity
  8
0
100
AcDbLine
 62
9
  6
CONTINUOUS
 10
6.1852730519
 20
3.0523791527
 11
6.1852699637
 21
3.0523258769
  0
LINE
  5
235
100
AcDbEntity
  8
0
100
AcDbLine
 62
9
  6
CONTINUOUS
 10
6.187880222
 20
3.1109925144
 11
6.187876539
 21
3.1109304556
  0
LINE
  5
236
100
AcDbEntity
  8
0
100
AcDbLine
 62
6
  6
CONTINUOUS
 10
6.1939784572
 20
3.2220092311
 11
6.1982996402
 21
3.2877253501
  0
LWPOLYLINE
  5
237
100
AcDbEntity
  8
0
100
AcDbPolyline
 62
6
  6
CONTINUOUS
 90
3
 70
0
 10
6.1981286934
 20
3.2852697248
 10
6.1991566211
 20
3.2998800318
 10
6.2046946398
 20
3.3730115579
  0
LINE
  5
238
100
AcDbEntity
  8
0
100
AcDbLine
 62
6
  6
CONTINUOUS
 10
6.6703326718
 20
5.6854283121
 11
6.6778064823
 21
5.7705133281
  0
LINE
  5
239
100
AcDbEntity
  8
0
100
AcDbLine
 62
6
  6
CONTINUOUS
 10
6.2046946398
 20
3.3730115579
 11
6.2104877471
 21
3.4415816592
  0
LWPOLYLINE
  5
23A
100
AcDbEntity
  8
0
100
AcDbPolyline
 62
6
  6
CONTINUOUS
 90
6
 70
0
 10
6.2104880304
 20
3.4415848484
 10
6.2401169979
 20
3.7208822761
 10
6.2796859958
 20
4.0012072888
 10
6.3290057926
 20
4.2802983417
 10
6.3880187971
 20
4.5578406035
 10
6.4567269161
 20
4.833409894
  0
LWPOLYLINE
  5
23B
100
AcDbEntity
  8
0
100
AcDbPolyline
 62
6
  6
CONTINUOUS
 90
3
 70
0
 10
6.644421719
 20
5.5077744243
 10
6.6592174621
 20
5.5970227534
 10
6.6703326718
 20
5.6854283121
  0
LINE
  5
23C
100
AcDbEntity
  8
0
100
AcDbLine
 62
6
  6
CONTINUOUS
 10
6.4567269161
 20
4.833409894
 11
6.5345081359
 21
5.1048844603
  0
LWPOLYLINE
  5
23D
100
AcDbEntity
  8
0
100
AcDbPolyline
 62
6
  6
CONTINUOUS
 90
4
 70
0
 10
6.5751893792
 20
5.2347111694
 10
6.6017704184
 20
5.3236621726
 10
6.6252455052
 20
5.4161451482
 10
6.644421719
 20
5.5077744243
  0
LINE
  5
23E
100
AcDbEntity
  8
0
100
AcDbLine
 62
9
  6
CONTINUOUS
 10
6.5345468054
 20
5.1050115478
 11
6.5345081359
 21
5.1048844603
  0
LWPOLYLINE
  5
23F
100
AcDbEntity
  8
0
100
AcDbPolyline
 62
6
  6
CONTINUOUS
 90
3
 70
0
 10
6.5345530575
 20
5.1050148497
 10
6.5470307142
 20
5.1455645323
 10
6.5613940732
 20
5.1914455089
  0
LINE
  5
240
100
AcDbEntity
  8
0
100
AcDbLine
 62
6
  6
CONTINUOUS
 10
6.5613940732
 20
5.1914455089
 11
6.5751910555
 21
5.2347163759
  0
LINE
  5
241
100
AcDbEntity
  8
0
100
AcDbLine
 62
9
  6
CONTINUOUS
 10
6.5751893797
 20
5.2347111708
 11
6.5751910555
 21
5.2347163759
  0
LWPOLYLINE
  5
242
100
AcDbEntity
  8
0
100
AcDbPolyline
 62
6
  6
CONTINUOUS
 90
3
 70
0
 10
6.6828041275
 20
5.951775286
 10
6.6821007591
 20
5.9870304735
 10
6.6775049536
 20
6.0800786432
  0
LINE
  5
243
100
AcDbEntity
  8
0
100
AcDbLine
 62
6
  6
CONTINUOUS
 10
6.6778063132
 20
5.7705108392
 11
6.6778524821
 21
5.7711910048
  0
LINE
  5
244
100
AcDbEntity
  8
0
100
AcDbLine
 62
6
  6
CONTINUOUS
 10
6.6775379758
 20
5.7674565368
 11
6.6778523896
 21
5.7711896403
  0
LINE
  5
245
100
AcDbEntity
  8
0
100
AcDbLine
 62
9
  6
CONTINUOUS
 10
7.7547582072
 20
4.950553905
 11
6.4902902962
 21
4.950553905
  0
LINE
  5
246
100
AcDbEntity
  8
0
100
AcDbLine
 62
9
  6
CONTINUOUS
 10
5.0192261182
 20
4.950553905
 11
3.7547582072
 21
4.950553905
  0
LINE
  5
247
100
AcDbEntity
  8
0
100
AcDbLine
 62
9
  6
CONTINUOUS
 10
7.7547582072
 20
5.0684948679
 11
6.5240820142
 21
5.0684948679
  0
LINE
  5
248
100
AcDbEntity
  8
0
100
AcDbLine
 62
9
  6
CONTINUOUS
 10
4.9854344003
 20
5.0684948679
 11
3.7547582072
 21
5.0684948679
  0
LINE
  5
249
100
AcDbEntity
  8
0
100
AcDbLine
 62
9
  6
CONTINUOUS
 10
7.7547582072
 20
5.0914697575
 11
6.530664638
 21
5.0914697575
  0
LINE
  5
24A
100
AcDbEntity
  8
0
100
AcDbLine
 62
9
  6
CONTINUOUS
 10
4.9788517765
 20
5.0914697575
 11
3.7547582072
 21
5.0914697575
  0
LINE
  5
24B
100
AcDbEntity
  8
0
100
AcDbLine
 62
6
  6
CONTINUOUS
 10
9.6632994064
 20
6.3868617441
 11
9.1985668697
 21
6.2591298846
  0
LINE
  5
24C
100
AcDbEntity
  8
0
100
AcDbLine
 62
6
  6
CONTINUOUS
 10
8.5122799679
 20
5.8203518928
 11
8.1627924744
 21
5.775553905
  0
LINE
  5
24D
100
AcDbEntity
  8
0
100
AcDbLine
 62
9
  6
CONTINUOUS
 10
7.7547582072
 20
5.2135107889
 11
6.5684296216
 21
5.2135107889
  0
LINE
  5
24E
100
AcDbEntity
  8
0
100
AcDbLine
 62
9
  6
CONTINUOUS
 10
4.9410867929
 20
5.2135107889
 11
3.7547582072
 21
5.2135107889
  0
LINE
  5
24F
100
AcDbEntity
  8
0
100
AcDbLine
 62
9
  6
CONTINUOUS
 10
7.7547582072
 20
5.2345951464
 11
6.5751910555
 21
5.2345951464
  0
LINE
  5
250
100
AcDbEntity
  8
0
100
AcDbLine
 62
9
  6
CONTINUOUS
 10
4.934325359
 20
5.2345951464
 11
3.7547582072
 21
5.2345951464
  0
LINE
  5
251
100
AcDbEntity
  8
0
100
AcDbLine
 62
9
  6
CONTINUOUS
 10
7.7547582072
 20
5.3095616503
 11
6.5975567893
 21
5.3095616503
  0
LINE
  5
252
100
AcDbEntity
  8
0
100
AcDbLine
 62
9
  6
CONTINUOUS
 10
4.9119596252
 20
5.3095616503
 11
3.7547582072
 21
5.3095616503
  0
LINE
  5
253
100
AcDbEntity
  8
0
100
AcDbLine
 62
6
  6
CONTINUOUS
 10
2.9972364465
 20
5.8203518928
 11
3.3467239401
 21
5.775553905
  0
LINE
  5
254
100
AcDbEntity
  8
0
100
AcDbLine
 62
6
  6
CONTINUOUS
 10
1.846217008
 20
6.3868617441
 11
2.3109495448
 21
6.2591298846
  0
LWPOLYLINE
  5
255
100
AcDbEntity
  8
0
100
AcDbPolyline
 62
6
  6
CONTINUOUS
 90
7
 70
0
 10
6.6446638737
 20
6.2677546889
 10
6.628346871
 20
6.3195404757
 10
6.6071071522
 20
6.3748784718
 10
6.5808009304
 20
6.4318214054
 10
6.5496552569
 20
6.4885400578
 10
6.5143243223
 20
6.5433755858
 10
6.4758241015
 20
6.594869559
  0
LINE
  5
256
100
AcDbEntity
  8
0
100
AcDbLine
 62
9
  6
CONTINUOUS
 10
7.7547582072
 20
4.950553905
 11
7.7547582072
 21
5.3095616503
  0
LINE
  5
257
100
AcDbEntity
  8
0
100
AcDbLine
 62
9
  6
CONTINUOUS
 10
7.7547582072
 20
6.7215461596
 11
7.7547582072
 21
7.080553905
  0
LINE
  5
258
100
AcDbEntity
  8
0
100
AcDbLine
 62
6
  6
CONTINUOUS
 10
8.1447582072
 20
6.015553905
 11
8.1447582072
 21
6.2396837519
  0
LINE
  5
259
100
AcDbEntity
  8
0
100
AcDbLine
 62
9
  6
CONTINUOUS
 10
8.1627924744
 20
5.775553905
 11
8.1627924744
 21
6.255553905
  0
LINE
  5
25A
100
AcDbEntity
  8
0
100
AcDbLine
 62
6
  6
CONTINUOUS
 10
2.9972364465
 20
6.2107559172
 11
3.3467239401
 21
6.255553905
  0
LINE
  5
25B
100
AcDbEntity
  8
0
100
AcDbLine
 62
6
  6
CONTINUOUS
 10
8.5122799679
 20
6.2107559172
 11
8.1627924744
 21
6.255553905
  0
LINE
  5
25C
100
AcDbEntity
  8
0
100
AcDbLine
 62
9
  6
CONTINUOUS
 10
8.5122799679
 20
5.8203518928
 11
8.5122799679
 21
6.2107559172
  0
LINE
  5
25D
100
AcDbEntity
  8
0
100
AcDbLine
 62
6
  6
CONTINUOUS
 10
1.846217008
 20
5.6442460659
 11
2.3109495448
 21
5.7719779254
  0
LINE
  5
25E
100
AcDbEntity
  8
0
100
AcDbLine
 62
9
  6
CONTINUOUS
 10
3.7547582072
 20
6.7215461596
 11
5.1602852646
 21
6.7215461596
  0
LINE
  5
25F
100
AcDbEntity
  8
0
100
AcDbLine
 62
9
  6
CONTINUOUS
 10
6.3492311499
 20
6.7215461596
 11
7.7547582072
 21
6.7215461596
  0
LINE
  5
260
100
AcDbEntity
  8
0
100
AcDbLine
 62
9
  6
CONTINUOUS
 10
3.7547582072
 20
6.7965126636
 11
5.2646930337
 21
6.7965126636
  0
LINE
  5
261
100
AcDbEntity
  8
0
100
AcDbLine
 62
9
  6
CONTINUOUS
 10
6.2448233808
 20
6.7965126636
 11
7.7547582072
 21
6.7965126636
  0
LINE
  5
262
100
AcDbEntity
  8
0
100
AcDbLine
 62
9
  6
CONTINUOUS
 10
3.7547582072
 20
6.8175970211
 11
5.2966349191
 21
6.8175970211
  0
LINE
  5
263
100
AcDbEntity
  8
0
100
AcDbLine
 62
9
  6
CONTINUOUS
 10
6.2128814954
 20
6.8175970211
 11
7.7547582072
 21
6.8175970211
  0
LINE
  5
264
100
AcDbEntity
  8
0
100
AcDbLine
 62
9
  6
CONTINUOUS
 10
3.7547582072
 20
6.9396380524
 11
5.5099403881
 21
6.9396380524
  0
LINE
  5
265
100
AcDbEntity
  8
0
100
AcDbLine
 62
9
  6
CONTINUOUS
 10
5.9995760264
 20
6.9396380524
 11
7.7547582072
 21
6.9396380524
  0
LINE
  5
266
100
AcDbEntity
  8
0
100
AcDbLine
 62
6
  6
CONTINUOUS
 10
9.6632994064
 20
5.6442460659
 11
9.1985668697
 21
5.7719779254
  0
LINE
  5
267
100
AcDbEntity
  8
0
100
AcDbLine
 62
9
  6
CONTINUOUS
 10
3.7547582072
 20
6.9626129421
 11
5.5513558607
 21
6.9626129421
  0
LINE
  5
268
100
AcDbEntity
  8
0
100
AcDbLine
 62
9
  6
CONTINUOUS
 10
5.9581605538
 20
6.9626129421
 11
7.7547582072
 21
6.9626129421
  0
LINE
  5
269
100
AcDbEntity
  8
0
100
AcDbLine
 62
9
  6
CONTINUOUS
 10
3.7547582072
 20
7.080553905
 11
7.7547582072
 21
7.080553905
  0
LINE
  5
26A
100
AcDbEntity
  8
0
100
AcDbLine
 62
9
  6
CONTINUOUS
 10
9.1985668697
 20
5.7719779254
 11
9.1985668697
 21
6.2591298846
  0
LINE
  5
26B
100
AcDbEntity
  8
0
100
AcDbLine
 62
9
  6
CONTINUOUS
 10
9.6632994064
 20
5.6442460659
 11
9.6632994064
 21
6.3868617441
  0
LINE
  5
26C
100
AcDbEntity
  8
0
100
AcDbLine
 62
9
  6
CONTINUOUS
 10
10.0121394928
 20
5.7809100096
 11
10.0121394928
 21
6.2501978003
  0
LINE
  5
26D
100
AcDbEntity
  8
0
100
AcDbLine
 62
9
  6
CONTINUOUS
 10
10.0598321569
 20
5.7870217949
 11
10.0598321569
 21
6.2440860151
  0
LINE
  5
26E
100
AcDbEntity
  8
0
100
AcDbLine
 62
9
  6
CONTINUOUS
 10
10.1880398029
 20
5.8203428323
 11
10.1880398029
 21
6.2107649776
  0
ARC
  5
26F
100
AcDbEntity
  8
0
100
AcDbCircle
 62
9
  6
CONTINUOUS
 10
-2.9736133405
 20
2.6797828774
 40
8.3105247521
100
AcDbArc
 50
16.967655485
 51
17.8839046483
  0
ARC
  5
270
100
AcDbEntity
  8
0
100
AcDbCircle
 62
6
  6
CONTINUOUS
 10
-2.9241607448
 20
2.7131881609
 40
8.2553943485
100
AcDbArc
 50
3.6803791669
 51
3.9736624226
  0
ARC
  5
271
100
AcDbEntity
  8
0
100
AcDbCircle
 62
9
  6
CONTINUOUS
 10
-2.8617084221
 20
2.7175827711
 40
8.1927963334
100
AcDbArc
 50
2.472829563
 51
2.7519089535
  0
ARC
  5
272
100
AcDbEntity
  8
0
100
AcDbCircle
 62
6
  6
CONTINUOUS
 10
-2.8478614371
 20
2.7188021135
 40
8.1788893444
100
AcDbArc
 50
3.9887133218
 51
5.0530037177
  0
ARC
  5
273
100
AcDbEntity
  8
0
100
AcDbCircle
 62
6
  6
CONTINUOUS
 10
-2.8404778615
 20
2.7184160394
 40
8.1715493559
100
AcDbArc
 50
1.2071212073
 51
2.3419001399
  0
ARC
  5
274
100
AcDbEntity
  8
0
100
AcDbCircle
 62
6
  6
CONTINUOUS
 10
-2.8127554881
 20
2.7197947465
 40
8.1437936537
100
AcDbArc
 50
2.75290008
 51
3.53242909
  0
ARC
  5
275
100
AcDbEntity
  8
0
100
AcDbCircle
 62
9
  6
CONTINUOUS
 10
-2.3921040356
 20
2.7285762807
 40
7.7230783506
100
AcDbArc
 50
355.842380181
 51
0.028977837
  0
ARC
  5
276
100
AcDbEntity
  8
0
100
AcDbCircle
 62
9
  6
CONTINUOUS
 10
-2.3768079258
 20
2.7281093805
 40
7.7077781151
100
AcDbArc
 50
0.1412392626
 51
1.2076210125
  0
ARC
  5
277
100
AcDbEntity
  8
0
100
AcDbCircle
 62
9
  6
CONTINUOUS
 10
-2.3750878575
 20
2.7277189247
 40
7.7060392993
100
AcDbArc
 50
351.1766693702
 51
355.7315914839
  0
ARC
  5
278
100
AcDbEntity
  8
0
100
AcDbCircle
 62
6
  6
CONTINUOUS
 10
2.7747384789
 20
4.084553905
 40
1.75
100
AcDbArc
 50
82.695547113
 51
105.3682747844
  0
ARC
  5
279
100
AcDbEntity
  8
0
100
AcDbCircle
 62
6
  6
CONTINUOUS
 10
5.7547580808
 20
1.4287233188
 40
0.4662541969
100
AcDbArc
 50
250.3023113095
 51
289.761495767
  0
ARC
  5
27A
100
AcDbEntity
  8
0
100
AcDbCircle
 62
6
  6
CONTINUOUS
 10
1.9477582072
 20
6.015553905
 40
0.656
100
AcDbArc
 50
162.687818607
 51
197.312181393
  0
ARC
  5
27B
100
AcDbEntity
  8
0
100
AcDbCircle
 62
6
  6
CONTINUOUS
 10
1.7632650444
 20
5.946053905
 40
0.313
100
AcDbArc
 50
211.8445374421
 51
285.3682747844
  0
ARC
  5
27C
100
AcDbEntity
  8
0
100
AcDbCircle
 62
6
  6
CONTINUOUS
 10
1.7632650444
 20
6.085053905
 40
0.313
100
AcDbArc
 50
74.6317252156
 51
148.1554625579
  0
ARC
  5
27D
100
AcDbEntity
  8
0
100
AcDbCircle
 62
6
  6
CONTINUOUS
 10
1.3959430208
 20
5.843553905
 40
0.078
100
AcDbArc
 50
197.312181393
 51
313.5502286876
  0
ARC
  5
27E
100
AcDbEntity
  8
0
100
AcDbCircle
 62
6
  6
CONTINUOUS
 10
1.3959430208
 20
6.187553905
 40
0.078
100
AcDbArc
 50
46.4497713124
 51
162.687818607
  0
ARC
  5
27F
100
AcDbEntity
  8
0
100
AcDbCircle
 62
6
  6
CONTINUOUS
 10
1.4710429542
 20
5.764553905
 40
0.031
100
AcDbArc
 50
31.8445374421
 51
133.5502286876
  0
ARC
  5
280
100
AcDbEntity
  8
0
100
AcDbCircle
 62
6
  6
CONTINUOUS
 10
1.4710429542
 20
6.266553905
 40
0.031
100
AcDbArc
 50
226.4497713124
 51
328.1554625579
  0
ARC
  5
281
100
AcDbEntity
  8
0
100
AcDbCircle
 62
6
  6
CONTINUOUS
 10
3.3487582072
 20
5.791424058
 40
0.016
100
AcDbArc
 50
262.695547113
 51
334.2816362855
  0
ARC
  5
282
100
AcDbEntity
  8
0
100
AcDbCircle
 62
6
  6
CONTINUOUS
 10
3.3487582072
 20
6.2396837519
 40
0.016
100
AcDbArc
 50
25.7183637145
 51
97.304452887
  0
ARC
  5
283
100
AcDbEntity
  8
0
100
AcDbCircle
 62
6
  6
CONTINUOUS
 10
2.7747384789
 20
7.946553905
 40
1.75
100
AcDbArc
 50
254.6317252156
 51
277.304452887
  0
ARC
  5
284
100
AcDbEntity
  8
0
100
AcDbCircle
 62
6
  6
CONTINUOUS
 10
4.4738374726
 20
5.9218116863
 40
2.2091629783
100
AcDbArc
 50
356.0905296534
 51
0.7771426805
  0
ARC
  5
285
100
AcDbEntity
  8
0
100
AcDbCircle
 62
6
  6
CONTINUOUS
 10
4.4989577865
 20
5.9257946739
 40
2.1840006621
100
AcDbArc
 50
0.6815996724
 51
4.0509043142
  0
ARC
  5
286
100
AcDbEntity
  8
0
100
AcDbCircle
 62
6
  6
CONTINUOUS
 10
3.7547582072
 20
6.015553905
 40
0.485
100
AcDbArc
 50
150.4825894621
 51
150.5672754086
  0
ARC
  5
287
100
AcDbEntity
  8
0
100
AcDbCircle
 62
6
  6
CONTINUOUS
 10
3.7547582072
 20
6.015553905
 40
1.065
100
AcDbArc
 50
189.8675948772
 51
270.0
  0
ARC
  5
288
100
AcDbEntity
  8
0
100
AcDbCircle
 62
6
  6
CONTINUOUS
 10
3.7547582072
 20
6.015553905
 40
1.065
100
AcDbArc
 50
90.0
 51
170.1324051228
  0
ARC
  5
289
100
AcDbEntity
  8
0
100
AcDbCircle
 62
9
  6
CONTINUOUS
 10
3.7547582072
 20
6.015553905
 40
0.947059035
100
AcDbArc
 50
191.134011608
 51
270.0000000009
  0
ARC
  5
28A
100
AcDbEntity
  8
0
100
AcDbCircle
 62
9
  6
CONTINUOUS
 10
3.7547582072
 20
6.015553905
 40
0.947059035
100
AcDbArc
 50
89.9999999989
 51
168.8659609848
  0
ARC
  5
28B
100
AcDbEntity
  8
0
100
AcDbCircle
 62
9
  6
CONTINUOUS
 10
3.7547582072
 20
6.015553905
 40
0.9240841474
100
AcDbArc
 50
191.4752969046
 51
270.0000000014
  0
ARC
  5
28C
100
AcDbEntity
  8
0
100
AcDbCircle
 62
9
  6
CONTINUOUS
 10
3.7547582072
 20
6.015553905
 40
0.9240841474
100
AcDbArc
 50
89.9999999983
 51
168.5246783907
  0
ARC
  5
28D
100
AcDbEntity
  8
0
100
AcDbCircle
 62
9
  6
CONTINUOUS
 10
3.7547582072
 20
6.015553905
 40
0.8020431117
100
AcDbArc
 50
194.0102823466
 51
270.000000001
  0
ARC
  5
28E
100
AcDbEntity
  8
0
100
AcDbCircle
 62
9
  6
CONTINUOUS
 10
3.7547582072
 20
6.015553905
 40
0.8020431117
100
AcDbArc
 50
89.9999999988
 51
165.9897089398
  0
ARC
  5
28F
100
AcDbEntity
  8
0
100
AcDbCircle
 62
9
  6
CONTINUOUS
 10
3.7547582072
 20
6.015553905
 40
0.7809587582
100
AcDbArc
 50
194.5763790534
 51
270.0000000022
  0
ARC
  5
290
100
AcDbEntity
  8
0
100
AcDbCircle
 62
9
  6
CONTINUOUS
 10
3.7547582072
 20
6.015553905
 40
0.7809587582
100
AcDbArc
 50
89.9999999974
 51
165.4236143184
  0
ARC
  5
291
100
AcDbEntity
  8
0
100
AcDbCircle
 62
9
  6
CONTINUOUS
 10
3.7547582072
 20
6.015553905
 40
0.7059922547
100
AcDbArc
 50
197.0673134305
 51
270.0
  0
ARC
  5
292
100
AcDbEntity
  8
0
100
AcDbCircle
 62
9
  6
CONTINUOUS
 10
3.7547582072
 20
6.015553905
 40
0.7059922547
100
AcDbArc
 50
90.0
 51
162.9326865695
  0
ARC
  5
293
100
AcDbEntity
  8
0
100
AcDbCircle
 62
7
  6
CONTINUOUS
 10
3.7547582072
 20
6.015553905
 40
0.615
100
AcDbArc
 50
90.0
 51
159.1571373637
  0
ARC
  5
294
100
AcDbEntity
  8
0
100
AcDbCircle
 62
6
  6
CONTINUOUS
 10
3.7547582072
 20
6.015553905
 40
0.615
100
AcDbArc
 50
200.8428626363
 51
90.0
  0
ARC
  5
295
100
AcDbEntity
  8
0
100
AcDbCircle
 62
9
  6
CONTINUOUS
 10
3.7547582072
 20
6.015553905
 40
0.552
100
AcDbArc
 50
204.4705562638
 51
155.5294437362
  0
ARC
  5
296
100
AcDbEntity
  8
0
100
AcDbCircle
 62
7
  6
CONTINUOUS
 10
3.7547582072
 20
6.015553905
 40
0.485
100
AcDbArc
 50
209.5174105379
 51
150.4825894621
  0
ARC
  5
297
100
AcDbEntity
  8
0
100
AcDbCircle
 62
6
  6
CONTINUOUS
 10
3.7547582072
 20
6.015553905
 40
0.485
100
AcDbArc
 50
209.4327245914
 51
209.5174105379
  0
ARC
  5
298
100
AcDbEntity
  8
0
100
AcDbCircle
 62
6
  6
CONTINUOUS
 10
3.7547582072
 20
6.015553905
 40
0.455
100
AcDbArc
 50
210.5370645294
 51
149.4629354706
  0
CIRCLE
  5
299
100
AcDbEntity
  8
0
100
AcDbCircle
 62
6
  6
CONTINUOUS
 10
3.7547582072
 20
6.015553905
 40
0.3305
  0
CIRCLE
  5
29A
100
AcDbEntity
  8
0
100
AcDbCircle
 62
9
  6
CONTINUOUS
 10
3.7547582072
 20
6.015553905
 40
0.2835
  0
CIRCLE
  5
29B
100
AcDbEntity
  8
0
100
AcDbCircle
 62
6
  6
CONTINUOUS
 10
3.7547582072
 20
6.015553905
 40
0.272
  0
CIRCLE
  5
29C
100
AcDbEntity
  8
0
100
AcDbCircle
 62
7
  6
CONTINUOUS
 10
3.7547582072
 20
6.015553905
 40
0.236
  0
CIRCLE
  5
29D
100
AcDbEntity
  8
0
100
AcDbCircle
 62
6
  6
CONTINUOUS
 10
3.7547582072
 20
6.015553905
 40
0.18
  0
CIRCLE
  5
29E
100
AcDbEntity
  8
0
100
AcDbCircle
 62
6
  6
CONTINUOUS
 10
3.7547582072
 20
6.015553905
 40
0.17
  0
ARC
  5
29F
100
AcDbEntity
  8
0
100
AcDbCircle
 62
6
  6
CONTINUOUS
 10
5.7534881444
 20
6.0150765123
 40
0.9263028657
100
AcDbArc
 50
4.0239769219
 51
15.8298100041
  0
ARC
  5
2A0
100
AcDbEntity
  8
0
100
AcDbCircle
 62
9
  6
CONTINUOUS
 10
5.7531801562
 20
9.7792864369
 40
3.7637328628
100
AcDbArc
 50
270.0240228699
 51
271.3194411563
  0
ARC
  5
2A1
100
AcDbEntity
  8
0
100
AcDbCircle
 62
9
  6
CONTINUOUS
 10
14.4831297549
 20
2.6797828774
 40
8.3105247521
100
AcDbArc
 50
162.1160953516
 51
163.032344515
  0
ARC
  5
2A2
100
AcDbEntity
  8
0
100
AcDbCircle
 62
6
  6
CONTINUOUS
 10
14.4336771591
 20
2.7131881609
 40
8.2553943484
100
AcDbArc
 50
176.0263375774
 51
176.3196208331
  0
ARC
  5
2A3
100
AcDbEntity
  8
0
100
AcDbCircle
 62
6
  6
CONTINUOUS
 10
14.3950389719
 20
2.7166989714
 40
8.2166265942
100
AcDbArc
 50
177.6589715348
 51
177.8175830676
  0
ARC
  5
2A4
100
AcDbEntity
  8
0
100
AcDbCircle
 62
6
  6
CONTINUOUS
 10
14.3744035205
 20
2.717813377
 40
8.19596588
100
AcDbArc
 50
178.4102820299
 51
178.7923282937
  0
ARC
  5
2A5
100
AcDbEntity
  8
0
100
AcDbCircle
 62
9
  6
CONTINUOUS
 10
14.3712248365
 20
2.7175827711
 40
8.1927963333
100
AcDbArc
 50
177.2480910464
 51
177.527170437
  0
ARC
  5
2A6
100
AcDbEntity
  8
0
100
AcDbCircle
 62
6
  6
CONTINUOUS
 10
14.3580722957
 20
2.7180970245
 40
8.1796334923
100
AcDbArc
 50
177.8175081554
 51
178.0255266158
  0
ARC
  5
2A7
100
AcDbEntity
  8
0
100
AcDbCircle
 62
6
  6
CONTINUOUS
 10
14.3573778515
 20
2.7188021136
 40
8.1788893444
100
AcDbArc
 50
174.9469962823
 51
176.0112866782
  0
ARC
  5
2A8
100
AcDbEntity
  8
0
100
AcDbCircle
 62
9
  6
CONTINUOUS
 10
14.3503851034
 20
2.7193999335
 40
8.1718700536
100
AcDbArc
 50
170.9898027609
 51
174.9299229814
  0
ARC
  5
2A9
100
AcDbEntity
  8
0
100
AcDbCircle
 62
6
  6
CONTINUOUS
 10
14.3392132586
 20
2.7187464214
 40
8.1607632778
100
AcDbArc
 50
178.0255212626
 51
178.4099761168
  0
ARC
  5
2AA
100
AcDbEntity
  8
0
100
AcDbCircle
 62
6
  6
CONTINUOUS
 10
14.3222719025
 20
2.7197947465
 40
8.1437936537
100
AcDbArc
 50
176.46757091
 51
177.24709992
  0
ARC
  5
2AB
100
AcDbEntity
  8
0
100
AcDbCircle
 62
9
  6
CONTINUOUS
 10
13.9016204501
 20
2.7285762807
 40
7.7230783506
100
AcDbArc
 50
179.9710221635
 51
184.1576198195
  0
ARC
  5
2AC
100
AcDbEntity
  8
0
100
AcDbCircle
 62
9
  6
CONTINUOUS
 10
13.8863243403
 20
2.7281093805
 40
7.7077781151
100
AcDbArc
 50
178.7923789875
 51
179.8587607374
  0
ARC
  5
2AD
100
AcDbEntity
  8
0
100
AcDbCircle
 62
9
  6
CONTINUOUS
 10
13.884604272
 20
2.7277189247
 40
7.7060392993
100
AcDbArc
 50
184.2684085156
 51
188.8233306264
  0
ARC
  5
2AE
100
AcDbEntity
  8
0
100
AcDbCircle
 62
6
  6
CONTINUOUS
 10
8.7347779356
 20
4.084553905
 40
1.75
100
AcDbArc
 50
74.6317252156
 51
97.304452887
  0
ARC
  5
2AF
100
AcDbEntity
  8
0
100
AcDbCircle
 62
6
  6
CONTINUOUS
 10
5.7560293008
 20
6.0150763609
 40
0.9263039054
100
AcDbArc
 50
164.1683276643
 51
175.9760182113
  0
CIRCLE
  5
2B0
100
AcDbEntity
  8
0
100
AcDbCircle
 62
6
  6
CONTINUOUS
 10
5.7547582072
 20
6.546553905
 40
0.4635
  0
CIRCLE
  5
2B1
100
AcDbEntity
  8
0
100
AcDbCircle
 62
9
  6
CONTINUOUS
 10
5.7547582072
 20
6.546553905
 40
0.3465
  0
CIRCLE
  5
2B2
100
AcDbEntity
  8
0
100
AcDbCircle
 62
7
  6
CONTINUOUS
 10
5.7547582072
 20
6.546553905
 40
0.3125
  0
CIRCLE
  5
2B3
100
AcDbEntity
  8
0
100
AcDbCircle
 62
9
  6
CONTINUOUS
 10
5.7547582072
 20
6.546553905
 40
0.1279789985
  0
ARC
  5
2B4
100
AcDbEntity
  8
0
100
AcDbCircle
 62
6
  6
CONTINUOUS
 10
7.0356789419
 20
5.9218116863
 40
2.2091629783
100
AcDbArc
 50
179.2228573194
 51
183.9094703464
  0
ARC
  5
2B5
100
AcDbEntity
  8
0
100
AcDbCircle
 62
6
  6
CONTINUOUS
 10
7.010558628
 20
5.9257946739
 40
2.1840006621
100
AcDbArc
 50
175.9490956852
 51
179.3184003271
  0
ARC
  5
2B6
100
AcDbEntity
  8
0
100
AcDbCircle
 62
6
  6
CONTINUOUS
 10
7.7547582072
 20
6.015553905
 40
0.485
100
AcDbArc
 50
330.4825894621
 51
330.5672754086
  0
ARC
  5
2B7
100
AcDbEntity
  8
0
100
AcDbCircle
 62
6
  6
CONTINUOUS
 10
7.7547582072
 20
6.015553905
 40
1.065
100
AcDbArc
 50
270.0
 51
350.1324051228
  0
ARC
  5
2B8
100
AcDbEntity
  8
0
100
AcDbCircle
 62
6
  6
CONTINUOUS
 10
7.7547582072
 20
6.015553905
 40
1.065
100
AcDbArc
 50
9.8675948772
 51
90.0000000001
  0
ARC
  5
2B9
100
AcDbEntity
  8
0
100
AcDbCircle
 62
9
  6
CONTINUOUS
 10
7.7547582072
 20
6.015553905
 40
0.947059035
100
AcDbArc
 50
11.134011608
 51
90.0000000009
  0
ARC
  5
2BA
100
AcDbEntity
  8
0
100
AcDbCircle
 62
9
  6
CONTINUOUS
 10
7.7547582072
 20
6.015553905
 40
0.947059035
100
AcDbArc
 50
269.9999999989
 51
348.8659609848
  0
ARC
  5
2BB
100
AcDbEntity
  8
0
100
AcDbCircle
 62
9
  6
CONTINUOUS
 10
7.7547582072
 20
6.015553905
 40
0.9240841474
100
AcDbArc
 50
11.4752969046
 51
90.0000000014
  0
ARC
  5
2BC
100
AcDbEntity
  8
0
100
AcDbCircle
 62
9
  6
CONTINUOUS
 10
7.7547582072
 20
6.015553905
 40
0.9240841474
100
AcDbArc
 50
269.9999999983
 51
348.5246783907
  0
ARC
  5
2BD
100
AcDbEntity
  8
0
100
AcDbCircle
 62
9
  6
CONTINUOUS
 10
7.7547582072
 20
6.015553905
 40
0.8020431117
100
AcDbArc
 50
14.0102823466
 51
90.000000001
  0
ARC
  5
2BE
100
AcDbEntity
  8
0
100
AcDbCircle
 62
9
  6
CONTINUOUS
 10
7.7547582072
 20
6.015553905
 40
0.8020431117
100
AcDbArc
 50
269.9999999988
 51
345.9897089398
  0
ARC
  5
2BF
100
AcDbEntity
  8
0
100
AcDbCircle
 62
9
  6
CONTINUOUS
 10
7.7547582072
 20
6.015553905
 40
0.7809587582
100
AcDbArc
 50
14.5763790535
 51
90.0000000022
  0
ARC
  5
2C0
100
AcDbEntity
  8
0
100
AcDbCircle
 62
9
  6
CONTINUOUS
 10
7.7547582072
 20
6.015553905
 40
0.7809587582
100
AcDbArc
 50
269.9999999974
 51
345.4236143184
  0
ARC
  5
2C1
100
AcDbEntity
  8
0
100
AcDbCircle
 62
9
  6
CONTINUOUS
 10
7.7547582072
 20
6.015553905
 40
0.7059922547
100
AcDbArc
 50
17.0673134305
 51
90.0
  0
ARC
  5
2C2
100
AcDbEntity
  8
0
100
AcDbCircle
 62
9
  6
CONTINUOUS
 10
7.7547582072
 20
6.015553905
 40
0.7059922547
100
AcDbArc
 50
270.0
 51
342.9326865695
  0
ARC
  5
2C3
100
AcDbEntity
  8
0
100
AcDbCircle
 62
7
  6
CONTINUOUS
 10
7.7547582072
 20
6.015553905
 40
0.615
100
AcDbArc
 50
20.8428626363
 51
270.0
  0
ARC
  5
2C4
100
AcDbEntity
  8
0
100
AcDbCircle
 62
6
  6
CONTINUOUS
 10
7.7547582072
 20
6.015553905
 40
0.615
100
AcDbArc
 50
270.0
 51
339.1571373637
  0
ARC
  5
2C5
100
AcDbEntity
  8
0
100
AcDbCircle
 62
9
  6
CONTINUOUS
 10
7.7547582072
 20
6.015553905
 40
0.552
100
AcDbArc
 50
24.4705562638
 51
335.5294437362
  0
ARC
  5
2C6
100
AcDbEntity
  8
0
100
AcDbCircle
 62
7
  6
CONTINUOUS
 10
7.7547582072
 20
6.015553905
 40
0.485
100
AcDbArc
 50
29.5174105379
 51
330.4825894621
  0
ARC
  5
2C7
100
AcDbEntity
  8
0
100
AcDbCircle
 62
6
  6
CONTINUOUS
 10
7.7547582072
 20
6.015553905
 40
0.485
100
AcDbArc
 50
29.4327245914
 51
29.5174105379
  0
ARC
  5
2C8
100
AcDbEntity
  8
0
100
AcDbCircle
 62
6
  6
CONTINUOUS
 10
7.7547582072
 20
6.015553905
 40
0.455
100
AcDbArc
 50
30.5370645294
 51
329.4629354706
  0
CIRCLE
  5
2C9
100
AcDbEntity
  8
0
100
AcDbCircle
 62
6
  6
CONTINUOUS
 10
7.7547582072
 20
6.015553905
 40
0.3305
  0
CIRCLE
  5
2CA
100
AcDbEntity
  8
0
100
AcDbCircle
 62
9
  6
CONTINUOUS
 10
7.7547582072
 20
6.015553905
 40
0.2835
  0
CIRCLE
  5
2CB
100
AcDbEntity
  8
0
100
AcDbCircle
 62
6
  6
CONTINUOUS
 10
7.7547582072
 20
6.015553905
 40
0.272
  0
CIRCLE
  5
2CC
100
AcDbEntity
  8
0
100
AcDbCircle
 62
7
  6
CONTINUOUS
 10
7.7547582072
 20
6.015553905
 40
0.236
  0
CIRCLE
  5
2CD
100
AcDbEntity
  8
0
100
AcDbCircle
 62
6
  6
CONTINUOUS
 10
7.7547582072
 20
6.015553905
 40
0.18
  0
CIRCLE
  5
2CE
100
AcDbEntity
  8
0
100
AcDbCircle
 62
6
  6
CONTINUOUS
 10
7.7547582072
 20
6.015553905
 40
0.17
  0
ARC
  5
2CF
100
AcDbEntity
  8
0
100
AcDbCircle
 62
9
  6
CONTINUOUS
 10
5.7563362582
 20
9.7792864369
 40
3.7637328628
100
AcDbArc
 50
268.6805588437
 51
269.9759771304
  0
ARC
  5
2D0
100
AcDbEntity
  8
0
100
AcDbCircle
 62
6
  6
CONTINUOUS
 10
9.5617582072
 20
6.015553905
 40
0.656
100
AcDbArc
 50
342.687818607
 51
17.312181393
  0
ARC
  5
2D1
100
AcDbEntity
  8
0
100
AcDbCircle
 62
6
  6
CONTINUOUS
 10
9.7462513701
 20
6.085053905
 40
0.313
100
AcDbArc
 50
31.8445374421
 51
105.3682747844
  0
ARC
  5
2D2
100
AcDbEntity
  8
0
100
AcDbCircle
 62
6
  6
CONTINUOUS
 10
9.7462513701
 20
5.946053905
 40
0.313
100
AcDbArc
 50
254.6317252156
 51
328.1554625579
  0
ARC
  5
2D3
100
AcDbEntity
  8
0
100
AcDbCircle
 62
6
  6
CONTINUOUS
 10
10.1135733937
 20
6.187553905
 40
0.078
100
AcDbArc
 50
17.312181393
 51
133.5502286876
  0
ARC
  5
2D4
100
AcDbEntity
  8
0
100
AcDbCircle
 62
6
  6
CONTINUOUS
 10
10.1135733937
 20
5.843553905
 40
0.078
100
AcDbArc
 50
226.4497713124
 51
342.687818607
  0
ARC
  5
2D5
100
AcDbEntity
  8
0
100
AcDbCircle
 62
6
  6
CONTINUOUS
 10
10.0384734603
 20
6.266553905
 40
0.031
100
AcDbArc
 50
211.8445374421
 51
313.5502286876
  0
ARC
  5
2D6
100
AcDbEntity
  8
0
100
AcDbCircle
 62
6
  6
CONTINUOUS
 10
10.0384734603
 20
5.764553905
 40
0.031
100
AcDbArc
 50
46.4497713124
 51
148.1554625579
  0
ARC
  5
2D7
100
AcDbEntity
  8
0
100
AcDbCircle
 62
6
  6
CONTINUOUS
 10
8.1607582072
 20
6.2396837519
 40
0.016
100
AcDbArc
 50
82.695547113
 51
154.2816362855
  0
ARC
  5
2D8
100
AcDbEntity
  8
0
100
AcDbCircle
 62
6
  6
CONTINUOUS
 10
8.1607582072
 20
5.791424058
 40
0.016
100
AcDbArc
 50
205.7183637145
 51
277.304452887
  0
ARC
  5
2D9
100
AcDbEntity
  8
0
100
AcDbCircle
 62
6
  6
CONTINUOUS
 10
8.7347779356
 20
7.946553905
 40
1.75
100
AcDbArc
 50
262.695547113
 51
285.3682747844
  0
LINE
  5
2DA
100
AcDbEntity
  8
0
100
AcDbLine
 62
6
  6
CONTINUOUS
 10
6.1939507612
 20
3.2215621196
 11
6.1953082513
 21
3.2431066308
  0
LINE
  5
2DB
100
AcDbEntity
  8
0
100
AcDbLine
 62
6
  6
CONTINUOUS
 10
5.3155656533
 20
3.2215621196
 11
5.3142081632
 21
3.2431066308
  0
SPLINE
  5
2DC
100
AcDbEntity
  8
0
100
AcDbSpline
 62
6
  6
CONTINUOUS
 70
0
 71
3
 72
16
 73
12
 74
10
 42
0.0000001
 43
0.0000001
 44
0.0000000001
 12
-0.1009989245
 22
0.3565349509
 32
0.0
 13
-0.2320162783
 23
0.2889401332
 33
0.0
 40
0.0
 40
0.0
 40
0.0
 40
0.0
 40
0.1250035612
 40
0.2499998634
 40
0.3749888005
 40
0.4374869477
 40
0.4999857926
 40
0.6249791324
 40
0.7499813806
 40
0.8749900482
 40
1.0
 40
1.0
 40
1.0
 40
1.0
 10
6.6446638737
 20
6.2677546889
 30
0.0
 10
6.6404554653
 20
6.282610735
 30
0.0
 10
6.6312975516
 20
6.3121178316
 30
0.0
 10
6.6153722685
 20
6.3556322787
 30
0.0
 10
6.6002998685
 20
6.3911857025
 30
0.0
 10
6.5871781721
 20
6.4191407582
 30
0.0
 10
6.5733525976
 20
6.4467551274
 30
0.0
 10
6.5547716651
 20
6.4806084743
 30
0.0
 10
6.5304699457
 20
6.5200651972
 30
0.0
 10
6.5042317461
 20
6.558263194
 30
0.0
 10
6.4854922161
 20
6.5828294283
 30
0.0
 10
6.4758241015
 20
6.594869559
 30
0.0
 11
6.6446638737
 21
6.2677546889
 31
0.0
 11
6.6309324513
 21
6.3119945275
 31
0.0
 11
6.6150116086
 21
6.3554915718
 31
0.0
 11
6.5969310862
 21
6.3981331943
 31
0.0
 11
6.5870902526
 21
6.4190980327
 31
0.0
 11
6.5767222449
 21
6.4398075196
 31
0.0
 11
6.5544382366
 21
6.4804127824
 31
0.0
 11
6.5301478148
 21
6.5198544561
 31
0.0
 11
6.5039200722
 21
6.5580381714
 31
0.0
 11
6.4758241015
 21
6.594869559
 31
0.0
  0
SPLINE
  5
2DD
100
AcDbEntity
  8
0
100
AcDbSpline
 62
6
  6
CONTINUOUS
 70
0
 71
3
 72
19
 73
15
 74
13
 42
0.0000001
 43
0.0000001
 44
0.0000000001
 12
-0.3130111431
 22
0.3898066206
 32
0.0
 13
-0.469059973
 23
0.1729390611
 33
0.0
 40
0.0
 40
0.0
 40
0.0
 40
0.0
 40
0.1249960228
 40
0.1874991534
 40
0.2500001934
 40
0.3125007087
 40
0.3750026809
 40
0.4999963049
 40
0.6249972335
 40
0.7499963282
 40
0.8125011965
 40
0.8750030042
 40
0.9375021314
 40
1.0
 40
1.0
 40
1.0
 40
1.0
 10
6.4758241015
 20
6.594869559
 30
0.0
 10
6.4627823855
 20
6.6111109847
 30
0.0
 10
6.4423915165
 20
6.6348265883
 30
0.0
 10
6.4136613071
 20
6.6650030022
 30
0.0
 10
6.3913559472
 20
6.6868935449
 30
0.0
 10
6.3683160779
 20
6.7080089616
 30
0.0
 10
6.3366580492
 20
6.7350987226
 30
0.0
 10
6.2953895548
 20
6.7669301109
 30
0.0
 10
6.2434183488
 20
6.8017082901
 30
0.0
 10
6.1982557524
 20
6.8277232395
 30
0.0
 10
6.1611459663
 20
6.8466723671
 30
0.0
 10
6.1328479487
 20
6.8599369316
 30
0.0
 10
6.1041181008
 20
6.8722335683
 30
0.0
 10
6.0846956187
 20
6.8797730959
 30
0.0
 10
6.0749238692
 20
6.8833758701
 30
0.0
 11
6.4758241015
 21
6.594869559
 31
0.0
 11
6.4350812531
 21
6.6422494356
 31
0.0
 11
6.4135348647
 21
6.66487953
 31
0.0
 11
6.3912334433
 21
6.6867644408
 31
0.0
 11
6.3681988482
 21
6.7078759009
 31
0.0
 11
6.3444585591
 21
6.7281916709
 31
0.0
 11
6.2949823285
 21
6.7663595255
 31
0.0
 11
6.2430477257
 21
6.8011148985
 31
0.0
 11
6.1888977479
 21
6.8323047082
 31
0.0
 11
6.16106793
 21
6.8465146889
 31
0.0
 11
6.1327753923
 21
6.8597758733
 31
0.0
 11
6.1040505095
 21
6.8720691262
 31
0.0
 11
6.0749238692
 21
6.8833758701
 31
0.0
  0
SPLINE
  5
2DE
100
AcDbEntity
  8
0
100
AcDbSpline
 62
6
  6
CONTINUOUS
 70
0
 71
3
 72
15
 73
11
 74
9
 42
0.0000001
 43
0.0000001
 44
0.0000000001
 12
0.0439648524
 22
0.2446129101
 32
0.0
 13
0.0168738341
 23
0.247958984
 33
0.0
 40
0.0
 40
0.0
 40
0.0
 40
0.0
 40
0.1425241708
 40
0.2813965215
 40
0.4159486474
 40
0.5455039978
 40
0.6693789986
 40
0.7868840083
 40
0.8973241423
 40
1.0
 40
1.0
 40
1.0
 40
1.0
 10
6.6473090675
 20
5.5239761547
 30
0.0
 10
6.6493977523
 20
5.5355972387
 30
0.0
 10
6.6533308896
 20
5.558576353
 30
0.0
 10
6.6586100106
 20
5.5926297514
 30
0.0
 10
6.6632363954
 20
5.6256933402
 30
0.0
 10
6.6672451655
 20
5.6575854519
 30
0.0
 10
6.6706714978
 20
5.6881245391
 30
0.0
 10
6.6735506107
 20
5.7171290142
 30
0.0
 10
6.6759177552
 20
5.7444172074
 30
0.0
 10
6.6772288032
 20
5.7620243975
 30
0.0
 10
6.6778063149
 20
5.7705108646
 30
0.0
 11
6.6473090675
 21
5.5239761547
 31
0.0
 11
6.6532891396
 21
5.558889598
 31
0.0
 11
6.6585794032
 21
5.5929960361
 31
0.0
 11
6.6632150603
 21
5.6261137424
 31
0.0
 11
6.6672313128
 21
5.6580609902
 31
0.0
 11
6.6706633626
 21
5.688656053
 31
0.0
 11
6.6735464116
 21
5.717717204
 31
0.0
 11
6.6759156618
 21
5.7450627168
 31
0.0
 11
6.6778063149
 21
5.7705108646
 31
0.0
  0
SPLINE
  5
2DF
100
AcDbEntity
  8
0
100
AcDbSpline
 62
6
  6
CONTINUOUS
 70
0
 71
3
 72
19
 73
15
 74
13
 42
0.0000001
 43
0.0000001
 44
0.0000000001
 12
0.3129977877
 22
0.389734498
 32
0.0
 13
0.4689993643
 23
0.1729167151
 33
0.0
 40
0.0
 40
0.0
 40
0.0
 40
0.0
 40
0.1249960174
 40
0.1874991431
 40
0.2500001801
 40
0.3125006957
 40
0.3750026702
 40
0.4999963036
 40
0.6249972372
 40
0.7499963333
 40
0.8125011996
 40
0.8750030058
 40
0.937502132
 40
1.0
 40
1.0
 40
1.0
 40
1.0
 10
5.0337327743
 20
6.5949199436
 30
0.0
 10
5.0467739333
 20
6.6111583637
 30
0.0
 10
5.0671637092
 20
6.6348695646
 30
0.0
 10
5.0958919864
 20
6.6650403796
 30
0.0
 10
5.1181956661
 20
6.6869268649
 30
0.0
 10
5.1412336299
 20
6.7080383814
 30
0.0
 10
5.1728888148
 20
6.7351231851
 30
0.0
 10
5.2141532179
 20
6.7669488369
 30
0.0
 10
5.2661187569
 20
6.8017209394
 30
0.0
 10
5.3112760735
 20
6.8277315419
 30
0.0
 10
5.3483813517
 20
6.8466776541
 30
0.0
 10
5.3766758558
 20
6.8599401942
 30
0.0
 10
5.4054020708
 20
6.8722350515
 30
0.0
 10
5.4248220585
 20
6.8797735615
 30
0.0
 10
5.4345925453
 20
6.8833758701
 30
0.0
 11
5.0337327743
 21
6.5949199436
 31
0.0
 11
5.0744734503
 21
6.6422910353
 31
0.0
 11
5.09601839
 21
6.6649169308
 31
0.0
 11
5.1183181319
 21
6.6867977865
 31
0.0
 11
5.1413508213
 21
6.7079053507
 31
0.0
 11
5.1650889795
 21
6.7282174028
 31
0.0
 11
5.2145603188
 21
6.7663783867
 31
0.0
 11
5.2664892693
 21
6.8011276917
 31
0.0
 11
5.3206329281
 21
6.8323122957
 31
0.0
 11
5.3484593659
 21
6.8465200154
 31
0.0
 11
5.3767483921
 21
6.8597791766
 31
0.0
 11
5.4054696438
 21
6.8720706515
 31
0.0
 11
5.4345925453
 21
6.8833758701
 31
0.0
  0
SPLINE
  5
2E0
100
AcDbEntity
  8
0
100
AcDbSpline
 62
6
  6
CONTINUOUS
 70
0
 71
3
 72
16
 73
12
 74
10
 42
0.0000001
 43
0.0000001
 44
0.0000000001
 12
0.1010198823
 22
0.3565647322
 32
0.0
 13
0.23205788
 23
0.2889508007
 33
0.0
 40
0.0
 40
0.0
 40
0.0
 40
0.0
 40
0.1250035557
 40
0.2499998502
 40
0.3749887808
 40
0.4374869284
 40
0.4999857761
 40
0.6249791238
 40
0.7499813804
 40
0.8749900517
 40
1.0
 40
1.0
 40
1.0
 40
1.0
 10
4.8648607843
 20
6.2677837877
 30
0.0
 10
4.8690700658
 20
6.2826410742
 30
0.0
 10
4.878229857
 20
6.3121505894
 30
0.0
 10
4.8941583405
 20
6.3556684423
 30
0.0
 10
4.9092337201
 20
6.3912244947
 30
0.0
 10
4.9223579854
 20
6.4191815085
 30
0.0
 10
4.936186239
 20
6.4467977413
 30
0.0
 10
4.9547707163
 20
6.480653234
 30
0.0
 10
4.9790769842
 20
6.5201122095
 30
0.0
 10
5.0053200078
 20
6.5583121118
 30
0.0
 10
5.0240629264
 20
6.5828793687
 30
0.0
 10
5.0337327743
 20
6.5949199436
 30
0.0
 11
4.8648607843
 21
6.2677837877
 31
0.0
 11
4.8785950215
 21
6.3120272486
 31
0.0
 11
4.8945190629
 21
6.3555276933
 31
0.0
 11
4.9126031597
 21
6.3981724632
 31
0.0
 11
4.9224459185
 21
6.4191387707
 31
0.0
 11
4.9328159349
 21
6.4398496551
 31
0.0
 11
4.9551041938
 21
6.4804574883
 31
0.0
 11
4.9793991613
 21
6.5199014112
 31
0.0
 11
5.0056317254
 21
6.5580870281
 31
0.0
 11
5.0337327743
 21
6.5949199436
 31
0.0
  0
SPLINE
  5
2E1
100
AcDbEntity
  8
0
100
AcDbSpline
 62
6
  6
CONTINUOUS
 70
0
 71
3
 72
15
 73
11
 74
9
 42
0.0000001
 43
0.0000001
 44
0.0000000001
 12
-0.0439648524
 22
0.2446129101
 32
0.0
 13
-0.0168738341
 23
0.247958984
 33
0.0
 40
0.0
 40
0.0
 40
0.0
 40
0.0
 40
0.1425241708
 40
0.2813965215
 40
0.4159486474
 40
0.5455039978
 40
0.6693789986
 40
0.7868840083
 40
0.8973241423
 40
1.0
 40
1.0
 40
1.0
 40
1.0
 10
4.8622073469
 20
5.5239761547
 30
0.0
 10
4.8601186622
 20
5.5355972387
 30
0.0
 10
4.8561855248
 20
5.558576353
 30
0.0
 10
4.8509064039
 20
5.5926297514
 30
0.0
 10
4.8462800191
 20
5.6256933402
 30
0.0
 10
4.842271249
 20
5.6575854519
 30
0.0
 10
4.8388449167
 20
5.6881245391
 30
0.0
 10
4.8359658037
 20
5.7171290142
 30
0.0
 10
4.8335986593
 20
5.7444172074
 30
0.0
 10
4.8322876113
 20
5.7620243975
 30
0.0
 10
4.8317100995
 20
5.7705108646
 30
0.0
 11
4.8622073469
 21
5.5239761547
 31
0.0
 11
4.8562272749
 21
5.558889598
 31
0.0
 11
4.8509370113
 21
5.5929960361
 31
0.0
 11
4.8463013542
 21
5.6261137424
 31
0.0
 11
4.8422851017
 21
5.6580609902
 31
0.0
 11
4.8388530519
 21
5.688656053
 31
0.0
 11
4.8359700028
 21
5.717717204
 31
0.0
 11
4.8336007527
 21
5.7450627168
 31
0.0
 11
4.8317100995
 21
5.7705108646
 31
0.0
  0
SPLINE
  5
2E2
100
AcDbEntity
  8
0
100
AcDbSpline
 62
6
  6
CONTINUOUS
 70
0
 71
3
 72
43
 73
39
 74
37
 42
0.0000001
 43
0.0000001
 44
0.0000000001
 12
0.6422974926
 22
-0.9804431417
 32
0.0
 13
-1.1720984699
 23
-0.0
 33
0.0
 40
0.0
 40
0.0
 40
0.0
 40
0.0
 40
0.0155243312
 40
0.0310265702
 40
0.0465076206
 40
0.0619684786
 40
0.0928294568
 40
0.1236237775
 40
0.1390016391
 40
0.1543670101
 40
0.1697213909
 40
0.185066351
 40
0.2157297011
 40
0.2463749695
 40
0.2770156633
 40
0.3076653675
 40
0.338337505
 40
0.3690451175
 40
0.3998006112
 40
0.4306155513
 40
0.4615004622
 40
0.4924646171
 40
0.5235158876
 40
0.5546606313
 40
0.5859035332
 40
0.6172475445
 40
0.6486938501
 40
0.6802418047
 40
0.7118889784
 40
0.7436312135
 40
0.7754626647
 40
0.8073759297
 40
0.8393621807
 40
0.8714112552
 40
0.9035121721
 40
0.9356520185
 40
0.9678200598
 40
1.0
 40
1.0
 40
1.0
 40
1.0
 10
6.2392516109
 20
1.7921878103
 30
0.0
 10
6.2425753572
 20
1.7871142356
 30
0.0
 10
6.2490463207
 20
1.7768605203
 30
0.0
 10
6.2582149479
 20
1.7611689802
 30
0.0
 10
6.2668293095
 20
1.7451941193
 30
0.0
 10
6.2775544157
 20
1.7235559729
 30
0.0
 10
6.2895324974
 20
1.6958821953
 30
0.0
 10
6.2995525709
 20
1.667474881
 30
0.0
 10
6.3063552005
 20
1.6444103587
 30
0.0
 10
6.310845072
 20
1.6269647705
 30
0.0
 10
6.3147191838
 20
1.6093853151
 30
0.0
 10
6.3190560691
 20
1.5858023789
 30
0.0
 10
6.3229195288
 20
1.5560770047
 30
0.0
 10
6.3250361971
 20
1.520185861
 30
0.0
 10
6.3246233782
 20
1.4842391456
 30
0.0
 10
6.321682704
 20
1.4484002743
 30
0.0
 10
6.3162281623
 20
1.4128306315
 30
0.0
 10
6.3082855042
 20
1.3776904661
 30
0.0
 10
6.297892096
 20
1.3431375406
 30
0.0
 10
6.2850965959
 20
1.3093264407
 30
0.0
 10
6.2699586108
 20
1.276407763
 30
0.0
 10
6.2525482449
 20
1.244527425
 30
0.0
 10
6.2329457447
 20
1.2138259321
 30
0.0
 10
6.2112408776
 20
1.1844378299
 30
0.0
 10
6.1875323881
 20
1.1564911828
 30
0.0
 10
6.1619274324
 20
1.1301071203
 30
0.0
 10
6.1345410332
 20
1.1053994072
 30
0.0
 10
6.1054955101
 20
1.0824740697
 30
0.0
 10
6.0749199752
 20
1.061428956
 30
0.0
 10
6.0429496475
 20
1.0423535455
 30
0.0
 10
6.0097252979
 20
1.0253286519
 30
0.0
 10
5.9753926461
 20
1.0104262078
 30
0.0
 10
5.9401018092
 20
0.997709067
 30
0.0
 10
5.9040065908
 20
0.9872305868
 30
0.0
 10
5.8672643776
 20
0.9790349823
 30
0.0
 10
5.8300337539
 20
0.9731559675
 30
0.0
 10
5.7924787204
 20
0.9696190681
 30
0.0
 10
5.7673308935
 20
0.968831877
 30
0.0
 10
5.7547582072
 20
0.968831877
 30
0.0
 11
6.2392516109
 21
1.7921878103
 31
0.0
 11
6.2489622249
 21
1.7767995023
 31
0.0
 11
6.2581286495
 21
1.7611109386
 31
0.0
 11
6.2667405682
 21
1.7451394849
 31
0.0
 11
6.274787939
 21
1.7289026765
 31
0.0
 11
6.289152804
 21
1.6957052089
 31
0.0
 11
6.3011567451
 21
1.6616658123
 31
0.0
 11
6.3062554681
 21
1.644377641
 31
0.0
 11
6.3107439438
 21
1.6269361994
 31
0.0
 11
6.3146168763
 21
1.6093610218
 31
0.0
 11
6.317869658
 21
1.5916718
 31
0.0
 11
6.3225005104
 21
1.5560309207
 31
0.0
 11
6.3246147415
 21
1.5201739249
 31
0.0
 11
6.3242023768
 21
1.4842623821
 31
0.0
 11
6.3212653186
 21
1.4484581738
 31
0.0
 11
6.3158173961
 21
1.4129225905
 31
0.0
 11
6.3078842249
 21
1.3778154156
 31
0.0
 11
6.2975029647
 21
1.3432940973
 31
0.0
 11
6.2847220268
 21
1.3095129195
 31
0.0
 11
6.2696007209
 21
1.27662223
 31
0.0
 11
6.2522088582
 21
1.2447677521
 31
0.0
 11
6.2326263437
 21
1.2140898801
 31
0.0
 11
6.2109426047
 21
1.1847230782
 31
0.0
 11
6.1872560688
 21
1.15679541
 31
0.0
 11
6.1616736023
 21
1.1304280491
 31
0.0
 11
6.1343099475
 21
1.1057348346
 31
0.0
 11
6.1052872124
 21
1.082821907
 31
0.0
 11
6.0747343045
 21
1.0617872861
 31
0.0
 11
6.0427862888
 21
1.0427206087
 31
0.0
 11
6.0095838384
 21
1.0257028772
 31
0.0
 11
5.9752726184
 21
1.0108062066
 31
0.0
 11
5.9400027024
 21
0.9980935832
 31
0.0
 11
5.9039280592
 21
0.98761863
 31
0.0
 11
5.8672055223
 21
0.9794254203
 31
0.0
 11
5.829995716
 21
0.9735483943
 31
0.0
 11
5.7924577916
 21
0.9700122531
 31
0.0
 11
5.7547582072
 21
0.968831877
 31
0.0
  0
SPLINE
  5
2E3
100
AcDbEntity
  8
0
100
AcDbSpline
 62
6
  6
CONTINUOUS
 70
0
 71
3
 72
43
 73
39
 74
37
 42
0.0000001
 43
0.0000001
 44
0.0000000001
 12
-1.1720878603
 22
0.0
 32
0.0
 13
0.6422720108
 23
0.9804471512
 33
0.0
 40
0.0
 40
0.0
 40
0.0
 40
0.0
 40
0.0321799453
 40
0.0643479879
 40
0.0964878346
 40
0.1285887492
 40
0.1606378199
 40
0.192624066
 40
0.224537325
 40
0.2563687698
 40
0.2881109981
 40
0.3197581651
 40
0.3513061131
 40
0.382752413
 40
0.4140964194
 40
0.4453393173
 40
0.4764840578
 40
0.5075353265
 40
0.5384994806
 40
0.5693843924
 40
0.6001993346
 40
0.6309548314
 40
0.6616624474
 40
0.6923345895
 40
0.7229842988
 40
0.7536249986
 40
0.7842702732
 40
0.814933629
 40
0.8302785917
 40
0.8456329752
 40
0.8609983489
 40
0.8763762125
 40
0.9071705375
 40
0.938031519
 40
0.9534923779
 40
0.9689734293
 40
0.9844756686
 40
1.0
 40
1.0
 40
1.0
 40
1.0
 10
5.7547582072
 20
0.968831877
 30
0.0
 10
5.7421856328
 20
0.968831877
 30
0.0
 10
5.7170380311
 20
0.969619054
 30
0.0
 10
5.6794833325
 20
0.9731558901
 30
0.0
 10
5.6422530382
 20
0.9790347989
 30
0.0
 10
5.6055111439
 20
0.9872302559
 30
0.0
 10
5.56941623
 20
0.9977085473
 30
0.0
 10
5.5341256778
 20
1.010425458
 30
0.0
 10
5.4997932868
 20
1.0253276338
 30
0.0
 10
5.4665691699
 20
1.042352223
 30
0.0
 10
5.4345990426
 20
1.0614272955
 30
0.0
 10
5.4040236716
 20
1.0824720399
 30
0.0
 10
5.374978271
 20
1.1053969791
 30
0.0
 10
5.3475919487
 20
1.1301042683
 30
0.0
 10
5.3219870244
 20
1.1564878888
 30
0.0
 10
5.2982785174
 20
1.1844340791
 30
0.0
 10
5.2765735811
 20
1.213821714
 30
0.0
 10
5.2569709572
 20
1.2445227332
 30
0.0
 10
5.2395604078
 20
1.2764025948
 30
0.0
 10
5.2244221837
 20
1.309320802
 30
0.0
 10
5.2116263924
 20
1.3431314437
 30
0.0
 10
5.2012326392
 20
1.3776839273
 30
0.0
 10
5.1932895818
 20
1.4128236721
 30
0.0
 10
5.1878345867
 20
1.4483929203
 30
0.0
 10
5.184893402
 20
1.4842314288
 30
0.0
 10
5.1844800307
 20
1.5201778187
 30
0.0
 10
5.1865961037
 20
1.5560686783
 30
0.0
 10
5.190459044
 20
1.5857938512
 30
0.0
 10
5.1947954752
 20
1.6093766546
 30
0.0
 10
5.1986692625
 20
1.6269560177
 30
0.0
 10
5.2031587726
 20
1.6444015334
 30
0.0
 10
5.2099609432
 20
1.667465968
 30
0.0
 10
5.219980398
 20
1.6958732142
 30
0.0
 10
5.2319578512
 20
1.7235469704
 30
0.0
 10
5.2426824589
 20
1.745185122
 30
0.0
 10
5.251296428
 20
1.7611600087
 30
0.0
 10
5.2604646674
 20
1.7768515858
 30
0.0
 10
5.266935373
 20
1.7871053342
 30
0.0
 10
5.2702589875
 20
1.7921789297
 30
0.0
 11
5.7547582072
 21
0.968831877
 31
0.0
 11
5.7170589579
 21
0.970012232
 31
0.0
 11
5.6795213687
 21
0.9735483099
 31
0.0
 11
5.6423118905
 21
0.9794252302
 31
0.0
 11
5.6055896724
 21
0.9876182923
 31
0.0
 11
5.5695153332
 21
0.9980930565
 31
0.0
 11
5.5342457012
 21
1.0108054503
 31
0.0
 11
5.4999347416
 21
1.0257018529
 31
0.0
 11
5.4667325233
 21
1.0427192802
 31
0.0
 11
5.4347847075
 21
1.0617856199
 31
0.0
 11
5.4042319628
 21
1.0828198717
 31
0.0
 11
5.3752093497
 21
1.1057324013
 31
0.0
 11
5.3478457717
 21
1.1304251931
 31
0.0
 11
5.322263336
 21
1.1567921124
 31
0.0
 11
5.298576782
 21
1.1847193245
 31
0.0
 11
5.2768929732
 21
1.2140856596
 31
0.0
 11
5.257310334
 21
1.2447630586
 31
0.0
 11
5.2399182886
 21
1.2766170613
 31
0.0
 11
5.2247967441
 21
1.3095072817
 31
0.0
 11
5.2120155146
 21
1.3432880022
 31
0.0
 11
5.2016339092
 21
1.3778088797
 31
0.0
 11
5.1937003389
 21
1.4129156347
 31
0.0
 11
5.1882519625
 21
1.4484508245
 31
0.0
 11
5.1853143964
 21
1.484254671
 31
0.0
 11
5.1849014792
 21
1.5201658894
 31
0.0
 11
5.1870151176
 21
1.5560226017
 31
0.0
 11
5.1916453386
 21
1.5916632417
 31
0.0
 11
5.1948977856
 21
1.6093523625
 31
0.0
 11
5.1987703847
 21
1.6269274501
 31
0.0
 11
5.2032585081
 21
1.6443688172
 31
0.0
 11
5.2083568811
 21
1.6616569241
 31
0.0
 11
5.2203600903
 21
1.6956962376
 31
0.0
 11
5.2347242043
 21
1.7288936776
 31
0.0
 11
5.2427711974
 21
1.7451304914
 31
0.0
 11
5.2513827276
 21
1.7611019693
 31
0.0
 11
5.2605487636
 21
1.7767905699
 31
0.0
 11
5.2702589875
 21
1.7921789297
 31
0.0
  0
SPLINE
  5
2E4
100
AcDbEntity
  8
0
100
AcDbSpline
 62
9
  6
CONTINUOUS
 70
0
 71
3
 72
25
 73
21
 74
19
 42
0.0000001
 43
0.0000001
 44
0.0000000001
 12
-0.9214439769
 22
0.0707851107
 32
0.0
 13
-0.9241588253
 23
-0.0000067253
 33
0.0
 40
0.0
 40
0.0
 40
0.0
 40
0.0
 40
0.0065331291
 40
0.0254274534
 40
0.0556481525
 40
0.0961527612
 40
0.1458915034
 40
0.2038083148
 40
0.2688255463
 40
0.339868416
 40
0.4158726388
 40
0.4957804016
 40
0.5785430691
 40
0.6631405184
 40
0.7485596145
 40
0.8338028265
 40
0.8760626797
 40
0.9179261719
 40
0.9592772191
 40
1.0
 40
1.0
 40
1.0
 40
1.0
 10
6.6778524821
 20
5.7711910048
 30
0.0
 10
6.6758458446
 20
5.7713451542
 30
0.0
 10
6.668035178
 20
5.7719363053
 30
0.0
 10
6.6509392681
 20
5.7732005057
 30
0.0
 10
6.6234027
 20
5.7751798386
 30
0.0
 10
6.5863828076
 20
5.777754878
 30
0.0
 10
6.5408436834
 20
5.7808060925
 30
0.0
 10
6.4877604663
 20
5.7842130527
 30
0.0
 10
6.4281163301
 20
5.7878556864
 30
0.0
 10
6.3628972348
 20
5.7916121063
 30
0.0
 10
6.2930836264
 20
5.7953630948
 30
0.0
 10
6.2196485468
 20
5.798991913
 30
0.0
 10
6.1435520879
 20
5.8023819887
 30
0.0
 10
6.0657414355
 20
5.8054175552
 30
0.0
 10
5.9871492213
 20
5.8079837204
 30
0.0
 10
5.9215780696
 20
5.8096408441
 30
0.0
 10
5.8694132005
 20
5.8106182299
 30
0.0
 10
5.8307640636
 20
5.8111590591
 30
0.0
 10
5.7925861186
 20
5.8114956741
 30
0.0
 10
5.7673029797
 20
5.8115751472
 30
0.0
 10
5.7547582072
 20
5.8115750559
 30
0.0
 11
6.6778524821
 21
5.7711910048
 31
0.0
 11
6.6718321558
 21
5.7716480346
 31
0.0
 11
6.6544185576
 21
5.7729386036
 31
0.0
 11
6.6265618896
 21
5.7749435414
 31
0.0
 11
6.5892195839
 21
5.7775432729
 31
0.0
 11
6.5433560257
 21
5.7806178344
 31
0.0
 11
6.4899416539
 21
5.7840469792
 31
0.0
 11
6.4299671292
 21
5.787709441
 31
0.0
 11
6.3644207972
 21
5.7914835118
 31
0.0
 11
6.2942818577
 21
5.7952495453
 31
0.0
 11
6.2205241733
 21
5.7988898672
 31
0.0
 11
6.144113812
 21
5.8022872006
 31
0.0
 11
6.0659913872
 21
5.805325368
 31
0.0
 11
5.9870921953
 21
5.8078884216
 31
0.0
 11
5.9083386216
 21
5.8098607132
 31
0.0
 11
5.8692906059
 21
5.8105895104
 31
0.0
 11
5.8306058336
 21
5.8111276916
 31
0.0
 11
5.7923923517
 21
5.8114609693
 31
0.0
 11
5.7547582072
 21
5.8115750559
 31
0.0
  0
SPLINE
  5
2E5
100
AcDbEntity
  8
0
100
AcDbSpline
 62
9
  6
CONTINUOUS
 70
0
 71
3
 72
15
 73
11
 74
9
 42
0.0000001
 43
0.0000001
 44
0.0000000001
 12
-0.0627367809
 22
0.2206013897
 32
0.0
 13
-0.1450438435
 23
0.1776602384
 33
0.0
 40
0.0
 40
0.0
 40
0.0
 40
0.0
 40
0.1178315485
 40
0.238253396
 40
0.361035649
 40
0.4859077742
 40
0.6125689047
 40
0.7406966427
 40
0.86995474
 40
1.0
 40
1.0
 40
1.0
 40
1.0
 10
6.2065934983
 20
6.0350051369
 30
0.0
 10
6.2041293743
 20
6.043669738
 30
0.0
 10
6.1985976351
 20
6.0610373697
 30
0.0
 10
6.1887148619
 20
6.0868228425
 30
0.0
 10
6.1772299892
 20
6.1125262384
 30
0.0
 10
6.1642220209
 20
6.1380286216
 30
0.0
 10
6.1497694016
 20
6.1632124914
 30
0.0
 10
6.1339504852
 20
6.1879598706
 30
0.0
 10
6.1168442192
 20
6.2121519537
 30
0.0
 10
6.1046589812
 20
6.227798881
 30
0.0
 10
6.0983715598
 20
6.2355001717
 30
0.0
 11
6.2065934983
 21
6.0350051369
 31
0.0
 11
6.1984156125
 21
6.060762605
 31
0.0
 11
6.1885511624
 21
6.086559506
 31
0.0
 11
6.1770791648
 21
6.1122767536
 31
0.0
 11
6.1640786368
 21
6.1377952616
 31
0.0
 11
6.1496285954
 21
6.1629959437
 31
0.0
 11
6.1338080574
 21
6.1877597136
 31
0.0
 11
6.1166960399
 21
6.211967485
 31
0.0
 11
6.0983715598
 21
6.2355001717
 31
0.0
  0
SPLINE
  5
2E6
100
AcDbEntity
  8
0
100
AcDbSpline
 62
9
  6
CONTINUOUS
 70
0
 71
3
 72
48
 73
44
 74
42
 42
0.0000001
 43
0.0000001
 44
0.0000000001
 12
0.5985582439
 22
-0.9653929189
 32
0.0
 13
-1.1358941232
 23
-0.0
 33
0.0
 40
0.0
 40
0.0
 40
0.0
 40
0.0
 40
0.0309185028
 40
0.0617332237
 40
0.0771071146
 40
0.0924590926
 40
0.1077907826
 40
0.1231040348
 40
0.1536781726
 40
0.1842010134
 40
0.1994504209
 40
0.2146931733
 40
0.2451629503
 40
0.275631978
 40
0.2908737744
 40
0.3061218179
 40
0.3366408004
 40
0.3672097123
 40
0.3978435087
 40
0.4285570254
 40
0.4593629095
 40
0.4902716742
 40
0.5212930653
 40
0.5524342682
 40
0.5836995906
 40
0.5993819571
 40
0.6150964466
 40
0.6466175055
 40
0.6782651949
 40
0.6941376301
 40
0.7100404394
 40
0.7259726984
 40
0.7419332344
 40
0.7739297639
 40
0.7899668774
 40
0.8060267075
 40
0.8382072029
 40
0.8704685156
 40
0.8866291231
 40
0.9028071647
 40
0.9351992853
 40
0.9676109179
 40
1.0
 40
1.0
 40
1.0
 40
1.0
 10
6.2401361797
 20
1.7841912831
 30
0.0
 10
6.2463050213
 20
1.7742417819
 30
0.0
 10
6.2579535933
 20
1.7539531914
 30
0.0
 10
6.2707483338
 20
1.7276848506
 30
0.0
 10
6.2798665008
 20
1.7062375517
 30
0.0
 10
6.2861364383
 20
1.6899610637
 30
0.0
 10
6.2918337385
 20
1.6734996367
 30
0.0
 10
6.298654159
 20
1.6513422853
 30
0.0
 10
6.3057283688
 20
1.62326384
 30
0.0
 10
6.3108371261
 20
1.5947866116
 30
0.0
 10
6.3137232973
 20
1.5718612507
 30
0.0
 10
6.3158045212
 20
1.5488690404
 30
0.0
 10
6.3169001883
 20
1.5200202983
 30
0.0
 10
6.3159852146
 20
1.4911656445
 30
0.0
 10
6.3140484906
 20
1.4681619634
 30
0.0
 10
6.311306759
 20
1.445221309
 30
0.0
 10
6.3063763
 20
1.4167160585
 30
0.0
 10
6.2980952874
 20
1.3829612519
 30
0.0
 10
6.2874790482
 20
1.3497882727
 30
0.0
 10
6.2745655051
 20
1.3173442501
 30
0.0
 10
6.2594218095
 20
1.2857642625
 30
0.0
 10
6.2421117043
 20
1.2551838487
 30
0.0
 10
6.2227000364
 20
1.2257403234
 30
0.0
 10
6.2012806753
 20
1.1975553502
 30
0.0
 10
6.1818529622
 20
1.1752359387
 30
0.0
 10
6.1654057016
 20
1.1581309948
 30
0.0
 10
6.1483346617
 20
1.1415092816
 30
0.0
 10
6.1259215346
 20
1.121733802
 30
0.0
 10
6.1022276224
 20
1.1034149795
 30
0.0
 10
6.0825394093
 20
1.0896596444
 30
0.0
 10
6.0674037353
 20
1.0797946146
 30
0.0
 10
6.0519318886
 20
1.0704011561
 30
0.0
 10
6.0308627051
 20
1.0585091988
 30
0.0
 10
6.0092024027
 20
1.0476065355
 30
0.0
 10
5.9870319393
 20
1.0377298303
 30
0.0
 10
5.9644963611
 20
1.0285300536
 30
0.0
 10
5.9357458629
 20
1.0183441712
 30
0.0
 10
5.9063804972
 20
1.0099575853
 30
0.0
 10
5.8825707309
 20
1.0043419766
 30
0.0
 10
5.8585493817
 20
0.9994597057
 30
0.0
 10
5.8282284921
 20
0.9947547542
 30
0.0
 10
5.7915640765
 20
0.9913555096
 30
0.0
 10
5.7670217299
 20
0.9905950419
 30
0.0
 10
5.7547582072
 20
0.9905950419
 30
0.0
 11
6.2401361797
 21
1.7841912831
 31
0.0
 11
6.2576207711
 21
1.7537328903
 31
0.0
 11
6.2729451954
 21
1.7222635361
 31
0.0
 11
6.2797771889
 21
1.7061923147
 31
0.0
 11
6.2860449535
 21
1.6899194324
 31
0.0
 11
6.2917405051
 21
1.6734619397
 31
0.0
 11
6.296857727
 21
1.6568374581
 31
0.0
 11
6.3053404236
 21
1.6231603717
 31
0.0
 11
6.3114599575
 21
1.5890339916
 31
0.0
 11
6.3136232268
 21
1.571847893
 31
0.0
 11
6.3151842544
 21
1.554604254
 31
0.0
 11
6.3164981012
 21
1.5200187599
 31
0.0
 11
6.3154010036
 21
1.4854265634
 31
0.0
 11
6.3139483506
 21
1.4681745464
 31
0.0
 11
6.3118932139
 21
1.4509767426
 31
0.0
 11
6.3059877502
 21
1.4168171153
 31
0.0
 11
6.2977161572
 21
1.3830936699
 31
0.0
 11
6.2871114576
 21
1.3499522441
 31
0.0
 11
6.2742148618
 21
1.3175361718
 31
0.0
 11
6.2590878013
 21
1.2859826033
 31
0.0
 11
6.2417947741
 21
1.2554277509
 31
0.0
 11
6.2224046773
 21
1.2260054562
 31
0.0
 11
6.2010056592
 21
1.1978391839
 31
0.0
 11
6.1776911333
 21
1.1710495609
 31
0.0
 11
6.1653448306
 21
1.1582086158
 31
0.0
 11
6.1525563785
 21
1.1457555898
 31
0.0
 11
6.1257115726
 21
1.1220632968
 31
0.0
 11
6.0972740331
 21
1.1000724904
 31
0.0
 11
6.0824946661
 21
1.0897463203
 31
0.0
 11
6.0673618493
 21
1.0798821115
 31
0.0
 11
6.0518927489
 21
1.0704894896
 31
0.0
 11
6.0361047999
 21
1.0615777737
 31
0.0
 11
6.0036420974
 21
1.0452343357
 31
0.0
 11
5.9870022144
 21
1.0378212514
 31
0.0
 11
5.9701132599
 21
1.0309260716
 31
0.0
 11
5.9356593131
 21
1.0187156732
 31
0.0
 11
5.9004233047
 21
1.0086503038
 31
0.0
 11
5.8825567742
 21
1.0044364036
 31
0.0
 11
5.864548477
 21
1.0007760017
 31
0.0
 11
5.8281901773
 21
0.9951303033
 31
0.0
 11
5.7915312199
 21
0.9917314549
 31
0.0
 11
5.7547582072
 21
0.9905950419
 31
0.0
  0
SPLINE
  5
2E7
100
AcDbEntity
  8
0
100
AcDbSpline
 62
9
  6
CONTINUOUS
 70
0
 71
3
 72
48
 73
44
 74
42
 42
0.0000001
 43
0.0000001
 44
0.0000000001
 12
-0.598558244
 22
-0.9653929189
 32
0.0
 13
1.1358941233
 23
0.0
 33
0.0
 40
0.0
 40
0.0
 40
0.0
 40
0.0
 40
0.0309185028
 40
0.0617332237
 40
0.0771071146
 40
0.0924590926
 40
0.1077907826
 40
0.1231040348
 40
0.1536781726
 40
0.1842010134
 40
0.1994504209
 40
0.2146931733
 40
0.2451629503
 40
0.275631978
 40
0.2908737744
 40
0.3061218179
 40
0.3366408004
 40
0.3672097123
 40
0.3978435087
 40
0.4285570254
 40
0.4593629095
 40
0.4902716742
 40
0.5212930653
 40
0.5524342682
 40
0.5836995906
 40
0.5993819571
 40
0.6150964466
 40
0.6466175055
 40
0.6782651949
 40
0.6941376301
 40
0.7100404394
 40
0.7259726984
 40
0.7419332344
 40
0.7739297639
 40
0.7899668774
 40
0.8060267075
 40
0.8382072029
 40
0.8704685156
 40
0.8866291231
 40
0.9028071647
 40
0.9351992853
 40
0.9676109179
 40
1.0
 40
1.0
 40
1.0
 40
1.0
 10
5.2693802347
 20
1.7841912831
 30
0.0
 10
5.2632113932
 20
1.7742417819
 30
0.0
 10
5.2515628212
 20
1.7539531914
 30
0.0
 10
5.2387680806
 20
1.7276848506
 30
0.0
 10
5.2296499137
 20
1.7062375517
 30
0.0
 10
5.2233799762
 20
1.6899610637
 30
0.0
 10
5.217682676
 20
1.6734996367
 30
0.0
 10
5.2108622555
 20
1.6513422853
 30
0.0
 10
5.2037880457
 20
1.62326384
 30
0.0
 10
5.1986792884
 20
1.5947866116
 30
0.0
 10
5.1957931172
 20
1.5718612507
 30
0.0
 10
5.1937118933
 20
1.5488690404
 30
0.0
 10
5.1926162262
 20
1.5200202983
 30
0.0
 10
5.1935311998
 20
1.4911656445
 30
0.0
 10
5.1954679239
 20
1.4681619634
 30
0.0
 10
5.1982096554
 20
1.445221309
 30
0.0
 10
5.2031401145
 20
1.4167160585
 30
0.0
 10
5.2114211271
 20
1.3829612519
 30
0.0
 10
5.2220373663
 20
1.3497882727
 30
0.0
 10
5.2349509094
 20
1.3173442501
 30
0.0
 10
5.250094605
 20
1.2857642625
 30
0.0
 10
5.2674047102
 20
1.2551838487
 30
0.0
 10
5.286816378
 20
1.2257403234
 30
0.0
 10
5.3082357392
 20
1.1975553502
 30
0.0
 10
5.3276634523
 20
1.1752359387
 30
0.0
 10
5.3441107129
 20
1.1581309948
 30
0.0
 10
5.3611817527
 20
1.1415092816
 30
0.0
 10
5.3835948799
 20
1.121733802
 30
0.0
 10
5.4072887921
 20
1.1034149795
 30
0.0
 10
5.4269770051
 20
1.0896596444
 30
0.0
 10
5.4421126791
 20
1.0797946146
 30
0.0
 10
5.4575845258
 20
1.0704011561
 30
0.0
 10
5.4786537094
 20
1.0585091988
 30
0.0
 10
5.5003140117
 20
1.0476065356
 30
0.0
 10
5.5224844752
 20
1.0377298303
 30
0.0
 10
5.5450200534
 20
1.0285300536
 30
0.0
 10
5.5737705516
 20
1.0183441712
 30
0.0
 10
5.6031359173
 20
1.0099575853
 30
0.0
 10
5.6269456835
 20
1.0043419766
 30
0.0
 10
5.6509670328
 20
0.9994597057
 30
0.0
 10
5.6812879224
 20
0.9947547542
 30
0.0
 10
5.717952338
 20
0.9913555096
 30
0.0
 10
5.7424946846
 20
0.9905950419
 30
0.0
 10
5.7547582072
 20
0.9905950419
 30
0.0
 11
5.2693802347
 21
1.7841912831
 31
0.0
 11
5.2518956434
 21
1.7537328904
 31
0.0
 11
5.236571219
 21
1.7222635362
 31
0.0
 11
5.2297392256
 21
1.7061923147
 31
0.0
 11
5.223471461
 21
1.6899194324
 31
0.0
 11
5.2177759093
 21
1.6734619397
 31
0.0
 11
5.2126586875
 21
1.6568374581
 31
0.0
 11
5.2041759909
 21
1.6231603717
 31
0.0
 11
5.198056457
 21
1.5890339917
 31
0.0
 11
5.1958931877
 21
1.5718478931
 31
0.0
 11
5.1943321601
 21
1.5546042541
 31
0.0
 11
5.1930183133
 21
1.5200187599
 31
0.0
 11
5.1941154109
 21
1.4854265634
 31
0.0
 11
5.1955680639
 21
1.4681745464
 31
0.0
 11
5.1976232005
 21
1.4509767426
 31
0.0
 11
5.2035286642
 21
1.4168171153
 31
0.0
 11
5.2118002573
 21
1.3830936699
 31
0.0
 11
5.2224049569
 21
1.3499522441
 31
0.0
 11
5.2353015526
 21
1.3175361718
 31
0.0
 11
5.2504286132
 21
1.2859826033
 31
0.0
 11
5.2677216404
 21
1.2554277509
 31
0.0
 11
5.2871117372
 21
1.2260054562
 31
0.0
 11
5.3085107552
 21
1.1978391839
 31
0.0
 11
5.3318252811
 21
1.171049561
 31
0.0
 11
5.3441715839
 21
1.1582086158
 31
0.0
 11
5.356960036
 21
1.1457555898
 31
0.0
 11
5.3838048419
 21
1.1220632968
 31
0.0
 11
5.4122423813
 21
1.1000724904
 31
0.0
 11
5.4270217484
 21
1.0897463203
 31
0.0
 11
5.4421545651
 21
1.0798821115
 31
0.0
 11
5.4576236656
 21
1.0704894896
 31
0.0
 11
5.4734116146
 21
1.0615777737
 31
0.0
 11
5.505874317
 21
1.0452343357
 31
0.0
 11
5.5225142001
 21
1.0378212514
 31
0.0
 11
5.5394031546
 21
1.0309260716
 31
0.0
 11
5.5738571014
 21
1.0187156732
 31
0.0
 11
5.6090931097
 21
1.0086503038
 31
0.0
 11
5.6269596403
 21
1.0044364036
 31
0.0
 11
5.6449679375
 21
1.0007760017
 31
0.0
 11
5.6813262371
 21
0.9951303033
 31
0.0
 11
5.7179851946
 21
0.9917314549
 31
0.0
 11
5.7547582072
 21
0.9905950419
 31
0.0
  0
SPLINE
  5
2E8
100
AcDbEntity
  8
0
100
AcDbSpline
 62
9
  6
CONTINUOUS
 70
0
 71
3
 72
51
 73
47
 74
45
 42
0.0000001
 43
0.0000001
 44
0.0000000001
 12
1.0196183047
 22
0.0000000021
 32
0.0
 13
-0.2960052701
 23
-0.9757060866
 33
0.0
 40
0.0
 40
0.0
 40
0.0
 40
0.0
 40
0.0342795473
 40
0.0692329356
 40
0.1048397853
 40
0.1410600267
 40
0.177837201
 40
0.2151012843
 40
0.2527710807
 40
0.2907562425
 40
0.3289577263
 40
0.3672631882
 40
0.4055516296
 40
0.4436967189
 40
0.4815679197
 40
0.519031497
 40
0.5559514452
 40
0.5921903858
 40
0.6276126097
 40
0.6620975591
 40
0.6955315686
 40
0.7278024045
 40
0.7434679812
 40
0.7588020161
 40
0.7737915064
 40
0.7884238477
 40
0.8026869171
 40
0.8165691724
 40
0.8300597684
 40
0.8431486974
 40
0.855827054
 40
0.8680899888
 40
0.8799371785
 40
0.8913698386
 40
0.9023907862
 40
0.9130047321
 40
0.9232186234
 40
0.9330420444
 40
0.9424876785
 40
0.9515718303
 40
0.9603149999
 40
0.9687424866
 40
0.9768849831
 40
0.9847790945
 40
0.9924676932
 40
1.0
 40
1.0
 40
1.0
 40
1.0
 10
5.7547582072
 20
5.6471765776
 30
0.0
 10
5.7664088919
 20
5.6471765776
 30
0.0
 10
5.7899447372
 20
5.6464114869
 30
0.0
 10
5.8254452262
 20
5.6431495264
 30
0.0
 10
5.8613672732
 20
5.6378652798
 30
0.0
 10
5.8975836727
 20
5.6306612201
 30
0.0
 10
5.9339694653
 20
5.6216393997
 30
0.0
 10
5.9703987092
 20
5.6109016019
 30
0.0
 10
6.0067453532
 20
5.5985493723
 30
0.0
 10
6.042882827
 20
5.5846845658
 30
0.0
 10
6.0786811739
 20
5.5694092454
 30
0.0
 10
6.1140144955
 20
5.5528446538
 30
0.0
 10
6.1487551991
 20
5.5351141361
 30
0.0
 10
6.182774751
 20
5.516340979
 30
0.0
 10
6.2159446046
 20
5.4966485907
 30
0.0
 10
6.2481361926
 20
5.4761604118
 30
0.0
 10
6.2792208867
 20
5.4549998379
 30
0.0
 10
6.3090709616
 20
5.4332901673
 30
0.0
 10
6.3375622351
 20
5.4111500232
 30
0.0
 10
6.3645832396
 20
5.3887014918
 30
0.0
 10
6.3900300274
 20
5.3660645604
 30
0.0
 10
6.4100326893
 20
5.3469568533
 30
0.0
 10
6.4251506805
 20
5.331662616
 30
0.0
 10
6.4359186154
 20
5.3203314074
 30
0.0
 10
6.4462152812
 20
5.3090411979
 30
0.0
 10
6.4560278809
 20
5.2978066771
 30
0.0
 10
6.4653436039
 20
5.2866426053
 30
0.0
 10
6.4741496603
 20
5.2755637162
 30
0.0
 10
6.4824332436
 20
5.264584718
 30
0.0
 10
6.4901816658
 20
5.2537203323
 30
0.0
 10
6.497382485
 20
5.2429842095
 30
0.0
 10
6.5040255871
 20
5.2323890732
 30
0.0
 10
6.510103962
 20
5.2219470117
 30
0.0
 10
6.5156109666
 20
5.2116688654
 30
0.0
 10
6.5205400578
 20
5.2015654371
 30
0.0
 10
6.5248846494
 20
5.1916474694
 30
0.0
 10
6.5286381224
 20
5.1819256562
 30
0.0
 10
6.5317937968
 20
5.172410635
 30
0.0
 10
6.5343449051
 20
5.1631129906
 30
0.0
 10
6.5362845547
 20
5.1540432652
 30
0.0
 10
6.53760569
 20
5.1452119974
 30
0.0
 10
6.5383010426
 20
5.1366297441
 30
0.0
 10
6.5383631426
 20
5.1283072803
 30
0.0
 10
6.5377841997
 20
5.1202553075
 30
0.0
 10
6.5365566388
 20
5.1124860347
 30
0.0
 10
6.5352899968
 20
5.1074612895
 30
0.0
 10
6.5345467959
 20
5.1050115169
 30
0.0
 11
5.7547582072
 21
5.6471765776
 31
0.0
 11
5.789693005
 21
5.6460784085
 31
0.0
 11
5.825185751
 21
5.6428517282
 31
0.0
 11
5.8611090445
 21
5.6375982775
 31
0.0
 11
5.8973354847
 21
5.6304197972
 31
0.0
 11
5.9337376709
 21
5.6214180278
 31
0.0
 11
5.9701882022
 21
5.6106947102
 31
0.0
 11
6.006559678
 21
5.5983515851
 31
0.0
 11
6.0427246974
 21
5.5844903932
 31
0.0
 11
6.0785556361
 21
5.5692156118
 31
0.0
 11
6.113923688
 21
5.5526461744
 31
0.0
 11
6.1486996584
 21
5.5349057707
 31
0.0
 11
6.1827543523
 21
5.5161180933
 31
0.0
 11
6.2159585746
 21
5.4964068348
 31
0.0
 11
6.2481831304
 21
5.4758956877
 31
0.0
 11
6.2792988247
 21
5.4547083446
 31
0.0
 11
6.3091764625
 21
5.4329684981
 31
0.0
 11
6.3376892174
 21
5.410799349
 31
0.0
 11
6.364726925
 21
5.3883206382
 31
0.0
 11
6.3901865709
 21
5.3656506221
 31
0.0
 11
6.4139651679
 21
5.3429075514
 31
0.0
 11
6.4251918896
 21
5.3315455738
 31
0.0
 11
6.435959729
 21
5.3202096767
 31
0.0
 11
6.4462558127
 21
5.3089146412
 31
0.0
 11
6.4560672673
 21
5.2976752487
 31
0.0
 11
6.4653812194
 21
5.2865062805
 31
0.0
 11
6.4741847957
 21
5.275422518
 31
0.0
 11
6.4824651227
 21
5.2644387425
 31
0.0
 11
6.4902093271
 21
5.2535697353
 31
0.0
 11
6.4974046284
 21
5.2428302218
 31
0.0
 11
6.5040410337
 21
5.232233243
 31
0.0
 11
6.5101117565
 21
5.2217899037
 31
0.0
 11
6.5156101876
 21
5.2115112011
 31
0.0
 11
6.5205297175
 21
5.2014081328
 31
0.0
 11
6.5248637369
 21
5.1914916962
 31
0.0
 11
6.5286056364
 21
5.1817728887
 31
0.0
 11
6.5317488068
 21
5.172262708
 31
0.0
 11
6.5342866386
 21
5.1629721513
 31
0.0
 11
6.5362125224
 21
5.1539122163
 31
0.0
 11
6.537519849
 21
5.1450939003
 31
0.0
 11
6.538202009
 21
5.1365282007
 31
0.0
 11
6.5382523931
 21
5.1282261152
 31
0.0
 11
6.5376643918
 21
5.120198641
 31
0.0
 11
6.5364313959
 21
5.1124567758
 31
0.0
 11
6.5345467959
 21
5.1050115169
 31
0.0
  0
LINE
  5
2E9
100
AcDbEntity
  8
0
100
AcDbLine
 62
9
  6
CONTINUOUS
 10
6.2793524489
 20
3.9991984443
 11
6.279653293
 21
4.0010940977
  0
SPLINE
  5
2EA
100
AcDbEntity
  8
0
100
AcDbSpline
 62
6
  6
CONTINUOUS
 70
0
 71
3
 72
38
 73
34
 74
32
 42
0.0000001
 43
0.0000001
 44
0.0000000001
 12
-0.7846422898
 22
-0.0
 32
0.0
 13
-0.0000014823
 23
0.7846422898
 33
0.0
 40
0.0
 40
0.0
 40
0.0
 40
0.0
 40
0.0643793211
 40
0.0965804452
 40
0.1287522936
 40
0.1608792531
 40
0.1929559946
 40
0.224979022
 40
0.2569458569
 40
0.2888506356
 40
0.3206852867
 40
0.3524413939
 40
0.3841123673
 40
0.4156947003
 40
0.4471860579
 40
0.47858544
 40
0.5098918658
 40
0.5411039376
 40
0.5722207331
 40
0.6032429051
 40
0.6341728411
 40
0.6650133111
 40
0.6957678358
 40
0.7264411466
 40
0.7570388769
 40
0.7875677991
 40
0.8180363996
 40
0.8484538471
 40
0.8788285439
 40
0.9091682349
 40
0.939476365
 40
0.9697531786
 40
1.0
 40
1.0
 40
1.0
 40
1.0
 10
5.7547582072
 20
1.0617604124
 30
0.0
 10
5.7379199613
 20
1.0617604124
 30
0.0
 10
5.7126394548
 20
1.0629457581
 30
0.0
 10
5.6791825244
 20
1.0668376294
 30
0.0
 10
5.6542626883
 20
1.07090124
 30
0.0
 10
5.6295886623
 20
1.0760986809
 30
0.0
 10
5.6052187968
 20
1.0824223629
 30
0.0
 10
5.581210473
 20
1.0898641297
 30
0.0
 10
5.5576228116
 20
1.0984167901
 30
0.0
 10
5.5345100907
 20
1.1080527934
 30
0.0
 10
5.5119263402
 20
1.1187423765
 30
0.0
 10
5.4899258978
 20
1.1304566183
 30
0.0
 10
5.4685618362
 20
1.1431663807
 30
0.0
 10
5.4478854291
 20
1.1568416899
 30
0.0
 10
5.4279471329
 20
1.1714528149
 30
0.0
 10
5.4087989211
 20
1.1869708978
 30
0.0
 10
5.3904853183
 20
1.2033563091
 30
0.0
 10
5.3730484485
 20
1.220566821
 30
0.0
 10
5.3565314518
 20
1.2385613804
 30
0.0
 10
5.3409755439
 20
1.2572972375
 30
0.0
 10
5.3264144847
 20
1.2767260899
 30
0.0
 10
5.3128822561
 20
1.2968008186
 30
0.0
 10
5.3004133792
 20
1.3174745498
 30
0.0
 10
5.2890382254
 20
1.3386977506
 30
0.0
 10
5.2787847796
 20
1.3604199191
 30
0.0
 10
5.2696819868
 20
1.3825911962
 30
0.0
 10
5.261757089
 20
1.4051603237
 30
0.0
 10
5.2550203475
 20
1.4280699794
 30
0.0
 10
5.2494829755
 20
1.4512640482
 30
0.0
 10
5.2451561929
 20
1.4746850168
 30
0.0
 10
5.2420509075
 20
1.4982734181
 30
0.0
 10
5.2401782758
 20
1.521966588
 30
0.0
 10
5.2397591152
 20
1.5377995052
 30
0.0
 10
5.2397591003
 20
1.5457104836
 30
0.0
 11
5.7547582072
 21
1.0617604124
 31
0.0
 11
5.7042981975
 21
1.0641111909
 31
0.0
 11
5.6792009827
 21
1.0670299146
 31
0.0
 11
5.6542867879
 21
1.0710933835
 31
0.0
 11
5.6296202545
 21
1.0762908845
 31
0.0
 11
5.6052588277
 21
1.0826144723
 31
0.0
 11
5.5812595474
 21
1.0900563574
 31
0.0
 11
5.557679196
 21
1.0986062327
 31
0.0
 11
5.5345731057
 21
1.1082395948
 31
0.0
 11
5.5119961007
 21
1.1189269691
 31
0.0
 11
5.49000298
 21
1.1306388749
 31
0.0
 11
5.4686470349
 21
1.1433457725
 31
0.0
 11
5.4479792071
 21
1.1570180303
 31
0.0
 11
5.428050235
 21
1.1716260088
 31
0.0
 11
5.4089102441
 21
1.1871391151
 31
0.0
 11
5.3906044806
 21
1.2035191669
 31
0.0
 11
5.3731758588
 21
1.2207243551
 31
0.0
 11
5.3566672624
 21
1.2387128377
 31
0.0
 11
5.3411189405
 21
1.2574411308
 31
0.0
 11
5.3265656273
 21
1.2768623131
 31
0.0
 11
5.3130413642
 21
1.2969290313
 31
0.0
 11
5.3005799159
 21
1.3175937834
 31
0.0
 11
5.2892118489
 21
1.3388073476
 31
0.0
 11
5.2789656771
 21
1.3605193982
 31
0.0
 11
5.2698698766
 21
1.3826795902
 31
0.0
 11
5.2619489282
 21
1.4052362068
 31
0.0
 11
5.2552159025
 21
1.428133614
 31
0.0
 11
5.2496818461
 21
1.4513154831
 31
0.0
 11
5.2453578163
 21
1.4747252909
 31
0.0
 11
5.2422550666
 21
1.4983030524
 31
0.0
 11
5.2403850188
 21
1.5219858037
 31
0.0
 11
5.2397591003
 21
1.5457104836
 31
0.0
  0
SPLINE
  5
2EB
100
AcDbEntity
  8
0
100
AcDbSpline
 62
9
  6
CONTINUOUS
 70
0
 71
3
 72
36
 73
32
 74
30
 42
0.0000001
 43
0.0000001
 44
0.0000000001
 12
-0.541833962
 22
0.0
 32
0.0
 13
-0.0178164726
 23
0.541540964
 33
0.0
 40
0.0
 40
0.0
 40
0.0
 40
0.0
 40
0.0743617421
 40
0.1488374135
 40
0.2230172507
 40
0.2964814973
 40
0.3688144739
 40
0.4044362834
 40
0.4396272311
 40
0.4743392084
 40
0.5085252025
 40
0.5421397447
 40
0.575139416
 40
0.6074822665
 40
0.6391247949
 40
0.6700259069
 40
0.7001489697
 40
0.7294629142
 40
0.7579435527
 40
0.785575156
 40
0.8123523374
 40
0.8382803837
 40
0.8633726509
 40
0.8876602213
 40
0.9111977402
 40
0.934067518
 40
0.9563834461
 40
0.9673824392
 40
0.9783017027
 40
0.9891654294
 40
1.0
 40
1.0
 40
1.0
 40
1.0
 10
5.7547582072
 20
1.9175584256
 30
0.0
 10
5.7413276348
 20
1.9175584256
 30
0.0
 10
5.7144396347
 20
1.9183681054
 30
0.0
 10
5.6742950272
 20
1.9219041926
 30
0.0
 10
5.6345740989
 20
1.9276832549
 30
0.0
 10
5.595623911
 20
1.9356236741
 30
0.0
 10
5.5639298959
 20
1.9440179326
 30
0.0
 10
5.5392533196
 20
1.9517410264
 30
0.0
 10
5.5212404119
 20
1.9579776249
 30
0.0
 10
5.5036695087
 20
1.9646710611
 30
0.0
 10
5.486580765
 20
1.9718050996
 30
0.0
 10
5.4700145466
 20
1.9793633945
 30
0.0
 10
5.4540113231
 20
1.9873295677
 30
0.0
 10
5.438612513
 20
1.9956866896
 30
0.0
 10
5.4238593055
 20
2.00441481
 30
0.0
 10
5.4097937354
 20
2.0134936406
 30
0.0
 10
5.3964579921
 20
2.0229028574
 30
0.0
 10
5.3838942373
 20
2.0326222273
 30
0.0
 10
5.372144622
 20
2.0426316378
 30
0.0
 10
5.3612512944
 20
2.0529111259
 30
0.0
 10
5.3512567311
 20
2.063440692
 30
0.0
 10
5.342204358
 20
2.0741991971
 30
0.0
 10
5.3341414451
 20
2.0851664049
 30
0.0
 10
5.3271171202
 20
2.0963211024
 30
0.0
 10
5.321181275
 20
2.1076423874
 30
0.0
 10
5.3163848606
 20
2.1191081787
 30
0.0
 10
5.3133656357
 20
2.1288152215
 30
0.0
 10
5.3115861801
 20
2.1366068886
 30
0.0
 10
5.3105739762
 20
2.142443546
 30
0.0
 10
5.3098843924
 20
2.1482969755
 30
0.0
 10
5.3096437505
 20
2.1522110182
 30
0.0
 10
5.3095794059
 20
2.1541668061
 30
0.0
 11
5.7547582072
 21
1.9175584256
 31
0.0
 11
5.7144842454
 21
1.9187544517
 31
0.0
 11
5.674285807
 21
1.9222880513
 31
0.0
 11
5.6345117963
 21
1.9280775067
 31
0.0
 11
5.5955111175
 21
1.9360411
 31
0.0
 11
5.5576285242
 21
1.9460889009
 31
0.0
 11
5.5392093161
 21
1.9518565238
 31
0.0
 11
5.5211921672
 21
1.9580981296
 31
0.0
 11
5.5036175773
 21
1.9647973443
 31
0.0
 11
5.4865260466
 21
1.9719377939
 31
0.0
 11
5.4699580751
 21
1.9795031043
 31
0.0
 11
5.4539541627
 21
1.9874769016
 31
0.0
 11
5.4385551448
 21
1.995842113
 31
0.0
 11
5.4238031971
 21
2.0045788714
 31
0.0
 11
5.4097408308
 21
2.0136666109
 31
0.0
 11
5.3964105569
 21
2.0230847656
 31
0.0
 11
5.3838548866
 21
2.0328127698
 31
0.0
 11
5.3721163308
 21
2.0428300577
 31
0.0
 11
5.3612374007
 21
2.0531160632
 31
0.0
 11
5.3512606073
 21
2.0636502208
 31
0.0
 11
5.3422295455
 21
2.0744115303
 31
0.0
 11
5.3341921453
 21
2.0853772557
 31
0.0
 11
5.3271974204
 21
2.0965242266
 31
0.0
 11
5.3212943845
 21
2.1078292729
 31
0.0
 11
5.3165320513
 21
2.1192692242
 31
0.0
 11
5.3129594347
 21
2.1308209104
 31
0.0
 11
5.3116345869
 21
2.1366314133
 31
0.0
 11
5.3106255483
 21
2.1424611611
 31
0.0
 11
5.3099384458
 21
2.1483072574
 31
0.0
 11
5.3095794059
 21
2.1541668061
 31
0.0
  0
LINE
  5
2EC
100
AcDbEntity
  8
0
100
AcDbLine
 62
9
  6
CONTINUOUS
 10
5.3095794059
 20
2.1541668061
 11
5.3106469503
 21
2.1686495446
  0
LINE
  5
2ED
100
AcDbEntity
  8
0
100
AcDbLine
 62
9
  6
CONTINUOUS
 10
5.3309689531
 20
2.7324822921
 11
5.3309467704
 21
2.7471097292
  0
SPLINE
  5
2EE
100
AcDbEntity
  8
0
100
AcDbSpline
 62
9
  6
CONTINUOUS
 70
0
 71
3
 72
43
 73
39
 74
37
 42
0.0000001
 43
0.0000001
 44
0.0000000001
 12
-0.4347271613
 22
0.0
 32
0.0
 13
0.0177650238
 23
-0.4343640279
 33
0.0
 40
0.0
 40
0.0
 40
0.0
 40
0.0
 40
0.0829678074
 40
0.1674559719
 40
0.2525697163
 40
0.3374122164
 40
0.4210854044
 40
0.5026902891
 40
0.5813271612
 40
0.6560962239
 40
0.6917475083
 40
0.7260824479
 40
0.7589763736
 40
0.7903048435
 40
0.8199437388
 40
0.8477693992
 40
0.8736588264
 40
0.897489998
 40
0.9191383351
 40
0.9291006394
 40
0.9384646278
 40
0.9472129834
 40
0.9553288811
 40
0.9627961846
 40
0.9695997522
 40
0.9757259299
 40
0.9811633829
 40
0.9859045822
 40
0.9880138047
 40
0.9899495232
 40
0.9917136576
 40
0.9933096237
 40
0.9947430288
 40
0.9960227407
 40
0.9971624967
 40
0.9981831472
 40
0.9991151784
 40
1.0
 40
1.0
 40
1.0
 40
1.0
 10
5.7547582072
 20
3.0917342232
 30
0.0
 10
5.7427354208
 20
3.0917342232
 30
0.0
 10
5.7184692858
 20
3.0915607038
 30
0.0
 10
5.6818759985
 20
3.0908354337
 30
0.0
 10
5.6450222206
 20
3.0896728324
 30
0.0
 10
5.6083017626
 20
3.0881042892
 30
0.0
 10
5.5721084341
 20
3.0861613023
 30
0.0
 10
5.5368355025
 20
3.0838869781
 30
0.0
 10
5.5028761631
 20
3.0813246407
 30
0.0
 10
5.4755824358
 20
3.0789499244
 30
0.0
 10
5.4547033563
 20
3.0769307952
 30
0.0
 10
5.4398742275
 20
3.075395531
 30
0.0
 10
5.4256792626
 20
3.0738213246
 30
0.0
 10
5.4121730263
 20
3.0722142572
 30
0.0
 10
5.3994100644
 20
3.0705804942
 30
0.0
 10
5.3874449032
 20
3.0689262281
 30
0.0
 10
5.3763319861
 20
3.0672578065
 30
0.0
 10
5.3661263687
 20
3.0655815719
 30
0.0
 10
5.3582207981
 20
3.0641475999
 30
0.0
 10
5.3523965811
 20
3.0629921877
 30
0.0
 10
5.3484160082
 20
3.0621514528
 30
0.0
 10
5.3447087424
 20
3.0613131769
 30
0.0
 10
5.3412829864
 20
3.0604781552
 30
0.0
 10
5.3381468869
 20
3.0596472547
 30
0.0
 10
5.3353085479
 20
3.058821359
 30
0.0
 10
5.3327758574
 20
3.0580014484
 30
0.0
 10
5.330556757
 20
3.0571884231
 30
0.0
 10
5.3289161847
 20
3.0564931175
 30
0.0
 10
5.3277719108
 20
3.0559341922
 30
0.0
 10
5.3270312737
 20
3.0555335048
 30
0.0
 10
5.3263750532
 20
3.0551348988
 30
0.0
 10
5.325804106
 20
3.0547383418
 30
0.0
 10
5.3253192179
 20
3.0543437263
 30
0.0
 10
5.3249211549
 20
3.0539507044
 30
0.0
 10
5.3246108116
 20
3.0535586015
 30
0.0
 10
5.3243896486
 20
3.0531661854
 30
0.0
 10
5.3242604114
 20
3.0527726686
 30
0.0
 10
5.3242381222
 20
3.0525072818
 30
0.0
 10
5.3242433619
 20
3.0523791702
 30
0.0
 11
5.7547582072
 21
3.0917342232
 31
0.0
 11
5.7186906963
 21
3.0914868328
 31
0.0
 11
5.6819684747
 21
3.0907657805
 31
0.0
 11
5.6449855012
 21
3.0896027449
 31
0.0
 11
5.6081357344
 21
3.0880294042
 31
0.0
 11
5.571813037
 21
3.0860793208
 31
0.0
 11
5.5364108827
 21
3.0837936911
 31
0.0
 11
5.5023226465
 21
3.0812156453
 31
0.0
 11
5.4699417036
 21
3.0783883136
 31
0.0
 11
5.4545152564
 21
3.0768947404
 31
0.0
 11
5.4396684903
 21
3.0753556208
 31
0.0
 11
5.4254560142
 21
3.0737769583
 31
0.0
 11
5.4119324371
 21
3.0721647559
 31
0.0
 11
5.3991523677
 21
3.070525017
 31
0.0
 11
5.3871704151
 21
3.0688637449
 31
0.0
 11
5.376041188
 21
3.0671869429
 31
0.0
 11
5.3658192954
 21
3.0655006142
 31
0.0
 11
5.3565611351
 21
3.0638107471
 31
0.0
 11
5.3523133671
 21
3.0629663387
 31
0.0
 11
5.3483308457
 21
3.0621232648
 31
0.0
 11
5.3446218499
 21
3.0612822635
 31
0.0
 11
5.3411946586
 21
3.060444073
 31
0.0
 11
5.3380575507
 21
3.0596094316
 31
0.0
 11
5.3352188053
 21
3.0587790774
 31
0.0
 11
5.3326867013
 21
3.0579537487
 31
0.0
 11
5.3304695175
 21
3.0571341837
 31
0.0
 11
5.3285755329
 21
3.0563211205
 31
0.0
 11
5.3277523276
 21
3.0559172578
 31
0.0
 11
5.3270130266
 21
3.0555152975
 31
0.0
 11
5.3263586649
 21
3.0551153316
 31
0.0
 11
5.3257902774
 21
3.0547174527
 31
0.0
 11
5.3253088988
 21
3.0543217528
 31
0.0
 11
5.3249155642
 21
3.0539283244
 31
0.0
 11
5.3246113083
 21
3.0535372597
 31
0.0
 11
5.3243971661
 21
3.0531486509
 31
0.0
 11
5.3242741723
 21
3.0527625903
 31
0.0
 11
5.3242433619
 21
3.0523791702
 31
0.0
  0
LINE
  5
2EF
100
AcDbEntity
  8
0
100
AcDbLine
 62
9
  6
CONTINUOUS
 10
5.3242464508
 20
3.0523258769
 11
5.3237113409
 21
3.0651671601
  0
LINE
  5
2F0
100
AcDbEntity
  8
0
100
AcDbLine
 62
9
  6
CONTINUOUS
 10
5.3237113409
 20
3.0651671601
 11
5.3234587315
 21
3.0710660504
  0
SPLINE
  5
2F1
100
AcDbEntity
  8
0
100
AcDbSpline
 62
9
  6
CONTINUOUS
 70
0
 71
3
 72
45
 73
41
 74
39
 42
0.0000001
 43
0.0000001
 44
0.0000000001
 12
-0.4407065969
 22
0.0035549447
 32
0.0
 13
0.0211504009
 23
-0.4402131333
 33
0.0
 40
0.0
 40
0.0
 40
0.0
 40
0.0
 40
0.0822030995
 40
0.1659766001
 40
0.2504431233
 40
0.3347191192
 40
0.41791622
 40
0.4991399817
 40
0.5774926426
 40
0.6153117218
 40
0.6520759098
 40
0.6876709471
 40
0.7219745087
 40
0.7548623544
 40
0.7862105984
 40
0.815895874
 40
0.8437955668
 40
0.8697881572
 40
0.8937537478
 40
0.9049393322
 40
0.9155714547
 40
0.925632988
 40
0.9351072498
 40
0.9439781488
 40
0.9522303939
 40
0.9598498028
 40
0.9668237714
 40
0.9731420098
 40
0.9787977447
 40
0.9837897672
 40
0.9860394243
 40
0.9881273347
 40
0.9900570959
 40
0.9918340495
 40
0.9934659026
 40
0.9949635577
 40
0.996342154
 40
0.9976222069
 40
0.99883049
 40
1.0
 40
1.0
 40
1.0
 40
1.0
 10
5.7547582072
 20
3.1661485677
 30
0.0
 10
5.7426823912
 20
3.1662459768
 30
0.0
 10
5.7182971888
 20
3.1661630453
 30
0.0
 10
5.6815134033
 20
3.1652998471
 30
0.0
 10
5.6444474205
 20
3.163750867
 30
0.0
 10
5.6074982253
 20
3.1615713853
 30
0.0
 10
5.571065266
 20
3.1588169719
 30
0.0
 10
5.5355477907
 20
3.1555590615
 30
0.0
 10
5.506714837
 20
3.1524491749
 30
0.0
 10
5.4844088572
 20
3.1497592865
 30
0.0
 10
5.4683563233
 20
3.1476836088
 30
0.0
 10
5.4528345749
 20
3.1455352076
 30
0.0
 10
5.4378971112
 20
3.1433236912
 30
0.0
 10
5.4235989393
 20
3.1410589052
 30
0.0
 10
5.4099953533
 20
3.1387507679
 30
0.0
 10
5.3971416252
 20
3.1364092377
 30
0.0
 10
5.3850929465
 20
3.1340443719
 30
0.0
 10
5.3739045318
 20
3.1316662148
 30
0.0
 10
5.3651533301
 20
3.1296380989
 30
0.0
 10
5.3586277096
 20
3.1280084564
 30
0.0
 10
5.3540983334
 20
3.1268171622
 30
0.0
 10
5.349828321
 20
3.1256297319
 30
0.0
 10
5.3458259609
 20
3.1244473932
 30
0.0
 10
5.3420995116
 20
3.1232714167
 30
0.0
 10
5.3386571965
 20
3.1221030816
 30
0.0
 10
5.3355071681
 20
3.120943688
 30
0.0
 10
5.3326575141
 20
3.1197945488
 30
0.0
 10
5.3301160525
 20
3.1186569938
 30
0.0
 10
5.3278906753
 20
3.1175322754
 30
0.0
 10
5.3262527196
 20
3.1165762636
 30
0.0
 10
5.3251142989
 20
3.1158122922
 30
0.0
 10
5.3243748386
 20
3.1152630459
 30
0.0
 10
5.323720606
 20
3.1147175774
 30
0.0
 10
5.323152545
 20
3.1141758468
 30
0.0
 10
5.322671599
 20
3.113637753
 30
0.0
 10
5.322278799
 20
3.1131030407
 30
0.0
 10
5.3219753853
 20
3.1125713452
 30
0.0
 10
5.3217630013
 20
3.1120421933
 30
0.0
 10
5.3216437805
 20
3.1115157409
 30
0.0
 10
5.3216279295
 20
3.1111644949
 30
0.0
 10
5.3216361747
 20
3.1109928837
 30
0.0
 11
5.7547582072
 21
3.1661485677
 31
0.0
 11
5.7185297317
 21
3.1660438487
 31
0.0
 11
5.6816188679
 21
3.1651901287
 31
0.0
 11
5.6444248541
 21
3.163643293
 31
0.0
 11
5.6073469287
 21
3.1614592271
 31
0.0
 11
5.5707844595
 21
3.1586964324
 31
0.0
 11
5.5351373385
 21
3.1554239956
 31
0.0
 11
5.5008055899
 21
3.15171368
 31
0.0
 11
5.4842579879
 21
3.1497167437
 31
0.0
 11
5.4681892381
 21
3.147637249
 31
0.0
 11
5.4526501982
 21
3.1454842954
 31
0.0
 11
5.4376953043
 21
3.1432675243
 31
0.0
 11
5.4233799289
 21
3.1409967185
 31
0.0
 11
5.4097594445
 21
3.1386816606
 31
0.0
 11
5.3968892238
 21
3.1363321337
 31
0.0
 11
5.3848246391
 21
3.1339579205
 31
0.0
 11
5.3736210631
 21
3.1315688039
 31
0.0
 11
5.3633338683
 21
3.1291745667
 31
0.0
 11
5.3585514244
 21
3.1279785812
 31
0.0
 11
5.3540202017
 21
3.1267849597
 31
0.0
 11
5.3497485481
 21
3.1255948993
 31
0.0
 11
5.3457448117
 21
3.124409597
 31
0.0
 11
5.3420173404
 21
3.1232302502
 31
0.0
 11
5.3385744823
 21
3.122058056
 31
0.0
 11
5.3354245851
 21
3.1208942116
 31
0.0
 11
5.3325759971
 21
3.119739914
 31
0.0
 11
5.330037066
 21
3.1185963606
 31
0.0
 11
5.3278161399
 21
3.1174647484
 31
0.0
 11
5.3259215668
 21
3.1163462747
 31
0.0
 11
5.3250992713
 21
3.1157923389
 31
0.0
 11
5.3243616946
 21
3.1152421366
 31
0.0
 11
5.3237098801
 21
3.1146958175
 31
0.0
 11
5.3231448713
 21
3.1141535313
 31
0.0
 11
5.3226677118
 21
3.1136154275
 31
0.0
 11
5.322279445
 21
3.1130816559
 31
0.0
 11
5.3219811143
 21
3.1125523661
 31
0.0
 11
5.3217737634
 21
3.1120277077
 31
0.0
 11
5.3216584357
 21
3.1115078303
 31
0.0
 11
5.3216361747
 21
3.1109928837
 31
0.0
  0
SPLINE
  5
2F2
100
AcDbEntity
  8
0
100
AcDbSpline
 62
9
  6
CONTINUOUS
 70
0
 71
3
 72
48
 73
44
 74
42
 42
0.0000001
 43
0.0000001
 44
0.0000000001
 12
-0.4932661326
 22
0.004483162
 32
0.0
 13
0.0436893759
 23
-0.4913479569
 33
0.0
 40
0.0
 40
0.0
 40
0.0
 40
0.0
 40
0.0383589679
 40
0.0772675069
 40
0.1166393755
 40
0.15638454
 40
0.1964097993
 40
0.2366193088
 40
0.2769150247
 40
0.3171970846
 40
0.357363489
 40
0.3973082188
 40
0.4369231519
 40
0.4760989539
 40
0.514725328
 40
0.5526912522
 40
0.5898852122
 40
0.6261954397
 40
0.6615086804
 40
0.6957060101
 40
0.728667653
 40
0.7602749227
 40
0.7904108109
 40
0.8189607856
 40
0.8458139127
 40
0.8585713897
 40
0.8708656164
 40
0.8826843452
 40
0.894014984
 40
0.9048456583
 40
0.9151657421
 40
0.9249661871
 40
0.9342399594
 40
0.9429826239
 40
0.9511931333
 40
0.9588749
 40
0.9660372565
 40
0.9726974307
 40
0.9788831701
 40
0.9846360754
 40
0.9900154681
 40
0.9951020787
 40
1.0
 40
1.0
 40
1.0
 40
1.0
 10
5.7547582072
 20
3.5862451324
 30
0.0
 10
5.7484511473
 20
3.5863024556
 30
0.0
 10
5.7357443437
 20
3.5862317934
 30
0.0
 10
5.7165736335
 20
3.5856055028
 30
0.0
 10
5.6971975364
 20
3.584479113
 30
0.0
 10
5.6776712315
 20
3.5828736513
 30
0.0
 10
5.6580496533
 20
3.5808101469
 30
0.0
 10
5.6383878372
 20
3.5783096347
 30
0.0
 10
5.6187408199
 20
3.5753931572
 30
0.0
 10
5.5991637572
 20
3.5720817816
 30
0.0
 10
5.5797123995
 20
3.5683967069
 30
0.0
 10
5.5604422379
 20
3.564364144
 30
0.0
 10
5.5414092097
 20
3.5600103732
 30
0.0
 10
5.5226693626
 20
3.5553617073
 30
0.0
 10
5.504278743
 20
3.5504444702
 30
0.0
 10
5.486293394
 20
3.5452849985
 30
0.0
 10
5.4687693501
 20
3.5399096444
 30
0.0
 10
5.4517628667
 20
3.5343448464
 30
0.0
 10
5.4353313224
 20
3.5286175046
 30
0.0
 10
5.419533391
 20
3.5227551929
 30
0.0
 10
5.4044288662
 20
3.5167858544
 30
0.0
 10
5.3900777233
 20
3.5107375466
 30
0.0
 10
5.3765397667
 20
3.5046383684
 30
0.0
 10
5.3638748956
 20
3.4985164283
 30
0.0
 10
5.3539347104
 20
3.4933345371
 30
0.0
 10
5.3464737691
 20
3.4891894423
 30
0.0
 10
5.3412303723
 20
3.4861453865
 30
0.0
 10
5.3362508335
 20
3.4831164672
 30
0.0
 10
5.331543427
 20
3.4801058107
 30
0.0
 10
5.3271166196
 20
3.4771166809
 30
0.0
 10
5.3229788903
 20
3.4741523446
 30
0.0
 10
5.3191386871
 20
3.4712160492
 30
0.0
 10
5.3156044191
 20
3.4683110063
 30
0.0
 10
5.3123844497
 20
3.4654403711
 30
0.0
 10
5.3094870929
 20
3.4626072074
 30
0.0
 10
5.30692062
 20
3.4598144374
 30
0.0
 10
5.3046932921
 20
3.4570647619
 30
0.0
 10
5.3028134452
 20
3.4543605752
 30
0.0
 10
5.3012896874
 20
3.4517038264
 30
0.0
 10
5.300131237
 20
3.4490961497
 30
0.0
 10
5.2993485044
 20
3.4465386795
 30
0.0
 10
5.2989533263
 20
3.444034494
 30
0.0
 10
5.2989573383
 20
3.4423838538
 30
0.0
 10
5.2990286674
 20
3.4415816592
 30
0.0
 11
5.7547582072
 21
3.5862451324
 31
0.0
 11
5.7358364981
 21
3.5861474601
 31
0.0
 11
5.7166534638
 21
3.5855272663
 31
0.0
 11
5.6972642669
 21
3.5844056445
 31
0.0
 11
5.6777240699
 21
3.5828036883
 31
0.0
 11
5.6580880353
 21
3.5807424911
 31
0.0
 11
5.6384113256
 21
3.5782431467
 31
0.0
 11
5.6187491034
 21
3.5753267484
 31
0.0
 11
5.5991565311
 21
3.5720143898
 31
0.0
 11
5.579688933
 21
3.568328037
 31
0.0
 11
5.5604022794
 21
3.5642931464
 31
0.0
 11
5.5413527027
 21
3.5599360469
 31
0.0
 11
5.5225963351
 21
3.5552830675
 31
0.0
 11
5.5041893087
 21
3.5503605371
 31
0.0
 11
5.4861877556
 21
3.5451947847
 31
0.0
 11
5.4686478082
 21
3.5398121391
 31
0.0
 11
5.4516255986
 21
3.5342389294
 31
0.0
 11
5.4351779448
 21
3.5285017492
 31
0.0
 11
5.4193644086
 21
3.5226282513
 31
0.0
 11
5.4042452377
 21
3.5166463532
 31
0.0
 11
5.3898806797
 21
3.5105839724
 31
0.0
 11
5.3763309822
 21
3.5044690264
 31
0.0
 11
5.3636563929
 21
3.4983294327
 31
0.0
 11
5.3519171595
 21
3.4921931089
 31
0.0
 11
5.3464171286
 21
3.4891348974
 31
0.0
 11
5.3411735295
 21
3.4860879724
 31
0.0
 11
5.3361940721
 21
3.4830557899
 31
0.0
 11
5.3314871818
 21
3.4800416711
 31
0.0
 11
5.3270614628
 21
3.4770489033
 31
0.0
 11
5.3229255195
 21
3.4740807741
 31
0.0
 11
5.3190879562
 21
3.4711405709
 31
0.0
 11
5.3155573772
 21
3.4682315811
 31
0.0
 11
5.3123423867
 21
3.4653570922
 31
0.0
 11
5.3094515891
 21
3.4625203916
 31
0.0
 11
5.3068935887
 21
3.4597247668
 31
0.0
 11
5.3046769897
 21
3.4569735051
 31
0.0
 11
5.3028103965
 21
3.4542698941
 31
0.0
 11
5.3013024134
 21
3.4516172212
 31
0.0
 11
5.3001616446
 21
3.4490187738
 31
0.0
 11
5.2993966945
 21
3.4464778394
 31
0.0
 11
5.2990161673
 21
3.4439977054
 31
0.0
 11
5.2990286674
 21
3.4415816592
 31
0.0
  0
SPLINE
  5
2F3
100
AcDbEntity
  8
0
100
AcDbSpline
 62
9
  6
CONTINUOUS
 70
0
 71
3
 72
25
 73
21
 74
19
 42
0.0000001
 43
0.0000001
 44
0.0000000001
 12
0.9214439769
 22
0.0707851107
 32
0.0
 13
0.9241588253
 23
-0.0000067253
 33
0.0
 40
0.0
 40
0.0
 40
0.0
 40
0.0
 40
0.0065331291
 40
0.0254274534
 40
0.0556481525
 40
0.0961527612
 40
0.1458915034
 40
0.2038083148
 40
0.2688255463
 40
0.339868416
 40
0.4158726388
 40
0.4957804016
 40
0.5785430691
 40
0.6631405184
 40
0.7485596145
 40
0.8338028265
 40
0.8760626797
 40
0.9179261719
 40
0.9592772191
 40
1.0
 40
1.0
 40
1.0
 40
1.0
 10
4.8316639324
 20
5.7711910048
 30
0.0
 10
4.8336705699
 20
5.7713451542
 30
0.0
 10
4.8414812365
 20
5.7719363053
 30
0.0
 10
4.8585771464
 20
5.7732005057
 30
0.0
 10
4.8861137145
 20
5.7751798386
 30
0.0
 10
4.9231336068
 20
5.777754878
 30
0.0
 10
4.9686727311
 20
5.7808060925
 30
0.0
 10
5.0217559482
 20
5.7842130527
 30
0.0
 10
5.0814000843
 20
5.7878556864
 30
0.0
 10
5.1466191796
 20
5.7916121063
 30
0.0
 10
5.2164327881
 20
5.7953630948
 30
0.0
 10
5.2898678677
 20
5.798991913
 30
0.0
 10
5.3659643266
 20
5.8023819887
 30
0.0
 10
5.4437749789
 20
5.8054175552
 30
0.0
 10
5.5223671931
 20
5.8079837204
 30
0.0
 10
5.5879383449
 20
5.8096408441
 30
0.0
 10
5.6401032139
 20
5.8106182299
 30
0.0
 10
5.6787523509
 20
5.8111590591
 30
0.0
 10
5.7169302959
 20
5.8114956741
 30
0.0
 10
5.7422134348
 20
5.8115751472
 30
0.0
 10
5.7547582072
 20
5.8115750559
 30
0.0
 11
4.8316639324
 21
5.7711910048
 31
0.0
 11
4.8376842587
 21
5.7716480346
 31
0.0
 11
4.8550978569
 21
5.7729386036
 31
0.0
 11
4.8829545249
 21
5.7749435414
 31
0.0
 11
4.9202968306
 21
5.7775432729
 31
0.0
 11
4.9661603887
 21
5.7806178344
 31
0.0
 11
5.0195747606
 21
5.7840469792
 31
0.0
 11
5.0795492853
 21
5.787709441
 31
0.0
 11
5.1450956172
 21
5.7914835118
 31
0.0
 11
5.2152345567
 21
5.7952495453
 31
0.0
 11
5.2889922412
 21
5.7988898672
 31
0.0
 11
5.3654026025
 21
5.8022872006
 31
0.0
 11
5.4435250273
 21
5.805325368
 31
0.0
 11
5.5224242192
 21
5.8078884216
 31
0.0
 11
5.6011777928
 21
5.8098607132
 31
0.0
 11
5.6402258086
 21
5.8105895104
 31
0.0
 11
5.6789105809
 21
5.8111276916
 31
0.0
 11
5.7171240628
 21
5.8114609693
 31
0.0
 11
5.7547582072
 21
5.8115750559
 31
0.0
  0
SPLINE
  5
2F4
100
AcDbEntity
  8
0
100
AcDbSpline
 62
9
  6
CONTINUOUS
 70
0
 71
3
 72
15
 73
11
 74
9
 42
0.0000001
 43
0.0000001
 44
0.0000000001
 12
0.0627367809
 22
0.2206013897
 32
0.0
 13
0.1450438435
 23
0.1776602384
 33
0.0
 40
0.0
 40
0.0
 40
0.0
 40
0.0
 40
0.1178315485
 40
0.238253396
 40
0.361035649
 40
0.4859077742
 40
0.6125689047
 40
0.7406966427
 40
0.86995474
 40
1.0
 40
1.0
 40
1.0
 40
1.0
 10
5.3029229162
 20
6.0350051369
 30
0.0
 10
5.3053870402
 20
6.043669738
 30
0.0
 10
5.3109187794
 20
6.0610373697
 30
0.0
 10
5.3208015526
 20
6.0868228425
 30
0.0
 10
5.3322864252
 20
6.1125262384
 30
0.0
 10
5.3452943936
 20
6.1380286216
 30
0.0
 10
5.3597470129
 20
6.1632124914
 30
0.0
 10
5.3755659292
 20
6.1879598706
 30
0.0
 10
5.3926721953
 20
6.2121519537
 30
0.0
 10
5.4048574333
 20
6.227798881
 30
0.0
 10
5.4111448547
 20
6.2355001717
 30
0.0
 11
5.3029229162
 21
6.0350051369
 31
0.0
 11
5.311100802
 21
6.060762605
 31
0.0
 11
5.3209652521
 21
6.086559506
 31
0.0
 11
5.3324372497
 21
6.1122767536
 31
0.0
 11
5.3454377777
 21
6.1377952616
 31
0.0
 11
5.3598878191
 21
6.1629959437
 31
0.0
 11
5.3757083571
 21
6.1877597136
 31
0.0
 11
5.3928203746
 21
6.211967485
 31
0.0
 11
5.4111448547
 21
6.2355001717
 31
0.0
  0
SPLINE
  5
2F5
100
AcDbEntity
  8
0
100
AcDbSpline
 62
9
  6
CONTINUOUS
 70
0
 71
3
 72
51
 73
47
 74
45
 42
0.0000001
 43
0.0000001
 44
0.0000000001
 12
-1.0196183047
 22
0.0000000021
 32
0.0
 13
0.2960052701
 23
-0.9757060866
 33
0.0
 40
0.0
 40
0.0
 40
0.0
 40
0.0
 40
0.0342795473
 40
0.0692329356
 40
0.1048397853
 40
0.1410600267
 40
0.177837201
 40
0.2151012843
 40
0.2527710807
 40
0.2907562425
 40
0.3289577263
 40
0.3672631882
 40
0.4055516296
 40
0.4436967189
 40
0.4815679197
 40
0.519031497
 40
0.5559514452
 40
0.5921903858
 40
0.6276126097
 40
0.6620975591
 40
0.6955315686
 40
0.7278024045
 40
0.7434679812
 40
0.7588020161
 40
0.7737915064
 40
0.7884238477
 40
0.8026869171
 40
0.8165691724
 40
0.8300597684
 40
0.8431486974
 40
0.855827054
 40
0.8680899888
 40
0.8799371785
 40
0.8913698386
 40
0.9023907862
 40
0.9130047321
 40
0.9232186234
 40
0.9330420444
 40
0.9424876785
 40
0.9515718303
 40
0.9603149999
 40
0.9687424866
 40
0.9768849831
 40
0.9847790945
 40
0.9924676932
 40
1.0
 40
1.0
 40
1.0
 40
1.0
 10
5.7547582072
 20
5.6471765776
 30
0.0
 10
5.7431075226
 20
5.6471765776
 30
0.0
 10
5.7195716773
 20
5.6464114869
 30
0.0
 10
5.6840711883
 20
5.6431495264
 30
0.0
 10
5.6481491413
 20
5.6378652798
 30
0.0
 10
5.6119327418
 20
5.6306612201
 30
0.0
 10
5.5755469491
 20
5.6216393997
 30
0.0
 10
5.5391177052
 20
5.6109016019
 30
0.0
 10
5.5027710613
 20
5.5985493723
 30
0.0
 10
5.4666335874
 20
5.5846845658
 30
0.0
 10
5.4308352406
 20
5.5694092454
 30
0.0
 10
5.395501919
 20
5.5528446538
 30
0.0
 10
5.3607612154
 20
5.5351141361
 30
0.0
 10
5.3267416635
 20
5.516340979
 30
0.0
 10
5.2935718099
 20
5.4966485907
 30
0.0
 10
5.2613802219
 20
5.4761604118
 30
0.0
 10
5.2302955278
 20
5.4549998379
 30
0.0
 10
5.2004454528
 20
5.4332901673
 30
0.0
 10
5.1719541794
 20
5.4111500232
 30
0.0
 10
5.1449331748
 20
5.3887014918
 30
0.0
 10
5.1194863871
 20
5.3660645604
 30
0.0
 10
5.0994837252
 20
5.3469568533
 30
0.0
 10
5.0843657339
 20
5.331662616
 30
0.0
 10
5.0735977991
 20
5.3203314074
 30
0.0
 10
5.0633011332
 20
5.3090411979
 30
0.0
 10
5.0534885336
 20
5.2978066771
 30
0.0
 10
5.0441728106
 20
5.2866426053
 30
0.0
 10
5.0353667542
 20
5.2755637162
 30
0.0
 10
5.0270831708
 20
5.264584718
 30
0.0
 10
5.0193347487
 20
5.2537203323
 30
0.0
 10
5.0121339295
 20
5.2429842095
 30
0.0
 10
5.0054908274
 20
5.2323890732
 30
0.0
 10
4.9994124525
 20
5.2219470117
 30
0.0
 10
4.9939054479
 20
5.2116688654
 30
0.0
 10
4.9889763567
 20
5.2015654371
 30
0.0
 10
4.9846317651
 20
5.1916474694
 30
0.0
 10
4.9808782921
 20
5.1819256562
 30
0.0
 10
4.9777226177
 20
5.172410635
 30
0.0
 10
4.9751715094
 20
5.1631129906
 30
0.0
 10
4.9732318598
 20
5.1540432652
 30
0.0
 10
4.9719107245
 20
5.1452119974
 30
0.0
 10
4.9712153719
 20
5.1366297441
 30
0.0
 10
4.9711532719
 20
5.1283072803
 30
0.0
 10
4.9717322147
 20
5.1202553075
 30
0.0
 10
4.9729597756
 20
5.1124860347
 30
0.0
 10
4.9742264177
 20
5.1074612895
 30
0.0
 10
4.9749696186
 20
5.1050115169
 30
0.0
 11
5.7547582072
 21
5.6471765776
 31
0.0
 11
5.7198234095
 21
5.6460784085
 31
0.0
 11
5.6843306634
 21
5.6428517282
 31
0.0
 11
5.6484073699
 21
5.6375982775
 31
0.0
 11
5.6121809297
 21
5.6304197972
 31
0.0
 11
5.5757787436
 21
5.6214180278
 31
0.0
 11
5.5393282123
 21
5.6106947102
 31
0.0
 11
5.5029567365
 21
5.5983515851
 31
0.0
 11
5.466791717
 21
5.5844903932
 31
0.0
 11
5.4309607784
 21
5.5692156118
 31
0.0
 11
5.3955927264
 21
5.5526461744
 31
0.0
 11
5.3608167561
 21
5.5349057707
 31
0.0
 11
5.3267620622
 21
5.5161180933
 31
0.0
 11
5.2935578399
 21
5.4964068348
 31
0.0
 11
5.2613332841
 21
5.4758956877
 31
0.0
 11
5.2302175898
 21
5.4547083446
 31
0.0
 11
5.200339952
 21
5.4329684981
 31
0.0
 11
5.1718271971
 21
5.410799349
 31
0.0
 11
5.1447894894
 21
5.3883206382
 31
0.0
 11
5.1193298436
 21
5.3656506221
 31
0.0
 11
5.0955512466
 21
5.3429075514
 31
0.0
 11
5.0843245248
 21
5.3315455738
 31
0.0
 11
5.0735566854
 21
5.3202096767
 31
0.0
 11
5.0632606018
 21
5.3089146412
 31
0.0
 11
5.0534491472
 21
5.2976752487
 31
0.0
 11
5.0441351951
 21
5.2865062805
 31
0.0
 11
5.0353316188
 21
5.275422518
 31
0.0
 11
5.0270512918
 21
5.2644387425
 31
0.0
 11
5.0193070874
 21
5.2535697353
 31
0.0
 11
5.0121117861
 21
5.2428302218
 31
0.0
 11
5.0054753808
 21
5.232233243
 31
0.0
 11
4.9994046579
 21
5.2217899037
 31
0.0
 11
4.9939062269
 21
5.2115112011
 31
0.0
 11
4.988986697
 21
5.2014081328
 31
0.0
 11
4.9846526776
 21
5.1914916962
 31
0.0
 11
4.980910778
 21
5.1817728887
 31
0.0
 11
4.9777676077
 21
5.172262708
 31
0.0
 11
4.9752297759
 21
5.1629721513
 31
0.0
 11
4.973303892
 21
5.1539122163
 31
0.0
 11
4.9719965654
 21
5.1450939003
 31
0.0
 11
4.9713144054
 21
5.1365282007
 31
0.0
 11
4.9712640214
 21
5.1282261152
 31
0.0
 11
4.9718520227
 21
5.120198641
 31
0.0
 11
4.9730850186
 21
5.1124567758
 31
0.0
 11
4.9749696186
 21
5.1050115169
 31
0.0
  0
SPLINE
  5
2F6
100
AcDbEntity
  8
0
100
AcDbSpline
 62
9
  6
CONTINUOUS
 70
0
 71
3
 72
40
 73
36
 74
34
 42
0.0000001
 43
0.0000001
 44
0.0000000001
 12
-0.3660249477
 22
0.0405580553
 32
0.0
 13
-0.3576392108
 23
-0.0878260392
 33
0.0
 40
0.0
 40
0.0
 40
0.0
 40
0.0
 40
0.0298411443
 40
0.0596117949
 40
0.0893851426
 40
0.1192150697
 40
0.1791735397
 40
0.2093396922
 40
0.2396343485
 40
0.2700528925
 40
0.3005869541
 40
0.3312269587
 40
0.3465840234
 40
0.3619647951
 40
0.3927992177
 40
0.423737218
 40
0.4859554592
 40
0.5486926138
 40
0.5802819698
 40
0.6120328653
 40
0.6439572975
 40
0.6599886493
 40
0.6760681987
 40
0.6921975912
 40
0.7083751694
 40
0.7245934681
 40
0.7408439906
 40
0.7734064488
 40
0.8059928281
 40
0.8385402951
 40
0.8710008445
 40
0.9033494982
 40
0.935592846
 40
0.9677777829
 40
1.0
 40
1.0
 40
1.0
 40
1.0
 10
6.2067832768
 20
6.0350194981
 30
0.0
 10
6.203142409
 20
6.035422931
 30
0.0
 10
6.1958478011
 20
6.0360447997
 30
0.0
 10
6.1848805854
 20
6.0364750488
 30
0.0
 10
6.1739067994
 20
6.0364602261
 30
0.0
 10
6.1592373417
 20
6.0359250148
 30
0.0
 10
6.1445535578
 20
6.03473458
 30
0.0
 10
6.1298586452
 20
6.0331317587
 30
0.0
 10
6.1187850372
 20
6.0317766275
 30
0.0
 10
6.1076778147
 20
6.0303297067
 30
0.0
 10
6.0965322208
 20
6.028849527
 30
0.0
 10
6.087216001
 20
6.027638258
 30
0.0
 10
6.0797388253
 20
6.0267108424
 30
0.0
 10
6.0722331146
 20
6.0258204751
 30
0.0
 10
6.062818518
 20
6.0247865934
 30
0.0
 10
6.0476698747
 20
6.0233065054
 30
0.0
 10
6.0285899879
 20
6.021803983
 30
0.0
 10
6.0093962577
 20
6.0208119926
 30
0.0
 10
5.9939261749
 20
6.0203456196
 30
0.0
 10
5.9822328913
 20
6.0201660378
 30
0.0
 10
5.9724480749
 20
6.0201643197
 30
0.0
 10
5.9645878671
 20
6.0202546304
 30
0.0
 10
5.9586671679
 20
6.0203690742
 30
0.0
 10
5.9527296467
 20
6.0205319012
 30
0.0
 10
5.9467765128
 20
6.020739765
 30
0.0
 10
5.9408096498
 20
6.0209776756
 30
0.0
 10
5.9328339754
 20
6.0213177187
 30
0.0
 10
5.9228511792
 20
6.0217508154
 30
0.0
 10
5.9108657235
 20
6.0221759121
 30
0.0
 10
5.8988867145
 20
6.022398946
 30
0.0
 10
5.8869341753
 20
6.0223118964
 30
0.0
 10
5.8750281237
 20
6.0218063747
 30
0.0
 10
5.8631883189
 20
6.0207733667
 30
0.0
 10
5.8514357063
 20
6.0191034311
 30
0.0
 10
5.8436872754
 20
6.0174948306
 30
0.0
 10
5.839845966
 20
6.0165515141
 30
0.0
 11
6.2067832768
 21
6.0350194981
 31
0.0
 11
6.1958342804
 21
6.0359616041
 31
0.0
 11
6.1848795929
 21
6.036400921
 31
0.0
 11
6.1739151077
 21
6.036396126
 31
0.0
 11
6.1629367184
 21
6.0360058964
 31
0.0
 11
6.1409218016
 21
6.0343038425
 31
0.0
 11
6.1298770612
 21
6.0331093727
 31
0.0
 11
6.1188019908
 21
6.0317641774
 31
0.0
 11
6.107692484
 21
6.0303269338
 31
0.0
 11
6.0965444343
 21
6.0288563193
 31
0.0
 11
6.0853537352
 21
6.027411011
 31
0.0
 11
6.0797411089
 21
6.0267161833
 31
0.0
 11
6.0741162937
 21
6.0260493698
 31
0.0
 11
6.0628288336
 21
6.0248105033
 31
0.0
 11
6.051489351
 21
6.0237035218
 31
0.0
 11
6.028646745
 21
6.0219112601
 31
0.0
 11
6.0055733283
 21
6.020724678
 31
0.0
 11
5.9939453322
 21
6.0203747959
 31
0.0
 11
5.9822539531
 21
6.0201958687
 31
0.0
 11
5.9704972975
 21
6.0201944079
 31
0.0
 11
5.9645938993
 21
6.0202622623
 31
0.0
 11
5.9586734719
 21
6.0203769252
 31
0.0
 11
5.9527357941
 21
6.0205391353
 31
0.0
 11
5.9467816963
 21
6.0207444942
 31
0.0
 11
5.9408137172
 21
6.0209802587
 31
0.0
 11
5.9348345522
 21
6.0212329212
 31
0.0
 11
5.9228534455
 21
6.0217349103
 31
0.0
 11
5.9108599382
 21
6.0221424013
 31
0.0
 11
5.8988755925
 21
6.022347334
 31
0.0
 11
5.8869219707
 21
6.0222416481
 31
0.0
 11
5.875020635
 21
6.0217172834
 31
0.0
 11
5.8631931475
 21
6.0206661796
 31
0.0
 11
5.8514610704
 21
6.0189802766
 31
0.0
 11
5.839845966
 21
6.0165515141
 31
0.0
  0
SPLINE
  5
2F7
100
AcDbEntity
  8
0
100
AcDbSpline
 62
9
  6
CONTINUOUS
 70
0
 71
3
 72
121
 73
117
 74
115
 42
0.0000001
 43
0.0000001
 44
0.0000000001
 12
-0.0330493174
 22
0.472627237
 32
0.0
 13
-0.4704489647
 23
-0.0560939758
 33
0.0
 40
0.0
 40
0.0
 40
0.0
 40
0.0
 40
0.0001571928
 40
0.000277647
 40
0.0003641967
 40
0.0003957215
 40
0.000420001
 40
0.0004376331
 40
0.0004496176
 40
0.0004582181
 40
0.0004676448
 40
0.0004809076
 40
0.0004988899
 40
0.000521697
 40
0.0005491909
 40
0.000617273
 40
0.0007009326
 40
0.0007977361
 40
0.0009051864
 40
0.0011419813
 40
0.0013914083
 40
0.0016343123
 40
0.0018534302
 40
0.0020365816
 40
0.002190057
 40
0.0025097452
 40
0.0027086993
 40
0.0029348261
 40
0.0031842223
 40
0.0034515111
 40
0.0040169404
 40
0.004305205
 40
0.0045926599
 40
0.0048787831
 40
0.0051671586
 40
0.0054635094
 40
0.0057718906
 40
0.0064325453
 40
0.0071547813
 40
0.0079326709
 40
0.0087566438
 40
0.0096181538
 40
0.0105147903
 40
0.0114509675
 40
0.0134535066
 40
0.0156369359
 40
0.0167964923
 40
0.018000963
 40
0.020543901
 40
0.0232640977
 40
0.0261596108
 40
0.0324680252
 40
0.0394514676
 40
0.0470918909
 40
0.0553705128
 40
0.0642681182
 40
0.0737655493
 40
0.0838437618
 40
0.0944837483
 40
0.1056665542
 40
0.1173732438
 40
0.129585323
 40
0.1422853302
 40
0.1554559599
 40
0.1690802489
 40
0.1831419763
 40
0.1976250054
 40
0.2277936091
 40
0.2434514803
 40
0.2594736036
 40
0.2758472786
 40
0.2925608888
 40
0.3096028797
 40
0.3182434059
 40
0.3269616343
 40
0.3446243417
 40
0.3625771126
 40
0.3808062249
 40
0.3900202386
 40
0.3992984151
 40
0.4086397685
 40
0.4180438556
 40
0.4370383134
 40
0.4562778335
 40
0.4659883628
 40
0.4757589242
 40
0.4855892839
 40
0.4954791905
 40
0.5054280037
 40
0.5154349432
 40
0.5356197514
 40
0.5560263263
 40
0.5766466693
 40
0.5974723019
 40
0.6184939948
 40
0.6397018172
 40
0.6610858668
 40
0.6826364886
 40
0.7043444487
 40
0.7152547681
 40
0.7262020888
 40
0.7482091906
 40
0.7703682832
 40
0.7926814778
 40
0.8151510542
 40
0.8264454004
 40
0.8377800635
 40
0.8491556086
 40
0.8605717764
 40
0.872026766
 40
0.8835185005
 40
0.9066034792
 40
0.9298091563
 40
0.9531189933
 40
0.9765191281
 40
1.0
 40
1.0
 40
1.0
 40
1.0
 10
6.6775049509
 20
6.0800786838
 30
0.0
 10
6.6775032192
 20
6.0801034484
 30
0.0
 10
6.6774998502
 20
6.0801471748
 30
0.0
 10
6.677493885
 20
6.0802043768
 30
0.0
 10
6.6774883856
 20
6.0802416907
 30
0.0
 10
6.6774834276
 20
6.0802636184
 30
0.0
 10
6.6774800434
 20
6.0802747521
 30
0.0
 10
6.6774765197
 20
6.080282487
 30
0.0
 10
6.677472861
 20
6.0802875003
 30
0.0
 10
6.6774679463
 20
6.0802891586
 30
0.0
 10
6.67746332
 20
6.0802865364
 30
0.0
 10
6.6774592498
 20
6.0802815822
 30
0.0
 10
6.6774549156
 20
6.0802741786
 30
0.0
 10
6.6774504118
 20
6.0802643784
 30
0.0
 10
6.677443592
 20
6.0802469603
 30
0.0
 10
6.6774348316
 20
6.0802200285
 30
0.0
 10
6.6774238815
 20
6.0801823344
 30
0.0
 10
6.6774118757
 20
6.0801384772
 30
0.0
 10
6.6773937633
 20
6.0800712211
 30
0.0
 10
6.6773688362
 20
6.0799808295
 30
0.0
 10
6.6773345587
 20
6.0798708765
 30
0.0
 10
6.6772945858
 20
6.0797656941
 30
0.0
 10
6.6772483492
 20
6.0796747221
 30
0.0
 10
6.6771939294
 20
6.0796041972
 30
0.0
 10
6.6770998758
 20
6.0795520859
 30
0.0
 10
6.67698659
 20
6.0795727498
 30
0.0
 10
6.6768809647
 20
6.0796220148
 30
0.0
 10
6.6767885725
 20
6.0796758625
 30
0.0
 10
6.6766903416
 20
6.0797398323
 30
0.0
 10
6.6765482921
 20
6.0798348496
 30
0.0
 10
6.6763987854
 20
6.0799300951
 30
0.0
 10
6.6762378943
 20
6.0800117206
 30
0.0
 10
6.6761110669
 20
6.0800618486
 30
0.0
 10
6.6759786769
 20
6.0800955007
 30
0.0
 10
6.6758413721
 20
6.0801092037
 30
0.0
 10
6.6757000784
 20
6.0801056369
 30
0.0
 10
6.6755016048
 20
6.0800800135
 30
0.0
 10
6.6752420787
 20
6.0800136211
 30
0.0
 10
6.674919711
 20
6.0799014981
 30
0.0
 10
6.67457677
 20
6.0797706751
 30
0.0
 10
6.6742115302
 20
6.0796366005
 30
0.0
 10
6.6738217833
 20
6.0795155046
 30
0.0
 10
6.6734063763
 20
6.0794215986
 30
0.0
 10
6.6728084821
 20
6.0793231017
 30
0.0
 10
6.6720026331
 20
6.0792455068
 30
0.0
 10
6.6711600217
 20
6.0791948985
 30
0.0
 10
6.6704432032
 20
6.0791506838
 30
0.0
 10
6.6696701736
 20
6.0790961576
 30
0.0
 10
6.6686521589
 20
6.0790125328
 30
0.0
 10
6.6673692127
 20
6.0788931678
 30
0.0
 10
6.6654955282
 20
6.0787045627
 30
0.0
 10
6.6629536895
 20
6.0784316554
 30
0.0
 10
6.6596687837
 20
6.0780606955
 30
0.0
 10
6.6560764622
 20
6.077639487
 30
0.0
 10
6.6521849699
 20
6.0771740908
 30
0.0
 10
6.6480025688
 20
6.0766714724
 30
0.0
 10
6.6435377037
 20
6.0761373586
 30
0.0
 10
6.6387989442
 20
6.075576204
 30
0.0
 10
6.6337947982
 20
6.0749928204
 30
0.0
 10
6.6285340901
 20
6.0743892674
 30
0.0
 10
6.6230255743
 20
6.0737675165
 30
0.0
 10
6.6172777676
 20
6.0731295701
 30
0.0
 10
6.6112989416
 20
6.0724773355
 30
0.0
 10
6.6050970867
 20
6.071813104
 30
0.0
 10
6.5986801849
 20
6.0711374554
 30
0.0
 10
6.5920568135
 20
6.0704434165
 30
0.0
 10
6.582835379
 20
6.0694722356
 30
0.0
 10
6.5733655879
 20
6.0684527316
 30
0.0
 10
6.5636536772
 20
6.0674114727
 30
0.0
 10
6.5561069931
 20
6.066611358
 30
0.0
 10
6.5483932083
 20
6.0658060226
 30
0.0
 10
6.5405181134
 20
6.0649947326
 30
0.0
 10
6.533856995
 20
6.0643170747
 30
0.0
 10
6.5284516078
 20
6.0637718935
 30
0.0
 10
6.522948389
 20
6.0632198462
 30
0.0
 10
6.5159818599
 20
6.0625209836
 30
0.0
 10
6.5075225158
 20
6.0616552246
 30
0.0
 10
6.5003934219
 20
6.060897251
 30
0.0
 10
6.4946292978
 20
6.0602594908
 30
0.0
 10
6.4902619658
 20
6.0597610769
 30
0.0
 10
6.4858664166
 20
6.05924541
 30
0.0
 10
6.479948231
 20
6.0585393404
 30
0.0
 10
6.4724791854
 20
6.0576371258
 30
0.0
 10
6.464960249
 20
6.0567442889
 30
0.0
 10
6.4588847914
 20
6.0560495894
 30
0.0
 10
6.4542837013
 20
6.055541248
 30
0.0
 10
6.4496520687
 20
6.0550517884
 30
0.0
 10
6.4449897845
 20
6.0545851877
 30
0.0
 10
6.4402974797
 20
6.0541391522
 30
0.0
 10
6.4339839813
 20
6.053567774
 30
0.0
 10
6.4260213532
 20
6.0528958858
 30
0.0
 10
6.4163836604
 20
6.0521432825
 30
0.0
 10
6.406641777
 20
6.0514265118
 30
0.0
 10
6.3968010405
 20
6.0507301534
 30
0.0
 10
6.3868669938
 20
6.0500381913
 30
0.0
 10
6.3768454152
 20
6.0493337102
 30
0.0
 10
6.3667421645
 20
6.0486000158
 30
0.0
 10
6.3565631319
 20
6.047820215
 30
0.0
 10
6.3480370659
 20
6.0471195754
 30
0.0
 10
6.3411831493
 20
6.0465187188
 30
0.0
 10
6.3342842632
 20
6.0458903588
 30
0.0
 10
6.3256192506
 20
6.045068088
 30
0.0
 10
6.3151693804
 20
6.0440546723
 30
0.0
 10
6.3046458991
 20
6.0430436033
 30
0.0
 10
6.2958272158
 20
6.0422298963
 30
0.0
 10
6.2887318873
 20
6.0416105922
 30
0.0
 10
6.2833801611
 20
6.0411648327
 30
0.0
 10
6.278007177
 20
6.0407431859
 30
0.0
 10
6.2726132524
 20
6.0403463958
 30
0.0
 10
6.2671997156
 20
6.0399666637
 30
0.0
 10
6.2599467773
 20
6.0394739137
 30
0.0
 10
6.2508415034
 20
6.0388681105
 30
0.0
 10
6.2398761847
 20
6.038104877
 30
0.0
 10
6.2288674636
 20
6.0372511119
 30
0.0
 10
6.2178270289
 20
6.0362535977
 30
0.0
 10
6.2104654608
 20
6.0354585432
 30
0.0
 10
6.2067832768
 20
6.0350194981
 30
0.0
 11
6.6775049509
 21
6.0800786838
 31
0.0
 11
6.6774990266
 21
6.0801529228
 31
0.0
 11
6.6774928617
 21
6.0802096578
 31
0.0
 11
6.6774863701
 21
6.0802501464
 31
0.0
 11
6.6774829749
 21
6.0802646912
 31
0.0
 11
6.6774794657
 21
6.080275646
 31
0.0
 11
6.6774758318
 21
6.080283168
 31
0.0
 11
6.6774720625
 21
6.0802874144
 31
0.0
 11
6.6774681469
 21
6.0802885424
 31
0.0
 11
6.6774640743
 21
6.0802867091
 31
0.0
 11
6.6774598341
 21
6.0802820717
 31
0.0
 11
6.6774554153
 21
6.0802747876
 31
0.0
 11
6.6774508073
 21
6.0802650138
 31
0.0
 11
6.6774459993
 21
6.0802529075
 31
0.0
 11
6.6774357402
 21
6.0802223264
 31
0.0
 11
6.677424552
 21
6.0801843019
 31
0.0
 11
6.6774123487
 21
6.0801400915
 31
0.0
 11
6.6773990442
 21
6.0800909528
 31
0.0
 11
6.6773687872
 21
6.0799829209
 31
0.0
 11
6.6773330928
 21
6.0798702667
 31
0.0
 11
6.6772912725
 21
6.0797630508
 31
0.0
 11
6.6772426378
 21
6.0796713339
 31
0.0
 11
6.6771865011
 21
6.0796051648
 31
0.0
 11
6.6771224383
 21
6.0795707663
 31
0.0
 11
6.676971507
 21
6.0795834381
 31
0.0
 11
6.676885269
 21
6.079621492
 31
0.0
 11
6.6767922698
 21
6.0796746803
 31
0.0
 11
6.6766928247
 21
6.0797384947
 31
0.0
 11
6.6765872489
 21
6.079808427
 31
0.0
 11
6.6763589662
 21
6.0799486126
 31
0.0
 11
6.6762368899
 21
6.0800098494
 31
0.0
 11
6.676109944
 21
6.0800591713
 31
0.0
 11
6.6759784422
 21
6.0800920916
 31
0.0
 11
6.6758425532
 21
6.0801062723
 31
0.0
 11
6.6757021787
 21
6.0801033242
 31
0.0
 11
6.6755571917
 21
6.0800852816
 31
0.0
 11
6.6752528729
 21
6.080012051
 31
0.0
 11
6.6749285814
 21
6.0799028561
 31
0.0
 11
6.674583302
 21
6.0797739727
 31
0.0
 11
6.6742160193
 21
6.0796416765
 31
0.0
 11
6.6738257185
 21
6.0795222366
 31
0.0
 11
6.6734117218
 21
6.079427
 31
0.0
 11
6.6729742892
 21
6.0793536284
 31
0.0
 11
6.6720308018
 21
6.07925369
 31
0.0
 11
6.6709986274
 21
6.0791848407
 31
0.0
 11
6.6704503362
 21
6.0791503305
 31
0.0
 11
6.6698810843
 21
6.0791103269
 31
0.0
 11
6.6686802468
 21
6.0790127351
 31
0.0
 11
6.6673969339
 21
6.0788941692
 31
0.0
 11
6.666031909
 21
6.0787575956
 31
0.0
 11
6.6630599736
 21
6.0784404532
 31
0.0
 11
6.6597721414
 21
6.0780701058
 31
0.0
 11
6.6561767238
 21
6.0776498969
 31
0.0
 11
6.6522820756
 21
6.0771853403
 31
0.0
 11
6.648096577
 21
6.0766831401
 31
0.0
 11
6.6436286729
 21
6.0761491138
 31
0.0
 11
6.638886884
 21
6.0755880311
 31
0.0
 11
6.6338797756
 21
6.0750042342
 31
0.0
 11
6.6286161075
 21
6.0744002698
 31
0.0
 11
6.6231046984
 21
6.0737781393
 31
0.0
 11
6.6173541604
 21
6.0731398335
 31
0.0
 11
6.6113726193
 21
6.07248732
 31
0.0
 11
6.6051681315
 21
6.0718225535
 31
0.0
 11
6.5987488336
 21
6.0711452161
 31
0.0
 11
6.5921230458
 21
6.0704497786
 31
0.0
 11
6.585299114
 21
6.0697299841
 31
0.0
 11
6.5710869695
 21
6.0682088033
 31
0.0
 11
6.5637107213
 21
6.0674190381
 31
0.0
 11
6.5561619935
 21
6.0666192055
 31
0.0
 11
6.5484464227
 21
6.0658133379
 31
0.0
 11
6.5405695311
 21
6.0650017022
 31
0.0
 11
6.5325368334
 21
6.0641843241
 31
0.0
 11
6.5284637805
 21
6.0637734898
 31
0.0
 11
6.5243539108
 21
6.0633608374
 31
0.0
 11
6.5160277183
 21
6.0625227954
 31
0.0
 11
6.5075665007
 21
6.0616541618
 31
0.0
 11
6.4989785529
 21
6.0607386059
 31
0.0
 11
6.4946396473
 21
6.0602581289
 31
0.0
 11
6.490272144
 21
6.0597599233
 31
0.0
 11
6.4858764264
 21
6.0592451321
 31
0.0
 11
6.4814522322
 21
6.0587180485
 31
0.0
 11
6.472517245
 21
6.057644755
 31
0.0
 11
6.4634648447
 21
6.056575544
 31
0.0
 11
6.4588938843
 21
6.0560535637
 31
0.0
 11
6.454292694
 21
6.0555459171
 31
0.0
 11
6.449660982
 21
6.0550570408
 31
0.0
 11
6.4449986659
 21
6.0545899701
 31
0.0
 11
6.4403062922
 21
6.054143544
 31
0.0
 11
6.4355845241
 21
6.0537158196
 31
0.0
 11
6.4260554589
 21
6.0529087051
 31
0.0
 11
6.4164167774
 21
6.052153084
 31
0.0
 11
6.4066737867
 21
6.0514334138
 31
0.0
 11
6.3968318012
 21
6.050734138
 31
0.0
 11
6.3868963907
 21
6.0500391825
 31
0.0
 11
6.3768734501
 21
6.0493318167
 31
0.0
 11
6.3667688954
 21
6.0485952672
 31
0.0
 11
6.3565886422
 21
6.0478127609
 31
0.0
 11
6.3463386065
 21
6.0469675246
 31
0.0
 11
6.3411892303
 21
6.0465163267
 31
0.0
 11
6.3360239057
 21
6.046046627
 31
0.0
 11
6.325643493
 21
6.0450667976
 31
0.0
 11
6.3151934527
 21
6.0440585713
 31
0.0
 11
6.3046698532
 21
6.0430525601
 31
0.0
 11
6.2940687627
 21
6.0420793758
 31
0.0
 11
6.2887379297
 21
6.0416146601
 31
0.0
 11
6.2833862495
 21
6.0411696305
 31
0.0
 11
6.2780132419
 21
6.0407480552
 31
0.0
 11
6.2726191493
 21
6.0403498975
 31
0.0
 11
6.2672053684
 21
6.0399690487
 31
0.0
 11
6.2617733988
 21
6.0395988561
 31
0.0
 11
6.2508608928
 21
6.0388638304
 31
0.0
 11
6.2398936295
 21
6.038091601
 31
0.0
 11
6.228883607
 21
6.0372289487
 31
0.0
 11
6.2178428234
 21
6.0362226541
 31
0.0
 11
6.2067832768
 21
6.0350194981
 31
0.0
  0
SPLINE
  5
2F8
100
AcDbEntity
  8
0
100
AcDbSpline
 62
9
  6
CONTINUOUS
 70
0
 71
3
 72
121
 73
117
 74
115
 42
0.0000001
 43
0.0000001
 44
0.0000000001
 12
0.0330493174
 22
0.472627237
 32
0.0
 13
0.4704489647
 23
-0.0560939758
 33
0.0
 40
0.0
 40
0.0
 40
0.0
 40
0.0
 40
0.0001571928
 40
0.000277647
 40
0.0003641967
 40
0.0003957215
 40
0.000420001
 40
0.0004376331
 40
0.0004496176
 40
0.0004582181
 40
0.0004676448
 40
0.0004809076
 40
0.0004988899
 40
0.000521697
 40
0.0005491909
 40
0.000617273
 40
0.0007009326
 40
0.0007977361
 40
0.0009051864
 40
0.0011419813
 40
0.0013914083
 40
0.0016343123
 40
0.0018534302
 40
0.0020365816
 40
0.002190057
 40
0.0025097452
 40
0.0027086993
 40
0.0029348261
 40
0.0031842223
 40
0.0034515111
 40
0.0040169404
 40
0.004305205
 40
0.0045926599
 40
0.0048787831
 40
0.0051671586
 40
0.0054635094
 40
0.0057718906
 40
0.0064325453
 40
0.0071547813
 40
0.0079326709
 40
0.0087566438
 40
0.0096181538
 40
0.0105147903
 40
0.0114509675
 40
0.0134535066
 40
0.0156369359
 40
0.0167964923
 40
0.018000963
 40
0.020543901
 40
0.0232640977
 40
0.0261596108
 40
0.0324680252
 40
0.0394514676
 40
0.0470918909
 40
0.0553705128
 40
0.0642681182
 40
0.0737655493
 40
0.0838437618
 40
0.0944837483
 40
0.1056665542
 40
0.1173732438
 40
0.129585323
 40
0.1422853302
 40
0.1554559599
 40
0.1690802489
 40
0.1831419763
 40
0.1976250054
 40
0.2277936091
 40
0.2434514803
 40
0.2594736036
 40
0.2758472786
 40
0.2925608888
 40
0.3096028797
 40
0.3182434059
 40
0.3269616343
 40
0.3446243417
 40
0.3625771126
 40
0.3808062249
 40
0.3900202386
 40
0.3992984151
 40
0.4086397685
 40
0.4180438556
 40
0.4370383134
 40
0.4562778335
 40
0.4659883628
 40
0.4757589242
 40
0.4855892839
 40
0.4954791905
 40
0.5054280037
 40
0.5154349432
 40
0.5356197514
 40
0.5560263263
 40
0.5766466693
 40
0.5974723019
 40
0.6184939948
 40
0.6397018172
 40
0.6610858668
 40
0.6826364886
 40
0.7043444487
 40
0.7152547681
 40
0.7262020888
 40
0.7482091906
 40
0.7703682832
 40
0.7926814778
 40
0.8151510542
 40
0.8264454004
 40
0.8377800635
 40
0.8491556086
 40
0.8605717764
 40
0.872026766
 40
0.8835185005
 40
0.9066034792
 40
0.9298091563
 40
0.9531189933
 40
0.9765191281
 40
1.0
 40
1.0
 40
1.0
 40
1.0
 10
4.8320114636
 20
6.0800786838
 30
0.0
 10
4.8320131953
 20
6.0801034484
 30
0.0
 10
4.8320165643
 20
6.0801471748
 30
0.0
 10
4.8320225295
 20
6.0802043768
 30
0.0
 10
4.8320280289
 20
6.0802416907
 30
0.0
 10
4.8320329868
 20
6.0802636184
 30
0.0
 10
4.832036371
 20
6.0802747521
 30
0.0
 10
4.8320398948
 20
6.080282487
 30
0.0
 10
4.8320435534
 20
6.0802875003
 30
0.0
 10
4.8320484681
 20
6.0802891586
 30
0.0
 10
4.8320530944
 20
6.0802865364
 30
0.0
 10
4.8320571647
 20
6.0802815822
 30
0.0
 10
4.8320614988
 20
6.0802741786
 30
0.0
 10
4.8320660027
 20
6.0802643784
 30
0.0
 10
4.8320728225
 20
6.0802469603
 30
0.0
 10
4.8320815829
 20
6.0802200285
 30
0.0
 10
4.8320925329
 20
6.0801823344
 30
0.0
 10
4.8321045388
 20
6.0801384772
 30
0.0
 10
4.8321226512
 20
6.0800712211
 30
0.0
 10
4.8321475783
 20
6.0799808295
 30
0.0
 10
4.8321818558
 20
6.0798708765
 30
0.0
 10
4.8322218287
 20
6.0797656941
 30
0.0
 10
4.8322680653
 20
6.0796747221
 30
0.0
 10
4.8323224851
 20
6.0796041972
 30
0.0
 10
4.8324165387
 20
6.0795520859
 30
0.0
 10
4.8325298244
 20
6.0795727498
 30
0.0
 10
4.8326354498
 20
6.0796220148
 30
0.0
 10
4.832727842
 20
6.0796758625
 30
0.0
 10
4.8328260729
 20
6.0797398323
 30
0.0
 10
4.8329681224
 20
6.0798348496
 30
0.0
 10
4.833117629
 20
6.0799300951
 30
0.0
 10
4.8332785201
 20
6.0800117206
 30
0.0
 10
4.8334053476
 20
6.0800618486
 30
0.0
 10
4.8335377376
 20
6.0800955007
 30
0.0
 10
4.8336750424
 20
6.0801092037
 30
0.0
 10
4.8338163361
 20
6.0801056369
 30
0.0
 10
4.8340148097
 20
6.0800800135
 30
0.0
 10
4.8342743357
 20
6.0800136211
 30
0.0
 10
4.8345967034
 20
6.0799014981
 30
0.0
 10
4.8349396445
 20
6.0797706751
 30
0.0
 10
4.8353048842
 20
6.0796366005
 30
0.0
 10
4.8356946312
 20
6.0795155046
 30
0.0
 10
4.8361100381
 20
6.0794215986
 30
0.0
 10
4.8367079324
 20
6.0793231017
 30
0.0
 10
4.8375137814
 20
6.0792455068
 30
0.0
 10
4.8383563928
 20
6.0791948985
 30
0.0
 10
4.8390732113
 20
6.0791506838
 30
0.0
 10
4.8398462408
 20
6.0790961576
 30
0.0
 10
4.8408642556
 20
6.0790125328
 30
0.0
 10
4.8421472018
 20
6.0788931678
 30
0.0
 10
4.8440208863
 20
6.0787045627
 30
0.0
 10
4.8465627249
 20
6.0784316554
 30
0.0
 10
4.8498476308
 20
6.0780606955
 30
0.0
 10
4.8534399523
 20
6.077639487
 30
0.0
 10
4.8573314446
 20
6.0771740908
 30
0.0
 10
4.8615138457
 20
6.0766714724
 30
0.0
 10
4.8659787108
 20
6.0761373586
 30
0.0
 10
4.8707174703
 20
6.075576204
 30
0.0
 10
4.8757216163
 20
6.0749928204
 30
0.0
 10
4.8809823243
 20
6.0743892674
 30
0.0
 10
4.8864908402
 20
6.0737675165
 30
0.0
 10
4.8922386468
 20
6.0731295701
 30
0.0
 10
4.8982174728
 20
6.0724773355
 30
0.0
 10
4.9044193278
 20
6.071813104
 30
0.0
 10
4.9108362296
 20
6.0711374554
 30
0.0
 10
4.9174596009
 20
6.0704434165
 30
0.0
 10
4.9266810354
 20
6.0694722356
 30
0.0
 10
4.9361508266
 20
6.0684527316
 30
0.0
 10
4.9458627373
 20
6.0674114727
 30
0.0
 10
4.9534094214
 20
6.066611358
 30
0.0
 10
4.9611232061
 20
6.0658060226
 30
0.0
 10
4.9689983011
 20
6.0649947326
 30
0.0
 10
4.9756594195
 20
6.0643170747
 30
0.0
 10
4.9810648066
 20
6.0637718935
 30
0.0
 10
4.9865680255
 20
6.0632198462
 30
0.0
 10
4.9935345545
 20
6.0625209836
 30
0.0
 10
5.0019938987
 20
6.0616552246
 30
0.0
 10
5.0091229926
 20
6.060897251
 30
0.0
 10
5.0148871167
 20
6.0602594908
 30
0.0
 10
5.0192544486
 20
6.0597610769
 30
0.0
 10
5.0236499979
 20
6.05924541
 30
0.0
 10
5.0295681835
 20
6.0585393404
 30
0.0
 10
5.0370372291
 20
6.0576371258
 30
0.0
 10
5.0445561655
 20
6.0567442889
 30
0.0
 10
5.0506316231
 20
6.0560495894
 30
0.0
 10
5.0552327132
 20
6.055541248
 30
0.0
 10
5.0598643458
 20
6.0550517884
 30
0.0
 10
5.06452663
 20
6.0545851877
 30
0.0
 10
5.0692189347
 20
6.0541391522
 30
0.0
 10
5.0755324332
 20
6.053567774
 30
0.0
 10
5.0834950613
 20
6.0528958858
 30
0.0
 10
5.093132754
 20
6.0521432825
 30
0.0
 10
5.1028746375
 20
6.0514265118
 30
0.0
 10
5.112715374
 20
6.0507301534
 30
0.0
 10
5.1226494207
 20
6.0500381913
 30
0.0
 10
5.1326709993
 20
6.0493337102
 30
0.0
 10
5.1427742499
 20
6.0486000158
 30
0.0
 10
5.1529532825
 20
6.047820215
 30
0.0
 10
5.1614793485
 20
6.0471195754
 30
0.0
 10
5.1683332652
 20
6.0465187188
 30
0.0
 10
5.1752321512
 20
6.0458903588
 30
0.0
 10
5.1838971639
 20
6.045068088
 30
0.0
 10
5.1943470341
 20
6.0440546723
 30
0.0
 10
5.2048705153
 20
6.0430436033
 30
0.0
 10
5.2136891986
 20
6.0422298963
 30
0.0
 10
5.2207845271
 20
6.0416105922
 30
0.0
 10
5.2261362534
 20
6.0411648327
 30
0.0
 10
5.2315092375
 20
6.0407431859
 30
0.0
 10
5.236903162
 20
6.0403463958
 30
0.0
 10
5.2423166989
 20
6.0399666637
 30
0.0
 10
5.2495696371
 20
6.0394739137
 30
0.0
 10
5.2586749111
 20
6.0388681105
 30
0.0
 10
5.2696402298
 20
6.038104877
 30
0.0
 10
5.2806489509
 20
6.0372511119
 30
0.0
 10
5.2916893856
 20
6.0362535977
 30
0.0
 10
5.2990509537
 20
6.0354585432
 30
0.0
 10
5.3027331377
 20
6.0350194981
 30
0.0
 11
4.8320114636
 21
6.0800786838
 31
0.0
 11
4.8320173878
 21
6.0801529228
 31
0.0
 11
4.8320235528
 21
6.0802096578
 31
0.0
 11
4.8320300444
 21
6.0802501464
 31
0.0
 11
4.8320334396
 21
6.0802646912
 31
0.0
 11
4.8320369488
 21
6.080275646
 31
0.0
 11
4.8320405827
 21
6.080283168
 31
0.0
 11
4.832044352
 21
6.0802874144
 31
0.0
 11
4.8320482676
 21
6.0802885424
 31
0.0
 11
4.8320523401
 21
6.0802867091
 31
0.0
 11
4.8320565804
 21
6.0802820717
 31
0.0
 11
4.8320609992
 21
6.0802747876
 31
0.0
 11
4.8320656072
 21
6.0802650138
 31
0.0
 11
4.8320704152
 21
6.0802529075
 31
0.0
 11
4.8320806743
 21
6.0802223264
 31
0.0
 11
4.8320918624
 21
6.0801843019
 31
0.0
 11
4.8321040658
 21
6.0801400915
 31
0.0
 11
4.8321173703
 21
6.0800909528
 31
0.0
 11
4.8321476272
 21
6.0799829209
 31
0.0
 11
4.8321833216
 21
6.0798702667
 31
0.0
 11
4.832225142
 21
6.0797630508
 31
0.0
 11
4.8322737767
 21
6.0796713339
 31
0.0
 11
4.8323299134
 21
6.0796051648
 31
0.0
 11
4.8323939762
 21
6.0795707663
 31
0.0
 11
4.8325449075
 21
6.0795834381
 31
0.0
 11
4.8326311454
 21
6.079621492
 31
0.0
 11
4.8327241446
 21
6.0796746803
 31
0.0
 11
4.8328235898
 21
6.0797384947
 31
0.0
 11
4.8329291656
 21
6.079808427
 31
0.0
 11
4.8331574483
 21
6.0799486126
 31
0.0
 11
4.8332795246
 21
6.0800098494
 31
0.0
 11
4.8334064705
 21
6.0800591713
 31
0.0
 11
4.8335379723
 21
6.0800920916
 31
0.0
 11
4.8336738613
 21
6.0801062723
 31
0.0
 11
4.8338142358
 21
6.0801033242
 31
0.0
 11
4.8339592228
 21
6.0800852816
 31
0.0
 11
4.8342635416
 21
6.080012051
 31
0.0
 11
4.8345878331
 21
6.0799028561
 31
0.0
 11
4.8349331125
 21
6.0797739727
 31
0.0
 11
4.8353003952
 21
6.0796416765
 31
0.0
 11
4.835690696
 21
6.0795222366
 31
0.0
 11
4.8361046926
 21
6.079427
 31
0.0
 11
4.8365421252
 21
6.0793536284
 31
0.0
 11
4.8374856127
 21
6.07925369
 31
0.0
 11
4.8385177871
 21
6.0791848407
 31
0.0
 11
4.8390660783
 21
6.0791503305
 31
0.0
 11
4.8396353301
 21
6.0791103269
 31
0.0
 11
4.8408361676
 21
6.0790127351
 31
0.0
 11
4.8421194806
 21
6.0788941692
 31
0.0
 11
4.8434845054
 21
6.0787575956
 31
0.0
 11
4.8464564408
 21
6.0784404532
 31
0.0
 11
4.8497442731
 21
6.0780701058
 31
0.0
 11
4.8533396907
 21
6.0776498969
 31
0.0
 11
4.8572343388
 21
6.0771853403
 31
0.0
 11
4.8614198375
 21
6.0766831401
 31
0.0
 11
4.8658877416
 21
6.0761491138
 31
0.0
 11
4.8706295304
 21
6.0755880311
 31
0.0
 11
4.8756366389
 21
6.0750042342
 31
0.0
 11
4.880900307
 21
6.0744002698
 31
0.0
 11
4.886411716
 21
6.0737781393
 31
0.0
 11
4.8921622541
 21
6.0731398335
 31
0.0
 11
4.8981437951
 21
6.07248732
 31
0.0
 11
4.9043482829
 21
6.0718225535
 31
0.0
 11
4.9107675809
 21
6.0711452161
 31
0.0
 11
4.9173933687
 21
6.0704497786
 31
0.0
 11
4.9242173004
 21
6.0697299841
 31
0.0
 11
4.938429445
 21
6.0682088033
 31
0.0
 11
4.9458056932
 21
6.0674190381
 31
0.0
 11
4.953354421
 21
6.0666192055
 31
0.0
 11
4.9610699917
 21
6.0658133379
 31
0.0
 11
4.9689468833
 21
6.0650017022
 31
0.0
 11
4.9769795811
 21
6.0641843241
 31
0.0
 11
4.9810526339
 21
6.0637734898
 31
0.0
 11
4.9851625036
 21
6.0633608374
 31
0.0
 11
4.9934886962
 21
6.0625227954
 31
0.0
 11
5.0019499138
 21
6.0616541618
 31
0.0
 11
5.0105378616
 21
6.0607386059
 31
0.0
 11
5.0148767671
 21
6.0602581289
 31
0.0
 11
5.0192442705
 21
6.0597599233
 31
0.0
 11
5.023639988
 21
6.0592451321
 31
0.0
 11
5.0280641822
 21
6.0587180485
 31
0.0
 11
5.0369991695
 21
6.057644755
 31
0.0
 11
5.0460515697
 21
6.056575544
 31
0.0
 11
5.0506225302
 21
6.0560535637
 31
0.0
 11
5.0552237204
 21
6.0555459171
 31
0.0
 11
5.0598554325
 21
6.0550570408
 31
0.0
 11
5.0645177486
 21
6.0545899701
 31
0.0
 11
5.0692101223
 21
6.054143544
 31
0.0
 11
5.0739318903
 21
6.0537158196
 31
0.0
 11
5.0834609556
 21
6.0529087051
 31
0.0
 11
5.0930996371
 21
6.052153084
 31
0.0
 11
5.1028426277
 21
6.0514334138
 31
0.0
 11
5.1126846133
 21
6.050734138
 31
0.0
 11
5.1226200238
 21
6.0500391825
 31
0.0
 11
5.1326429643
 21
6.0493318167
 31
0.0
 11
5.1427475191
 21
6.0485952672
 31
0.0
 11
5.1529277722
 21
6.0478127609
 31
0.0
 11
5.1631778079
 21
6.0469675246
 31
0.0
 11
5.1683271841
 21
6.0465163267
 31
0.0
 11
5.1734925088
 21
6.046046627
 31
0.0
 11
5.1838729215
 21
6.0450667976
 31
0.0
 11
5.1943229617
 21
6.0440585713
 31
0.0
 11
5.2048465612
 21
6.0430525601
 31
0.0
 11
5.2154476517
 21
6.0420793758
 31
0.0
 11
5.2207784848
 21
6.0416146601
 31
0.0
 11
5.2261301649
 21
6.0411696305
 31
0.0
 11
5.2315031726
 21
6.0407480552
 31
0.0
 11
5.2368972651
 21
6.0403498975
 31
0.0
 11
5.2423110461
 21
6.0399690487
 31
0.0
 11
5.2477430157
 21
6.0395988561
 31
0.0
 11
5.2586555216
 21
6.0388638304
 31
0.0
 11
5.269622785
 21
6.038091601
 31
0.0
 11
5.2806328075
 21
6.0372289487
 31
0.0
 11
5.2916735911
 21
6.0362226541
 31
0.0
 11
5.3027331377
 21
6.0350194981
 31
0.0
  0
SPLINE
  5
2F9
100
AcDbEntity
  8
0
100
AcDbSpline
 62
9
  6
CONTINUOUS
 70
0
 71
3
 72
40
 73
36
 74
34
 42
0.0000001
 43
0.0000001
 44
0.0000000001
 12
0.3660249477
 22
0.0405580553
 32
0.0
 13
0.3576392108
 23
-0.0878260392
 33
0.0
 40
0.0
 40
0.0
 40
0.0
 40
0.0
 40
0.0298411443
 40
0.0596117949
 40
0.0893851426
 40
0.1192150697
 40
0.1791735397
 40
0.2093396922
 40
0.2396343485
 40
0.2700528925
 40
0.3005869541
 40
0.3312269587
 40
0.3465840234
 40
0.3619647951
 40
0.3927992177
 40
0.423737218
 40
0.4859554592
 40
0.5486926138
 40
0.5802819698
 40
0.6120328653
 40
0.6439572975
 40
0.6599886493
 40
0.6760681987
 40
0.6921975912
 40
0.7083751694
 40
0.7245934681
 40
0.7408439906
 40
0.7734064488
 40
0.8059928281
 40
0.8385402951
 40
0.8710008445
 40
0.9033494982
 40
0.935592846
 40
0.9677777829
 40
1.0
 40
1.0
 40
1.0
 40
1.0
 10
5.3027331377
 20
6.0350194981
 30
0.0
 10
5.3063740054
 20
6.035422931
 30
0.0
 10
5.3136686134
 20
6.0360447997
 30
0.0
 10
5.3246358291
 20
6.0364750488
 30
0.0
 10
5.3356096151
 20
6.0364602261
 30
0.0
 10
5.3502790727
 20
6.0359250148
 30
0.0
 10
5.3649628566
 20
6.03473458
 30
0.0
 10
5.3796577692
 20
6.0331317587
 30
0.0
 10
5.3907313772
 20
6.0317766275
 30
0.0
 10
5.4018385997
 20
6.0303297067
 30
0.0
 10
5.4129841937
 20
6.028849527
 30
0.0
 10
5.4223004135
 20
6.027638258
 30
0.0
 10
5.4297775892
 20
6.0267108424
 30
0.0
 10
5.4372832999
 20
6.0258204751
 30
0.0
 10
5.4466978965
 20
6.0247865934
 30
0.0
 10
5.4618465397
 20
6.0233065054
 30
0.0
 10
5.4809264266
 20
6.021803983
 30
0.0
 10
5.5001201568
 20
6.0208119926
 30
0.0
 10
5.5155902395
 20
6.0203456196
 30
0.0
 10
5.5272835232
 20
6.0201660378
 30
0.0
 10
5.5370683395
 20
6.0201643197
 30
0.0
 10
5.5449285474
 20
6.0202546304
 30
0.0
 10
5.5508492466
 20
6.0203690742
 30
0.0
 10
5.5567867678
 20
6.0205319012
 30
0.0
 10
5.5627399017
 20
6.020739765
 30
0.0
 10
5.5687067647
 20
6.0209776756
 30
0.0
 10
5.576682439
 20
6.0213177187
 30
0.0
 10
5.5866652353
 20
6.0217508154
 30
0.0
 10
5.598650691
 20
6.0221759121
 30
0.0
 10
5.6106297
 20
6.022398946
 30
0.0
 10
5.6225822392
 20
6.0223118964
 30
0.0
 10
5.6344882908
 20
6.0218063747
 30
0.0
 10
5.6463280956
 20
6.0207733667
 30
0.0
 10
5.6580807082
 20
6.0191034311
 30
0.0
 10
5.6658291391
 20
6.0174948306
 30
0.0
 10
5.6696704485
 20
6.0165515141
 30
0.0
 11
5.3027331377
 21
6.0350194981
 31
0.0
 11
5.3136821341
 21
6.0359616041
 31
0.0
 11
5.3246368216
 21
6.036400921
 31
0.0
 11
5.3356013068
 21
6.036396126
 31
0.0
 11
5.3465796961
 21
6.0360058964
 31
0.0
 11
5.3685946129
 21
6.0343038425
 31
0.0
 11
5.3796393533
 21
6.0331093727
 31
0.0
 11
5.3907144236
 21
6.0317641774
 31
0.0
 11
5.4018239304
 21
6.0303269338
 31
0.0
 11
5.4129719802
 21
6.0288563193
 31
0.0
 11
5.4241626792
 21
6.027411011
 31
0.0
 11
5.4297753056
 21
6.0267161833
 31
0.0
 11
5.4354001207
 21
6.0260493698
 31
0.0
 11
5.4466875809
 21
6.0248105033
 31
0.0
 11
5.4580270635
 21
6.0237035218
 31
0.0
 11
5.4808696694
 21
6.0219112601
 31
0.0
 11
5.5039430862
 21
6.020724678
 31
0.0
 11
5.5155710823
 21
6.0203747959
 31
0.0
 11
5.5272624614
 21
6.0201958687
 31
0.0
 11
5.539019117
 21
6.0201944079
 31
0.0
 11
5.5449225152
 21
6.0202622623
 31
0.0
 11
5.5508429425
 21
6.0203769252
 31
0.0
 11
5.5567806204
 21
6.0205391353
 31
0.0
 11
5.5627347182
 21
6.0207444942
 31
0.0
 11
5.5687026972
 21
6.0209802587
 31
0.0
 11
5.5746818622
 21
6.0212329212
 31
0.0
 11
5.586662969
 21
6.0217349103
 31
0.0
 11
5.5986564763
 21
6.0221424013
 31
0.0
 11
5.610640822
 21
6.022347334
 31
0.0
 11
5.6225944438
 21
6.0222416481
 31
0.0
 11
5.6344957795
 21
6.0217172834
 31
0.0
 11
5.646323267
 21
6.0206661796
 31
0.0
 11
5.6580553441
 21
6.0189802766
 31
0.0
 11
5.6696704485
 21
6.0165515141
 31
0.0
  0
SPLINE
  5
2FA
100
AcDbEntity
  8
0
100
AcDbSpline
 62
9
  6
CONTINUOUS
 70
0
 71
3
 72
51
 73
47
 74
45
 42
0.0000001
 43
0.0000001
 44
0.0000000001
 12
0.3012942235
 22
0.9360150143
 32
0.0
 13
-0.9832227585
 23
0.0132409737
 33
0.0
 40
0.0
 40
0.0
 40
0.0
 40
0.0
 40
0.0031681097
 40
0.0063578906
 40
0.01284658
 40
0.0195548167
 40
0.0265523895
 40
0.0338939498
 40
0.0416205201
 40
0.0497614964
 40
0.0583366929
 40
0.0673581888
 40
0.0768319695
 40
0.0867611025
 40
0.0971465407
 40
0.1079857419
 40
0.1192732542
 40
0.1310012681
 40
0.1431600541
 40
0.1557383116
 40
0.168723446
 40
0.1821017926
 40
0.1958589191
 40
0.2244653176
 40
0.2544741694
 40
0.2858125075
 40
0.3183780167
 40
0.3350841304
 40
0.3520521753
 40
0.3867284041
 40
0.4223359225
 40
0.4588080723
 40
0.4960790287
 40
0.5340839327
 40
0.5727324752
 40
0.611878832
 40
0.6513731916
 40
0.6910700882
 40
0.7308293043
 40
0.7705169344
 40
0.810002781
 40
0.8491530865
 40
0.8878399176
 40
0.9259450175
 40
0.9633621509
 40
1.0
 40
1.0
 40
1.0
 40
1.0
 10
6.5751910555
 20
5.2347163759
 30
0.0
 10
6.5755092332
 20
5.235704842
 30
0.0
 10
6.57608068
 20
5.237710878
 30
0.0
 10
6.5769644996
 20
5.2418303034
 30
0.0
 10
6.5775784976
 20
5.247181591
 30
0.0
 10
6.5775462181
 20
5.2538143387
 30
0.0
 10
6.5767710416
 20
5.2606814319
 30
0.0
 10
6.5752727056
 20
5.2677670093
 30
0.0
 10
6.5730702269
 20
5.2750569029
 30
0.0
 10
6.5701815992
 20
5.282536755
 30
0.0
 10
6.5666241786
 20
5.2901921015
 30
0.0
 10
6.5624150105
 20
5.2980082715
 30
0.0
 10
6.5575701521
 20
5.305970649
 30
0.0
 10
6.5521068163
 20
5.3140666431
 30
0.0
 10
6.5460436726
 20
5.322286333
 30
0.0
 10
6.5393984737
 20
5.3306200601
 30
0.0
 10
6.5321890975
 20
5.339058167
 30
0.0
 10
6.524433402
 20
5.3475908907
 30
0.0
 10
6.5161492815
 20
5.356208416
 30
0.0
 10
6.5073546466
 20
5.3649008818
 30
0.0
 10
6.498067452
 20
5.3736584004
 30
0.0
 10
6.4883055651
 20
5.3824710762
 30
0.0
 10
6.4744992982
 20
5.3944392469
 30
0.0
 10
6.4561330176
 20
5.4094612042
 30
0.0
 10
6.4326860361
 20
5.4273454465
 30
0.0
 10
6.4076405089
 20
5.4452485166
 30
0.0
 10
6.385712949
 20
5.4599954117
 30
0.0
 10
6.3674594341
 20
5.4717519782
 30
0.0
 10
6.3484683488
 20
5.4836376443
 30
0.0
 10
6.3239365148
 20
5.4983432799
 30
0.0
 10
6.2934831862
 20
5.5155838736
 30
0.0
 10
6.2618662337
 20
5.5324737697
 30
0.0
 10
6.2291458975
 20
5.5489429089
 30
0.0
 10
6.1953906445
 20
5.5649182906
 30
0.0
 10
6.1606931793
 20
5.5803137741
 30
0.0
 10
6.1251673543
 20
5.5950168355
 30
0.0
 10
6.0889470675
 20
5.6089067349
 30
0.0
 10
6.0521682234
 20
5.621861386
 30
0.0
 10
6.0149667566
 20
5.6337590245
 30
0.0
 10
5.9774794105
 20
5.6444767974
 30
0.0
 10
5.9398491236
 20
5.6538934801
 30
0.0
 10
5.9022310658
 20
5.6619134773
 30
0.0
 10
5.8647832235
 20
5.6684380648
 30
0.0
 10
5.8276636301
 20
5.6733688325
 30
0.0
 10
5.7910316929
 20
5.6766070539
 30
0.0
 10
5.7667659296
 20
5.6775825025
 30
0.0
 10
5.7547582072
 20
5.6777442095
 30
0.0
 11
6.5751910555
 21
5.2347163759
 31
0.0
 11
6.5760454511
 21
5.2377121611
 31
0.0
 11
6.5767046061
 21
5.2407786669
 31
0.0
 11
6.5774456309
 21
5.2471158948
 31
0.0
 11
6.5774310041
 21
5.2537121676
 31
0.0
 11
6.5766776
 21
5.2605515934
 31
0.0
 11
6.5752022926
 21
5.2676182801
 31
0.0
 11
6.5730219563
 21
5.2748963356
 31
0.0
 11
6.570153465
 21
5.2823698681
 31
0.0
 11
6.5666136932
 21
5.2900229855
 31
0.0
 11
6.5624195148
 21
5.2978397958
 31
0.0
 11
6.5575878254
 21
5.3058045116
 31
0.0
 11
6.5521360791
 21
5.3139040868
 31
0.0
 11
6.5460823288
 21
5.322128417
 31
0.0
 11
6.5394446574
 21
5.3304675423
 31
0.0
 11
6.5322411474
 21
5.338911503
 31
0.0
 11
6.5244898816
 21
5.3474503391
 31
0.0
 11
6.5162089426
 21
5.3560740909
 31
0.0
 11
6.507416413
 21
5.3647727985
 31
0.0
 11
6.4981303755
 21
5.3735365022
 31
0.0
 11
6.4883689129
 21
5.3823552421
 31
0.0
 11
6.4781499794
 21
5.3912190963
 31
0.0
 11
6.4563928496
 21
5.4090479672
 31
0.0
 11
6.4329440148
 21
5.4269610306
 31
0.0
 11
6.4078858541
 21
5.4448963327
 31
0.0
 11
6.3813225183
 21
5.4627793157
 31
0.0
 11
6.3675127067
 21
5.4716757176
 31
0.0
 11
6.3533700831
 21
5.4805284822
 31
0.0
 11
6.324128214
 21
5.4980657547
 31
0.0
 11
6.293661716
 21
5.5153204197
 31
0.0
 11
6.2620309775
 21
5.5322226967
 31
0.0
 11
6.2292963869
 21
5.5487028052
 31
0.0
 11
6.1955184538
 21
5.5646908812
 31
0.0
 11
6.1607797951
 21
5.5801018217
 31
0.0
 11
6.1252106931
 21
5.5948176675
 31
0.0
 11
6.0889476304
 21
5.6087161855
 31
0.0
 11
6.0521270892
 21
5.6216751429
 31
0.0
 11
6.0148855519
 21
5.6335723066
 31
0.0
 11
5.9773595057
 21
5.6442854484
 31
0.0
 11
5.9396906903
 21
5.6536976091
 31
0.0
 11
5.9020361768
 21
5.6617072087
 31
0.0
 11
5.8645558186
 21
5.6682154578
 31
0.0
 11
5.8274094688
 21
5.6731235672
 31
0.0
 11
5.7907569806
 21
5.6763327475
 31
0.0
 11
5.7547582072
 21
5.6777442095
 31
0.0
  0
SPLINE
  5
2FB
100
AcDbEntity
  8
0
100
AcDbSpline
 62
6
  6
CONTINUOUS
 70
0
 71
3
 72
35
 73
31
 74
29
 42
0.0000001
 43
0.0000001
 44
0.0000000001
 12
-0.0000025566
 22
-0.7846062838
 32
0.0
 13
-0.7846062838
 23
0.0
 33
0.0
 40
0.0
 40
0.0
 40
0.0
 40
0.0
 40
0.0302403572
 40
0.0605151822
 40
0.0908256072
 40
0.1211716229
 40
0.1515540348
 40
0.1819785333
 40
0.2124520991
 40
0.2429822973
 40
0.2735779739
 40
0.3042486593
 40
0.3350020845
 40
0.3658442563
 40
0.3967792106
 40
0.4278070521
 40
0.4589268689
 40
0.4901381532
 40
0.5528208827
 40
0.6158814298
 40
0.647557367
 40
0.6793162604
 40
0.7111503895
 40
0.7430526023
 40
0.7750176931
 40
0.807043409
 40
0.8712452199
 40
0.9034254963
 40
0.9356296233
 40
1.0
 40
1.0
 40
1.0
 40
1.0
 10
6.269757315
 20
1.5457157653
 30
0.0
 10
6.2697572892
 20
1.5378068406
 30
0.0
 10
6.2693382336
 20
1.5219768634
 30
0.0
 10
6.2674660144
 20
1.4982863716
 30
0.0
 10
6.2643608496
 20
1.4746973078
 30
0.0
 10
6.2600336551
 20
1.4512731697
 30
0.0
 10
6.2544948175
 20
1.428074907
 30
0.0
 10
6.2477576608
 20
1.4051611567
 30
0.0
 10
6.239835255
 20
1.3825887475
 30
0.0
 10
6.230740585
 20
1.3604140928
 30
0.0
 10
6.2204864664
 20
1.338694237
 30
0.0
 10
6.209106048
 20
1.3174767938
 30
0.0
 10
6.1966323329
 20
1.2968079564
 30
0.0
 10
6.1830982732
 20
1.2767341328
 30
0.0
 10
6.1685374655
 20
1.2573024704
 30
0.0
 10
6.1529846812
 20
1.2385610595
 30
0.0
 10
6.1364745513
 20
1.2205584117
 30
0.0
 10
6.1132026881
 20
1.197576594
 30
0.0
 10
6.0818756442
 20
1.1709414137
 30
0.0
 10
6.0480284824
 20
1.1473855987
 30
0.0
 10
6.0195912143
 20
1.1304596936
 30
0.0
 10
5.9975932785
 20
1.1187382698
 30
0.0
 10
5.9750131047
 20
1.1080440434
 30
0.0
 10
5.951902262
 20
1.0984096639
 30
0.0
 10
5.9283118715
 20
1.089867456
 30
0.0
 10
5.8962780316
 20
1.079942213
 30
0.0
 10
5.8635284848
 20
1.0722524632
 30
0.0
 10
5.8303277125
 20
1.0668367154
 30
0.0
 10
5.7968708617
 20
1.0629447839
 30
0.0
 10
5.7715933413
 20
1.0617604145
 30
0.0
 10
5.7547582072
 20
1.0617604145
 30
0.0
 11
6.269757315
 21
1.5457157653
 31
0.0
 11
6.269131617
 21
1.5219972426
 31
0.0
 11
6.2672619816
 21
1.4983171174
 31
0.0
 11
6.2641593646
 21
1.474738623
 31
0.0
 11
6.2598347219
 21
1.451324993
 31
0.0
 11
6.2542993735
 21
1.4281383332
 31
0.0
 11
6.2475660475
 21
1.4052363896
 31
0.0
 11
6.2396478122
 21
1.3826758543
 31
0.0
 11
6.230557736
 21
1.3605134196
 31
0.0
 11
6.220311973
 21
1.338804176
 31
0.0
 11
6.2089398714
 21
1.3175963648
 31
0.0
 11
6.1964743053
 21
1.2969363972
 31
0.0
 11
6.1829481487
 21
1.2768706843
 31
0.0
 11
6.168394678
 21
1.2574460916
 31
0.0
 11
6.1528488586
 21
1.238711392
 31
0.0
 11
6.1363460988
 21
1.2207158585
 31
0.0
 11
6.1189218069
 21
1.203508764
 31
0.0
 11
6.0814692278
 21
1.1716324249
 31
0.0
 11
6.0408691983
 21
1.1433538012
 31
0.0
 11
6.0195134615
 21
1.1306411682
 31
0.0
 11
5.9975226254
 21
1.118922756
 31
0.0
 11
5.9749491372
 21
1.1082315898
 31
0.0
 11
5.951845444
 21
1.098600695
 31
0.0
 11
5.9282648169
 21
1.090058975
 31
0.0
 11
5.9042635183
 21
1.0826203706
 31
0.0
 11
5.85522667
 21
1.0710946959
 31
0.0
 11
5.8303073181
 21
1.0670289635
 31
0.0
 11
5.8052089267
 21
1.0641099988
 31
0.0
 11
5.7547582072
 21
1.0617604145
 31
0.0
  0
SPLINE
  5
2FC
100
AcDbEntity
  8
0
100
AcDbSpline
 62
9
  6
CONTINUOUS
 70
0
 71
3
 72
51
 73
47
 74
45
 42
0.0000001
 43
0.0000001
 44
0.0000000001
 12
-0.3012942235
 22
0.9360150143
 32
0.0
 13
0.9832227585
 23
0.0132409737
 33
0.0
 40
0.0
 40
0.0
 40
0.0
 40
0.0
 40
0.0031681097
 40
0.0063578906
 40
0.01284658
 40
0.0195548167
 40
0.0265523895
 40
0.0338939498
 40
0.0416205201
 40
0.0497614964
 40
0.0583366929
 40
0.0673581888
 40
0.0768319695
 40
0.0867611025
 40
0.0971465407
 40
0.1079857419
 40
0.1192732542
 40
0.1310012681
 40
0.1431600541
 40
0.1557383116
 40
0.168723446
 40
0.1821017926
 40
0.1958589191
 40
0.2244653176
 40
0.2544741694
 40
0.2858125075
 40
0.3183780167
 40
0.3350841304
 40
0.3520521753
 40
0.3867284041
 40
0.4223359225
 40
0.4588080723
 40
0.4960790287
 40
0.5340839327
 40
0.5727324752
 40
0.611878832
 40
0.6513731916
 40
0.6910700882
 40
0.7308293043
 40
0.7705169344
 40
0.810002781
 40
0.8491530865
 40
0.8878399176
 40
0.9259450175
 40
0.9633621509
 40
1.0
 40
1.0
 40
1.0
 40
1.0
 10
4.934325359
 20
5.2347163759
 30
0.0
 10
4.9340071813
 20
5.235704842
 30
0.0
 10
4.9334357345
 20
5.237710878
 30
0.0
 10
4.9325519149
 20
5.2418303034
 30
0.0
 10
4.9319379168
 20
5.247181591
 30
0.0
 10
4.9319701963
 20
5.2538143387
 30
0.0
 10
4.9327453729
 20
5.2606814319
 30
0.0
 10
4.9342437089
 20
5.2677670093
 30
0.0
 10
4.9364461875
 20
5.2750569029
 30
0.0
 10
4.9393348153
 20
5.282536755
 30
0.0
 10
4.9428922359
 20
5.2901921015
 30
0.0
 10
4.947101404
 20
5.2980082715
 30
0.0
 10
4.9519462624
 20
5.305970649
 30
0.0
 10
4.9574095982
 20
5.3140666431
 30
0.0
 10
4.9634727418
 20
5.322286333
 30
0.0
 10
4.9701179408
 20
5.3306200601
 30
0.0
 10
4.9773273169
 20
5.339058167
 30
0.0
 10
4.9850830125
 20
5.3475908907
 30
0.0
 10
4.993367133
 20
5.356208416
 30
0.0
 10
5.0021617678
 20
5.3649008818
 30
0.0
 10
5.0114489624
 20
5.3736584004
 30
0.0
 10
5.0212108494
 20
5.3824710762
 30
0.0
 10
5.0350171162
 20
5.3944392469
 30
0.0
 10
5.0533833969
 20
5.4094612042
 30
0.0
 10
5.0768303784
 20
5.4273454465
 30
0.0
 10
5.1018759056
 20
5.4452485166
 30
0.0
 10
5.1238034655
 20
5.4599954117
 30
0.0
 10
5.1420569804
 20
5.4717519782
 30
0.0
 10
5.1610480657
 20
5.4836376443
 30
0.0
 10
5.1855798997
 20
5.4983432799
 30
0.0
 10
5.2160332282
 20
5.5155838736
 30
0.0
 10
5.2476501807
 20
5.5324737697
 30
0.0
 10
5.2803705169
 20
5.5489429089
 30
0.0
 10
5.31412577
 20
5.5649182906
 30
0.0
 10
5.3488232351
 20
5.5803137741
 30
0.0
 10
5.3843490602
 20
5.5950168355
 30
0.0
 10
5.420569347
 20
5.6089067349
 30
0.0
 10
5.4573481911
 20
5.621861386
 30
0.0
 10
5.4945496579
 20
5.6337590245
 30
0.0
 10
5.532037004
 20
5.6444767974
 30
0.0
 10
5.5696672908
 20
5.6538934801
 30
0.0
 10
5.6072853487
 20
5.6619134773
 30
0.0
 10
5.644733191
 20
5.6684380648
 30
0.0
 10
5.6818527843
 20
5.6733688325
 30
0.0
 10
5.7184847215
 20
5.6766070539
 30
0.0
 10
5.7427504849
 20
5.6775825025
 30
0.0
 10
5.7547582072
 20
5.6777442095
 30
0.0
 11
4.934325359
 21
5.2347163759
 31
0.0
 11
4.9334709633
 21
5.2377121611
 31
0.0
 11
4.9328118084
 21
5.2407786669
 31
0.0
 11
4.9320707836
 21
5.2471158948
 31
0.0
 11
4.9320854104
 21
5.2537121676
 31
0.0
 11
4.9328388145
 21
5.2605515934
 31
0.0
 11
4.9343141218
 21
5.2676182801
 31
0.0
 11
4.9364944582
 21
5.2748963356
 31
0.0
 11
4.9393629494
 21
5.2823698681
 31
0.0
 11
4.9429027213
 21
5.2900229855
 31
0.0
 11
4.9470968997
 21
5.2978397958
 31
0.0
 11
4.951928589
 21
5.3058045116
 31
0.0
 11
4.9573803354
 21
5.3139040868
 31
0.0
 11
4.9634340857
 21
5.322128417
 31
0.0
 11
4.9700717571
 21
5.3304675423
 31
0.0
 11
4.977275267
 21
5.338911503
 31
0.0
 11
4.9850265329
 21
5.3474503391
 31
0.0
 11
4.9933074719
 21
5.3560740909
 31
0.0
 11
5.0021000015
 21
5.3647727985
 31
0.0
 11
5.0113860389
 21
5.3735365022
 31
0.0
 11
5.0211475016
 21
5.3823552421
 31
0.0
 11
5.0313664351
 21
5.3912190963
 31
0.0
 11
5.0531235649
 21
5.4090479672
 31
0.0
 11
5.0765723996
 21
5.4269610306
 31
0.0
 11
5.1016305604
 21
5.4448963327
 31
0.0
 11
5.1281938962
 21
5.4627793157
 31
0.0
 11
5.1420037078
 21
5.4716757176
 31
0.0
 11
5.1561463313
 21
5.4805284822
 31
0.0
 11
5.1853882005
 21
5.4980657547
 31
0.0
 11
5.2158546985
 21
5.5153204197
 31
0.0
 11
5.2474854369
 21
5.5322226967
 31
0.0
 11
5.2802200275
 21
5.5487028052
 31
0.0
 11
5.3139979606
 21
5.5646908812
 31
0.0
 11
5.3487366194
 21
5.5801018217
 31
0.0
 11
5.3843057213
 21
5.5948176675
 31
0.0
 11
5.4205687841
 21
5.6087161855
 31
0.0
 11
5.4573893253
 21
5.6216751429
 31
0.0
 11
5.4946308626
 21
5.6335723066
 31
0.0
 11
5.5321569088
 21
5.6442854484
 31
0.0
 11
5.5698257242
 21
5.6536976091
 31
0.0
 11
5.6074802376
 21
5.6617072087
 31
0.0
 11
5.6449605959
 21
5.6682154578
 31
0.0
 11
5.6821069457
 21
5.6731235672
 31
0.0
 11
5.7187594339
 21
5.6763327475
 31
0.0
 11
5.7547582072
 21
5.6777442095
 31
0.0
  0
SPLINE
  5
2FD
100
AcDbEntity
  8
0
100
AcDbSpline
 62
9
  6
CONTINUOUS
 70
0
 71
3
 72
36
 73
32
 74
30
 42
0.0000001
 43
0.0000001
 44
0.0000000001
 12
0.541833962
 22
0.0
 32
0.0
 13
0.0178164726
 23
0.541540964
 33
0.0
 40
0.0
 40
0.0
 40
0.0
 40
0.0
 40
0.0743617421
 40
0.1488374135
 40
0.2230172507
 40
0.2964814973
 40
0.3688144739
 40
0.4044362834
 40
0.4396272311
 40
0.4743392084
 40
0.5085252025
 40
0.5421397447
 40
0.575139416
 40
0.6074822665
 40
0.6391247949
 40
0.6700259069
 40
0.7001489697
 40
0.7294629142
 40
0.7579435527
 40
0.785575156
 40
0.8123523374
 40
0.8382803837
 40
0.8633726509
 40
0.8876602213
 40
0.9111977402
 40
0.934067518
 40
0.9563834461
 40
0.9673824392
 40
0.9783017027
 40
0.9891654294
 40
1.0
 40
1.0
 40
1.0
 40
1.0
 10
5.7547582072
 20
1.9175584256
 30
0.0
 10
5.7681887797
 20
1.9175584256
 30
0.0
 10
5.7950767798
 20
1.9183681054
 30
0.0
 10
5.8352213872
 20
1.9219041926
 30
0.0
 10
5.8749423156
 20
1.9276832549
 30
0.0
 10
5.9138925035
 20
1.9356236741
 30
0.0
 10
5.9455865185
 20
1.9440179326
 30
0.0
 10
5.9702630949
 20
1.9517410264
 30
0.0
 10
5.9882760026
 20
1.9579776249
 30
0.0
 10
6.0058469058
 20
1.9646710611
 30
0.0
 10
6.0229356495
 20
1.9718050996
 30
0.0
 10
6.0395018679
 20
1.9793633945
 30
0.0
 10
6.0555050914
 20
1.9873295677
 30
0.0
 10
6.0709039014
 20
1.9956866896
 30
0.0
 10
6.085657109
 20
2.00441481
 30
0.0
 10
6.0997226791
 20
2.0134936406
 30
0.0
 10
6.1130584224
 20
2.0229028574
 30
0.0
 10
6.1256221772
 20
2.0326222273
 30
0.0
 10
6.1373717924
 20
2.0426316378
 30
0.0
 10
6.14826512
 20
2.0529111259
 30
0.0
 10
6.1582596834
 20
2.063440692
 30
0.0
 10
6.1673120565
 20
2.0741991971
 30
0.0
 10
6.1753749694
 20
2.0851664049
 30
0.0
 10
6.1823992942
 20
2.0963211024
 30
0.0
 10
6.1883351395
 20
2.1076423874
 30
0.0
 10
6.1931315539
 20
2.1191081787
 30
0.0
 10
6.1961507788
 20
2.1288152215
 30
0.0
 10
6.1979302344
 20
2.1366068886
 30
0.0
 10
6.1989424383
 20
2.142443546
 30
0.0
 10
6.199632022
 20
2.1482969755
 30
0.0
 10
6.199872664
 20
2.1522110182
 30
0.0
 10
6.1999370086
 20
2.1541668061
 30
0.0
 11
5.7547582072
 21
1.9175584256
 31
0.0
 11
5.7950321691
 21
1.9187544517
 31
0.0
 11
5.8352306075
 21
1.9222880513
 31
0.0
 11
5.8750046182
 21
1.9280775067
 31
0.0
 11
5.9140052969
 21
1.9360411
 31
0.0
 11
5.9518878903
 21
1.9460889009
 31
0.0
 11
5.9703070983
 21
1.9518565238
 31
0.0
 11
5.9883242473
 21
1.9580981296
 31
0.0
 11
6.0058988372
 21
1.9647973443
 31
0.0
 11
6.0229903679
 21
1.9719377939
 31
0.0
 11
6.0395583394
 21
1.9795031043
 31
0.0
 11
6.0555622518
 21
1.9874769016
 31
0.0
 11
6.0709612697
 21
1.995842113
 31
0.0
 11
6.0857132174
 21
2.0045788714
 31
0.0
 11
6.0997755837
 21
2.0136666109
 31
0.0
 11
6.1131058576
 21
2.0230847656
 31
0.0
 11
6.1256615279
 21
2.0328127698
 31
0.0
 11
6.1374000837
 21
2.0428300577
 31
0.0
 11
6.1482790138
 21
2.0531160632
 31
0.0
 11
6.1582558072
 21
2.0636502208
 31
0.0
 11
6.1672868689
 21
2.0744115303
 31
0.0
 11
6.1753242692
 21
2.0853772557
 31
0.0
 11
6.1823189941
 21
2.0965242266
 31
0.0
 11
6.18822203
 21
2.1078292729
 31
0.0
 11
6.1929843632
 21
2.1192692242
 31
0.0
 11
6.1965569798
 21
2.1308209104
 31
0.0
 11
6.1978818276
 21
2.1366314133
 31
0.0
 11
6.1988908662
 21
2.1424611611
 31
0.0
 11
6.1995779687
 21
2.1483072574
 31
0.0
 11
6.1999370086
 21
2.1541668061
 31
0.0
  0
LINE
  5
2FE
100
AcDbEntity
  8
0
100
AcDbLine
 62
9
  6
CONTINUOUS
 10
6.1999370086
 20
2.1541668061
 11
6.1988694642
 21
2.1686495446
  0
LINE
  5
2FF
100
AcDbEntity
  8
0
100
AcDbLine
 62
9
  6
CONTINUOUS
 10
6.1785474614
 20
2.7324822921
 11
6.1785696441
 21
2.7471097292
  0
SPLINE
  5
300
100
AcDbEntity
  8
0
100
AcDbSpline
 62
9
  6
CONTINUOUS
 70
0
 71
3
 72
43
 73
39
 74
37
 42
0.0000001
 43
0.0000001
 44
0.0000000001
 12
0.4347271613
 22
0.0
 32
0.0
 13
-0.0177650238
 23
-0.4343640279
 33
0.0
 40
0.0
 40
0.0
 40
0.0
 40
0.0
 40
0.0829678074
 40
0.1674559719
 40
0.2525697163
 40
0.3374122164
 40
0.4210854044
 40
0.5026902891
 40
0.5813271612
 40
0.6560962239
 40
0.6917475083
 40
0.7260824479
 40
0.7589763736
 40
0.7903048435
 40
0.8199437388
 40
0.8477693992
 40
0.8736588264
 40
0.897489998
 40
0.9191383351
 40
0.9291006394
 40
0.9384646278
 40
0.9472129834
 40
0.9553288811
 40
0.9627961846
 40
0.9695997522
 40
0.9757259299
 40
0.9811633829
 40
0.9859045822
 40
0.9880138047
 40
0.9899495232
 40
0.9917136576
 40
0.9933096237
 40
0.9947430288
 40
0.9960227407
 40
0.9971624967
 40
0.9981831472
 40
0.9991151784
 40
1.0
 40
1.0
 40
1.0
 40
1.0
 10
5.7547582072
 20
3.0917342232
 30
0.0
 10
5.7667809937
 20
3.0917342232
 30
0.0
 10
5.7910471287
 20
3.0915607038
 30
0.0
 10
5.8276404159
 20
3.0908354337
 30
0.0
 10
5.8644941939
 20
3.0896728324
 30
0.0
 10
5.9012146519
 20
3.0881042892
 30
0.0
 10
5.9374079804
 20
3.0861613023
 30
0.0
 10
5.972680912
 20
3.0838869781
 30
0.0
 10
6.0066402513
 20
3.0813246407
 30
0.0
 10
6.0339339787
 20
3.0789499244
 30
0.0
 10
6.0548130582
 20
3.0769307952
 30
0.0
 10
6.069642187
 20
3.075395531
 30
0.0
 10
6.0838371518
 20
3.0738213246
 30
0.0
 10
6.0973433881
 20
3.0722142572
 30
0.0
 10
6.1101063501
 20
3.0705804942
 30
0.0
 10
6.1220715113
 20
3.0689262281
 30
0.0
 10
6.1331844284
 20
3.0672578065
 30
0.0
 10
6.1433900457
 20
3.0655815719
 30
0.0
 10
6.1512956164
 20
3.0641475999
 30
0.0
 10
6.1571198334
 20
3.0629921877
 30
0.0
 10
6.1611004063
 20
3.0621514528
 30
0.0
 10
6.1648076721
 20
3.0613131769
 30
0.0
 10
6.1682334281
 20
3.0604781552
 30
0.0
 10
6.1713695275
 20
3.0596472547
 30
0.0
 10
6.1742078666
 20
3.058821359
 30
0.0
 10
6.1767405571
 20
3.0580014484
 30
0.0
 10
6.1789596575
 20
3.0571884231
 30
0.0
 10
6.1806002298
 20
3.0564931175
 30
0.0
 10
6.1817445036
 20
3.0559341922
 30
0.0
 10
6.1824851408
 20
3.0555335048
 30
0.0
 10
6.1831413613
 20
3.0551348988
 30
0.0
 10
6.1837123085
 20
3.0547383418
 30
0.0
 10
6.1841971966
 20
3.0543437263
 30
0.0
 10
6.1845952595
 20
3.0539507044
 30
0.0
 10
6.1849056029
 20
3.0535586015
 30
0.0
 10
6.1851267659
 20
3.0531661854
 30
0.0
 10
6.185256003
 20
3.0527726686
 30
0.0
 10
6.1852782922
 20
3.0525072818
 30
0.0
 10
6.1852730526
 20
3.0523791702
 30
0.0
 11
5.7547582072
 21
3.0917342232
 31
0.0
 11
5.7908257182
 21
3.0914868328
 31
0.0
 11
5.8275479398
 21
3.0907657805
 31
0.0
 11
5.8645309133
 21
3.0896027449
 31
0.0
 11
5.9013806801
 21
3.0880294042
 31
0.0
 11
5.9377033774
 21
3.0860793208
 31
0.0
 11
5.9731055318
 21
3.0837936911
 31
0.0
 11
6.0071937679
 21
3.0812156453
 31
0.0
 11
6.0395747109
 21
3.0783883136
 31
0.0
 11
6.0550011581
 21
3.0768947404
 31
0.0
 11
6.0698479242
 21
3.0753556208
 31
0.0
 11
6.0840604002
 21
3.0737769583
 31
0.0
 11
6.0975839774
 21
3.0721647559
 31
0.0
 11
6.1103640467
 21
3.070525017
 31
0.0
 11
6.1223459994
 21
3.0688637449
 31
0.0
 11
6.1334752265
 21
3.0671869429
 31
0.0
 11
6.1436971191
 21
3.0655006142
 31
0.0
 11
6.1529552793
 21
3.0638107471
 31
0.0
 11
6.1572030474
 21
3.0629663387
 31
0.0
 11
6.1611855688
 21
3.0621232648
 31
0.0
 11
6.1648945646
 21
3.0612822635
 31
0.0
 11
6.1683217559
 21
3.060444073
 31
0.0
 11
6.1714588637
 21
3.0596094316
 31
0.0
 11
6.1742976092
 21
3.0587790774
 31
0.0
 11
6.1768297132
 21
3.0579537487
 31
0.0
 11
6.179046897
 21
3.0571341837
 31
0.0
 11
6.1809408815
 21
3.0563211205
 31
0.0
 11
6.1817640869
 21
3.0559172578
 31
0.0
 11
6.1825033879
 21
3.0555152975
 31
0.0
 11
6.1831577496
 21
3.0551153316
 31
0.0
 11
6.1837261371
 21
3.0547174527
 31
0.0
 11
6.1842075156
 21
3.0543217528
 31
0.0
 11
6.1846008503
 21
3.0539283244
 31
0.0
 11
6.1849051062
 21
3.0535372597
 31
0.0
 11
6.1851192484
 21
3.0531486509
 31
0.0
 11
6.1852422422
 21
3.0527625903
 31
0.0
 11
6.1852730526
 21
3.0523791702
 31
0.0
  0
SPLINE
  5
301
100
AcDbEntity
  8
0
100
AcDbSpline
 62
9
  6
CONTINUOUS
 70
0
 71
3
 72
15
 73
11
 74
9
 42
0.0000001
 43
0.0000001
 44
0.0000000001
 12
-0.1496368051
 22
1.6854936706
 32
0.0
 13
-0.4925448008
 23
1.618851354
 33
0.0
 40
0.0
 40
0.0
 40
0.0
 40
0.0
 40
0.1268310574
 40
0.2527975133
 40
0.3780551769
 40
0.5027567866
 40
0.627067636
 40
0.751215462
 40
0.8754447125
 40
1.0
 40
1.0
 40
1.0
 40
1.0
 10
5.2990286674
 20
3.4415816592
 30
0.0
 10
5.2927024693
 20
3.5128393074
 30
0.0
 10
5.2782378869
 20
3.6547113104
 30
0.0
 10
5.2510613972
 20
3.8662343079
 30
0.0
 10
5.2185685101
 20
4.0757918478
 30
0.0
 10
5.180838749
 20
4.2835199855
 30
0.0
 10
5.1379399084
 20
4.4896030183
 30
0.0
 10
5.0898063793
 20
4.6942536827
 30
0.0
 10
5.0363677301
 20
4.8977246386
 30
0.0
 10
4.997232237
 20
5.0325005247
 30
0.0
 10
4.9767825506
 20
5.09971269
 30
0.0
 11
5.2990286674
 21
3.4415816592
 31
0.0
 11
5.2772551242
 21
3.655088033
 31
0.0
 11
5.2500914957
 21
3.8665008319
 31
0.0
 11
5.2176181822
 21
4.0759497902
 31
0.0
 11
5.1799155842
 21
4.283564642
 31
0.0
 11
5.1370385112
 21
4.4894975436
 31
0.0
 11
5.0889394104
 21
4.6939903405
 31
0.0
 11
5.035545138
 21
4.8973073001
 31
0.0
 11
4.9767825506
 21
5.09971269
 31
0.0
  0
SPLINE
  5
302
100
AcDbEntity
  8
0
100
AcDbSpline
 62
9
  6
CONTINUOUS
 70
0
 71
3
 72
45
 73
41
 74
39
 42
0.0000001
 43
0.0000001
 44
0.0000000001
 12
0.4407065969
 22
0.0035549447
 32
0.0
 13
-0.0211504009
 23
-0.4402131333
 33
0.0
 40
0.0
 40
0.0
 40
0.0
 40
0.0
 40
0.0822030995
 40
0.1659766001
 40
0.2504431233
 40
0.3347191192
 40
0.41791622
 40
0.4991399817
 40
0.5774926426
 40
0.6153117218
 40
0.6520759098
 40
0.6876709471
 40
0.7219745087
 40
0.7548623544
 40
0.7862105984
 40
0.815895874
 40
0.8437955668
 40
0.8697881572
 40
0.8937537478
 40
0.9049393322
 40
0.9155714547
 40
0.925632988
 40
0.9351072498
 40
0.9439781488
 40
0.9522303939
 40
0.9598498028
 40
0.9668237714
 40
0.9731420098
 40
0.9787977447
 40
0.9837897672
 40
0.9860394243
 40
0.9881273347
 40
0.9900570959
 40
0.9918340495
 40
0.9934659026
 40
0.9949635577
 40
0.996342154
 40
0.9976222069
 40
0.99883049
 40
1.0
 40
1.0
 40
1.0
 40
1.0
 10
5.7547582072
 20
3.1661485677
 30
0.0
 10
5.7668340233
 20
3.1662459768
 30
0.0
 10
5.7912192256
 20
3.1661630453
 30
0.0
 10
5.8280030112
 20
3.1652998471
 30
0.0
 10
5.865068994
 20
3.163750867
 30
0.0
 10
5.9020181892
 20
3.1615713853
 30
0.0
 10
5.9384511484
 20
3.1588169719
 30
0.0
 10
5.9739686238
 20
3.1555590615
 30
0.0
 10
6.0028015775
 20
3.1524491749
 30
0.0
 10
6.0251075572
 20
3.1497592865
 30
0.0
 10
6.0411600912
 20
3.1476836088
 30
0.0
 10
6.0566818395
 20
3.1455352076
 30
0.0
 10
6.0716193033
 20
3.1433236912
 30
0.0
 10
6.0859174752
 20
3.1410589052
 30
0.0
 10
6.0995210612
 20
3.1387507679
 30
0.0
 10
6.1123747893
 20
3.1364092377
 30
0.0
 10
6.124423468
 20
3.1340443719
 30
0.0
 10
6.1356118827
 20
3.1316662148
 30
0.0
 10
6.1443630844
 20
3.1296380989
 30
0.0
 10
6.1508887048
 20
3.1280084564
 30
0.0
 10
6.1554180811
 20
3.1268171622
 30
0.0
 10
6.1596880934
 20
3.1256297319
 30
0.0
 10
6.1636904536
 20
3.1244473932
 30
0.0
 10
6.1674169029
 20
3.1232714167
 30
0.0
 10
6.1708592179
 20
3.1221030816
 30
0.0
 10
6.1740092464
 20
3.120943688
 30
0.0
 10
6.1768589004
 20
3.1197945488
 30
0.0
 10
6.1794003619
 20
3.1186569938
 30
0.0
 10
6.1816257391
 20
3.1175322754
 30
0.0
 10
6.1832636948
 20
3.1165762636
 30
0.0
 10
6.1844021156
 20
3.1158122922
 30
0.0
 10
6.1851415759
 20
3.1152630459
 30
0.0
 10
6.1857958085
 20
3.1147175774
 30
0.0
 10
6.1863638695
 20
3.1141758468
 30
0.0
 10
6.1868448155
 20
3.113637753
 30
0.0
 10
6.1872376155
 20
3.1131030407
 30
0.0
 10
6.1875410292
 20
3.1125713452
 30
0.0
 10
6.1877534132
 20
3.1120421933
 30
0.0
 10
6.1878726339
 20
3.1115157409
 30
0.0
 10
6.187888485
 20
3.1111644949
 30
0.0
 10
6.1878802398
 20
3.1109928837
 30
0.0
 11
5.7547582072
 21
3.1661485677
 31
0.0
 11
5.7909866827
 21
3.1660438487
 31
0.0
 11
5.8278975466
 21
3.1651901287
 31
0.0
 11
5.8650915604
 21
3.163643293
 31
0.0
 11
5.9021694858
 21
3.1614592271
 31
0.0
 11
5.938731955
 21
3.1586964324
 31
0.0
 11
5.974379076
 21
3.1554239956
 31
0.0
 11
6.0087108246
 21
3.15171368
 31
0.0
 11
6.0252584266
 21
3.1497167437
 31
0.0
 11
6.0413271764
 21
3.147637249
 31
0.0
 11
6.0568662163
 21
3.1454842954
 31
0.0
 11
6.0718211102
 21
3.1432675243
 31
0.0
 11
6.0861364856
 21
3.1409967185
 31
0.0
 11
6.09975697
 21
3.1386816606
 31
0.0
 11
6.1126271907
 21
3.1363321337
 31
0.0
 11
6.1246917754
 21
3.1339579205
 31
0.0
 11
6.1358953513
 21
3.1315688039
 31
0.0
 11
6.1461825462
 21
3.1291745667
 31
0.0
 11
6.1509649901
 21
3.1279785812
 31
0.0
 11
6.1554962128
 21
3.1267849597
 31
0.0
 11
6.1597678664
 21
3.1255948993
 31
0.0
 11
6.1637716028
 21
3.124409597
 31
0.0
 11
6.167499074
 21
3.1232302502
 31
0.0
 11
6.1709419322
 21
3.122058056
 31
0.0
 11
6.1740918293
 21
3.1208942116
 31
0.0
 11
6.1769404174
 21
3.119739914
 31
0.0
 11
6.1794793485
 21
3.1185963606
 31
0.0
 11
6.1817002746
 21
3.1174647484
 31
0.0
 11
6.1835948477
 21
3.1163462747
 31
0.0
 11
6.1844171431
 21
3.1157923389
 31
0.0
 11
6.1851547199
 21
3.1152421366
 31
0.0
 11
6.1858065344
 21
3.1146958175
 31
0.0
 11
6.1863715431
 21
3.1141535313
 31
0.0
 11
6.1868487027
 21
3.1136154275
 31
0.0
 11
6.1872369695
 21
3.1130816559
 31
0.0
 11
6.1875353001
 21
3.1125523661
 31
0.0
 11
6.1877426511
 21
3.1120277077
 31
0.0
 11
6.1878579788
 21
3.1115078303
 31
0.0
 11
6.1878802398
 21
3.1109928837
 31
0.0
  0
LINE
  5
303
100
AcDbEntity
  8
0
100
AcDbLine
 62
9
  6
CONTINUOUS
 10
6.1852699637
 20
3.0523258769
 11
6.1858050736
 21
3.0651671601
  0
LINE
  5
304
100
AcDbEntity
  8
0
100
AcDbLine
 62
9
  6
CONTINUOUS
 10
6.1858050736
 20
3.0651671601
 11
6.186057683
 21
3.0710660504
  0
SPLINE
  5
305
100
AcDbEntity
  8
0
100
AcDbSpline
 62
9
  6
CONTINUOUS
 70
0
 71
3
 72
48
 73
44
 74
42
 42
0.0000001
 43
0.0000001
 44
0.0000000001
 12
0.4932661326
 22
0.004483162
 32
0.0
 13
-0.0436893759
 23
-0.4913479569
 33
0.0
 40
0.0
 40
0.0
 40
0.0
 40
0.0
 40
0.0383589679
 40
0.0772675069
 40
0.1166393755
 40
0.15638454
 40
0.1964097993
 40
0.2366193088
 40
0.2769150247
 40
0.3171970846
 40
0.357363489
 40
0.3973082188
 40
0.4369231519
 40
0.4760989539
 40
0.514725328
 40
0.5526912522
 40
0.5898852122
 40
0.6261954397
 40
0.6615086804
 40
0.6957060101
 40
0.728667653
 40
0.7602749227
 40
0.7904108109
 40
0.8189607856
 40
0.8458139127
 40
0.8585713897
 40
0.8708656164
 40
0.8826843452
 40
0.894014984
 40
0.9048456583
 40
0.9151657421
 40
0.9249661871
 40
0.9342399594
 40
0.9429826239
 40
0.9511931333
 40
0.9588749
 40
0.9660372565
 40
0.9726974307
 40
0.9788831701
 40
0.9846360754
 40
0.9900154681
 40
0.9951020787
 40
1.0
 40
1.0
 40
1.0
 40
1.0
 10
5.7547582072
 20
3.5862451324
 30
0.0
 10
5.7610652672
 20
3.5863024556
 30
0.0
 10
5.7737720708
 20
3.5862317934
 30
0.0
 10
5.792942781
 20
3.5856055028
 30
0.0
 10
5.8123188781
 20
3.584479113
 30
0.0
 10
5.831845183
 20
3.5828736513
 30
0.0
 10
5.8514667612
 20
3.5808101469
 30
0.0
 10
5.8711285773
 20
3.5783096347
 30
0.0
 10
5.8907755946
 20
3.5753931572
 30
0.0
 10
5.9103526572
 20
3.5720817816
 30
0.0
 10
5.929804015
 20
3.5683967069
 30
0.0
 10
5.9490741765
 20
3.564364144
 30
0.0
 10
5.9681072048
 20
3.5600103732
 30
0.0
 10
5.9868470518
 20
3.5553617073
 30
0.0
 10
6.0052376715
 20
3.5504444702
 30
0.0
 10
6.0232230204
 20
3.5452849985
 30
0.0
 10
6.0407470643
 20
3.5399096444
 30
0.0
 10
6.0577535477
 20
3.5343448464
 30
0.0
 10
6.0741850921
 20
3.5286175046
 30
0.0
 10
6.0899830235
 20
3.5227551929
 30
0.0
 10
6.1050875483
 20
3.5167858544
 30
0.0
 10
6.1194386912
 20
3.5107375466
 30
0.0
 10
6.1329766477
 20
3.5046383684
 30
0.0
 10
6.1456415189
 20
3.4985164283
 30
0.0
 10
6.1555817041
 20
3.4933345371
 30
0.0
 10
6.1630426453
 20
3.4891894423
 30
0.0
 10
6.1682860422
 20
3.4861453865
 30
0.0
 10
6.173265581
 20
3.4831164672
 30
0.0
 10
6.1779729875
 20
3.4801058107
 30
0.0
 10
6.1823997949
 20
3.4771166809
 30
0.0
 10
6.1865375242
 20
3.4741523446
 30
0.0
 10
6.1903777274
 20
3.4712160492
 30
0.0
 10
6.1939119954
 20
3.4683110063
 30
0.0
 10
6.1971319648
 20
3.4654403711
 30
0.0
 10
6.2000293216
 20
3.4626072074
 30
0.0
 10
6.2025957945
 20
3.4598144374
 30
0.0
 10
6.2048231224
 20
3.4570647619
 30
0.0
 10
6.2067029693
 20
3.4543605752
 30
0.0
 10
6.2082267271
 20
3.4517038264
 30
0.0
 10
6.2093851775
 20
3.4490961497
 30
0.0
 10
6.2101679101
 20
3.4465386795
 30
0.0
 10
6.2105630882
 20
3.444034494
 30
0.0
 10
6.2105590761
 20
3.4423838538
 30
0.0
 10
6.2104877471
 20
3.4415816592
 30
0.0
 11
5.7547582072
 21
3.5862451324
 31
0.0
 11
5.7736799164
 21
3.5861474601
 31
0.0
 11
5.7928629507
 21
3.5855272663
 31
0.0
 11
5.8122521476
 21
3.5844056445
 31
0.0
 11
5.8317923446
 21
3.5828036883
 31
0.0
 11
5.8514283792
 21
3.5807424911
 31
0.0
 11
5.8711050888
 21
3.5782431467
 31
0.0
 11
5.8907673111
 21
3.5753267484
 31
0.0
 11
5.9103598833
 21
3.5720143898
 31
0.0
 11
5.9298274815
 21
3.568328037
 31
0.0
 11
5.949114135
 21
3.5642931464
 31
0.0
 11
5.9681637117
 21
3.5599360469
 31
0.0
 11
5.9869200794
 21
3.5552830675
 31
0.0
 11
6.0053271058
 21
3.5503605371
 31
0.0
 11
6.0233286588
 21
3.5451947847
 31
0.0
 11
6.0408686063
 21
3.5398121391
 31
0.0
 11
6.0578908159
 21
3.5342389294
 31
0.0
 11
6.0743384697
 21
3.5285017492
 31
0.0
 11
6.0901520059
 21
3.5226282513
 31
0.0
 11
6.1052711768
 21
3.5166463532
 31
0.0
 11
6.1196357348
 21
3.5105839724
 31
0.0
 11
6.1331854323
 21
3.5044690264
 31
0.0
 11
6.1458600215
 21
3.4983294327
 31
0.0
 11
6.157599255
 21
3.4921931089
 31
0.0
 11
6.1630992859
 21
3.4891348974
 31
0.0
 11
6.168342885
 21
3.4860879724
 31
0.0
 11
6.1733223424
 21
3.4830557899
 31
0.0
 11
6.1780292327
 21
3.4800416711
 31
0.0
 11
6.1824549517
 21
3.4770489033
 31
0.0
 11
6.186590895
 21
3.4740807741
 31
0.0
 11
6.1904284583
 21
3.4711405709
 31
0.0
 11
6.1939590373
 21
3.4682315811
 31
0.0
 11
6.1971740278
 21
3.4653570922
 31
0.0
 11
6.2000648254
 21
3.4625203916
 31
0.0
 11
6.2026228258
 21
3.4597247668
 31
0.0
 11
6.2048394247
 21
3.4569735051
 31
0.0
 11
6.206706018
 21
3.4542698941
 31
0.0
 11
6.2082140011
 21
3.4516172212
 31
0.0
 11
6.2093547699
 21
3.4490187738
 31
0.0
 11
6.21011972
 21
3.4464778394
 31
0.0
 11
6.2105002472
 21
3.4439977054
 31
0.0
 11
6.2104877471
 21
3.4415816592
 31
0.0
  0
ENDSEC
  0
SECTION
  2
OBJECTS
  0
DICTIONARY
  5
C
100
AcDbDictionary
280
0
281
1
  3
ACAD_GROUP
350
D
  3
ACAD_MLINESTYLE
350
17
  3
ACAD_LAYOUT
350
1A
  3
ACAD_PLOTSETTINGS
350
19
  3
ACAD_PLOTSTYLENAME
350
E
  0
DICTIONARY
  5
D
102
{ACAD_REACTORS
330
C
102
}
100
AcDbDictionary
280
0
281
1
  0
ACDBDICTIONARYWDFLT
  5
E
102
{ACAD_REACTORS
330
C
102
}
100
AcDbDictionary
281
1
  3
Normal
350
F
100
AcDbDictionaryWithDefault
340
F
  0
DICTIONARY
  5
17
102
{ACAD_REACTORS
330
C
102
}
100
AcDbDictionary
280
0
281
1
  3
Standard
350
18
  0
DICTIONARY
  5
19
102
{ACAD_REACTORS
330
C
102
}
100
AcDbDictionary
281
1
  0
DICTIONARY
  5
1A
102
{ACAD_REACTORS
330
C
102
}
100
AcDbDictionary
281
1
  3
Model
350
306
  3
Layout1
350
307
  0
ACDBPLACEHOLDER
  5
F
102
{ACAD_REACTORS
330
E
102
}
  0
MLINESTYLE
  5
18
102
{ACAD_REACTORS
330
17
102
}
100
AcDbMlineStyle
  2
STANDARD
 70
0
  3

 62
256
 51
90.0
 52
90.0
 71
2
 49
0.5
 62
256
  6
BYLAYER
 49
-0.5
 62
256
  6
BYLAYER
  0
LAYOUT
  5
306
102
{ACAD_REACTORS
330
1A
102
}
100
AcDbPlotSettings
  1

  2
none_device
  4
ISO_A4_(297.00_x_210.00_MM)
  6

 40
0.0
 41
0.0
 42
0.0
 43
0.0
 44
297.0
 45
210.0
 46
0.0
 47
0.0
 48
0.0
 49
0.0
140
0.0
141
0.0
142
1.0
143
1.0
 70
1024
 72
0
 73
0
 74
0
  7

 75
0
147
1.0
148
0.0
149
0.0
100
AcDbLayout
  1
Model
 70
0
 71
0
 10
0.0
 20
0.0
 11
11.6929133858
 21
8.2677165354
 12
0.0
 22
0.0
 32
0.0
 14
0.0
 24
0.0
 34
0.0
 15
0.0
 25
0.0
 35
0.0
146
0.0
 13
0.0
 23
0.0
 33
0.0
 16
1.0
 26
0.0
 36
0.0
 17
0.0
 27
1.0
 37
0.0
 76
0
330
203
345
0
346
0
  0
LAYOUT
  5
307
102
{ACAD_REACTORS
330
1A
102
}
100
AcDbPlotSettings
  1

  2
none_device
  4
ISO_A4_(297.00_x_210.00_MM)
  6

 40
0.0
 41
0.0
 42
0.0
 43
0.0
 44
297.0
 45
210.0
 46
0.0
 47
0.0
 48
0.0
 49
0.0
140
0.0
141
0.0
142
1.0
143
1.0
 70
0
 72
0
 73
0
 74
0
  7

 75
0
147
1.0
148
0.0
149
0.0
100
AcDbLayout
  1
Layout1
 70
0
 71
1
 10
0.0
 20
0.0
 11
11.6929133858
 21
8.2677165354
 12
0.0
 22
0.0
 32
0.0
 14
0.0
 24
0.0
 34
0.0
 15
0.0
 25
0.0
 35
0.0
146
0.0
 13
0.0
 23
0.0
 33
0.0
 16
1.0
 26
0.0
 36
0.0
 17
0.0
 27
1.0
 37
0.0
 76
0
330
204
345
0
346
0
  0
ENDSEC
  0
EOF
