999
DXF file: 8081_top.dxf
999
Pro/ENGINEER 2018400 by Parametric Technology Corporation
  0
SECTION
  2
HEADER
  9
$ACADVER
  1
AC1027
  9
$DWGCODEPAGE
  3
ANSI_1252
  9
$EXTMAX
 10
11.0
 20
8.5
 30
0.0
  9
$EXTMIN
 10
0.0
 20
0.0
 30
0.0
  9
$LIMMIN
 10
0.0
 20
0.0
  9
$LIMMAX
 10
11.0
 20
8.5
  9
$VIEWCTR
 10
5.5
 20
4.25
  9
$VIEWSIZE
 40
8.5
  9
$CLAYER
  8
0
  9
$LTSCALE
 40
0.605
  9
$CELTYPE
  6
BYLAYER
  9
$DIMSCALE
 40
1.0
  9
$DIMASZ
 40
0.1
  9
$DIMEXO
 40
0.0625
  9
$DIMDLI
 40
0.418
  9
$DIMEXE
 40
0.125
  9
$DIMCEN
 40
0.099
  9
$DIMLFAC
 40
1.0
  9
$DIMBLK
  1
_FILLED
  9
$DIMALT
 70
1
  9
$DIMALTD
 70
1
  9
$DIMALTTD
 70
2
  9
$DIMALTF
 40
25.4
  9
$DIMTXT
 40
0.08
  9
$DIMTOL
 70
1
  9
$DIMLIM
 70
0
  9
$DIMTFAC
 40
1.0
  9
$DIMTP
 40
0.01
  9
$DIMTM
 40
0.01
  9
$DIMGAP
 40
0.09
  9
$DIMDSEP
 70
46
  9
$AUNITS
 70
0
  9
$PDMODE
 70
3
  9
$PDSIZE
 40
0.3125
  9
$HANDSEED
  5
2D7
  9
$TILEMODE
 70
1
  9
$MEASUREMENT
 70
0
  9
$INSUNITS
 70
1
  0
ENDSEC
  0
SECTION
  2
CLASSES
  0
CLASS
  1
ACDBDICTIONARYWDFLT
  2
AcDbDictionaryWithDefault
  3
AutoCAD 2000
 90
0
 91
1
280
0
281
0
  0
CLASS
  1
ACDBPLACEHOLDER
  2
AcDbPlaceHolder
  3
AutoCAD 2000
 90
0
 91
1
280
0
281
0
  0
CLASS
  1
LAYOUT
  2
AcDbLayout
  3
AutoCAD 2000
 90
0
 91
0
280
0
281
0
  0
ENDSEC
  0
SECTION
  2
TABLES
  0
TABLE
  2
VPORT
  5
8
100
AcDbSymbolTable
 70
2
  0
VPORT
  5
1F4
100
AcDbSymbolTableRecord
100
AcDbViewportTableRecord
  2
*ACTIVE
 70
0
 10
0.0
 20
0.0
 11
1.0
 21
1.0
 12
5.5
 22
4.25
 13
0.0
 23
0.0
 14
1.0
 24
1.0
 15
0.0
 25
0.0
 16
0.0
 26
0.0
 36
1.0
 17
0.0
 27
0.0
 37
0.0
 40
8.5
 41
1.2941176471
 42
50.0
 43
0.0
 44
0.0
 50
0.0
 51
0.0
 71
0
 72
100
 73
1
 74
1
 75
0
 76
0
 77
0
 78
0
  0
ENDTAB
  0
TABLE
  2
LTYPE
  5
5
100
AcDbSymbolTable
 70
6
  0
LTYPE
  5
14
100
AcDbSymbolTableRecord
100
AcDbLinetypeTableRecord
  2
BYBLOCK
 70
0
  3

 72
65
 73
0
 40
0.0
  0
LTYPE
  5
15
100
AcDbSymbolTableRecord
100
AcDbLinetypeTableRecord
  2
BYLAYER
 70
0
  3

 72
65
 73
0
 40
0.0
  0
LTYPE
  5
16
100
AcDbSymbolTableRecord
100
AcDbLinetypeTableRecord
  2
CONTINUOUS
 70
64
  3
Solid line
 72
65
 73
0
 40
0.0
  0
LTYPE
  5
1F5
100
AcDbSymbolTableRecord
100
AcDbLinetypeTableRecord
  2
CENTER
 70
64
  3
____ _ ____ _ ____ _ ____ _ ____ _ ____ _ ____
 72
65
 73
4
 40
0.6
 49
0.375
 74
0
 49
-0.075
 74
0
 49
0.075
 74
0
 49
-0.075
 74
0
  0
LTYPE
  5
1F6
100
AcDbSymbolTableRecord
100
AcDbLinetypeTableRecord
  2
HIDDEN
 70
64
  3
- - - - - - - - - - - - - - - - - - - -
 72
65
 73
2
 40
0.2
 49
0.1
 74
0
 49
-0.1
 74
0
  0
LTYPE
  5
1F7
100
AcDbSymbolTableRecord
100
AcDbLinetypeTableRecord
  2
PHANTOM
 70
64
  3
_____ _ _ _____ _ _ _____ _ _ _____
 72
65
 73
6
 40
0.8
 49
0.45
 74
0
 49
-0.05
 74
0
 49
0.1
 74
0
 49
-0.05
 74
0
 49
0.1
 74
0
 49
-0.05
 74
0
  0
LTYPE
  5
1F8
100
AcDbSymbolTableRecord
100
AcDbLinetypeTableRecord
  2
DOT
 70
64
  3
. . . . . . . . . . . . . . . . . . . .
 72
65
 73
2
 40
0.2
 49
0.1
 74
0
 49
-0.1
 74
0
  0
LTYPE
  5
1F9
100
AcDbSymbolTableRecord
100
AcDbLinetypeTableRecord
  2
DASHED
 70
64
  3
- - - - - - - - - - - - - - - - - - - -
 72
65
 73
2
 40
0.2
 49
0.1
 74
0
 49
-0.1
 74
0
  0
ENDTAB
  0
TABLE
  2
LAYER
  5
2
100
AcDbSymbolTable
 70
36
  0
LAYER
  5
10
100
AcDbSymbolTableRecord
100
AcDbLayerTableRecord
  2
0
 70
0
 62
7
  6
CONTINUOUS
370
-3
390
F
  0
LAYER
  5
1FA
100
AcDbSymbolTableRecord
100
AcDbLayerTableRecord
  2
DEFAULT_1
 70
0
 62
7
  6
CENTER
370
-3
390
F
  0
LAYER
  5
1FB
100
AcDbSymbolTableRecord
100
AcDbLayerTableRecord
  2
DEFAULT_2
 70
0
 62
8
  6
HIDDEN
370
-3
390
F
  0
LAYER
  5
1FC
100
AcDbSymbolTableRecord
100
AcDbLayerTableRecord
  2
DEFAULT_3
 70
0
 62
7
  6
PHANTOM
370
-3
390
F
  0
LAYER
  5
1FD
100
AcDbSymbolTableRecord
100
AcDbLayerTableRecord
  2
DEFAULT_COORDINATE_SYSTEM
 70
0
 62
7
  6
CONTINUOUS
370
-3
390
F
  0
LAYER
  5
1FE
100
AcDbSymbolTableRecord
100
AcDbLayerTableRecord
  2
DEFAULT_DATUM_AXES
 70
0
 62
7
  6
CONTINUOUS
370
-3
390
F
  0
LAYER
  5
1FF
100
AcDbSymbolTableRecord
100
AcDbLayerTableRecord
  2
DEFAULT_DATUM_PLANES
 70
0
 62
7
  6
CONTINUOUS
370
-3
390
F
  0
ENDTAB
  0
TABLE
  2
STYLE
  5
3
100
AcDbSymbolTable
 70
1
  0
STYLE
  5
11
100
AcDbSymbolTableRecord
100
AcDbTextStyleTableRecord
  2
STANDARD
 70
0
 40
0.0
 41
0.8
 50
0.0
 71
0
 42
0.2
  3
txt
  4

  0
STYLE
  5
200
100
AcDbSymbolTableRecord
100
AcDbTextStyleTableRecord
  2
TEXTSTYLE_1
 70
0
 40
0.0
 41
0.8
 50
0.0
 71
0
 42
0.2
  3
gdt
  4

  0
ENDTAB
  0
TABLE
  2
VIEW
  5
6
100
AcDbSymbolTable
 70
0
  0
ENDTAB
  0
TABLE
  2
UCS
  5
7
100
AcDbSymbolTable
 70
0
  0
ENDTAB
  0
TABLE
  2
APPID
  5
9
100
AcDbSymbolTable
 70
1
  0
APPID
  5
201
100
AcDbSymbolTableRecord
100
AcDbRegAppTableRecord
  2
ACAD
 70
0
  0
ENDTAB
  0
TABLE
  2
BLOCK_RECORD
  5
1
100
AcDbSymbolTable
 70
0
  0
BLOCK_RECORD
  5
202
100
AcDbSymbolTableRecord
100
AcDbBlockTableRecord
  2
*Model_Space
  0
BLOCK_RECORD
  5
203
100
AcDbSymbolTableRecord
100
AcDbBlockTableRecord
  2
*Paper_Space
  0
BLOCK_RECORD
  5
204
100
AcDbSymbolTableRecord
100
AcDbBlockTableRecord
  2
_FILLED
  0
ENDTAB
  0
TABLE
  2
DIMSTYLE
  5
A
100
AcDbSymbolTable
 70
1
100
AcDbDimStyleTable
 71
0
  0
DIMSTYLE
105
205
100
AcDbSymbolTableRecord
100
AcDbDimStyleTableRecord
  2
STANDARD
 70
0
  3

  4

 40
1.0
 41
0.1
 42
0.0625
 43
0.38
 44
0.125
 45
0.0
 46
0.0
 47
0.01
 48
0.01
140
0.08
141
0.09
142
0.0
143
25.4
144
1.0
145
0.0
146
1.0
147
0.09
 71
1.0
 72
0.0
 73
1
 74
1
 75
0
 76
0
 77
0
 78
4
 79
1
170
1
171
1
172
0
173
0
174
0
175
0
176
0
177
0
178
0
270
2
179
2
271
2
272
2
273
2
274
2
275
0
280
0
281
0
282
0
283
1
284
4
285
0
286
0
287
3
288
0
340
11
278
46
341
204
342
204
343
204
344
204
  0
ENDTAB
  0
ENDSEC
  0
SECTION
  2
BLOCKS
  0
BLOCK
  5
20
100
AcDbEntity
  8
0
100
AcDbBlockBegin
  2
*Model_Space
 70
0
 10
0.0
 20
0.0
 30
0.0
  3
*Model_Space
  1

  0
ENDBLK
  5
21
100
AcDbEntity
  8
0
100
AcDbBlockEnd
  0
BLOCK
  5
1C
100
AcDbEntity
  8
0
100
AcDbBlockBegin
  2
*Paper_Space
 70
0
 10
0.0
 20
0.0
 30
0.0
  3
*Paper_Space
  1

  0
ENDBLK
  5
1D
100
AcDbEntity
  8
0
100
AcDbBlockEnd
  0
BLOCK
  5
206
100
AcDbEntity
  8
0
100
AcDbBlockBegin
  2
_FILLED
 70
64
 10
0.0
 20
0.0
  3
_FILLED
  1

  0
SOLID
  5
207
100
AcDbEntity
  8
0
  6
BYBLOCK
 62
0
100
AcDbTrace
 10
0.0
 20
0.0
 11
-1.0
 21
0.2
 12
-1.0
 22
-0.2
 13
-1.0
 23
-0.2
  0
ENDBLK
  5
208
100
AcDbEntity
  8
0
  6
BYBLOCK
 62
0
100
AcDbBlockEnd
  0
ENDSEC
  0
SECTION
  2
ENTITIES
  0
MTEXT
  5
209
100
AcDbEntity
  8
0
100
AcDbMText
 62
2
  6
CONTINUOUS
  7
STANDARD
 71
3
 72
1
 10
5.3039984472
 20
2.2197282708
 30
0.0
 11
1.0
 21
0.0
 31
0.0
 73
2
 44
0.9
  1
SCALE  .500
 40
0.08
 41
0.704
  0
LINE
  5
20A
100
AcDbEntity
  8
0
100
AcDbLine
 62
7
  6
CONTINUOUS
 10
0.0
 20
0.0
 11
0.0
 21
8.5
  0
LINE
  5
20B
100
AcDbEntity
  8
0
100
AcDbLine
 62
7
  6
CONTINUOUS
 10
0.0
 20
0.0
 11
11.0
 21
0.0
  0
LINE
  5
20C
100
AcDbEntity
  8
0
100
AcDbLine
 62
7
  6
CONTINUOUS
 10
0.0
 20
8.5
 11
11.0
 21
8.5
  0
LINE
  5
20D
100
AcDbEntity
  8
0
100
AcDbLine
 62
7
  6
CONTINUOUS
 10
11.0
 20
0.0
 11
11.0
 21
8.5
  0
LINE
  5
20E
100
AcDbEntity
  8
0
100
AcDbLine
 62
7
  6
CONTINUOUS
 10
3.0775543478
 20
5.5292701764
 11
3.0775543478
 21
5.3492701764
  0
LINE
  5
20F
100
AcDbEntity
  8
0
100
AcDbLine
 62
7
  6
CONTINUOUS
 10
3.0825543478
 20
5.5292701764
 11
3.0825543478
 21
5.3492701764
  0
LINE
  5
210
100
AcDbEntity
  8
0
100
AcDbLine
 62
7
  6
CONTINUOUS
 10
3.1105543478
 20
5.5752701764
 11
3.1105543478
 21
5.3032701764
  0
LINE
  5
211
100
AcDbEntity
  8
0
100
AcDbLine
 62
7
  6
CONTINUOUS
 10
3.1225543478
 20
5.5810201764
 11
3.1225543478
 21
5.4635924506
  0
LINE
  5
212
100
AcDbEntity
  8
0
100
AcDbLine
 62
7
  6
CONTINUOUS
 10
3.1225543478
 20
5.4149479022
 11
3.1225543478
 21
5.2975201764
  0
LINE
  5
213
100
AcDbEntity
  8
0
100
AcDbLine
 62
7
  6
CONTINUOUS
 10
3.1460543478
 20
5.6045201764
 11
3.1460543478
 21
5.5360651175
  0
LINE
  5
214
100
AcDbEntity
  8
0
100
AcDbLine
 62
7
  6
CONTINUOUS
 10
3.1460543478
 20
5.3424752353
 11
3.1460543478
 21
5.2740201764
  0
LINE
  5
215
100
AcDbEntity
  8
0
100
AcDbLine
 62
7
  6
CONTINUOUS
 10
3.1815543478
 20
5.6045201764
 11
3.1815543478
 21
5.582563235
  0
LINE
  5
216
100
AcDbEntity
  8
0
100
AcDbLine
 62
7
  6
CONTINUOUS
 10
3.1815543478
 20
5.2959771178
 11
3.1815543478
 21
5.2740201764
  0
LINE
  5
217
100
AcDbEntity
  8
0
100
AcDbLine
 62
7
  6
CONTINUOUS
 10
3.4359084574
 20
5.6274988129
 11
3.4359084574
 21
5.6029838251
  0
LINE
  5
218
100
AcDbEntity
  8
0
100
AcDbLine
 62
7
  6
CONTINUOUS
 10
3.4359084574
 20
5.2755565278
 11
3.4359084574
 21
5.2510415399
  0
LINE
  5
219
100
AcDbEntity
  8
0
100
AcDbLine
 62
7
  6
CONTINUOUS
 10
3.6375543478
 20
5.6155201764
 11
3.6375543478
 21
5.2630201764
  0
LINE
  5
21A
100
AcDbEntity
  8
0
100
AcDbLine
 62
7
  6
CONTINUOUS
 10
3.6625543478
 20
5.6155201764
 11
3.6625543478
 21
5.2630201764
  0
LINE
  5
21B
100
AcDbEntity
  8
0
100
AcDbLine
 62
7
  6
CONTINUOUS
 10
3.6725543478
 20
5.2642701764
 11
3.6725543478
 21
5.6142701764
  0
LINE
  5
21C
100
AcDbEntity
  8
0
100
AcDbLine
 62
7
  6
CONTINUOUS
 10
3.7225543478
 20
5.6281509227
 11
3.7225543478
 21
5.2503894301
  0
LINE
  5
21D
100
AcDbEntity
  8
0
100
AcDbLine
 62
7
  6
CONTINUOUS
 10
3.7260008494
 20
5.2406445251
 11
3.7260008494
 21
5.6378958277
  0
LINE
  5
21E
100
AcDbEntity
  8
0
100
AcDbLine
 62
7
  6
CONTINUOUS
 10
4.0850543478
 20
5.1284262582
 11
4.0833982661
 21
5.1267701764
  0
LINE
  5
21F
100
AcDbEntity
  8
0
100
AcDbLine
 62
7
  6
CONTINUOUS
 10
3.8500543478
 20
5.1510201764
 11
3.8500543478
 21
5.7275199842
  0
LINE
  5
220
100
AcDbEntity
  8
0
100
AcDbLine
 62
7
  6
CONTINUOUS
 10
3.8655543478
 20
5.1355201764
 11
3.8655543478
 21
5.7430201764
  0
LINE
  5
221
100
AcDbEntity
  8
0
100
AcDbLine
 62
7
  6
CONTINUOUS
 10
3.8850543478
 20
5.7430201764
 11
3.8850543478
 21
5.1355201764
  0
LINE
  5
222
100
AcDbEntity
  8
0
100
AcDbLine
 62
7
  6
CONTINUOUS
 10
4.0850543478
 20
5.1284262582
 11
4.0850543478
 21
5.7501140947
  0
LINE
  5
223
100
AcDbEntity
  8
0
100
AcDbLine
 62
7
  6
CONTINUOUS
 10
5.7850543478
 20
5.7501140947
 11
5.7867104296
 21
5.7517701764
  0
LINE
  5
224
100
AcDbEntity
  8
0
100
AcDbLine
 62
7
  6
CONTINUOUS
 10
4.7078043478
 20
2.8615649887
 11
4.7078043478
 21
2.8181529443
  0
LINE
  5
225
100
AcDbEntity
  8
0
100
AcDbLine
 62
7
  6
CONTINUOUS
 10
4.7585543478
 20
5.4392701764
 11
4.7585543478
 21
2.8663403136
  0
LINE
  5
226
100
AcDbEntity
  8
0
100
AcDbLine
 62
7
  6
CONTINUOUS
 10
5.1115543478
 20
5.4392701764
 11
5.1115543478
 21
2.8663403136
  0
LINE
  5
227
100
AcDbEntity
  8
0
100
AcDbLine
 62
7
  6
CONTINUOUS
 10
5.1623043478
 20
2.8615649887
 11
5.1623043478
 21
2.8181529443
  0
LINE
  5
228
100
AcDbEntity
  8
0
100
AcDbLine
 62
7
  6
CONTINUOUS
 10
4.0850543478
 20
5.7501140947
 11
4.0833982661
 21
5.7517701764
  0
LINE
  5
229
100
AcDbEntity
  8
0
100
AcDbLine
 62
7
  6
CONTINUOUS
 10
5.7850543478
 20
5.7501140947
 11
5.7850543478
 21
5.1284262582
  0
LINE
  5
22A
100
AcDbEntity
  8
0
100
AcDbLine
 62
7
  6
CONTINUOUS
 10
5.1115543478
 20
5.1329334889
 11
5.6273455474
 21
5.1509447203
  0
LINE
  5
22B
100
AcDbEntity
  8
0
100
AcDbLine
 62
7
  6
CONTINUOUS
 10
5.1115543478
 20
5.1318130336
 11
5.6329128017
 21
5.1467089894
  0
LINE
  5
22C
100
AcDbEntity
  8
0
100
AcDbLine
 62
7
  6
CONTINUOUS
 10
4.0833982661
 20
5.1267701764
 11
3.8908867293
 21
5.1267701764
  0
LINE
  5
22D
100
AcDbEntity
  8
0
100
AcDbLine
 62
7
  6
CONTINUOUS
 10
5.9792219664
 20
5.1267701764
 11
5.7867104296
 21
5.1267701764
  0
LINE
  5
22E
100
AcDbEntity
  8
0
100
AcDbLine
 62
7
  6
CONTINUOUS
 10
6.0045543478
 20
5.1355201764
 11
5.9850543478
 21
5.1355201764
  0
LINE
  5
22F
100
AcDbEntity
  8
0
100
AcDbLine
 62
7
  6
CONTINUOUS
 10
3.8655543478
 20
5.1355201764
 11
3.8850543478
 21
5.1355201764
  0
LINE
  5
230
100
AcDbEntity
  8
0
100
AcDbLine
 62
7
  6
CONTINUOUS
 10
4.0850543478
 20
5.1467701764
 11
4.2329110658
 21
5.1467701764
  0
LINE
  5
231
100
AcDbEntity
  8
0
100
AcDbLine
 62
7
  6
CONTINUOUS
 10
5.6371976298
 20
5.1467701764
 11
5.7850543478
 21
5.1467701764
  0
LINE
  5
232
100
AcDbEntity
  8
0
100
AcDbLine
 62
7
  6
CONTINUOUS
 10
4.7585543478
 20
5.1318130336
 11
4.2371958939
 21
5.1467089894
  0
LINE
  5
233
100
AcDbEntity
  8
0
100
AcDbLine
 62
7
  6
CONTINUOUS
 10
4.7585543478
 20
5.1329334889
 11
4.2427631483
 21
5.1509447203
  0
LINE
  5
234
100
AcDbEntity
  8
0
100
AcDbLine
 62
7
  6
CONTINUOUS
 10
3.6625543478
 20
5.2630201764
 11
3.6375543478
 21
5.2630201764
  0
LINE
  5
235
100
AcDbEntity
  8
0
100
AcDbLine
 62
7
  6
CONTINUOUS
 10
6.2075543478
 20
5.2630201764
 11
6.2325543478
 21
5.2630201764
  0
LINE
  5
236
100
AcDbEntity
  8
0
100
AcDbLine
 62
7
  6
CONTINUOUS
 10
6.1975543478
 20
5.2642701764
 11
6.1475543478
 21
5.2642701764
  0
LINE
  5
237
100
AcDbEntity
  8
0
100
AcDbLine
 62
7
  6
CONTINUOUS
 10
3.6725543478
 20
5.2642701764
 11
3.7225543478
 21
5.2642701764
  0
LINE
  5
238
100
AcDbEntity
  8
0
100
AcDbLine
 62
7
  6
CONTINUOUS
 10
3.1815543478
 20
5.2740201764
 11
3.1460543478
 21
5.2740201764
  0
LINE
  5
239
100
AcDbEntity
  8
0
100
AcDbLine
 62
7
  6
CONTINUOUS
 10
6.6885543478
 20
5.2740201764
 11
6.7240543478
 21
5.2740201764
  0
LINE
  5
23A
100
AcDbEntity
  8
0
100
AcDbLine
 62
7
  6
CONTINUOUS
 10
3.6725543478
 20
5.2931542962
 11
3.6625543478
 21
5.2931542962
  0
LINE
  5
23B
100
AcDbEntity
  8
0
100
AcDbLine
 62
7
  6
CONTINUOUS
 10
6.1975543478
 20
5.2931542962
 11
6.2075543478
 21
5.2931542962
  0
LINE
  5
23C
100
AcDbEntity
  8
0
100
AcDbLine
 62
7
  6
CONTINUOUS
 10
3.1225543478
 20
5.3032701764
 11
3.1105543478
 21
5.3032701764
  0
LINE
  5
23D
100
AcDbEntity
  8
0
100
AcDbLine
 62
7
  6
CONTINUOUS
 10
6.7475543478
 20
5.3032701764
 11
6.7595543478
 21
5.3032701764
  0
LINE
  5
23E
100
AcDbEntity
  8
0
100
AcDbLine
 62
7
  6
CONTINUOUS
 10
5.9850543478
 20
5.1355201764
 11
5.9850543478
 21
5.7430201764
  0
LINE
  5
23F
100
AcDbEntity
  8
0
100
AcDbLine
 62
7
  6
CONTINUOUS
 10
6.0045543478
 20
5.7430201764
 11
6.0045543478
 21
5.1355201764
  0
LINE
  5
240
100
AcDbEntity
  8
0
100
AcDbLine
 62
7
  6
CONTINUOUS
 10
6.0200543478
 20
5.7275199842
 11
6.0200543478
 21
5.1510203686
  0
LINE
  5
241
100
AcDbEntity
  8
0
100
AcDbLine
 62
7
  6
CONTINUOUS
 10
3.0825543478
 20
5.3492701764
 11
3.0775543478
 21
5.3492701764
  0
LINE
  5
242
100
AcDbEntity
  8
0
100
AcDbLine
 62
7
  6
CONTINUOUS
 10
6.7875543478
 20
5.3492701764
 11
6.7925543478
 21
5.3492701764
  0
LINE
  5
243
100
AcDbEntity
  8
0
100
AcDbLine
 62
7
  6
CONTINUOUS
 10
4.5948043478
 20
5.4392701764
 11
4.1978500798
 21
5.4392701764
  0
LINE
  5
244
100
AcDbEntity
  8
0
100
AcDbLine
 62
7
  6
CONTINUOUS
 10
4.0350543478
 20
5.4392701764
 11
3.9350543478
 21
5.4392701764
  0
LINE
  5
245
100
AcDbEntity
  8
0
100
AcDbLine
 62
7
  6
CONTINUOUS
 10
5.2753043478
 20
5.4392701764
 11
5.6722586158
 21
5.4392701764
  0
LINE
  5
246
100
AcDbEntity
  8
0
100
AcDbLine
 62
7
  6
CONTINUOUS
 10
5.8350543478
 20
5.4392719464
 11
5.9350543478
 21
5.4392719464
  0
LINE
  5
247
100
AcDbEntity
  8
0
100
AcDbLine
 62
7
  6
CONTINUOUS
 10
5.7850543478
 20
5.1284262582
 11
5.7867104296
 21
5.1267701764
  0
LINE
  5
248
100
AcDbEntity
  8
0
100
AcDbLine
 62
7
  6
CONTINUOUS
 10
6.1441078463
 20
5.6378958277
 11
6.1441078463
 21
5.2406445251
  0
LINE
  5
249
100
AcDbEntity
  8
0
100
AcDbLine
 62
7
  6
CONTINUOUS
 10
6.1475543478
 20
5.6281507374
 11
6.1475543478
 21
5.2503896154
  0
LINE
  5
24A
100
AcDbEntity
  8
0
100
AcDbLine
 62
7
  6
CONTINUOUS
 10
6.1975543478
 20
5.2642701764
 11
6.1975543478
 21
5.6142701764
  0
LINE
  5
24B
100
AcDbEntity
  8
0
100
AcDbLine
 62
7
  6
CONTINUOUS
 10
6.2075543478
 20
5.2630201764
 11
6.2075543478
 21
5.6155201764
  0
LINE
  5
24C
100
AcDbEntity
  8
0
100
AcDbLine
 62
7
  6
CONTINUOUS
 10
6.2325543478
 20
5.2630201764
 11
6.2325543478
 21
5.6155201764
  0
LINE
  5
24D
100
AcDbEntity
  8
0
100
AcDbLine
 62
7
  6
CONTINUOUS
 10
3.0825543478
 20
5.5292701764
 11
3.0775543478
 21
5.5292701764
  0
LINE
  5
24E
100
AcDbEntity
  8
0
100
AcDbLine
 62
7
  6
CONTINUOUS
 10
6.7875543478
 20
5.5292701764
 11
6.7925543478
 21
5.5292701764
  0
LINE
  5
24F
100
AcDbEntity
  8
0
100
AcDbLine
 62
7
  6
CONTINUOUS
 10
3.1225543478
 20
5.5752701764
 11
3.1105543478
 21
5.5752701764
  0
LINE
  5
250
100
AcDbEntity
  8
0
100
AcDbLine
 62
7
  6
CONTINUOUS
 10
6.7475543478
 20
5.5752701764
 11
6.7595543478
 21
5.5752701764
  0
LINE
  5
251
100
AcDbEntity
  8
0
100
AcDbLine
 62
7
  6
CONTINUOUS
 10
3.6725543478
 20
5.5853860566
 11
3.6625543478
 21
5.5853860566
  0
LINE
  5
252
100
AcDbEntity
  8
0
100
AcDbLine
 62
7
  6
CONTINUOUS
 10
6.1975543478
 20
5.5853860566
 11
6.2075543478
 21
5.5853860566
  0
LINE
  5
253
100
AcDbEntity
  8
0
100
AcDbLine
 62
7
  6
CONTINUOUS
 10
3.1815543478
 20
5.6045201764
 11
3.1460543478
 21
5.6045201764
  0
LINE
  5
254
100
AcDbEntity
  8
0
100
AcDbLine
 62
7
  6
CONTINUOUS
 10
6.6885543478
 20
5.6045201764
 11
6.7240543478
 21
5.6045201764
  0
LINE
  5
255
100
AcDbEntity
  8
0
100
AcDbLine
 62
7
  6
CONTINUOUS
 10
6.1975543478
 20
5.6142701764
 11
6.1475543478
 21
5.6142701764
  0
LINE
  5
256
100
AcDbEntity
  8
0
100
AcDbLine
 62
7
  6
CONTINUOUS
 10
3.6725543478
 20
5.6142701764
 11
3.7225543478
 21
5.6142701764
  0
LINE
  5
257
100
AcDbEntity
  8
0
100
AcDbLine
 62
7
  6
CONTINUOUS
 10
3.6625543478
 20
5.6155201764
 11
3.6375543478
 21
5.6155201764
  0
LINE
  5
258
100
AcDbEntity
  8
0
100
AcDbLine
 62
7
  6
CONTINUOUS
 10
6.2075543478
 20
5.6155201764
 11
6.2325543478
 21
5.6155201764
  0
LINE
  5
259
100
AcDbEntity
  8
0
100
AcDbLine
 62
7
  6
CONTINUOUS
 10
6.4342002383
 20
5.2510415399
 11
6.4342002383
 21
5.2755565278
  0
LINE
  5
25A
100
AcDbEntity
  8
0
100
AcDbLine
 62
7
  6
CONTINUOUS
 10
6.4342002383
 20
5.6029838251
 11
6.4342002383
 21
5.6274988129
  0
LINE
  5
25B
100
AcDbEntity
  8
0
100
AcDbLine
 62
7
  6
CONTINUOUS
 10
4.789263834
 20
5.7466792274
 11
4.2427631483
 21
5.7275956325
  0
LINE
  5
25C
100
AcDbEntity
  8
0
100
AcDbLine
 62
7
  6
CONTINUOUS
 10
4.7913342812
 20
5.7476638888
 11
4.2371958939
 21
5.7318313634
  0
LINE
  5
25D
100
AcDbEntity
  8
0
100
AcDbLine
 62
7
  6
CONTINUOUS
 10
5.7850543478
 20
5.7317701764
 11
5.6371976298
 21
5.7317701764
  0
LINE
  5
25E
100
AcDbEntity
  8
0
100
AcDbLine
 62
7
  6
CONTINUOUS
 10
4.2329110658
 20
5.7317701764
 11
4.0850543478
 21
5.7317701764
  0
LINE
  5
25F
100
AcDbEntity
  8
0
100
AcDbLine
 62
7
  6
CONTINUOUS
 10
6.0045543478
 20
5.7430201764
 11
5.9850543478
 21
5.7430201764
  0
LINE
  5
260
100
AcDbEntity
  8
0
100
AcDbLine
 62
7
  6
CONTINUOUS
 10
3.8655543478
 20
5.7430201764
 11
3.8850543478
 21
5.7430201764
  0
LINE
  5
261
100
AcDbEntity
  8
0
100
AcDbLine
 62
7
  6
CONTINUOUS
 10
3.8908867293
 20
5.7517701764
 11
4.0833982661
 21
5.7517701764
  0
LINE
  5
262
100
AcDbEntity
  8
0
100
AcDbLine
 62
7
  6
CONTINUOUS
 10
5.7867104296
 20
5.7517701764
 11
5.9792219664
 21
5.7517701764
  0
LINE
  5
263
100
AcDbEntity
  8
0
100
AcDbLine
 62
7
  6
CONTINUOUS
 10
5.0787744144
 20
5.7476638888
 11
5.6329128017
 21
5.7318313634
  0
LINE
  5
264
100
AcDbEntity
  8
0
100
AcDbLine
 62
7
  6
CONTINUOUS
 10
5.0808448616
 20
5.7466792274
 11
5.6273455474
 21
5.7275956325
  0
LINE
  5
265
100
AcDbEntity
  8
0
100
AcDbLine
 62
7
  6
CONTINUOUS
 10
6.6885543478
 20
5.2740201764
 11
6.6885543478
 21
5.2959771178
  0
LINE
  5
266
100
AcDbEntity
  8
0
100
AcDbLine
 62
7
  6
CONTINUOUS
 10
6.6885543478
 20
5.582563235
 11
6.6885543478
 21
5.6045201764
  0
LINE
  5
267
100
AcDbEntity
  8
0
100
AcDbLine
 62
7
  6
CONTINUOUS
 10
6.7240543478
 20
5.2740201764
 11
6.7240543478
 21
5.3424752353
  0
LINE
  5
268
100
AcDbEntity
  8
0
100
AcDbLine
 62
7
  6
CONTINUOUS
 10
6.7240543478
 20
5.5360651175
 11
6.7240543478
 21
5.6045201764
  0
LINE
  5
269
100
AcDbEntity
  8
0
100
AcDbLine
 62
7
  6
CONTINUOUS
 10
6.7475543478
 20
5.2975201764
 11
6.7475543478
 21
5.4149479022
  0
LINE
  5
26A
100
AcDbEntity
  8
0
100
AcDbLine
 62
7
  6
CONTINUOUS
 10
6.7475543478
 20
5.4635924506
 11
6.7475543478
 21
5.5810201764
  0
LINE
  5
26B
100
AcDbEntity
  8
0
100
AcDbLine
 62
7
  6
CONTINUOUS
 10
6.7595543478
 20
5.3032701764
 11
6.7595543478
 21
5.5752701764
  0
LINE
  5
26C
100
AcDbEntity
  8
0
100
AcDbLine
 62
7
  6
CONTINUOUS
 10
6.7875543478
 20
5.3492701764
 11
6.7875543478
 21
5.5292701764
  0
LINE
  5
26D
100
AcDbEntity
  8
0
100
AcDbLine
 62
7
  6
CONTINUOUS
 10
6.7925543478
 20
5.3492701764
 11
6.7925543478
 21
5.5292701764
  0
ARC
  5
26E
100
AcDbEntity
  8
0
100
AcDbCircle
 62
7
  6
CONTINUOUS
 10
4.0959494664
 20
5.2697708709
 40
0.25
100
AcDbArc
 50
212.4798371001
 51
214.8900039694
  0
ARC
  5
26F
100
AcDbEntity
  8
0
100
AcDbCircle
 62
7
  6
CONTINUOUS
 10
3.896305118
 20
5.3783306031
 40
0.219
100
AcDbArc
 50
218.9545376239
 51
257.807858722
  0
ARC
  5
270
100
AcDbEntity
  8
0
100
AcDbCircle
 62
7
  6
CONTINUOUS
 10
3.3210845865
 20
5.3992701764
 40
0.1875
100
AcDbArc
 50
221.9128908834
 51
307.7628051894
  0
ARC
  5
271
100
AcDbEntity
  8
0
100
AcDbCircle
 62
7
  6
CONTINUOUS
 10
3.5454906499
 20
5.1095795003
 40
0.1789406761
100
AcDbArc
 50
59.0364377797
 51
127.7628051894
  0
ARC
  5
272
100
AcDbEntity
  8
0
100
AcDbCircle
 62
7
  6
CONTINUOUS
 10
4.2296396213
 20
5.0010585641
 40
0.1504595537
100
AcDbArc
 50
84.9961355655
 51
91.0449181761
  0
ARC
  5
273
100
AcDbEntity
  8
0
100
AcDbCircle
 62
7
  6
CONTINUOUS
 10
4.2329119278
 20
4.9967701764
 40
0.15
100
AcDbArc
 50
88.3634229584
 51
90.0
  0
ARC
  5
274
100
AcDbEntity
  8
0
100
AcDbCircle
 62
7
  6
CONTINUOUS
 10
3.0825543478
 20
5.3212701764
 40
0.028
100
AcDbArc
 50
0.0
 51
90.0
  0
ARC
  5
275
100
AcDbEntity
  8
0
100
AcDbCircle
 62
7
  6
CONTINUOUS
 10
3.1460543478
 20
5.2975201764
 40
0.0235
100
AcDbArc
 50
180.0
 51
270.0
  0
ARC
  5
276
100
AcDbEntity
  8
0
100
AcDbCircle
 62
7
  6
CONTINUOUS
 10
3.7380543478
 20
5.2503894301
 40
0.0155
100
AcDbArc
 50
180.0
 51
218.9545376239
  0
ARC
  5
277
100
AcDbEntity
  8
0
100
AcDbCircle
 62
7
  6
CONTINUOUS
 10
3.8655543478
 20
5.1510201764
 40
0.0155
100
AcDbArc
 50
180.0
 51
270.0
  0
ARC
  5
278
100
AcDbEntity
  8
0
100
AcDbCircle
 62
7
  6
CONTINUOUS
 10
4.0959494664
 20
5.6087694819
 40
0.25
100
AcDbArc
 50
145.1099960306
 51
147.5201628999
  0
ARC
  5
279
100
AcDbEntity
  8
0
100
AcDbCircle
 62
7
  6
CONTINUOUS
 10
3.896305118
 20
5.5002097498
 40
0.219
100
AcDbArc
 50
102.192141278
 51
141.0454623761
  0
CIRCLE
  5
27A
100
AcDbEntity
  8
0
100
AcDbCircle
 62
7
  6
CONTINUOUS
 10
3.3210543478
 20
5.4392701764
 40
0.2
  0
ARC
  5
27B
100
AcDbEntity
  8
0
100
AcDbCircle
 62
7
  6
CONTINUOUS
 10
3.3210845865
 20
5.4792701764
 40
0.1875
100
AcDbArc
 50
52.2371948106
 51
138.0871091166
  0
ARC
  5
27C
100
AcDbEntity
  8
0
100
AcDbCircle
 62
7
  6
CONTINUOUS
 10
3.5454906499
 20
5.7689608525
 40
0.1789406761
100
AcDbArc
 50
232.2371948106
 51
300.9635622203
  0
ARC
  5
27D
100
AcDbEntity
  8
0
100
AcDbCircle
 62
7
  6
CONTINUOUS
 10
4.2296396213
 20
5.8774817887
 40
0.1504595537
100
AcDbArc
 50
268.9550818239
 51
275.0038644345
  0
ARC
  5
27E
100
AcDbEntity
  8
0
100
AcDbCircle
 62
7
  6
CONTINUOUS
 10
4.2329119278
 20
5.8817701764
 40
0.15
100
AcDbArc
 50
270.0
 51
271.6365770416
  0
CIRCLE
  5
27F
100
AcDbEntity
  8
0
100
AcDbCircle
 62
7
  6
CONTINUOUS
 10
3.3210543478
 20
5.4392701764
 40
0.12625
  0
CIRCLE
  5
280
100
AcDbEntity
  8
0
100
AcDbCircle
 62
7
  6
CONTINUOUS
 10
3.3210543478
 20
5.4392701764
 40
0.11875
  0
ARC
  5
281
100
AcDbEntity
  8
0
100
AcDbCircle
 62
7
  6
CONTINUOUS
 10
3.0825543478
 20
5.5572701764
 40
0.028
100
AcDbArc
 50
270.0
 51
360.0
  0
ARC
  5
282
100
AcDbEntity
  8
0
100
AcDbCircle
 62
7
  6
CONTINUOUS
 10
3.1460543478
 20
5.5810201764
 40
0.0235
100
AcDbArc
 50
90.0
 51
180.0
  0
ARC
  5
283
100
AcDbEntity
  8
0
100
AcDbCircle
 62
7
  6
CONTINUOUS
 10
3.7380543478
 20
5.6281509227
 40
0.0155
100
AcDbArc
 50
141.0454623761
 51
180.0
  0
ARC
  5
284
100
AcDbEntity
  8
0
100
AcDbCircle
 62
7
  6
CONTINUOUS
 10
3.8655543478
 20
5.7275201764
 40
0.0155
100
AcDbArc
 50
90.0
 51
180.0
  0
ARC
  5
285
100
AcDbEntity
  8
0
100
AcDbCircle
 62
7
  6
CONTINUOUS
 10
5.7741592293
 20
5.2697708709
 40
0.25
100
AcDbArc
 50
325.1099960296
 51
327.5201628999
  0
ARC
  5
286
100
AcDbEntity
  8
0
100
AcDbCircle
 62
7
  6
CONTINUOUS
 10
5.9738035776
 20
5.3783306031
 40
0.219
100
AcDbArc
 50
282.192141278
 51
321.0454623761
  0
ARC
  5
287
100
AcDbEntity
  8
0
100
AcDbCircle
 62
7
  6
CONTINUOUS
 10
6.5490241092
 20
5.3992701764
 40
0.1875
100
AcDbArc
 50
232.2371948106
 51
318.0871091166
  0
ARC
  5
288
100
AcDbEntity
  8
0
100
AcDbCircle
 62
7
  6
CONTINUOUS
 10
6.3246180458
 20
5.1095795003
 40
0.1789406761
100
AcDbArc
 50
52.2371948106
 51
120.9635622203
  0
ARC
  5
289
100
AcDbEntity
  8
0
100
AcDbCircle
 62
7
  6
CONTINUOUS
 10
5.6404690743
 20
5.0010585641
 40
0.1504595537
100
AcDbArc
 50
88.9550818238
 51
95.0038644345
  0
ARC
  5
28A
100
AcDbEntity
  8
0
100
AcDbCircle
 62
7
  6
CONTINUOUS
 10
5.6371967678
 20
4.9967701764
 40
0.15
100
AcDbArc
 50
90.0
 51
91.6365770416
  0
ARC
  5
28B
100
AcDbEntity
  8
0
100
AcDbCircle
 62
7
  6
CONTINUOUS
 10
6.7875543478
 20
5.3212701764
 40
0.028
100
AcDbArc
 50
90.0
 51
180.0
  0
ARC
  5
28C
100
AcDbEntity
  8
0
100
AcDbCircle
 62
7
  6
CONTINUOUS
 10
6.7240543478
 20
5.2975201764
 40
0.0235
100
AcDbArc
 50
270.0
 51
360.0
  0
ARC
  5
28D
100
AcDbEntity
  8
0
100
AcDbCircle
 62
7
  6
CONTINUOUS
 10
6.1320543478
 20
5.2503894301
 40
0.0155
100
AcDbArc
 50
321.0454623761
 51
360.0
  0
ARC
  5
28E
100
AcDbEntity
  8
0
100
AcDbCircle
 62
7
  6
CONTINUOUS
 10
6.0045543478
 20
5.1510201764
 40
0.0155
100
AcDbArc
 50
270.0
 51
360.0
  0
ARC
  5
28F
100
AcDbEntity
  8
0
100
AcDbCircle
 62
7
  6
CONTINUOUS
 10
4.9350543478
 20
5.4392701764
 40
0.55
100
AcDbArc
 50
212.9717205533
 51
251.2810961901
  0
ARC
  5
290
100
AcDbEntity
  8
0
100
AcDbCircle
 62
7
  6
CONTINUOUS
 10
4.9350543478
 20
5.4392701764
 40
0.55
100
AcDbArc
 50
288.7189038099
 51
327.0282794467
  0
ARC
  5
291
100
AcDbEntity
  8
0
100
AcDbCircle
 62
7
  6
CONTINUOUS
 10
4.9350543478
 20
5.4392701764
 40
0.55
100
AcDbArc
 50
32.9717205533
 51
147.0282794467
  0
ARC
  5
292
100
AcDbEntity
  8
0
100
AcDbCircle
 62
7
  6
CONTINUOUS
 10
4.9350543478
 20
5.4392701764
 40
0.5260543277
100
AcDbArc
 50
289.6053457852
 51
325.2076784311
  0
ARC
  5
293
100
AcDbEntity
  8
0
100
AcDbCircle
 62
7
  6
CONTINUOUS
 10
4.9350543478
 20
5.4392701764
 40
0.5260543277
100
AcDbArc
 50
34.7923215689
 51
145.2076784311
  0
ARC
  5
294
100
AcDbEntity
  8
0
100
AcDbCircle
 62
7
  6
CONTINUOUS
 10
4.9350543478
 20
5.4392701764
 40
0.5260543277
100
AcDbArc
 50
214.7923215689
 51
250.3946542148
  0
ARC
  5
295
100
AcDbEntity
  8
0
100
AcDbCircle
 62
7
  6
CONTINUOUS
 10
4.9350543478
 20
5.4392701764
 40
0.3723641807
100
AcDbArc
 50
298.2944437025
 51
304.6067442589
  0
ARC
  5
296
100
AcDbEntity
  8
0
100
AcDbCircle
 62
7
  6
CONTINUOUS
 10
4.9350543478
 20
5.4392701764
 40
0.3723641807
100
AcDbArc
 50
235.3932557411
 51
241.7055562975
  0
ARC
  5
297
100
AcDbEntity
  8
0
100
AcDbCircle
 62
7
  6
CONTINUOUS
 10
4.9350543478
 20
5.4392701764
 40
0.3723641807
100
AcDbArc
 50
55.3932557411
 51
124.6067442589
  0
ARC
  5
298
100
AcDbEntity
  8
0
100
AcDbCircle
 62
7
  6
CONTINUOUS
 10
4.9350543478
 20
5.4392701764
 40
0.34025
100
AcDbArc
 50
301.2478867732
 51
238.7521132268
  0
ARC
  5
299
100
AcDbEntity
  8
0
100
AcDbCircle
 62
7
  6
CONTINUOUS
 10
4.9350543478
 20
5.4392701764
 40
0.312
100
AcDbArc
 50
304.4534557165
 51
235.5465442835
  0
ARC
  5
29A
100
AcDbEntity
  8
0
100
AcDbCircle
 62
7
  6
CONTINUOUS
 10
4.9350543478
 20
5.4392701764
 40
0.3072588067
100
AcDbArc
 50
305.0628024905
 51
234.9371975095
  0
ARC
  5
29B
100
AcDbEntity
  8
0
100
AcDbCircle
 62
7
  6
CONTINUOUS
 10
5.7741592293
 20
5.6087694819
 40
0.25
100
AcDbArc
 50
32.4798371001
 51
34.8900039704
  0
ARC
  5
29C
100
AcDbEntity
  8
0
100
AcDbCircle
 62
7
  6
CONTINUOUS
 10
4.9350543478
 20
5.4392701764
 40
0.2339044211
100
AcDbArc
 50
318.9893335681
 51
221.0106664319
  0
ARC
  5
29D
100
AcDbEntity
  8
0
100
AcDbCircle
 62
7
  6
CONTINUOUS
 10
4.9350543478
 20
5.4392701764
 40
0.2175
100
AcDbArc
 50
324.2459355335
 51
215.7540644665
  0
ARC
  5
29E
100
AcDbEntity
  8
0
100
AcDbCircle
 62
7
  6
CONTINUOUS
 10
4.9350543478
 20
5.4392701764
 40
0.2020589822
100
AcDbArc
 50
330.8706955981
 51
209.1293044019
  0
ARC
  5
29F
100
AcDbEntity
  8
0
100
AcDbCircle
 62
7
  6
CONTINUOUS
 10
4.9350543478
 20
5.4392701764
 40
0.1765
100
AcDbArc
 50
0.0
 51
180.0
  0
ARC
  5
2A0
100
AcDbEntity
  8
0
100
AcDbCircle
 62
7
  6
CONTINUOUS
 10
5.6404690743
 20
5.8774817887
 40
0.1504595537
100
AcDbArc
 50
264.9961355655
 51
271.0449181762
  0
ARC
  5
2A1
100
AcDbEntity
  8
0
100
AcDbCircle
 62
7
  6
CONTINUOUS
 10
5.6371967678
 20
5.8817701764
 40
0.15
100
AcDbArc
 50
268.3634229584
 51
270.0
  0
ARC
  5
2A2
100
AcDbEntity
  8
0
100
AcDbCircle
 62
7
  6
CONTINUOUS
 10
5.9738035776
 20
5.5002097498
 40
0.219
100
AcDbArc
 50
38.9545376239
 51
77.807858722
  0
CIRCLE
  5
2A3
100
AcDbEntity
  8
0
100
AcDbCircle
 62
7
  6
CONTINUOUS
 10
6.5490543478
 20
5.4392701764
 40
0.2
  0
ARC
  5
2A4
100
AcDbEntity
  8
0
100
AcDbCircle
 62
7
  6
CONTINUOUS
 10
6.5490241092
 20
5.4792701764
 40
0.1875
100
AcDbArc
 50
41.9128908834
 51
127.7628051894
  0
CIRCLE
  5
2A5
100
AcDbEntity
  8
0
100
AcDbCircle
 62
7
  6
CONTINUOUS
 10
6.5490543478
 20
5.4392701764
 40
0.12625
  0
CIRCLE
  5
2A6
100
AcDbEntity
  8
0
100
AcDbCircle
 62
7
  6
CONTINUOUS
 10
6.5490543478
 20
5.4392701764
 40
0.11875
  0
ARC
  5
2A7
100
AcDbEntity
  8
0
100
AcDbCircle
 62
7
  6
CONTINUOUS
 10
6.7875543478
 20
5.5572701764
 40
0.028
100
AcDbArc
 50
180.0
 51
270.0
  0
ARC
  5
2A8
100
AcDbEntity
  8
0
100
AcDbCircle
 62
7
  6
CONTINUOUS
 10
6.7240543478
 20
5.5810201764
 40
0.0235
100
AcDbArc
 50
0.0
 51
90.0
  0
ARC
  5
2A9
100
AcDbEntity
  8
0
100
AcDbCircle
 62
7
  6
CONTINUOUS
 10
6.1320543478
 20
5.6281509227
 40
0.0155
100
AcDbArc
 50
0.0
 51
38.9545376239
  0
ARC
  5
2AA
100
AcDbEntity
  8
0
100
AcDbCircle
 62
7
  6
CONTINUOUS
 10
6.3246180458
 20
5.7689608525
 40
0.1789406761
100
AcDbArc
 50
239.0364377797
 51
307.7628051894
  0
ARC
  5
2AB
100
AcDbEntity
  8
0
100
AcDbCircle
 62
7
  6
CONTINUOUS
 10
6.0045543478
 20
5.7275201764
 40
0.0155
100
AcDbArc
 50
0.0
 51
90.0
  0
SPLINE
  5
2AC
100
AcDbEntity
  8
0
100
AcDbSpline
 62
7
  6
CONTINUOUS
 70
0
 71
3
 72
15
 73
11
 74
0
 42
0.0000001
 43
0.0000001
 44
0.0000000001
 40
0.0
 40
0.0
 40
0.0
 40
0.0
 40
0.1254153628
 40
0.2506781675
 40
0.3758007696
 40
0.5007995757
 40
0.6256946596
 40
0.7505091613
 40
0.8752685549
 40
1.0
 40
1.0
 40
1.0
 40
1.0
 10
4.7585525715
 20
3.0025324962
 30
0.0
 10
4.7544922871
 20
2.9976019821
 30
0.0
 10
4.7467934121
 20
2.987394975
 30
0.0
 10
4.7366062162
 20
2.9711662626
 30
0.0
 10
4.7278569653
 20
2.9541414109
 30
0.0
 10
4.7206103661
 20
2.9364452379
 30
0.0
 10
4.7149187348
 20
2.9182058467
 30
0.0
 10
4.7108234999
 20
2.8995551408
 30
0.0
 10
4.7083543913
 20
2.8806302671
 30
0.0
 10
4.7078043478
 20
2.8679173233
 30
0.0
 10
4.7078043478
 20
2.8615649887
 30
0.0
  0
SPLINE
  5
2AD
100
AcDbEntity
  8
0
100
AcDbSpline
 62
7
  6
CONTINUOUS
 70
0
 71
3
 72
15
 73
11
 74
0
 42
0.0000001
 43
0.0000001
 44
0.0000000001
 40
0.0
 40
0.0
 40
0.0
 40
0.0
 40
0.1254153628
 40
0.2506781675
 40
0.3758007696
 40
0.5007995757
 40
0.6256946596
 40
0.7505091613
 40
0.8752685549
 40
1.0
 40
1.0
 40
1.0
 40
1.0
 10
5.1115561242
 20
3.0025324962
 30
0.0
 10
5.1156164086
 20
2.9976019821
 30
0.0
 10
5.1233152836
 20
2.987394975
 30
0.0
 10
5.1335024795
 20
2.9711662626
 30
0.0
 10
5.1422517303
 20
2.9541414109
 30
0.0
 10
5.1494983296
 20
2.9364452379
 30
0.0
 10
5.1551899609
 20
2.9182058467
 30
0.0
 10
5.1592851958
 20
2.8995551408
 30
0.0
 10
5.1617543043
 20
2.8806302671
 30
0.0
 10
5.1623043478
 20
2.8679173233
 30
0.0
 10
5.1623043478
 20
2.8615649887
 30
0.0
  0
SPLINE
  5
2AE
100
AcDbEntity
  8
0
100
AcDbSpline
 62
7
  6
CONTINUOUS
 70
0
 71
3
 72
31
 73
27
 74
0
 42
0.0000001
 43
0.0000001
 44
0.0000000001
 40
0.0
 40
0.0
 40
0.0
 40
0.0
 40
0.0312567889
 40
0.0625166562
 40
0.0937741969
 40
0.1250319551
 40
0.1875286481
 40
0.2500244689
 40
0.2812813793
 40
0.3125380302
 40
0.3437944117
 40
0.3750505002
 40
0.4375428847
 40
0.5000339985
 40
0.5625237573
 40
0.6250122972
 40
0.6562655188
 40
0.6875184712
 40
0.7187711859
 40
0.7500236663
 40
0.8125090661
 40
0.8749939162
 40
0.9062454366
 40
0.9374965407
 40
0.9687497894
 40
1.0
 40
1.0
 40
1.0
 40
1.0
 10
4.9350543478
 20
2.591316933
 30
0.0
 10
4.9313394845
 20
2.591316933
 30
0.0
 10
4.9239080982
 20
2.5914989339
 30
0.0
 10
4.9127889142
 20
2.5923168639
 30
0.0
 10
4.9017224631
 20
2.593678215
 30
0.0
 10
4.8870775478
 20
2.5962125487
 30
0.0
 10
4.8690300893
 20
2.6007206563
 30
0.0
 10
4.8515104855
 20
2.6069731423
 30
0.0
 10
4.8379173526
 20
2.6129827462
 30
0.0
 10
4.8279533478
 20
2.6179849428
 30
0.0
 10
4.8182464822
 20
2.6234693301
 30
0.0
 10
4.8056809681
 20
2.6314051865
 30
0.0
 10
4.7907258904
 20
2.6424668985
 30
0.0
 10
4.77417105
 20
2.6574320587
 30
0.0
 10
4.7591626824
 20
2.6739471618
 30
0.0
 10
4.7480636851
 20
2.6888735241
 30
0.0
 10
4.7400985833
 20
2.7014191222
 30
0.0
 10
4.7345928755
 20
2.7111125393
 30
0.0
 10
4.7295702362
 20
2.7210647176
 30
0.0
 10
4.7235350215
 20
2.7346440912
 30
0.0
 10
4.7172541428
 20
2.7521504293
 30
0.0
 10
4.7127243119
 20
2.7701892597
 30
0.0
 10
4.710177484
 20
2.7848290998
 30
0.0
 10
4.7088093297
 20
2.7958924488
 30
0.0
 10
4.7079872701
 20
2.8070090315
 30
0.0
 10
4.7078043478
 20
2.8144388628
 30
0.0
 10
4.7078043478
 20
2.8181529443
 30
0.0
  0
SPLINE
  5
2AF
100
AcDbEntity
  8
0
100
AcDbSpline
 62
7
  6
CONTINUOUS
 70
0
 71
3
 72
31
 73
27
 74
0
 42
0.0000001
 43
0.0000001
 44
0.0000000001
 40
0.0
 40
0.0
 40
0.0
 40
0.0
 40
0.0312501864
 40
0.0625033805
 40
0.0937544556
 40
0.1250059612
 40
0.187490786
 40
0.2499761862
 40
0.2812286738
 40
0.3124814005
 40
0.3437343684
 40
0.3749876088
 40
0.4374761941
 40
0.4999660031
 40
0.562457167
 40
0.624949596
 40
0.6562057033
 40
0.6874621002
 40
0.7187187629
 40
0.7499756805
 40
0.8124715006
 40
0.8749681676
 40
0.9062259113
 40
0.9374834224
 40
0.9687432348
 40
1.0
 40
1.0
 40
1.0
 40
1.0
 10
5.1623043478
 20
2.8181529443
 30
0.0
 10
5.1623043478
 20
2.8144388657
 30
0.0
 10
5.1621214271
 20
2.8070090437
 30
0.0
 10
5.1612993678
 20
2.7958924738
 30
0.0
 10
5.1599312167
 20
2.7848291362
 30
0.0
 10
5.1573843939
 20
2.7701893036
 30
0.0
 10
5.1528545675
 20
2.7521504769
 30
0.0
 10
5.1465736924
 20
2.7346441398
 30
0.0
 10
5.1405384812
 20
2.7210647621
 30
0.0
 10
5.1355158418
 20
2.7111125793
 30
0.0
 10
5.1300101325
 20
2.7014191567
 30
0.0
 10
5.1220450288
 20
2.6888735486
 30
0.0
 10
5.110946024
 20
2.6739471748
 30
0.0
 10
5.0959376457
 20
2.6574320579
 30
0.0
 10
5.0793827915
 20
2.6424668872
 30
0.0
 10
5.0644277024
 20
2.6314051678
 30
0.0
 10
5.0518621783
 20
2.6234693097
 30
0.0
 10
5.0421553072
 20
2.617984921
 30
0.0
 10
5.0321912978
 20
2.6129827243
 30
0.0
 10
5.018598161
 20
2.6069731239
 30
0.0
 10
5.0010785585
 20
2.6007206416
 30
0.0
 10
4.9830311038
 20
2.5962125386
 30
0.0
 10
4.968386196
 20
2.59367821
 30
0.0
 10
4.9573197564
 20
2.5923168622
 30
0.0
 10
4.9462005853
 20
2.5914989325
 30
0.0
 10
4.9387692083
 20
2.591316933
 30
0.0
 10
4.9350543478
 20
2.591316933
 30
0.0
  0
SPLINE
  5
2B0
100
AcDbEntity
  8
0
100
AcDbSpline
 62
7
  6
CONTINUOUS
 70
0
 71
3
 72
34
 73
30
 74
0
 42
0.0000001
 43
0.0000001
 44
0.0000000001
 40
0.0
 40
0.0
 40
0.0
 40
0.0
 40
0.0875559323
 40
0.1744480716
 40
0.2600141747
 40
0.3436091864
 40
0.4246030963
 40
0.5023911401
 40
0.5763974883
 40
0.6460810909
 40
0.7109404407
 40
0.741416708
 40
0.7705186672
 40
0.7981972054
 40
0.8244058005
 40
0.8491024151
 40
0.8722487404
 40
0.8938121969
 40
0.9137668347
 40
0.9320917047
 40
0.9406383979
 40
0.9487724964
 40
0.9564956692
 40
0.9638141244
 40
0.9707363827
 40
0.9772736818
 40
0.9834419278
 40
0.9892649837
 40
1.0
 40
1.0
 40
1.0
 40
1.0
 10
5.6722586158
 20
5.4392701764
 30
0.0
 10
5.6722599551
 20
5.4307776646
 30
0.0
 10
5.6721780223
 20
5.4138568973
 30
0.0
 10
5.6718089405
 20
5.388639067
 30
0.0
 10
5.6711971932
 20
5.3638102013
 30
0.0
 10
5.6703406703
 20
5.3395609754
 30
0.0
 10
5.6692408172
 20
5.3160767277
 30
0.0
 10
5.667900138
 20
5.2935365462
 30
0.0
 10
5.6663272034
 20
5.2721111069
 30
0.0
 10
5.6645327336
 20
5.2519616846
 30
0.0
 10
5.6628301121
 20
5.2360453012
 30
0.0
 10
5.6613571488
 20
5.2240654468
 30
0.0
 10
5.66023014
 20
5.2156771261
 30
0.0
 10
5.6590604406
 20
5.2077127921
 30
0.0
 10
5.6578506335
 20
5.2001868988
 30
0.0
 10
5.6566028254
 20
5.1931131506
 30
0.0
 10
5.6553191714
 20
5.1865041886
 30
0.0
 10
5.6540001778
 20
5.1803717815
 30
0.0
 10
5.6526439133
 20
5.1747273354
 30
0.0
 10
5.6514570916
 20
5.17034235
 30
0.0
 10
5.6504850087
 20
5.167088922
 30
0.0
 10
5.6497652896
 20
5.1648337622
 30
0.0
 10
5.6490363737
 20
5.1627070688
 30
0.0
 10
5.648293239
 20
5.1607101878
 30
0.0
 10
5.6475313114
 20
5.1588439501
 30
0.0
 10
5.6467459277
 20
5.1571091919
 30
0.0
 10
5.6459316648
 20
5.1555059755
 30
0.0
 10
5.6448281969
 20
5.1535974311
 30
0.0
 10
5.6438920474
 20
5.1522823749
 30
0.0
 10
5.6432128926
 20
5.1514931083
 30
0.0
  0
SPLINE
  5
2B1
100
AcDbEntity
  8
0
100
AcDbSpline
 62
7
  6
CONTINUOUS
 70
0
 71
3
 72
47
 73
43
 74
0
 42
0.0000001
 43
0.0000001
 44
0.0000000001
 40
0.0
 40
0.0
 40
0.0
 40
0.0
 40
0.0902006379
 40
0.1796185969
 40
0.2237922612
 40
0.2674839663
 40
0.3105990434
 40
0.3530425135
 40
0.3947240773
 40
0.4355648706
 40
0.4754835396
 40
0.4950688156
 40
0.5143895271
 40
0.5522027343
 40
0.570682238
 40
0.5888682548
 40
0.6243253483
 40
0.6584950858
 40
0.6913105424
 40
0.722737395
 40
0.752737441
 40
0.7671848654
 40
0.7812543576
 40
0.808241655
 40
0.8336731903
 40
0.8575282286
 40
0.8688582255
 40
0.8797841436
 40
0.8903018311
 40
0.9004095907
 40
0.9193943935
 40
0.9282709838
 40
0.9367361118
 40
0.9447902639
 40
0.9524363345
 40
0.95968154
 40
0.9665334235
 40
0.9729958522
 40
0.9790756464
 40
0.98478579
 40
0.9901496846
 40
1.0
 40
1.0
 40
1.0
 40
1.0
 10
5.6021623818
 20
5.4392701764
 30
0.0
 10
5.6021636113
 20
5.4305140565
 30
0.0
 10
5.602217518
 20
5.4130777363
 30
0.0
 10
5.6024371735
 20
5.3913542811
 30
0.0
 10
5.6027033434
 20
5.3741467396
 30
0.0
 10
5.6029459863
 20
5.3614342547
 30
0.0
 10
5.6032323995
 20
5.3488906749
 30
0.0
 10
5.6035712428
 20
5.3365435859
 30
0.0
 10
5.6039684485
 20
5.3244191289
 30
0.0
 10
5.6044100498
 20
5.3125414916
 30
0.0
 10
5.6048112459
 20
5.302808864
 30
0.0
 10
5.6051623161
 20
5.2951650963
 30
0.0
 10
5.6055316044
 20
5.287726816
 30
0.0
 10
5.6059383408
 20
5.280397939
 30
0.0
 10
5.6063719551
 20
5.2731810144
 30
0.0
 10
5.6068094106
 20
5.2661934731
 30
0.0
 10
5.6073730565
 20
5.2576877444
 30
0.0
 10
5.6081139126
 20
5.2477707304
 30
0.0
 10
5.6089348902
 20
5.2382526509
 30
0.0
 10
5.6098016262
 20
5.2291452706
 30
0.0
 10
5.6105511274
 20
5.2218179805
 30
0.0
 10
5.6111783193
 20
5.2161722044
 30
0.0
 10
5.6118106893
 20
5.2108213981
 30
0.0
 10
5.6126395421
 20
5.2044202942
 30
0.0
 10
5.6137006171
 20
5.197092257
 30
0.0
 10
5.6146300562
 20
5.1912816092
 30
0.0
 10
5.6153867285
 20
5.1868698171
 30
0.0
 10
5.615955734
 20
5.1837395854
 30
0.0
 10
5.6165423781
 20
5.1807333703
 30
0.0
 10
5.617333173
 20
5.1769703572
 30
0.0
 10
5.6181650421
 20
5.1733790399
 30
0.0
 10
5.6190362739
 20
5.1699619052
 30
0.0
 10
5.6196812949
 20
5.1675823866
 30
0.0
 10
5.6203376999
 20
5.1653301002
 30
0.0
 10
5.6210104452
 20
5.163206455
 30
0.0
 10
5.6217086399
 20
5.1612141553
 30
0.0
 10
5.622435409
 20
5.1593549571
 30
0.0
 10
5.6231817427
 20
5.1576260797
 30
0.0
 10
5.6239464697
 20
5.1560273167
 30
0.0
 10
5.6247332355
 20
5.1545585713
 30
0.0
 10
5.6257909843
 20
5.1528246134
 30
0.0
 10
5.6266884351
 20
5.1516393802
 30
0.0
 10
5.6273455463
 20
5.1509447306
 30
0.0
  0
SPLINE
  5
2B2
100
AcDbEntity
  8
0
100
AcDbSpline
 62
7
  6
CONTINUOUS
 70
0
 71
3
 72
33
 73
29
 74
0
 42
0.0000001
 43
0.0000001
 44
0.0000000001
 40
0.0
 40
0.0
 40
0.0
 40
0.0
 40
0.1945321986
 40
0.2891251702
 40
0.3348152243
 40
0.3790720097
 40
0.4632943322
 40
0.542442687
 40
0.6173377677
 40
0.6886210866
 40
0.7558938788
 40
0.8184319224
 40
0.8476870809
 40
0.8753435169
 40
0.9010030006
 40
0.9242498753
 40
0.9446673084
 40
0.961842904
 40
0.9753889739
 40
0.985329166
 40
0.9891231247
 40
0.9922298018
 40
0.9947185344
 40
0.9966544667
 40
0.9980974389
 40
0.9991010904
 40
0.9997140535
 40
1.0
 40
1.0
 40
1.0
 40
1.0
 10
5.6273455508
 20
5.150944689
 30
0.0
 10
5.6276396166
 20
5.1505960573
 30
0.0
 10
5.6281256503
 20
5.1501193998
 30
0.0
 10
5.6287201394
 20
5.1496071867
 30
0.0
 10
5.6290522769
 20
5.1493298598
 30
0.0
 10
5.6293665156
 20
5.1490690988
 30
0.0
 10
5.629742699
 20
5.1487601196
 30
0.0
 10
5.6301805847
 20
5.1484131802
 30
0.0
 10
5.6306041448
 20
5.1480972419
 30
0.0
 10
5.6310177009
 20
5.1478151622
 30
0.0
 10
5.6314173123
 20
5.1475647687
 30
0.0
 10
5.631740246
 20
5.1473780663
 30
0.0
 10
5.6319862523
 20
5.1472442083
 30
0.0
 10
5.6321576722
 20
5.1471542351
 30
0.0
 10
5.6323173604
 20
5.1470722463
 30
0.0
 10
5.6324621679
 20
5.1469984375
 30
0.0
 10
5.6325889045
 20
5.1469329758
 30
0.0
 10
5.6326944968
 20
5.1468761565
 30
0.0
 10
5.6327766193
 20
5.1468276392
 30
0.0
 10
5.6328291142
 20
5.1467909346
 30
0.0
 10
5.632859696
 20
5.1467659384
 30
0.0
 10
5.6328760089
 20
5.1467511352
 30
0.0
 10
5.6328884118
 20
5.1467385682
 30
0.0
 10
5.6328975122
 20
5.146728205
 30
0.0
 10
5.63290382
 20
5.1467201716
 30
0.0
 10
5.6329080681
 20
5.1467142107
 30
0.0
 10
5.6329105069
 20
5.1467108009
 30
0.0
 10
5.632912132
 20
5.1467089623
 30
0.0
 10
5.6329128024
 20
5.1467089682
 30
0.0
  0
SPLINE
  5
2B3
100
AcDbEntity
  8
0
100
AcDbSpline
 62
7
  6
CONTINUOUS
 70
0
 71
3
 72
31
 73
27
 74
0
 42
0.0000001
 43
0.0000001
 44
0.0000000001
 40
0.0
 40
0.0
 40
0.0
 40
0.0
 40
0.1941021442
 40
0.2864842813
 40
0.3758958604
 40
0.4624634885
 40
0.545938357
 40
0.6252630653
 40
0.699211062
 40
0.7664950435
 40
0.8259916937
 40
0.8772978596
 40
0.8998048235
 40
0.9201743765
 40
0.9383765632
 40
0.9543797394
 40
0.968123855
 40
0.9795252157
 40
0.9843208289
 40
0.9884988311
 40
0.9920485116
 40
0.9949591339
 40
0.9972199496
 40
0.9988202368
 40
0.9997494794
 40
1.0
 40
1.0
 40
1.0
 40
1.0
 10
5.6432128926
 20
5.1514931083
 30
0.0
 10
5.6428891248
 20
5.1511148808
 30
0.0
 10
5.6423927938
 20
5.1505718415
 30
0.0
 10
5.6417020319
 20
5.1498988909
 30
0.0
 10
5.6411898622
 20
5.1494386697
 30
0.0
 10
5.6406758342
 20
5.1490156239
 30
0.0
 10
5.6401645716
 20
5.1486309714
 30
0.0
 10
5.6396670036
 20
5.1482826829
 30
0.0
 10
5.6391949718
 20
5.1479707579
 30
0.0
 10
5.6387601808
 20
5.147694956
 30
0.0
 10
5.6383722413
 20
5.1474537695
 30
0.0
 10
5.6380801173
 20
5.1472760237
 30
0.0
 10
5.637872667
 20
5.1471522241
 30
0.0
 10
5.637737648
 20
5.1470727555
 30
0.0
 10
5.6376165342
 20
5.1470025575
 30
0.0
 10
5.6375096337
 20
5.1469417301
 30
0.0
 10
5.6374174728
 20
5.1468902922
 30
0.0
 10
5.6373501274
 20
5.1468533506
 30
0.0
 10
5.6373041994
 20
5.1468284518
 30
0.0
 10
5.6372758772
 20
5.1468131987
 30
0.0
 10
5.6372519475
 20
5.1468003666
 30
0.0
 10
5.6372318834
 20
5.1467896589
 30
0.0
 10
5.6372174289
 20
5.1467818759
 30
0.0
 10
5.6372047042
 20
5.1467751109
 30
0.0
 10
5.6372016714
 20
5.1467731867
 30
0.0
 10
5.6371961253
 20
5.1467701847
 30
0.0
 10
5.6371967678
 20
5.1467701764
 30
0.0
  0
SPLINE
  5
2B4
100
AcDbEntity
  8
0
100
AcDbSpline
 62
7
  6
CONTINUOUS
 70
0
 71
3
 72
29
 73
25
 74
0
 42
0.0000001
 43
0.0000001
 44
0.0000000001
 40
0.0
 40
0.0
 40
0.0
 40
0.0
 40
0.0639013518
 40
0.1277533579
 40
0.1914930634
 40
0.2550779347
 40
0.3184644914
 40
0.3816163161
 40
0.4130993424
 40
0.4445138778
 40
0.5071248463
 40
0.5694522273
 40
0.6005168245
 40
0.631515636
 40
0.6624512101
 40
0.6933250304
 40
0.7549012506
 40
0.7856263523
 40
0.816315659
 40
0.8469729263
 40
0.8776004973
 40
0.9387939554
 40
0.9693915569
 40
1.0
 40
1.0
 40
1.0
 40
1.0
 10
5.3065235621
 20
5.4392701764
 30
0.0
 10
5.3065231347
 20
5.4327638464
 30
0.0
 10
5.3060859689
 20
5.4197521725
 30
0.0
 10
5.3041420813
 20
5.4003382426
 30
0.0
 10
5.3009233113
 20
5.3811262847
 30
0.0
 10
5.2964451299
 20
5.3622169247
 30
0.0
 10
5.2907316817
 20
5.3437066442
 30
0.0
 10
5.2849778817
 20
5.3286676259
 30
0.0
 10
5.2798038829
 20
5.316920441
 30
0.0
 10
5.2742690953
 20
5.3053998991
 30
0.0
 10
5.2666747075
 20
5.2913949783
 30
0.0
 10
5.2582105971
 20
5.2779401497
 30
0.0
 10
5.2509541557
 20
5.2675574881
 30
0.0
 10
5.2452826998
 20
5.2599727811
 30
0.0
 10
5.2393864743
 20
5.2525863094
 30
0.0
 10
5.2312458717
 20
5.2430157726
 30
0.0
 10
5.2226776798
 20
5.233844078
 30
0.0
 10
5.2137073814
 20
5.2251039247
 30
0.0
 10
5.2067929052
 20
5.2187713334
 30
0.0
 10
5.1996977022
 20
5.2126572327
 30
0.0
 10
5.1900134432
 20
5.2047983352
 30
0.0
 10
5.1799901773
 20
5.1973741681
 30
0.0
 10
5.1696503413
 20
5.1904146125
 30
0.0
 10
5.1643783055
 20
5.1870895231
 30
0.0
 10
5.1617186691
 20
5.1854650498
 30
0.0
  0
SPLINE
  5
2B5
100
AcDbEntity
  8
0
100
AcDbSpline
 62
7
  6
CONTINUOUS
 70
0
 71
3
 72
29
 73
25
 74
0
 42
0.0000001
 43
0.0000001
 44
0.0000000001
 40
0.0
 40
0.0
 40
0.0
 40
0.0
 40
0.0635356585
 40
0.1267676844
 40
0.1896781506
 40
0.2522603951
 40
0.3145267109
 40
0.3455578448
 40
0.3765270522
 40
0.4074439019
 40
0.4383196707
 40
0.4691670529
 40
0.5000000001
 40
0.5308329472
 40
0.5616803294
 40
0.5925560981
 40
0.6234729478
 40
0.6544421552
 40
0.6854732892
 40
0.747739605
 40
0.8103218494
 40
0.8732323156
 40
0.9364643415
 40
1.0
 40
1.0
 40
1.0
 40
1.0
 10
5.8350543478
 20
5.4392719464
 30
0.0
 10
5.8315498291
 20
5.4332019246
 30
0.0
 10
5.8247853166
 20
5.4209570767
 30
0.0
 10
5.8154778577
 20
5.4022080285
 30
0.0
 10
5.8071761284
 20
5.383103813
 30
0.0
 10
5.8000411332
 20
5.3636447642
 30
0.0
 10
5.7952035488
 20
5.3471265664
 30
0.0
 10
5.7920898355
 20
5.3337732073
 30
0.0
 10
5.7901515734
 20
5.3237049687
 30
0.0
 10
5.7886248678
 20
5.3135834022
 30
0.0
 10
5.7875238213
 20
5.3034200593
 30
0.0
 10
5.7868587725
 20
5.2932280768
 30
0.0
 10
5.7866362755
 20
5.2830215039
 30
0.0
 10
5.7868587725
 20
5.2728149309
 30
0.0
 10
5.7875238213
 20
5.2626229484
 30
0.0
 10
5.7886248678
 20
5.2524596056
 30
0.0
 10
5.7901515734
 20
5.2423380391
 30
0.0
 10
5.7920898355
 20
5.2322698004
 30
0.0
 10
5.7952035488
 20
5.2189164413
 30
0.0
 10
5.8000411332
 20
5.2023982435
 30
0.0
 10
5.8071761284
 20
5.1829391947
 30
0.0
 10
5.8154778577
 20
5.1638349793
 30
0.0
 10
5.8247853166
 20
5.1450859311
 30
0.0
 10
5.8315498291
 20
5.1328410831
 30
0.0
 10
5.8350543478
 20
5.1267710614
 30
0.0
  0
SPLINE
  5
2B6
100
AcDbEntity
  8
0
100
AcDbSpline
 62
7
  6
CONTINUOUS
 70
0
 71
3
 72
23
 73
19
 74
0
 42
0.0000001
 43
0.0000001
 44
0.0000000001
 40
0.0
 40
0.0
 40
0.0
 40
0.0
 40
0.0639681843
 40
0.1272760085
 40
0.1900640708
 40
0.2524576376
 40
0.3145651521
 40
0.3764767978
 40
0.438267232
 40
0.5000000002
 40
0.5617327684
 40
0.6235232026
 40
0.6854348484
 40
0.7475423629
 40
0.8099359299
 40
0.8727239926
 40
0.936031817
 40
1.0
 40
1.0
 40
1.0
 40
1.0
 10
5.9350543478
 20
5.1267710614
 30
0.0
 10
5.9390317843
 20
5.1325639041
 30
0.0
 10
5.946384387
 20
5.1444855091
 30
0.0
 10
5.9556710892
 20
5.1632137826
 30
0.0
 10
5.9632595801
 20
5.1825040692
 30
0.0
 10
5.9692627842
 20
5.2022028555
 30
0.0
 10
5.9737934017
 20
5.2221899559
 30
0.0
 10
5.9769506621
 20
5.2423701548
 30
0.0
 10
5.9788121894
 20
5.2626680634
 30
0.0
 10
5.9794270904
 20
5.2830215039
 30
0.0
 10
5.9788121894
 20
5.3033749445
 30
0.0
 10
5.9769506621
 20
5.3236728531
 30
0.0
 10
5.9737934016
 20
5.343853052
 30
0.0
 10
5.9692627841
 20
5.3638401524
 30
0.0
 10
5.9632595801
 20
5.3835389388
 30
0.0
 10
5.9556710891
 20
5.4028292254
 30
0.0
 10
5.9463843869
 20
5.4215574989
 30
0.0
 10
5.9390317842
 20
5.4334791038
 30
0.0
 10
5.9350543478
 20
5.4392719464
 30
0.0
  0
SPLINE
  5
2B7
100
AcDbEntity
  8
0
100
AcDbSpline
 62
7
  6
CONTINUOUS
 70
0
 71
3
 72
29
 73
25
 74
0
 42
0.0000001
 43
0.0000001
 44
0.0000000001
 40
0.0
 40
0.0
 40
0.0
 40
0.0
 40
0.0635357039
 40
0.1267677622
 40
0.1896782467
 40
0.252260495
 40
0.3145268008
 40
0.3455579251
 40
0.37652712
 40
0.407443955
 40
0.4383197071
 40
0.4691670715
 40
0.5000000001
 40
0.5308329286
 40
0.561680293
 40
0.5925560451
 40
0.62347288
 40
0.654442075
 40
0.6854731993
 40
0.747739505
 40
0.8103217534
 40
0.8732322378
 40
0.9364642961
 40
1.0
 40
1.0
 40
1.0
 40
1.0
 10
5.8350543478
 20
5.7517710614
 30
0.0
 10
5.8315498294
 20
5.7457010746
 30
0.0
 10
5.8247853176
 20
5.7334562973
 30
0.0
 10
5.8154778587
 20
5.7147073555
 30
0.0
 10
5.8071761293
 20
5.6956032484
 30
0.0
 10
5.800041134
 20
5.6761443098
 30
0.0
 10
5.7952035491
 20
5.6596262045
 30
0.0
 10
5.7920898356
 20
5.6462729203
 30
0.0
 10
5.7901515735
 20
5.6362047386
 30
0.0
 10
5.7886248678
 20
5.6260832294
 30
0.0
 10
5.7875238213
 20
5.615919944
 30
0.0
 10
5.7868587725
 20
5.6057280191
 30
0.0
 10
5.7866362755
 20
5.5955215039
 30
0.0
 10
5.7868587725
 20
5.5853149886
 30
0.0
 10
5.7875238213
 20
5.5751230637
 30
0.0
 10
5.7886248678
 20
5.5649597783
 30
0.0
 10
5.7901515735
 20
5.5548382691
 30
0.0
 10
5.7920898356
 20
5.5447700874
 30
0.0
 10
5.7952035491
 20
5.5314168032
 30
0.0
 10
5.800041134
 20
5.514898698
 30
0.0
 10
5.8071761293
 20
5.4954397594
 30
0.0
 10
5.8154778587
 20
5.4763356522
 30
0.0
 10
5.8247853176
 20
5.4575867104
 30
0.0
 10
5.8315498294
 20
5.4453419331
 30
0.0
 10
5.8350543478
 20
5.4392719464
 30
0.0
  0
SPLINE
  5
2B8
100
AcDbEntity
  8
0
100
AcDbSpline
 62
7
  6
CONTINUOUS
 70
0
 71
3
 72
23
 73
19
 74
0
 42
0.0000001
 43
0.0000001
 44
0.0000000001
 40
0.0
 40
0.0
 40
0.0
 40
0.0
 40
0.0639682463
 40
0.1272761061
 40
0.1900641817
 40
0.2524577448
 40
0.3145652425
 40
0.3764768626
 40
0.4382672655
 40
0.4999999998
 40
0.5617327341
 40
0.623523137
 40
0.6854347571
 40
0.7475422548
 40
0.8099358176
 40
0.8727238928
 40
0.9360317524
 40
1.0
 40
1.0
 40
1.0
 40
1.0
 10
5.9350543478
 20
5.4392719464
 30
0.0
 10
5.9390317831
 20
5.4450647546
 30
0.0
 10
5.9463843845
 20
5.4569862892
 30
0.0
 10
5.9556710874
 20
5.475714457
 30
0.0
 10
5.963259579
 20
5.4950046351
 30
0.0
 10
5.9692627835
 20
5.5147033107
 30
0.0
 10
5.9737934013
 20
5.5346902987
 30
0.0
 10
5.9769506619
 20
5.5548703839
 30
0.0
 10
5.9788121893
 20
5.575168178
 30
0.0
 10
5.9794270904
 20
5.5955215038
 30
0.0
 10
5.9788121894
 20
5.6158748296
 30
0.0
 10
5.976950662
 20
5.6361726237
 30
0.0
 10
5.9737934014
 20
5.6563527089
 30
0.0
 10
5.9692627836
 20
5.6763396969
 30
0.0
 10
5.9632595791
 20
5.6960383724
 30
0.0
 10
5.9556710875
 20
5.7153285504
 30
0.0
 10
5.9463843846
 20
5.7340567184
 30
0.0
 10
5.9390317832
 20
5.7459782531
 30
0.0
 10
5.9350543478
 20
5.7517710614
 30
0.0
  0
SPLINE
  5
2B9
100
AcDbEntity
  8
0
100
AcDbSpline
 62
7
  6
CONTINUOUS
 70
0
 71
3
 72
47
 73
43
 74
0
 42
0.0000001
 43
0.0000001
 44
0.0000000001
 40
0.0
 40
0.0
 40
0.0
 40
0.0
 40
0.0902006379
 40
0.1796185969
 40
0.2237922612
 40
0.2674839663
 40
0.3105990434
 40
0.3530425135
 40
0.3947240773
 40
0.4355648706
 40
0.4754835396
 40
0.4950688156
 40
0.5143895271
 40
0.5522027343
 40
0.570682238
 40
0.5888682548
 40
0.6243253483
 40
0.6584950858
 40
0.6913105424
 40
0.722737395
 40
0.752737441
 40
0.7671848654
 40
0.7812543576
 40
0.808241655
 40
0.8336731903
 40
0.8575282286
 40
0.8688582255
 40
0.8797841436
 40
0.8903018311
 40
0.9004095907
 40
0.9193943935
 40
0.9282709838
 40
0.9367361118
 40
0.9447902639
 40
0.9524363345
 40
0.95968154
 40
0.9665334235
 40
0.9729958522
 40
0.9790756464
 40
0.98478579
 40
0.9901496846
 40
1.0
 40
1.0
 40
1.0
 40
1.0
 10
4.2679463139
 20
5.4392701764
 30
0.0
 10
4.2679450844
 20
5.4305140565
 30
0.0
 10
4.2678911776
 20
5.4130777363
 30
0.0
 10
4.2676715221
 20
5.3913542811
 30
0.0
 10
4.2674053523
 20
5.3741467396
 30
0.0
 10
4.2671627094
 20
5.3614342547
 30
0.0
 10
4.2668762961
 20
5.3488906749
 30
0.0
 10
4.2665374528
 20
5.3365435859
 30
0.0
 10
4.2661402472
 20
5.3244191289
 30
0.0
 10
4.2656986458
 20
5.3125414916
 30
0.0
 10
4.2652974498
 20
5.302808864
 30
0.0
 10
4.2649463795
 20
5.2951650963
 30
0.0
 10
4.2645770912
 20
5.287726816
 30
0.0
 10
4.2641703548
 20
5.280397939
 30
0.0
 10
4.2637367405
 20
5.2731810144
 30
0.0
 10
4.2632992851
 20
5.2661934731
 30
0.0
 10
4.2627356392
 20
5.2576877444
 30
0.0
 10
4.261994783
 20
5.2477707304
 30
0.0
 10
4.2611738054
 20
5.2382526509
 30
0.0
 10
4.2603070695
 20
5.2291452706
 30
0.0
 10
4.2595575683
 20
5.2218179805
 30
0.0
 10
4.2589303763
 20
5.2161722044
 30
0.0
 10
4.2582980063
 20
5.2108213981
 30
0.0
 10
4.2574691536
 20
5.2044202942
 30
0.0
 10
4.2564080785
 20
5.197092257
 30
0.0
 10
4.2554786395
 20
5.1912816092
 30
0.0
 10
4.2547219671
 20
5.1868698171
 30
0.0
 10
4.2541529617
 20
5.1837395854
 30
0.0
 10
4.2535663175
 20
5.1807333703
 30
0.0
 10
4.2527755227
 20
5.1769703572
 30
0.0
 10
4.2519436536
 20
5.1733790399
 30
0.0
 10
4.2510724218
 20
5.1699619052
 30
0.0
 10
4.2504274008
 20
5.1675823866
 30
0.0
 10
4.2497709957
 20
5.1653301002
 30
0.0
 10
4.2490982505
 20
5.163206455
 30
0.0
 10
4.2484000558
 20
5.1612141553
 30
0.0
 10
4.2476732867
 20
5.1593549571
 30
0.0
 10
4.2469269529
 20
5.1576260797
 30
0.0
 10
4.246162226
 20
5.1560273167
 30
0.0
 10
4.2453754602
 20
5.1545585713
 30
0.0
 10
4.2443177114
 20
5.1528246134
 30
0.0
 10
4.2434202606
 20
5.1516393802
 30
0.0
 10
4.2427631494
 20
5.1509447306
 30
0.0
  0
SPLINE
  5
2BA
100
AcDbEntity
  8
0
100
AcDbSpline
 62
7
  6
CONTINUOUS
 70
0
 71
3
 72
34
 73
30
 74
0
 42
0.0000001
 43
0.0000001
 44
0.0000000001
 40
0.0
 40
0.0
 40
0.0
 40
0.0
 40
0.0875559323
 40
0.1744480716
 40
0.2600141747
 40
0.3436091864
 40
0.4246030963
 40
0.5023911401
 40
0.5763974883
 40
0.6460810909
 40
0.7109404407
 40
0.741416708
 40
0.7705186672
 40
0.7981972054
 40
0.8244058005
 40
0.8491024151
 40
0.8722487404
 40
0.8938121969
 40
0.9137668347
 40
0.9320917047
 40
0.9406383979
 40
0.9487724964
 40
0.9564956692
 40
0.9638141244
 40
0.9707363827
 40
0.9772736818
 40
0.9834419278
 40
0.9892649837
 40
1.0
 40
1.0
 40
1.0
 40
1.0
 10
4.1978500798
 20
5.4392701764
 30
0.0
 10
4.1978487405
 20
5.4307776646
 30
0.0
 10
4.1979306734
 20
5.4138568973
 30
0.0
 10
4.1982997551
 20
5.388639067
 30
0.0
 10
4.1989115025
 20
5.3638102013
 30
0.0
 10
4.1997680254
 20
5.3395609754
 30
0.0
 10
4.2008678784
 20
5.3160767277
 30
0.0
 10
4.2022085576
 20
5.2935365462
 30
0.0
 10
4.2037814923
 20
5.2721111069
 30
0.0
 10
4.205575962
 20
5.2519616846
 30
0.0
 10
4.2072785835
 20
5.2360453012
 30
0.0
 10
4.2087515469
 20
5.2240654468
 30
0.0
 10
4.2098785556
 20
5.2156771261
 30
0.0
 10
4.2110482551
 20
5.2077127921
 30
0.0
 10
4.2122580621
 20
5.2001868988
 30
0.0
 10
4.2135058702
 20
5.1931131506
 30
0.0
 10
4.2147895242
 20
5.1865041886
 30
0.0
 10
4.2161085178
 20
5.1803717815
 30
0.0
 10
4.2174647824
 20
5.1747273354
 30
0.0
 10
4.218651604
 20
5.17034235
 30
0.0
 10
4.2196236869
 20
5.167088922
 30
0.0
 10
4.2203434061
 20
5.1648337622
 30
0.0
 10
4.2210723219
 20
5.1627070688
 30
0.0
 10
4.2218154567
 20
5.1607101878
 30
0.0
 10
4.2225773843
 20
5.1588439501
 30
0.0
 10
4.223362768
 20
5.1571091919
 30
0.0
 10
4.2241770308
 20
5.1555059755
 30
0.0
 10
4.2252804987
 20
5.1535974311
 30
0.0
 10
4.2262166482
 20
5.1522823749
 30
0.0
 10
4.226895803
 20
5.1514931083
 30
0.0
  0
SPLINE
  5
2BB
100
AcDbEntity
  8
0
100
AcDbSpline
 62
7
  6
CONTINUOUS
 70
0
 71
3
 72
31
 73
27
 74
0
 42
0.0000001
 43
0.0000001
 44
0.0000000001
 40
0.0
 40
0.0
 40
0.0
 40
0.0
 40
0.0310153138
 40
0.0620329392
 40
0.0930551838
 40
0.1240842928
 40
0.1861525419
 40
0.248273209
 40
0.2793673112
 40
0.3104796438
 40
0.3416115825
 40
0.3727642952
 40
0.4351168018
 40
0.4975614025
 40
0.5600997672
 40
0.6227299606
 40
0.6540872339
 40
0.6854651443
 40
0.7168624856
 40
0.7482778954
 40
0.8111380158
 40
0.8740500913
 40
0.9055294069
 40
0.9370153768
 40
0.9685084514
 40
1.0
 40
1.0
 40
1.0
 40
1.0
 10
4.7078043478
 20
2.8615649887
 30
0.0
 10
4.7078043478
 20
2.8579034429
 30
0.0
 10
4.7079869597
 20
2.8505787547
 30
0.0
 10
4.7088078536
 20
2.8396194555
 30
0.0
 10
4.7101739144
 20
2.8287125068
 30
0.0
 10
4.712717404
 20
2.814276757
 30
0.0
 10
4.7172425325
 20
2.796486541
 30
0.0
 10
4.7235148787
 20
2.7792266887
 30
0.0
 10
4.7295416473
 20
2.7658380079
 30
0.0
 10
4.7345588877
 20
2.7560221166
 30
0.0
 10
4.7400592458
 20
2.7464605641
 30
0.0
 10
4.7480201832
 20
2.7340801154
 30
0.0
 10
4.7591161045
 20
2.719347912
 30
0.0
 10
4.7741179328
 20
2.7030501717
 30
0.0
 10
4.7906688611
 20
2.6882790612
 30
0.0
 10
4.8056180689
 20
2.6773624244
 30
0.0
 10
4.8181805975
 20
2.6695285583
 30
0.0
 10
4.8278894623
 20
2.6641122722
 30
0.0
 10
4.837856477
 20
2.6591717642
 30
0.0
 10
4.8514583087
 20
2.6532341267
 30
0.0
 10
4.8689898981
 20
2.6470569936
 30
0.0
 10
4.8870443932
 20
2.6426044324
 30
0.0
 10
4.9016974197
 20
2.6401006543
 30
0.0
 10
4.9127720052
 20
2.6387554815
 30
0.0
 10
4.9238996009
 20
2.6379472853
 30
0.0
 10
4.9313365796
 20
2.6377674269
 30
0.0
 10
4.9350543478
 20
2.6377674269
 30
0.0
  0
SPLINE
  5
2BC
100
AcDbEntity
  8
0
100
AcDbSpline
 62
7
  6
CONTINUOUS
 70
0
 71
3
 72
33
 73
29
 74
0
 42
0.0000001
 43
0.0000001
 44
0.0000000001
 40
0.0
 40
0.0
 40
0.0
 40
0.0
 40
0.1945321986
 40
0.2891251702
 40
0.3348152243
 40
0.3790720097
 40
0.4632943322
 40
0.542442687
 40
0.6173377677
 40
0.6886210866
 40
0.7558938788
 40
0.8184319224
 40
0.8476870809
 40
0.8753435169
 40
0.9010030006
 40
0.9242498753
 40
0.9446673084
 40
0.961842904
 40
0.9753889739
 40
0.985329166
 40
0.9891231247
 40
0.9922298018
 40
0.9947185344
 40
0.9966544667
 40
0.9980974389
 40
0.9991010904
 40
0.9997140535
 40
1.0
 40
1.0
 40
1.0
 40
1.0
 10
4.2427631449
 20
5.150944689
 30
0.0
 10
4.242469079
 20
5.1505960573
 30
0.0
 10
4.2419830454
 20
5.1501193998
 30
0.0
 10
4.2413885562
 20
5.1496071867
 30
0.0
 10
4.2410564188
 20
5.1493298598
 30
0.0
 10
4.2407421801
 20
5.1490690988
 30
0.0
 10
4.2403659966
 20
5.1487601196
 30
0.0
 10
4.2399281109
 20
5.1484131802
 30
0.0
 10
4.2395045509
 20
5.1480972419
 30
0.0
 10
4.2390909947
 20
5.1478151622
 30
0.0
 10
4.2386913834
 20
5.1475647687
 30
0.0
 10
4.2383684496
 20
5.1473780663
 30
0.0
 10
4.2381224433
 20
5.1472442083
 30
0.0
 10
4.2379510234
 20
5.1471542351
 30
0.0
 10
4.2377913353
 20
5.1470722463
 30
0.0
 10
4.2376465278
 20
5.1469984375
 30
0.0
 10
4.2375197911
 20
5.1469329758
 30
0.0
 10
4.2374141989
 20
5.1468761565
 30
0.0
 10
4.2373320763
 20
5.1468276392
 30
0.0
 10
4.2372795814
 20
5.1467909346
 30
0.0
 10
4.2372489996
 20
5.1467659384
 30
0.0
 10
4.2372326868
 20
5.1467511352
 30
0.0
 10
4.2372202838
 20
5.1467385682
 30
0.0
 10
4.2372111834
 20
5.146728205
 30
0.0
 10
4.2372048756
 20
5.1467201716
 30
0.0
 10
4.2372006276
 20
5.1467142107
 30
0.0
 10
4.2371981887
 20
5.1467108009
 30
0.0
 10
4.2371965637
 20
5.1467089623
 30
0.0
 10
4.2371958933
 20
5.1467089682
 30
0.0
  0
SPLINE
  5
2BD
100
AcDbEntity
  8
0
100
AcDbSpline
 62
7
  6
CONTINUOUS
 70
0
 71
3
 72
31
 73
27
 74
0
 42
0.0000001
 43
0.0000001
 44
0.0000000001
 40
0.0
 40
0.0
 40
0.0
 40
0.0
 40
0.1941021442
 40
0.2864842813
 40
0.3758958604
 40
0.4624634885
 40
0.545938357
 40
0.6252630653
 40
0.699211062
 40
0.7664950435
 40
0.8259916937
 40
0.8772978596
 40
0.8998048235
 40
0.9201743765
 40
0.9383765632
 40
0.9543797394
 40
0.968123855
 40
0.9795252157
 40
0.9843208289
 40
0.9884988311
 40
0.9920485116
 40
0.9949591339
 40
0.9972199496
 40
0.9988202368
 40
0.9997494794
 40
1.0
 40
1.0
 40
1.0
 40
1.0
 10
4.226895803
 20
5.1514931083
 30
0.0
 10
4.2272195708
 20
5.1511148808
 30
0.0
 10
4.2277159018
 20
5.1505718415
 30
0.0
 10
4.2284066637
 20
5.1498988909
 30
0.0
 10
4.2289188334
 20
5.1494386697
 30
0.0
 10
4.2294328615
 20
5.1490156239
 30
0.0
 10
4.229944124
 20
5.1486309714
 30
0.0
 10
4.230441692
 20
5.1482826829
 30
0.0
 10
4.2309137239
 20
5.1479707579
 30
0.0
 10
4.2313485149
 20
5.147694956
 30
0.0
 10
4.2317364544
 20
5.1474537695
 30
0.0
 10
4.2320285783
 20
5.1472760237
 30
0.0
 10
4.2322360286
 20
5.1471522241
 30
0.0
 10
4.2323710476
 20
5.1470727555
 30
0.0
 10
4.2324921614
 20
5.1470025575
 30
0.0
 10
4.232599062
 20
5.1469417301
 30
0.0
 10
4.2326912228
 20
5.1468902922
 30
0.0
 10
4.2327585682
 20
5.1468533506
 30
0.0
 10
4.2328044963
 20
5.1468284518
 30
0.0
 10
4.2328328184
 20
5.1468131987
 30
0.0
 10
4.2328567481
 20
5.1468003666
 30
0.0
 10
4.2328768123
 20
5.1467896589
 30
0.0
 10
4.2328912668
 20
5.1467818759
 30
0.0
 10
4.2329039914
 20
5.1467751109
 30
0.0
 10
4.2329070243
 20
5.1467731867
 30
0.0
 10
4.2329125704
 20
5.1467701847
 30
0.0
 10
4.2329119278
 20
5.1467701764
 30
0.0
  0
SPLINE
  5
2BE
100
AcDbEntity
  8
0
100
AcDbSpline
 62
7
  6
CONTINUOUS
 70
0
 71
3
 72
31
 73
27
 74
0
 42
0.0000001
 43
0.0000001
 44
0.0000000001
 40
0.0
 40
0.0
 40
0.0
 40
0.0
 40
0.0310153121
 40
0.0620329384
 40
0.0930551856
 40
0.1240842938
 40
0.1861525401
 40
0.2482732112
 40
0.2793673111
 40
0.3104796416
 40
0.3416115814
 40
0.3727642968
 40
0.4351168006
 40
0.4975614025
 40
0.5600997684
 40
0.622729959
 40
0.654087235
 40
0.6854651465
 40
0.7168624857
 40
0.7482778931
 40
0.8111380176
 40
0.8740500903
 40
0.905529405
 40
0.9370153776
 40
0.9685084525
 40
1.0
 40
1.0
 40
1.0
 40
1.0
 10
4.7078043478
 20
2.8181529443
 30
0.0
 10
4.7078043478
 20
2.8144913987
 30
0.0
 10
4.7079869596
 20
2.8071667106
 30
0.0
 10
4.7088078537
 20
2.7962074112
 30
0.0
 10
4.7101739145
 20
2.7853004621
 30
0.0
 10
4.712717404
 20
2.7708647124
 30
0.0
 10
4.7172425325
 20
2.7530744965
 30
0.0
 10
4.7235148787
 20
2.7358146442
 30
0.0
 10
4.7295416472
 20
2.7224259635
 30
0.0
 10
4.7345588876
 20
2.7126100726
 30
0.0
 10
4.7400592457
 20
2.7030485199
 30
0.0
 10
4.7480201832
 20
2.6906680711
 30
0.0
 10
4.7591161045
 20
2.6759358675
 30
0.0
 10
4.7741179329
 20
2.6596381273
 30
0.0
 10
4.790668861
 20
2.6448670168
 30
0.0
 10
4.805618069
 20
2.63395038
 30
0.0
 10
4.8181805976
 20
2.6261165138
 30
0.0
 10
4.8278894627
 20
2.6207002276
 30
0.0
 10
4.8378564769
 20
2.6157597197
 30
0.0
 10
4.8514583087
 20
2.6098220824
 30
0.0
 10
4.8689898979
 20
2.6036449492
 30
0.0
 10
4.887044393
 20
2.599192388
 30
0.0
 10
4.9016974194
 20
2.5966886099
 30
0.0
 10
4.9127720052
 20
2.5953434371
 30
0.0
 10
4.9238996012
 20
2.5945352408
 30
0.0
 10
4.9313365797
 20
2.5943553824
 30
0.0
 10
4.9350543478
 20
2.5943553824
 30
0.0
  0
SPLINE
  5
2BF
100
AcDbEntity
  8
0
100
AcDbSpline
 62
7
  6
CONTINUOUS
 70
0
 71
3
 72
47
 73
43
 74
0
 42
0.0000001
 43
0.0000001
 44
0.0000000001
 40
0.0
 40
0.0
 40
0.0
 40
0.0
 40
0.0155077905
 40
0.0310190228
 40
0.0465311798
 40
0.0620466479
 40
0.0930831753
 40
0.1241457866
 40
0.1396939887
 40
0.1552513065
 40
0.1708184267
 40
0.1863959363
 40
0.2175744958
 40
0.2487991074
 40
0.2800706035
 40
0.3113880159
 40
0.3427486191
 40
0.374148042
 40
0.4055804398
 40
0.4370387216
 40
0.4685148209
 40
0.5
 40
0.5314851791
 40
0.5629612784
 40
0.5944195602
 40
0.625851958
 40
0.6572513809
 40
0.6886119841
 40
0.7199293965
 40
0.7512008926
 40
0.7824255042
 40
0.8136040637
 40
0.8291815733
 40
0.8447486935
 40
0.8603060113
 40
0.8758542134
 40
0.9069168247
 40
0.9379533521
 40
0.9534688202
 40
0.9689809772
 40
0.9844922095
 40
1.0
 40
1.0
 40
1.0
 40
1.0
 10
5.1115543478
 20
2.8758909634
 30
0.0
 10
5.1115543478
 20
2.8730473085
 30
0.0
 10
5.1114124583
 20
2.8673583424
 30
0.0
 10
5.1107750042
 20
2.8588464644
 30
0.0
 10
5.1097139493
 20
2.8503751165
 30
0.0
 10
5.1077384644
 20
2.8391632411
 30
0.0
 10
5.1042239252
 20
2.8253459986
 30
0.0
 10
5.0993523106
 20
2.8119406482
 30
0.0
 10
5.0946714687
 20
2.8015419575
 30
0.0
 10
5.0907747153
 20
2.7939181601
 30
0.0
 10
5.0865026547
 20
2.7864919474
 30
0.0
 10
5.0803196495
 20
2.776876287
 30
0.0
 10
5.0717016052
 20
2.7654341269
 30
0.0
 10
5.060050171
 20
2.7527761335
 30
0.0
 10
5.0471948717
 20
2.7413033983
 30
0.0
 10
5.0332601662
 20
2.7311272293
 30
0.0
 10
5.0183801303
 20
2.7223452546
 30
0.0
 10
5.00269811
 20
2.715041983
 30
0.0
 10
4.9863650937
 20
2.7092875727
 30
0.0
 10
4.9695383045
 20
2.7051373198
 30
0.0
 10
4.9523796839
 20
2.7026310999
 30
0.0
 10
4.9350543478
 20
2.7017930023
 30
0.0
 10
4.9177290117
 20
2.7026310999
 30
0.0
 10
4.9005703911
 20
2.7051373198
 30
0.0
 10
4.883743602
 20
2.7092875727
 30
0.0
 10
4.8674105857
 20
2.715041983
 30
0.0
 10
4.8517285654
 20
2.7223452546
 30
0.0
 10
4.8368485295
 20
2.7311272293
 30
0.0
 10
4.8229138239
 20
2.7413033983
 30
0.0
 10
4.8100585246
 20
2.7527761335
 30
0.0
 10
4.7984070905
 20
2.7654341269
 30
0.0
 10
4.7897890461
 20
2.776876287
 30
0.0
 10
4.7836060409
 20
2.7864919474
 30
0.0
 10
4.7793339803
 20
2.7939181601
 30
0.0
 10
4.775437227
 20
2.8015419575
 30
0.0
 10
4.770756385
 20
2.8119406482
 30
0.0
 10
4.7658847705
 20
2.8253459986
 30
0.0
 10
4.7623702313
 20
2.8391632411
 30
0.0
 10
4.7603947464
 20
2.8503751165
 30
0.0
 10
4.7593336915
 20
2.8588464644
 30
0.0
 10
4.7586962373
 20
2.8673583424
 30
0.0
 10
4.7585543478
 20
2.8730473085
 30
0.0
 10
4.7585543478
 20
2.8758909634
 30
0.0
  0
SPLINE
  5
2C0
100
AcDbEntity
  8
0
100
AcDbSpline
 62
7
  6
CONTINUOUS
 70
0
 71
3
 72
31
 73
27
 74
0
 42
0.0000001
 43
0.0000001
 44
0.0000000001
 40
0.0
 40
0.0
 40
0.0
 40
0.0
 40
0.0310153138
 40
0.0620329392
 40
0.0930551838
 40
0.1240842928
 40
0.1861525419
 40
0.248273209
 40
0.2793673112
 40
0.3104796438
 40
0.3416115825
 40
0.3727642952
 40
0.4351168018
 40
0.4975614025
 40
0.5600997672
 40
0.6227299606
 40
0.6540872339
 40
0.6854651443
 40
0.7168624856
 40
0.7482778954
 40
0.8111380158
 40
0.8740500913
 40
0.9055294069
 40
0.9370153768
 40
0.9685084514
 40
1.0
 40
1.0
 40
1.0
 40
1.0
 10
5.1623043478
 20
2.8615649887
 30
0.0
 10
5.1623043478
 20
2.8579034429
 30
0.0
 10
5.162121736
 20
2.8505787547
 30
0.0
 10
5.161300842
 20
2.8396194555
 30
0.0
 10
5.1599347812
 20
2.8287125068
 30
0.0
 10
5.1573912916
 20
2.814276757
 30
0.0
 10
5.1528661632
 20
2.796486541
 30
0.0
 10
5.146593817
 20
2.7792266887
 30
0.0
 10
5.1405670484
 20
2.7658380079
 30
0.0
 10
5.1355498079
 20
2.7560221166
 30
0.0
 10
5.1300494498
 20
2.7464605641
 30
0.0
 10
5.1220885125
 20
2.7340801154
 30
0.0
 10
5.1109925911
 20
2.719347912
 30
0.0
 10
5.0959907628
 20
2.7030501717
 30
0.0
 10
5.0794398345
 20
2.6882790612
 30
0.0
 10
5.0644906268
 20
2.6773624244
 30
0.0
 10
5.0519280982
 20
2.6695285583
 30
0.0
 10
5.0422192333
 20
2.6641122722
 30
0.0
 10
5.0322522187
 20
2.6591717642
 30
0.0
 10
5.018650387
 20
2.6532341267
 30
0.0
 10
5.0011187976
 20
2.6470569936
 30
0.0
 10
4.9830643025
 20
2.6426044324
 30
0.0
 10
4.968411276
 20
2.6401006543
 30
0.0
 10
4.9573366905
 20
2.6387554815
 30
0.0
 10
4.9462090947
 20
2.6379472853
 30
0.0
 10
4.9387721161
 20
2.6377674269
 30
0.0
 10
4.9350543478
 20
2.6377674269
 30
0.0
  0
SPLINE
  5
2C1
100
AcDbEntity
  8
0
100
AcDbSpline
 62
7
  6
CONTINUOUS
 70
0
 71
3
 72
29
 73
25
 74
0
 42
0.0000001
 43
0.0000001
 44
0.0000000001
 40
0.0
 40
0.0
 40
0.0
 40
0.0
 40
0.0639013518
 40
0.1277533579
 40
0.1914930634
 40
0.2550779347
 40
0.3184644914
 40
0.3816163161
 40
0.4130993424
 40
0.4445138778
 40
0.5071248463
 40
0.5694522273
 40
0.6005168245
 40
0.631515636
 40
0.6624512101
 40
0.6933250304
 40
0.7549012506
 40
0.7856263523
 40
0.816315659
 40
0.8469729263
 40
0.8776004973
 40
0.9387939554
 40
0.9693915569
 40
1.0
 40
1.0
 40
1.0
 40
1.0
 10
4.5635851336
 20
5.4392701764
 30
0.0
 10
4.563585561
 20
5.4327638464
 30
0.0
 10
4.5640227268
 20
5.4197521725
 30
0.0
 10
4.5659666143
 20
5.4003382426
 30
0.0
 10
4.5691853844
 20
5.3811262847
 30
0.0
 10
4.5736635657
 20
5.3622169247
 30
0.0
 10
4.579377014
 20
5.3437066442
 30
0.0
 10
4.585130814
 20
5.3286676259
 30
0.0
 10
4.5903048128
 20
5.316920441
 30
0.0
 10
4.5958396003
 20
5.3053998991
 30
0.0
 10
4.6034339882
 20
5.2913949783
 30
0.0
 10
4.6118980985
 20
5.2779401497
 30
0.0
 10
4.61915454
 20
5.2675574881
 30
0.0
 10
4.6248259959
 20
5.2599727811
 30
0.0
 10
4.6307222213
 20
5.2525863094
 30
0.0
 10
4.6388628239
 20
5.2430157726
 30
0.0
 10
4.6474310159
 20
5.233844078
 30
0.0
 10
4.6564013143
 20
5.2251039247
 30
0.0
 10
4.6633157904
 20
5.2187713334
 30
0.0
 10
4.6704109935
 20
5.2126572327
 30
0.0
 10
4.6800952524
 20
5.2047983352
 30
0.0
 10
4.6901185183
 20
5.1973741681
 30
0.0
 10
4.7004583544
 20
5.1904146125
 30
0.0
 10
4.7057303902
 20
5.1870895231
 30
0.0
 10
4.7083900265
 20
5.1854650498
 30
0.0
  0
SPLINE
  5
2C2
100
AcDbEntity
  8
0
100
AcDbSpline
 62
7
  6
CONTINUOUS
 70
0
 71
3
 72
30
 73
26
 74
0
 42
0.0000001
 43
0.0000001
 44
0.0000000001
 40
0.0
 40
0.0
 40
0.0
 40
0.0
 40
0.0310138499
 40
0.0620345914
 40
0.0930571997
 40
0.1240864062
 40
0.1861559889
 40
0.2482777871
 40
0.2793724514
 40
0.3104853367
 40
0.3416178536
 40
0.3727711586
 40
0.4351248005
 40
0.4975705536
 40
0.5601100703
 40
0.6227414025
 40
0.654099275
 40
0.6854777649
 40
0.7168756676
 40
0.7482916443
 40
0.8111529288
 40
0.8740661929
 40
0.9055458863
 40
0.9370326171
 40
1.0
 40
1.0
 40
1.0
 40
1.0
 10
5.1115543478
 20
2.8663403136
 30
0.0
 10
5.1115543478
 20
2.8634966593
 30
0.0
 10
5.1114124588
 20
2.8578076938
 30
0.0
 10
5.110775004
 20
2.8492958146
 30
0.0
 10
5.1097139487
 20
2.8408244653
 30
0.0
 10
5.107738465
 20
2.8296125904
 30
0.0
 10
5.1042239246
 20
2.8157953479
 30
0.0
 10
5.0993523098
 20
2.802389998
 30
0.0
 10
5.094671469
 20
2.7919913071
 30
0.0
 10
5.0907747161
 20
2.7843675118
 30
0.0
 10
5.0865026558
 20
2.7769412995
 30
0.0
 10
5.0803196458
 20
2.7673256347
 30
0.0
 10
5.0717016379
 20
2.755883496
 30
0.0
 10
5.0600500504
 20
2.7432254123
 30
0.0
 10
5.0471953214
 20
2.731753018
 30
0.0
 10
5.0355846392
 20
2.7232742565
 30
0.0
 10
5.0258275584
 20
2.71718994
 30
0.0
 10
5.0182869313
 20
2.7129831761
 30
0.0
 10
5.0105457604
 20
2.7091460204
 30
0.0
 10
4.9999815262
 20
2.7045344032
 30
0.0
 10
4.9863650786
 20
2.6997367506
 30
0.0
 10
4.9723427612
 20
2.6962785499
 30
0.0
 10
4.9609616972
 20
2.6943339072
 30
0.0
 10
4.9494959403
 20
2.6929410645
 30
0.0
 10
4.9408278158
 20
2.6925217452
 30
0.0
 10
4.9350543478
 20
2.6925217452
 30
0.0
  0
SPLINE
  5
2C3
100
AcDbEntity
  8
0
100
AcDbSpline
 62
7
  6
CONTINUOUS
 70
0
 71
3
 72
30
 73
26
 74
0
 42
0.0000001
 43
0.0000001
 44
0.0000000001
 40
0.0
 40
0.0
 40
0.0
 40
0.0
 40
0.0629673829
 40
0.0944541137
 40
0.1259338071
 40
0.1888470712
 40
0.2517083557
 40
0.2831243324
 40
0.3145222351
 40
0.345900725
 40
0.3772585975
 40
0.4398899297
 40
0.5024294464
 40
0.5648751995
 40
0.6272288414
 40
0.6583821464
 40
0.6895146633
 40
0.7206275486
 40
0.7517222129
 40
0.8138440111
 40
0.8759135938
 40
0.9069428003
 40
0.9379654086
 40
0.9689861501
 40
1.0
 40
1.0
 40
1.0
 40
1.0
 10
4.9350543478
 20
2.6925217452
 30
0.0
 10
4.9292808799
 20
2.6925217452
 30
0.0
 10
4.9206127554
 20
2.6929410645
 30
0.0
 10
4.9091469985
 20
2.6943339072
 30
0.0
 10
4.8977659344
 20
2.6962785499
 30
0.0
 10
4.8837436171
 20
2.6997367506
 30
0.0
 10
4.8701271694
 20
2.7045344032
 30
0.0
 10
4.8595629352
 20
2.7091460204
 30
0.0
 10
4.8518217644
 20
2.7129831761
 30
0.0
 10
4.8442811372
 20
2.71718994
 30
0.0
 10
4.8345240565
 20
2.7232742565
 30
0.0
 10
4.8229133743
 20
2.731753018
 30
0.0
 10
4.8100586453
 20
2.7432254123
 30
0.0
 10
4.7984070578
 20
2.755883496
 30
0.0
 10
4.7897890499
 20
2.7673256347
 30
0.0
 10
4.7836060398
 20
2.7769412995
 30
0.0
 10
4.7793339796
 20
2.7843675118
 30
0.0
 10
4.7754372267
 20
2.7919913071
 30
0.0
 10
4.7707563859
 20
2.802389998
 30
0.0
 10
4.765884771
 20
2.8157953479
 30
0.0
 10
4.7623702307
 20
2.8296125904
 30
0.0
 10
4.760394747
 20
2.8408244653
 30
0.0
 10
4.7593336917
 20
2.8492958146
 30
0.0
 10
4.7586962368
 20
2.8578076938
 30
0.0
 10
4.7585543478
 20
2.8634966593
 30
0.0
 10
4.7585543478
 20
2.8663403136
 30
0.0
  0
SPLINE
  5
2C4
100
AcDbEntity
  8
0
100
AcDbSpline
 62
7
  6
CONTINUOUS
 70
0
 71
3
 72
39
 73
35
 74
0
 42
0.0000001
 43
0.0000001
 44
0.0000000001
 40
0.0
 40
0.0
 40
0.0
 40
0.0
 40
0.0311673875
 40
0.0623097154
 40
0.0934296784
 40
0.1245303617
 40
0.1556151856
 40
0.1866878438
 40
0.2177522416
 40
0.2488124328
 40
0.2798725474
 40
0.3109367166
 40
0.3420089975
 40
0.3730933017
 40
0.4041933328
 40
0.4353125227
 40
0.4664539703
 40
0.497620385
 40
0.5288140383
 40
0.5600367293
 40
0.5912897591
 40
0.6225739083
 40
0.6538894218
 40
0.6852360035
 40
0.7166128237
 40
0.7480185423
 40
0.779451327
 40
0.8109088985
 40
0.8423885406
 40
0.8738871371
 40
0.9054015044
 40
0.9369271687
 40
0.9684623697
 40
1.0
 40
1.0
 40
1.0
 40
1.0
 10
5.1115579644
 20
2.9622972631
 30
0.0
 10
5.113789875
 20
2.958504429
 30
0.0
 10
5.1180030501
 20
2.9507721477
 30
0.0
 10
5.1235397442
 20
2.9387880002
 30
0.0
 10
5.1282683324
 20
2.9264720436
 30
0.0
 10
5.1321681371
 20
2.9138777578
 30
0.0
 10
5.1352225084
 20
2.9010589924
 30
0.0
 10
5.1374182791
 20
2.8880707849
 30
0.0
 10
5.1387460409
 20
2.8749688521
 30
0.0
 10
5.1392001083
 20
2.8618094126
 30
0.0
 10
5.1387785354
 20
2.848648924
 30
0.0
 10
5.1374831277
 20
2.83554385
 30
0.0
 10
5.1353194262
 20
2.8225504199
 30
0.0
 10
5.1322967172
 20
2.8097243848
 30
0.0
 10
5.1284280037
 20
2.7971207661
 30
0.0
 10
5.1237299014
 20
2.7847936282
 30
0.0
 10
5.1182225774
 20
2.7727958483
 30
0.0
 10
5.1119296606
 20
2.7611788929
 30
0.0
 10
5.1048781456
 20
2.7499925991
 30
0.0
 10
5.0970983191
 20
2.739284929
 30
0.0
 10
5.0886235769
 20
2.7291017905
 30
0.0
 10
5.0794902842
 20
2.7194868428
 30
0.0
 10
5.0697376212
 20
2.7104813115
 30
0.0
 10
5.0594074125
 20
2.7021238214
 30
0.0
 10
5.0485439818
 20
2.6944501894
 30
0.0
 10
5.0371939363
 20
2.6874932902
 30
0.0
 10
5.0254059559
 20
2.681282932
 30
0.0
 10
5.0132305878
 20
2.6758457324
 30
0.0
 10
5.0007200423
 20
2.6712050138
 30
0.0
 10
4.9879279317
 20
2.6673806343
 30
0.0
 10
4.974909233
 20
2.6643890632
 30
0.0
 10
4.9617193941
 20
2.6622428797
 30
0.0
 10
4.9484159005
 20
2.6609516231
 30
0.0
 10
4.9395074228
 20
2.6606642071
 30
0.0
 10
4.9350543478
 20
2.6606642071
 30
0.0
  0
SPLINE
  5
2C5
100
AcDbEntity
  8
0
100
AcDbSpline
 62
7
  6
CONTINUOUS
 70
0
 71
3
 72
39
 73
35
 74
0
 42
0.0000001
 43
0.0000001
 44
0.0000000001
 40
0.0
 40
0.0
 40
0.0
 40
0.0
 40
0.0315376303
 40
0.0630728313
 40
0.0945984956
 40
0.1261128629
 40
0.1576114594
 40
0.1890911015
 40
0.220548673
 40
0.2519814577
 40
0.2833871763
 40
0.3147639965
 40
0.3461105782
 40
0.3774260917
 40
0.4087102409
 40
0.4399632707
 40
0.4711859617
 40
0.502379615
 40
0.5335460297
 40
0.5646874773
 40
0.5958066672
 40
0.6269066983
 40
0.6579910025
 40
0.6890632834
 40
0.7201274526
 40
0.7511875672
 40
0.7822477584
 40
0.8133121562
 40
0.8443848144
 40
0.8754696383
 40
0.9065703216
 40
0.9376902846
 40
0.9688326125
 40
1.0
 40
1.0
 40
1.0
 40
1.0
 10
4.9350543478
 20
2.6606642071
 30
0.0
 10
4.9306012728
 20
2.6606642071
 30
0.0
 10
4.9216927951
 20
2.6609516231
 30
0.0
 10
4.9083893015
 20
2.6622428797
 30
0.0
 10
4.8951994627
 20
2.6643890632
 30
0.0
 10
4.8821807639
 20
2.6673806343
 30
0.0
 10
4.8693886534
 20
2.6712050138
 30
0.0
 10
4.8568781078
 20
2.6758457324
 30
0.0
 10
4.8447027397
 20
2.681282932
 30
0.0
 10
4.8329147593
 20
2.6874932902
 30
0.0
 10
4.8215647138
 20
2.6944501894
 30
0.0
 10
4.8107012831
 20
2.7021238214
 30
0.0
 10
4.8003710745
 20
2.7104813115
 30
0.0
 10
4.7906184115
 20
2.7194868428
 30
0.0
 10
4.7814851187
 20
2.7291017905
 30
0.0
 10
4.7730103766
 20
2.739284929
 30
0.0
 10
4.76523055
 20
2.7499925991
 30
0.0
 10
4.758179035
 20
2.7611788929
 30
0.0
 10
4.7518861182
 20
2.7727958483
 30
0.0
 10
4.7463787943
 20
2.7847936282
 30
0.0
 10
4.741680692
 20
2.7971207661
 30
0.0
 10
4.7378119785
 20
2.8097243848
 30
0.0
 10
4.7347892694
 20
2.8225504199
 30
0.0
 10
4.732625568
 20
2.83554385
 30
0.0
 10
4.7313301602
 20
2.848648924
 30
0.0
 10
4.7309085874
 20
2.8618094126
 30
0.0
 10
4.7313626548
 20
2.8749688521
 30
0.0
 10
4.7326904165
 20
2.8880707849
 30
0.0
 10
4.7348861872
 20
2.9010589924
 30
0.0
 10
4.7379405585
 20
2.9138777578
 30
0.0
 10
4.7418403632
 20
2.9264720436
 30
0.0
 10
4.7465689514
 20
2.9387880002
 30
0.0
 10
4.7521056455
 20
2.9507721477
 30
0.0
 10
4.7563188206
 20
2.958504429
 30
0.0
 10
4.7585507312
 20
2.9622972631
 30
0.0
  0
SPLINE
  5
2C6
100
AcDbEntity
  8
0
100
AcDbSpline
 62
7
  6
CONTINUOUS
 70
0
 71
3
 72
31
 73
27
 74
0
 42
0.0000001
 43
0.0000001
 44
0.0000000001
 40
0.0
 40
0.0
 40
0.0
 40
0.0
 40
0.0310153121
 40
0.0620329384
 40
0.0930551856
 40
0.1240842938
 40
0.1861525401
 40
0.2482732112
 40
0.2793673111
 40
0.3104796416
 40
0.3416115814
 40
0.3727642968
 40
0.4351168006
 40
0.4975614025
 40
0.5600997684
 40
0.622729959
 40
0.654087235
 40
0.6854651465
 40
0.7168624857
 40
0.7482778931
 40
0.8111380176
 40
0.8740500903
 40
0.905529405
 40
0.9370153776
 40
0.9685084525
 40
1.0
 40
1.0
 40
1.0
 40
1.0
 10
5.1623043478
 20
2.8181529443
 30
0.0
 10
5.1623043478
 20
2.8144913987
 30
0.0
 10
5.1621217361
 20
2.8071667106
 30
0.0
 10
5.161300842
 20
2.7962074112
 30
0.0
 10
5.1599347812
 20
2.7853004621
 30
0.0
 10
5.1573912917
 20
2.7708647124
 30
0.0
 10
5.1528661631
 20
2.7530744965
 30
0.0
 10
5.1465938169
 20
2.7358146442
 30
0.0
 10
5.1405670485
 20
2.7224259635
 30
0.0
 10
5.1355498081
 20
2.7126100726
 30
0.0
 10
5.13004945
 20
2.7030485199
 30
0.0
 10
5.1220885124
 20
2.6906680711
 30
0.0
 10
5.1109925912
 20
2.6759358675
 30
0.0
 10
5.0959907628
 20
2.6596381273
 30
0.0
 10
5.0794398346
 20
2.6448670168
 30
0.0
 10
5.0644906266
 20
2.63395038
 30
0.0
 10
5.051928098
 20
2.6261165138
 30
0.0
 10
5.042219233
 20
2.6207002276
 30
0.0
 10
5.0322522187
 20
2.6157597197
 30
0.0
 10
5.018650387
 20
2.6098220824
 30
0.0
 10
5.0011187978
 20
2.6036449492
 30
0.0
 10
4.9830643026
 20
2.599192388
 30
0.0
 10
4.9684112762
 20
2.5966886099
 30
0.0
 10
4.9573366905
 20
2.5953434371
 30
0.0
 10
4.9462090945
 20
2.5945352408
 30
0.0
 10
4.938772116
 20
2.5943553824
 30
0.0
 10
4.9350543478
 20
2.5943553824
 30
0.0
  0
SPLINE
  5
2C7
100
AcDbEntity
  8
0
100
AcDbSpline
 62
7
  6
CONTINUOUS
 70
0
 71
3
 72
34
 73
30
 74
0
 42
0.0000001
 43
0.0000001
 44
0.0000000001
 40
0.0
 40
0.0
 40
0.0
 40
0.0
 40
0.0875559323
 40
0.1744480716
 40
0.2600141747
 40
0.3436091864
 40
0.4246030963
 40
0.5023911401
 40
0.5763974883
 40
0.6460810909
 40
0.7109404407
 40
0.741416708
 40
0.7705186672
 40
0.7981972054
 40
0.8244058005
 40
0.8491024151
 40
0.8722487404
 40
0.8938121969
 40
0.9137668347
 40
0.9320917047
 40
0.9406383979
 40
0.9487724964
 40
0.9564956692
 40
0.9638141244
 40
0.9707363827
 40
0.9772736818
 40
0.9834419278
 40
0.9892649837
 40
1.0
 40
1.0
 40
1.0
 40
1.0
 10
4.1978500798
 20
5.4392701764
 30
0.0
 10
4.1978487405
 20
5.4477626882
 30
0.0
 10
4.1979306734
 20
5.4646834555
 30
0.0
 10
4.1982997551
 20
5.4899012858
 30
0.0
 10
4.1989115025
 20
5.5147301515
 30
0.0
 10
4.1997680254
 20
5.5389793775
 30
0.0
 10
4.2008678784
 20
5.5624636251
 30
0.0
 10
4.2022085576
 20
5.5850038067
 30
0.0
 10
4.2037814923
 20
5.6064292459
 30
0.0
 10
4.205575962
 20
5.6265786683
 30
0.0
 10
4.2072785835
 20
5.6424950516
 30
0.0
 10
4.2087515469
 20
5.6544749061
 30
0.0
 10
4.2098785556
 20
5.6628632267
 30
0.0
 10
4.2110482551
 20
5.6708275607
 30
0.0
 10
4.2122580621
 20
5.678353454
 30
0.0
 10
4.2135058702
 20
5.6854272022
 30
0.0
 10
4.2147895242
 20
5.6920361642
 30
0.0
 10
4.2161085178
 20
5.6981685713
 30
0.0
 10
4.2174647824
 20
5.7038130174
 30
0.0
 10
4.218651604
 20
5.7081980028
 30
0.0
 10
4.2196236869
 20
5.7114514308
 30
0.0
 10
4.2203434061
 20
5.7137065906
 30
0.0
 10
4.2210723219
 20
5.715833284
 30
0.0
 10
4.2218154567
 20
5.717830165
 30
0.0
 10
4.2225773843
 20
5.7196964027
 30
0.0
 10
4.223362768
 20
5.721431161
 30
0.0
 10
4.2241770308
 20
5.7230343773
 30
0.0
 10
4.2252804987
 20
5.7249429217
 30
0.0
 10
4.2262166482
 20
5.7262579779
 30
0.0
 10
4.226895803
 20
5.7270472445
 30
0.0
  0
SPLINE
  5
2C8
100
AcDbEntity
  8
0
100
AcDbSpline
 62
7
  6
CONTINUOUS
 70
0
 71
3
 72
47
 73
43
 74
0
 42
0.0000001
 43
0.0000001
 44
0.0000000001
 40
0.0
 40
0.0
 40
0.0
 40
0.0
 40
0.0902006379
 40
0.1796185969
 40
0.2237922612
 40
0.2674839663
 40
0.3105990434
 40
0.3530425135
 40
0.3947240773
 40
0.4355648706
 40
0.4754835396
 40
0.4950688156
 40
0.5143895271
 40
0.5522027343
 40
0.570682238
 40
0.5888682548
 40
0.6243253483
 40
0.6584950858
 40
0.6913105424
 40
0.722737395
 40
0.752737441
 40
0.7671848654
 40
0.7812543576
 40
0.808241655
 40
0.8336731903
 40
0.8575282286
 40
0.8688582255
 40
0.8797841436
 40
0.8903018311
 40
0.9004095907
 40
0.9193943935
 40
0.9282709838
 40
0.9367361118
 40
0.9447902639
 40
0.9524363345
 40
0.95968154
 40
0.9665334235
 40
0.9729958522
 40
0.9790756464
 40
0.98478579
 40
0.9901496846
 40
1.0
 40
1.0
 40
1.0
 40
1.0
 10
4.2679463139
 20
5.4392701764
 30
0.0
 10
4.2679450844
 20
5.4480262963
 30
0.0
 10
4.2678911776
 20
5.4654626165
 30
0.0
 10
4.2676715221
 20
5.4871860717
 30
0.0
 10
4.2674053523
 20
5.5043936132
 30
0.0
 10
4.2671627094
 20
5.5171060981
 30
0.0
 10
4.2668762961
 20
5.5296496779
 30
0.0
 10
4.2665374528
 20
5.5419967669
 30
0.0
 10
4.2661402472
 20
5.554121224
 30
0.0
 10
4.2656986458
 20
5.5659988612
 30
0.0
 10
4.2652974498
 20
5.5757314889
 30
0.0
 10
4.2649463795
 20
5.5833752565
 30
0.0
 10
4.2645770912
 20
5.5908135368
 30
0.0
 10
4.2641703548
 20
5.5981424138
 30
0.0
 10
4.2637367405
 20
5.6053593384
 30
0.0
 10
4.2632992851
 20
5.6123468797
 30
0.0
 10
4.2627356392
 20
5.6208526084
 30
0.0
 10
4.261994783
 20
5.6307696224
 30
0.0
 10
4.2611738054
 20
5.6402877019
 30
0.0
 10
4.2603070695
 20
5.6493950822
 30
0.0
 10
4.2595575683
 20
5.6567223723
 30
0.0
 10
4.2589303763
 20
5.6623681484
 30
0.0
 10
4.2582980063
 20
5.6677189548
 30
0.0
 10
4.2574691536
 20
5.6741200586
 30
0.0
 10
4.2564080785
 20
5.6814480959
 30
0.0
 10
4.2554786395
 20
5.6872587436
 30
0.0
 10
4.2547219671
 20
5.6916705358
 30
0.0
 10
4.2541529617
 20
5.6948007674
 30
0.0
 10
4.2535663175
 20
5.6978069825
 30
0.0
 10
4.2527755227
 20
5.7015699956
 30
0.0
 10
4.2519436536
 20
5.7051613129
 30
0.0
 10
4.2510724218
 20
5.7085784476
 30
0.0
 10
4.2504274008
 20
5.7109579663
 30
0.0
 10
4.2497709957
 20
5.7132102526
 30
0.0
 10
4.2490982505
 20
5.7153338978
 30
0.0
 10
4.2484000558
 20
5.7173261975
 30
0.0
 10
4.2476732867
 20
5.7191853957
 30
0.0
 10
4.2469269529
 20
5.7209142731
 30
0.0
 10
4.246162226
 20
5.7225130361
 30
0.0
 10
4.2453754602
 20
5.7239817815
 30
0.0
 10
4.2443177114
 20
5.7257157394
 30
0.0
 10
4.2434202606
 20
5.7269009726
 30
0.0
 10
4.2427631494
 20
5.7275956222
 30
0.0
  0
SPLINE
  5
2C9
100
AcDbEntity
  8
0
100
AcDbSpline
 62
7
  6
CONTINUOUS
 70
0
 71
3
 72
33
 73
29
 74
0
 42
0.0000001
 43
0.0000001
 44
0.0000000001
 40
0.0
 40
0.0
 40
0.0
 40
0.0
 40
0.1945321986
 40
0.2891251702
 40
0.3348152243
 40
0.3790720097
 40
0.4632943322
 40
0.542442687
 40
0.6173377677
 40
0.6886210866
 40
0.7558938788
 40
0.8184319224
 40
0.8476870809
 40
0.8753435169
 40
0.9010030006
 40
0.9242498753
 40
0.9446673084
 40
0.961842904
 40
0.9753889739
 40
0.985329166
 40
0.9891231247
 40
0.9922298018
 40
0.9947185344
 40
0.9966544667
 40
0.9980974389
 40
0.9991010904
 40
0.9997140535
 40
1.0
 40
1.0
 40
1.0
 40
1.0
 10
4.2427631449
 20
5.7275956638
 30
0.0
 10
4.242469079
 20
5.7279442955
 30
0.0
 10
4.2419830454
 20
5.728420953
 30
0.0
 10
4.2413885562
 20
5.7289331661
 30
0.0
 10
4.2410564188
 20
5.729210493
 30
0.0
 10
4.2407421801
 20
5.729471254
 30
0.0
 10
4.2403659966
 20
5.7297802332
 30
0.0
 10
4.2399281109
 20
5.7301271726
 30
0.0
 10
4.2395045509
 20
5.7304431109
 30
0.0
 10
4.2390909947
 20
5.7307251906
 30
0.0
 10
4.2386913834
 20
5.7309755841
 30
0.0
 10
4.2383684496
 20
5.7311622865
 30
0.0
 10
4.2381224433
 20
5.7312961446
 30
0.0
 10
4.2379510234
 20
5.7313861177
 30
0.0
 10
4.2377913353
 20
5.7314681065
 30
0.0
 10
4.2376465278
 20
5.7315419153
 30
0.0
 10
4.2375197911
 20
5.7316073771
 30
0.0
 10
4.2374141989
 20
5.7316641963
 30
0.0
 10
4.2373320763
 20
5.7317127137
 30
0.0
 10
4.2372795814
 20
5.7317494182
 30
0.0
 10
4.2372489996
 20
5.7317744144
 30
0.0
 10
4.2372326868
 20
5.7317892177
 30
0.0
 10
4.2372202838
 20
5.7318017846
 30
0.0
 10
4.2372111834
 20
5.7318121478
 30
0.0
 10
4.2372048756
 20
5.7318201812
 30
0.0
 10
4.2372006276
 20
5.7318261421
 30
0.0
 10
4.2371981887
 20
5.731829552
 30
0.0
 10
4.2371965637
 20
5.7318313905
 30
0.0
 10
4.2371958933
 20
5.7318313847
 30
0.0
  0
SPLINE
  5
2CA
100
AcDbEntity
  8
0
100
AcDbSpline
 62
7
  6
CONTINUOUS
 70
0
 71
3
 72
31
 73
27
 74
0
 42
0.0000001
 43
0.0000001
 44
0.0000000001
 40
0.0
 40
0.0
 40
0.0
 40
0.0
 40
0.1941021442
 40
0.2864842813
 40
0.3758958604
 40
0.4624634885
 40
0.545938357
 40
0.6252630653
 40
0.699211062
 40
0.7664950435
 40
0.8259916937
 40
0.8772978596
 40
0.8998048235
 40
0.9201743765
 40
0.9383765632
 40
0.9543797394
 40
0.968123855
 40
0.9795252157
 40
0.9843208289
 40
0.9884988311
 40
0.9920485116
 40
0.9949591339
 40
0.9972199496
 40
0.9988202368
 40
0.9997494794
 40
1.0
 40
1.0
 40
1.0
 40
1.0
 10
4.226895803
 20
5.7270472445
 30
0.0
 10
4.2272195708
 20
5.727425472
 30
0.0
 10
4.2277159018
 20
5.7279685113
 30
0.0
 10
4.2284066637
 20
5.7286414619
 30
0.0
 10
4.2289188334
 20
5.7291016831
 30
0.0
 10
4.2294328615
 20
5.7295247289
 30
0.0
 10
4.229944124
 20
5.7299093814
 30
0.0
 10
4.230441692
 20
5.7302576699
 30
0.0
 10
4.2309137239
 20
5.7305695949
 30
0.0
 10
4.2313485149
 20
5.7308453969
 30
0.0
 10
4.2317364544
 20
5.7310865833
 30
0.0
 10
4.2320285783
 20
5.7312643291
 30
0.0
 10
4.2322360286
 20
5.7313881287
 30
0.0
 10
4.2323710476
 20
5.7314675973
 30
0.0
 10
4.2324921614
 20
5.7315377953
 30
0.0
 10
4.232599062
 20
5.7315986227
 30
0.0
 10
4.2326912228
 20
5.7316500606
 30
0.0
 10
4.2327585682
 20
5.7316870023
 30
0.0
 10
4.2328044963
 20
5.731711901
 30
0.0
 10
4.2328328184
 20
5.7317271541
 30
0.0
 10
4.2328567481
 20
5.7317399862
 30
0.0
 10
4.2328768123
 20
5.7317506939
 30
0.0
 10
4.2328912668
 20
5.7317584769
 30
0.0
 10
4.2329039914
 20
5.7317652419
 30
0.0
 10
4.2329070243
 20
5.7317671662
 30
0.0
 10
4.2329125704
 20
5.7317701681
 30
0.0
 10
4.2329119278
 20
5.7317701764
 30
0.0
  0
SPLINE
  5
2CB
100
AcDbEntity
  8
0
100
AcDbSpline
 62
7
  6
CONTINUOUS
 70
0
 71
3
 72
47
 73
43
 74
0
 42
0.0000001
 43
0.0000001
 44
0.0000000001
 40
0.0
 40
0.0
 40
0.0
 40
0.0
 40
0.0902006379
 40
0.1796185969
 40
0.2237922612
 40
0.2674839663
 40
0.3105990434
 40
0.3530425135
 40
0.3947240773
 40
0.4355648706
 40
0.4754835396
 40
0.4950688156
 40
0.5143895271
 40
0.5522027343
 40
0.570682238
 40
0.5888682548
 40
0.6243253483
 40
0.6584950858
 40
0.6913105424
 40
0.722737395
 40
0.752737441
 40
0.7671848654
 40
0.7812543576
 40
0.808241655
 40
0.8336731903
 40
0.8575282286
 40
0.8688582255
 40
0.8797841436
 40
0.8903018311
 40
0.9004095907
 40
0.9193943935
 40
0.9282709838
 40
0.9367361118
 40
0.9447902639
 40
0.9524363345
 40
0.95968154
 40
0.9665334235
 40
0.9729958522
 40
0.9790756464
 40
0.98478579
 40
0.9901496846
 40
1.0
 40
1.0
 40
1.0
 40
1.0
 10
5.6021623818
 20
5.4392701764
 30
0.0
 10
5.6021636113
 20
5.4480262963
 30
0.0
 10
5.602217518
 20
5.4654626165
 30
0.0
 10
5.6024371735
 20
5.4871860717
 30
0.0
 10
5.6027033434
 20
5.5043936132
 30
0.0
 10
5.6029459863
 20
5.5171060981
 30
0.0
 10
5.6032323995
 20
5.5296496779
 30
0.0
 10
5.6035712428
 20
5.5419967669
 30
0.0
 10
5.6039684485
 20
5.554121224
 30
0.0
 10
5.6044100498
 20
5.5659988612
 30
0.0
 10
5.6048112459
 20
5.5757314889
 30
0.0
 10
5.6051623161
 20
5.5833752565
 30
0.0
 10
5.6055316044
 20
5.5908135368
 30
0.0
 10
5.6059383408
 20
5.5981424138
 30
0.0
 10
5.6063719551
 20
5.6053593384
 30
0.0
 10
5.6068094106
 20
5.6123468797
 30
0.0
 10
5.6073730565
 20
5.6208526084
 30
0.0
 10
5.6081139126
 20
5.6307696224
 30
0.0
 10
5.6089348902
 20
5.6402877019
 30
0.0
 10
5.6098016262
 20
5.6493950822
 30
0.0
 10
5.6105511274
 20
5.6567223723
 30
0.0
 10
5.6111783193
 20
5.6623681484
 30
0.0
 10
5.6118106893
 20
5.6677189548
 30
0.0
 10
5.6126395421
 20
5.6741200586
 30
0.0
 10
5.6137006171
 20
5.6814480959
 30
0.0
 10
5.6146300562
 20
5.6872587436
 30
0.0
 10
5.6153867285
 20
5.6916705358
 30
0.0
 10
5.615955734
 20
5.6948007674
 30
0.0
 10
5.6165423781
 20
5.6978069825
 30
0.0
 10
5.617333173
 20
5.7015699956
 30
0.0
 10
5.6181650421
 20
5.7051613129
 30
0.0
 10
5.6190362739
 20
5.7085784476
 30
0.0
 10
5.6196812949
 20
5.7109579663
 30
0.0
 10
5.6203376999
 20
5.7132102526
 30
0.0
 10
5.6210104452
 20
5.7153338978
 30
0.0
 10
5.6217086399
 20
5.7173261975
 30
0.0
 10
5.622435409
 20
5.7191853957
 30
0.0
 10
5.6231817427
 20
5.7209142731
 30
0.0
 10
5.6239464697
 20
5.7225130361
 30
0.0
 10
5.6247332355
 20
5.7239817815
 30
0.0
 10
5.6257909843
 20
5.7257157394
 30
0.0
 10
5.6266884351
 20
5.7269009726
 30
0.0
 10
5.6273455463
 20
5.7275956222
 30
0.0
  0
SPLINE
  5
2CC
100
AcDbEntity
  8
0
100
AcDbSpline
 62
7
  6
CONTINUOUS
 70
0
 71
3
 72
34
 73
30
 74
0
 42
0.0000001
 43
0.0000001
 44
0.0000000001
 40
0.0
 40
0.0
 40
0.0
 40
0.0
 40
0.0875559323
 40
0.1744480716
 40
0.2600141747
 40
0.3436091864
 40
0.4246030963
 40
0.5023911401
 40
0.5763974883
 40
0.6460810909
 40
0.7109404407
 40
0.741416708
 40
0.7705186672
 40
0.7981972054
 40
0.8244058005
 40
0.8491024151
 40
0.8722487404
 40
0.8938121969
 40
0.9137668347
 40
0.9320917047
 40
0.9406383979
 40
0.9487724964
 40
0.9564956692
 40
0.9638141244
 40
0.9707363827
 40
0.9772736818
 40
0.9834419278
 40
0.9892649837
 40
1.0
 40
1.0
 40
1.0
 40
1.0
 10
5.6722586158
 20
5.4392701764
 30
0.0
 10
5.6722599551
 20
5.4477626882
 30
0.0
 10
5.6721780223
 20
5.4646834555
 30
0.0
 10
5.6718089405
 20
5.4899012858
 30
0.0
 10
5.6711971932
 20
5.5147301515
 30
0.0
 10
5.6703406703
 20
5.5389793775
 30
0.0
 10
5.6692408172
 20
5.5624636251
 30
0.0
 10
5.667900138
 20
5.5850038067
 30
0.0
 10
5.6663272034
 20
5.6064292459
 30
0.0
 10
5.6645327336
 20
5.6265786683
 30
0.0
 10
5.6628301121
 20
5.6424950516
 30
0.0
 10
5.6613571488
 20
5.6544749061
 30
0.0
 10
5.66023014
 20
5.6628632267
 30
0.0
 10
5.6590604406
 20
5.6708275607
 30
0.0
 10
5.6578506335
 20
5.678353454
 30
0.0
 10
5.6566028254
 20
5.6854272022
 30
0.0
 10
5.6553191714
 20
5.6920361642
 30
0.0
 10
5.6540001778
 20
5.6981685713
 30
0.0
 10
5.6526439133
 20
5.7038130174
 30
0.0
 10
5.6514570916
 20
5.7081980028
 30
0.0
 10
5.6504850087
 20
5.7114514308
 30
0.0
 10
5.6497652896
 20
5.7137065906
 30
0.0
 10
5.6490363737
 20
5.715833284
 30
0.0
 10
5.648293239
 20
5.717830165
 30
0.0
 10
5.6475313114
 20
5.7196964027
 30
0.0
 10
5.6467459277
 20
5.721431161
 30
0.0
 10
5.6459316648
 20
5.7230343773
 30
0.0
 10
5.6448281969
 20
5.7249429217
 30
0.0
 10
5.6438920474
 20
5.7262579779
 30
0.0
 10
5.6432128926
 20
5.7270472445
 30
0.0
  0
SPLINE
  5
2CD
100
AcDbEntity
  8
0
100
AcDbSpline
 62
7
  6
CONTINUOUS
 70
0
 71
3
 72
33
 73
29
 74
0
 42
0.0000001
 43
0.0000001
 44
0.0000000001
 40
0.0
 40
0.0
 40
0.0
 40
0.0
 40
0.1945321986
 40
0.2891251702
 40
0.3348152243
 40
0.3790720097
 40
0.4632943322
 40
0.542442687
 40
0.6173377677
 40
0.6886210866
 40
0.7558938788
 40
0.8184319224
 40
0.8476870809
 40
0.8753435169
 40
0.9010030006
 40
0.9242498753
 40
0.9446673084
 40
0.961842904
 40
0.9753889739
 40
0.985329166
 40
0.9891231247
 40
0.9922298018
 40
0.9947185344
 40
0.9966544667
 40
0.9980974389
 40
0.9991010904
 40
0.9997140535
 40
1.0
 40
1.0
 40
1.0
 40
1.0
 10
5.6273455508
 20
5.7275956638
 30
0.0
 10
5.6276396166
 20
5.7279442955
 30
0.0
 10
5.6281256503
 20
5.728420953
 30
0.0
 10
5.6287201394
 20
5.7289331661
 30
0.0
 10
5.6290522769
 20
5.729210493
 30
0.0
 10
5.6293665156
 20
5.729471254
 30
0.0
 10
5.629742699
 20
5.7297802332
 30
0.0
 10
5.6301805847
 20
5.7301271726
 30
0.0
 10
5.6306041448
 20
5.7304431109
 30
0.0
 10
5.6310177009
 20
5.7307251906
 30
0.0
 10
5.6314173123
 20
5.7309755841
 30
0.0
 10
5.631740246
 20
5.7311622865
 30
0.0
 10
5.6319862523
 20
5.7312961446
 30
0.0
 10
5.6321576722
 20
5.7313861177
 30
0.0
 10
5.6323173604
 20
5.7314681065
 30
0.0
 10
5.6324621679
 20
5.7315419153
 30
0.0
 10
5.6325889045
 20
5.7316073771
 30
0.0
 10
5.6326944968
 20
5.7316641963
 30
0.0
 10
5.6327766193
 20
5.7317127137
 30
0.0
 10
5.6328291142
 20
5.7317494182
 30
0.0
 10
5.632859696
 20
5.7317744144
 30
0.0
 10
5.6328760089
 20
5.7317892177
 30
0.0
 10
5.6328884118
 20
5.7318017846
 30
0.0
 10
5.6328975122
 20
5.7318121478
 30
0.0
 10
5.63290382
 20
5.7318201812
 30
0.0
 10
5.6329080681
 20
5.7318261421
 30
0.0
 10
5.6329105069
 20
5.731829552
 30
0.0
 10
5.632912132
 20
5.7318313905
 30
0.0
 10
5.6329128024
 20
5.7318313847
 30
0.0
  0
SPLINE
  5
2CE
100
AcDbEntity
  8
0
100
AcDbSpline
 62
7
  6
CONTINUOUS
 70
0
 71
3
 72
31
 73
27
 74
0
 42
0.0000001
 43
0.0000001
 44
0.0000000001
 40
0.0
 40
0.0
 40
0.0
 40
0.0
 40
0.1941021442
 40
0.2864842813
 40
0.3758958604
 40
0.4624634885
 40
0.545938357
 40
0.6252630653
 40
0.699211062
 40
0.7664950435
 40
0.8259916937
 40
0.8772978596
 40
0.8998048235
 40
0.9201743765
 40
0.9383765632
 40
0.9543797394
 40
0.968123855
 40
0.9795252157
 40
0.9843208289
 40
0.9884988311
 40
0.9920485116
 40
0.9949591339
 40
0.9972199496
 40
0.9988202368
 40
0.9997494794
 40
1.0
 40
1.0
 40
1.0
 40
1.0
 10
5.6432128926
 20
5.7270472445
 30
0.0
 10
5.6428891248
 20
5.727425472
 30
0.0
 10
5.6423927938
 20
5.7279685113
 30
0.0
 10
5.6417020319
 20
5.7286414619
 30
0.0
 10
5.6411898622
 20
5.7291016831
 30
0.0
 10
5.6406758342
 20
5.7295247289
 30
0.0
 10
5.6401645716
 20
5.7299093814
 30
0.0
 10
5.6396670036
 20
5.7302576699
 30
0.0
 10
5.6391949718
 20
5.7305695949
 30
0.0
 10
5.6387601808
 20
5.7308453969
 30
0.0
 10
5.6383722413
 20
5.7310865833
 30
0.0
 10
5.6380801173
 20
5.7312643291
 30
0.0
 10
5.637872667
 20
5.7313881287
 30
0.0
 10
5.637737648
 20
5.7314675973
 30
0.0
 10
5.6376165342
 20
5.7315377953
 30
0.0
 10
5.6375096337
 20
5.7315986227
 30
0.0
 10
5.6374174728
 20
5.7316500606
 30
0.0
 10
5.6373501274
 20
5.7316870023
 30
0.0
 10
5.6373041994
 20
5.731711901
 30
0.0
 10
5.6372758772
 20
5.7317271541
 30
0.0
 10
5.6372519475
 20
5.7317399862
 30
0.0
 10
5.6372318834
 20
5.7317506939
 30
0.0
 10
5.6372174289
 20
5.7317584769
 30
0.0
 10
5.6372047042
 20
5.7317652419
 30
0.0
 10
5.6372016714
 20
5.7317671662
 30
0.0
 10
5.6371961253
 20
5.7317701681
 30
0.0
 10
5.6371967678
 20
5.7317701764
 30
0.0
  0
SPLINE
  5
2CF
100
AcDbEntity
  8
0
100
AcDbSpline
 62
7
  6
CONTINUOUS
 70
0
 71
3
 72
29
 73
25
 74
0
 42
0.0000001
 43
0.0000001
 44
0.0000000001
 40
0.0
 40
0.0
 40
0.0
 40
0.0
 40
0.0639013518
 40
0.1277533579
 40
0.1914930634
 40
0.2550779347
 40
0.3184644914
 40
0.3816163161
 40
0.4130993424
 40
0.4445138778
 40
0.5071248463
 40
0.5694522273
 40
0.6005168245
 40
0.631515636
 40
0.6624512101
 40
0.6933250304
 40
0.7549012506
 40
0.7856263523
 40
0.816315659
 40
0.8469729263
 40
0.8776004973
 40
0.9387939554
 40
0.9693915569
 40
1.0
 40
1.0
 40
1.0
 40
1.0
 10
4.5635851336
 20
5.4392701764
 30
0.0
 10
4.563585561
 20
5.4457765064
 30
0.0
 10
4.5640227268
 20
5.4587881803
 30
0.0
 10
4.5659666143
 20
5.4782021102
 30
0.0
 10
4.5691853844
 20
5.4974140681
 30
0.0
 10
4.5736635657
 20
5.5163234281
 30
0.0
 10
4.579377014
 20
5.5348337086
 30
0.0
 10
4.585130814
 20
5.5498727269
 30
0.0
 10
4.5903048128
 20
5.5616199118
 30
0.0
 10
4.5958396003
 20
5.5731404537
 30
0.0
 10
4.6034339882
 20
5.5871453745
 30
0.0
 10
4.6118980985
 20
5.6006002031
 30
0.0
 10
4.61915454
 20
5.6109828648
 30
0.0
 10
4.6248259959
 20
5.6185675717
 30
0.0
 10
4.6307222213
 20
5.6259540434
 30
0.0
 10
4.6388628239
 20
5.6355245802
 30
0.0
 10
4.6474310159
 20
5.6446962748
 30
0.0
 10
4.6564013143
 20
5.6534364281
 30
0.0
 10
4.6633157904
 20
5.6597690194
 30
0.0
 10
4.6704109935
 20
5.6658831201
 30
0.0
 10
4.6800952524
 20
5.6737420176
 30
0.0
 10
4.6901185183
 20
5.6811661848
 30
0.0
 10
4.7004583544
 20
5.6881257403
 30
0.0
 10
4.7057303902
 20
5.6914508297
 30
0.0
 10
4.7083900265
 20
5.693075303
 30
0.0
  0
SPLINE
  5
2D0
100
AcDbEntity
  8
0
100
AcDbSpline
 62
7
  6
CONTINUOUS
 70
0
 71
3
 72
29
 73
25
 74
0
 42
0.0000001
 43
0.0000001
 44
0.0000000001
 40
0.0
 40
0.0
 40
0.0
 40
0.0
 40
0.0635356812
 40
0.1267677233
 40
0.1896781987
 40
0.2522604451
 40
0.3145267558
 40
0.345557885
 40
0.3765270861
 40
0.4074439285
 40
0.4383196889
 40
0.4691670622
 40
0.5000000001
 40
0.5308329379
 40
0.5616803112
 40
0.5925560716
 40
0.6234729139
 40
0.6544421151
 40
0.6854732442
 40
0.747739555
 40
0.8103218014
 40
0.8732322767
 40
0.9364643188
 40
1.0
 40
1.0
 40
1.0
 40
1.0
 10
4.0350543478
 20
5.1267701764
 30
0.0
 10
4.0385588664
 20
5.1328401806
 30
0.0
 10
4.0453233786
 20
5.1450849933
 30
0.0
 10
4.0546308374
 20
5.1638339883
 30
0.0
 10
4.0629325668
 20
5.1829381496
 30
0.0
 10
4.070067562
 20
5.2023971433
 30
0.0
 10
4.0749051467
 20
5.2189152948
 30
0.0
 10
4.0780188601
 20
5.2322686165
 30
0.0
 10
4.0799571222
 20
5.2423368266
 30
0.0
 10
4.0814838278
 20
5.2524583645
 30
0.0
 10
4.0825848744
 20
5.2626216786
 30
0.0
 10
4.0832499231
 20
5.2728136323
 30
0.0
 10
4.0834724202
 20
5.2830201764
 30
0.0
 10
4.0832499231
 20
5.2932267205
 30
0.0
 10
4.0825848744
 20
5.3034186742
 30
0.0
 10
4.0814838278
 20
5.3135819883
 30
0.0
 10
4.0799571222
 20
5.3237035262
 30
0.0
 10
4.0780188601
 20
5.3337717363
 30
0.0
 10
4.0749051467
 20
5.3471250581
 30
0.0
 10
4.070067562
 20
5.3636432095
 30
0.0
 10
4.0629325668
 20
5.3831022032
 30
0.0
 10
4.0546308374
 20
5.4022063645
 30
0.0
 10
4.0453233786
 20
5.4209553595
 30
0.0
 10
4.0385588664
 20
5.4332001722
 30
0.0
 10
4.0350543478
 20
5.4392701764
 30
0.0
  0
SPLINE
  5
2D1
100
AcDbEntity
  8
0
100
AcDbSpline
 62
7
  6
CONTINUOUS
 70
0
 71
3
 72
23
 73
19
 74
0
 42
0.0000001
 43
0.0000001
 44
0.0000000001
 40
0.0
 40
0.0
 40
0.0
 40
0.0
 40
0.063968214
 40
0.1272760559
 40
0.1900641251
 40
0.2524576904
 40
0.3145651968
 40
0.3764768298
 40
0.4382672485
 40
0.4999999998
 40
0.5617327511
 40
0.6235231698
 40
0.6854348028
 40
0.7475423091
 40
0.8099358742
 40
0.872723943
 40
0.9360317846
 40
1.0
 40
1.0
 40
1.0
 40
1.0
 10
3.9350543478
 20
5.4392701764
 30
0.0
 10
3.931076912
 20
5.4334773511
 30
0.0
 10
3.92372431
 20
5.4215557814
 30
0.0
 10
3.9144376075
 20
5.4028275608
 30
0.0
 10
3.9068491162
 20
5.3835373285
 30
0.0
 10
3.9008459119
 20
5.3638385975
 30
0.0
 10
3.8963152942
 20
5.3438515531
 30
0.0
 10
3.8931580337
 20
5.323671411
 30
0.0
 10
3.8912965063
 20
5.3033735597
 30
0.0
 10
3.8906816052
 20
5.2830201765
 30
0.0
 10
3.8912965063
 20
5.2626667933
 30
0.0
 10
3.8931580336
 20
5.2423689419
 30
0.0
 10
3.8963152941
 20
5.2221887998
 30
0.0
 10
3.9008459118
 20
5.2022017555
 30
0.0
 10
3.9068491161
 20
5.1825030246
 30
0.0
 10
3.9144376074
 20
5.1632127923
 30
0.0
 10
3.9237243099
 20
5.1444845716
 30
0.0
 10
3.931076912
 20
5.1325630019
 30
0.0
 10
3.9350543478
 20
5.1267701764
 30
0.0
  0
SPLINE
  5
2D2
100
AcDbEntity
  8
0
100
AcDbSpline
 62
7
  6
CONTINUOUS
 70
0
 71
3
 72
29
 73
25
 74
0
 42
0.0000001
 43
0.0000001
 44
0.0000000001
 40
0.0
 40
0.0
 40
0.0
 40
0.0
 40
0.0635356812
 40
0.1267677233
 40
0.1896781987
 40
0.2522604451
 40
0.3145267558
 40
0.345557885
 40
0.3765270861
 40
0.4074439285
 40
0.4383196889
 40
0.4691670622
 40
0.5000000001
 40
0.5308329379
 40
0.5616803112
 40
0.5925560716
 40
0.6234729139
 40
0.6544421151
 40
0.6854732442
 40
0.747739555
 40
0.8103218014
 40
0.8732322767
 40
0.9364643188
 40
1.0
 40
1.0
 40
1.0
 40
1.0
 10
4.0350543478
 20
5.4392701764
 30
0.0
 10
4.0385588664
 20
5.4453401806
 30
0.0
 10
4.0453233786
 20
5.4575849933
 30
0.0
 10
4.0546308374
 20
5.4763339883
 30
0.0
 10
4.0629325668
 20
5.4954381496
 30
0.0
 10
4.070067562
 20
5.5148971433
 30
0.0
 10
4.0749051467
 20
5.5314152948
 30
0.0
 10
4.0780188601
 20
5.5447686165
 30
0.0
 10
4.0799571222
 20
5.5548368266
 30
0.0
 10
4.0814838278
 20
5.5649583645
 30
0.0
 10
4.0825848744
 20
5.5751216786
 30
0.0
 10
4.0832499231
 20
5.5853136323
 30
0.0
 10
4.0834724202
 20
5.5955201764
 30
0.0
 10
4.0832499231
 20
5.6057267205
 30
0.0
 10
4.0825848744
 20
5.6159186742
 30
0.0
 10
4.0814838278
 20
5.6260819883
 30
0.0
 10
4.0799571222
 20
5.6362035262
 30
0.0
 10
4.0780188601
 20
5.6462717363
 30
0.0
 10
4.0749051467
 20
5.6596250581
 30
0.0
 10
4.070067562
 20
5.6761432095
 30
0.0
 10
4.0629325668
 20
5.6956022032
 30
0.0
 10
4.0546308374
 20
5.7147063645
 30
0.0
 10
4.0453233786
 20
5.7334553595
 30
0.0
 10
4.0385588664
 20
5.7457001722
 30
0.0
 10
4.0350543478
 20
5.7517701764
 30
0.0
  0
SPLINE
  5
2D3
100
AcDbEntity
  8
0
100
AcDbSpline
 62
7
  6
CONTINUOUS
 70
0
 71
3
 72
23
 73
19
 74
0
 42
0.0000001
 43
0.0000001
 44
0.0000000001
 40
0.0
 40
0.0
 40
0.0
 40
0.0
 40
0.0639682165
 40
0.1272760586
 40
0.1900641274
 40
0.2524576919
 40
0.3145651979
 40
0.3764768306
 40
0.438267249
 40
0.5000000002
 40
0.5617327514
 40
0.6235231699
 40
0.6854348026
 40
0.7475423085
 40
0.8099358733
 40
0.8727239425
 40
0.9360317847
 40
1.0
 40
1.0
 40
1.0
 40
1.0
 10
3.9350543478
 20
5.7517701764
 30
0.0
 10
3.9310769119
 20
5.7459773509
 30
0.0
 10
3.9237243097
 20
5.7340557809
 30
0.0
 10
3.9144376072
 20
5.7153275601
 30
0.0
 10
3.906849116
 20
5.6960373278
 30
0.0
 10
3.9008459117
 20
5.6763385969
 30
0.0
 10
3.8963152941
 20
5.6563515528
 30
0.0
 10
3.8931580336
 20
5.6361714108
 30
0.0
 10
3.8912965063
 20
5.6158735595
 30
0.0
 10
3.8906816052
 20
5.5955201763
 30
0.0
 10
3.8912965063
 20
5.5751667932
 30
0.0
 10
3.8931580336
 20
5.5548689419
 30
0.0
 10
3.8963152941
 20
5.5346887999
 30
0.0
 10
3.9008459118
 20
5.5147017557
 30
0.0
 10
3.9068491161
 20
5.4950030248
 30
0.0
 10
3.9144376073
 20
5.4757127924
 30
0.0
 10
3.9237243099
 20
5.4569845717
 30
0.0
 10
3.931076912
 20
5.4450630019
 30
0.0
 10
3.9350543478
 20
5.4392701764
 30
0.0
  0
SPLINE
  5
2D4
100
AcDbEntity
  8
0
100
AcDbSpline
 62
7
  6
CONTINUOUS
 70
0
 71
3
 72
29
 73
25
 74
0
 42
0.0000001
 43
0.0000001
 44
0.0000000001
 40
0.0
 40
0.0
 40
0.0
 40
0.0
 40
0.0639013518
 40
0.1277533579
 40
0.1914930634
 40
0.2550779347
 40
0.3184644914
 40
0.3816163161
 40
0.4130993424
 40
0.4445138778
 40
0.5071248463
 40
0.5694522273
 40
0.6005168245
 40
0.631515636
 40
0.6624512101
 40
0.6933250304
 40
0.7549012506
 40
0.7856263523
 40
0.816315659
 40
0.8469729263
 40
0.8776004973
 40
0.9387939554
 40
0.9693915569
 40
1.0
 40
1.0
 40
1.0
 40
1.0
 10
5.3065235621
 20
5.4392701764
 30
0.0
 10
5.3065231347
 20
5.4457765064
 30
0.0
 10
5.3060859689
 20
5.4587881803
 30
0.0
 10
5.3041420813
 20
5.4782021102
 30
0.0
 10
5.3009233113
 20
5.4974140681
 30
0.0
 10
5.2964451299
 20
5.5163234281
 30
0.0
 10
5.2907316817
 20
5.5348337086
 30
0.0
 10
5.2849778817
 20
5.5498727269
 30
0.0
 10
5.2798038829
 20
5.5616199118
 30
0.0
 10
5.2742690953
 20
5.5731404537
 30
0.0
 10
5.2666747075
 20
5.5871453745
 30
0.0
 10
5.2582105971
 20
5.6006002031
 30
0.0
 10
5.2509541557
 20
5.6109828648
 30
0.0
 10
5.2452826998
 20
5.6185675717
 30
0.0
 10
5.2393864743
 20
5.6259540434
 30
0.0
 10
5.2312458717
 20
5.6355245802
 30
0.0
 10
5.2226776798
 20
5.6446962748
 30
0.0
 10
5.2137073814
 20
5.6534364281
 30
0.0
 10
5.2067929052
 20
5.6597690194
 30
0.0
 10
5.1996977022
 20
5.6658831201
 30
0.0
 10
5.1900134432
 20
5.6737420176
 30
0.0
 10
5.1799901773
 20
5.6811661848
 30
0.0
 10
5.1696503413
 20
5.6881257403
 30
0.0
 10
5.1643783055
 20
5.6914508297
 30
0.0
 10
5.1617186691
 20
5.693075303
 30
0.0
  0
ENDSEC
  0
SECTION
  2
OBJECTS
  0
DICTIONARY
  5
C
100
AcDbDictionary
280
0
281
1
  3
ACAD_GROUP
350
D
  3
ACAD_MLINESTYLE
350
17
  3
ACAD_LAYOUT
350
1A
  3
ACAD_PLOTSETTINGS
350
19
  3
ACAD_PLOTSTYLENAME
350
E
  0
DICTIONARY
  5
D
102
{ACAD_REACTORS
330
C
102
}
100
AcDbDictionary
280
0
281
1
  0
ACDBDICTIONARYWDFLT
  5
E
102
{ACAD_REACTORS
330
C
102
}
100
AcDbDictionary
281
1
  3
Normal
350
F
100
AcDbDictionaryWithDefault
340
F
  0
DICTIONARY
  5
17
102
{ACAD_REACTORS
330
C
102
}
100
AcDbDictionary
280
0
281
1
  3
Standard
350
18
  0
DICTIONARY
  5
19
102
{ACAD_REACTORS
330
C
102
}
100
AcDbDictionary
281
1
  0
DICTIONARY
  5
1A
102
{ACAD_REACTORS
330
C
102
}
100
AcDbDictionary
281
1
  3
Model
350
2D5
  3
Layout1
350
2D6
  0
ACDBPLACEHOLDER
  5
F
102
{ACAD_REACTORS
330
E
102
}
  0
MLINESTYLE
  5
18
102
{ACAD_REACTORS
330
17
102
}
100
AcDbMlineStyle
  2
STANDARD
 70
0
  3

 62
256
 51
90.0
 52
90.0
 71
2
 49
0.5
 62
256
  6
BYLAYER
 49
-0.5
 62
256
  6
BYLAYER
  0
LAYOUT
  5
2D5
102
{ACAD_REACTORS
330
1A
102
}
100
AcDbPlotSettings
  1

  2
none_device
  4
ANSI_A_(11.00_x_8.50_Inches)
  6

 40
0.0
 41
0.0
 42
0.0
 43
0.0
 44
279.4
 45
215.9
 46
0.0
 47
0.0
 48
0.0
 49
0.0
140
0.0
141
0.0
142
1.0
143
1.0
 70
1024
 72
0
 73
0
 74
0
  7

 75
0
147
1.0
148
0.0
149
0.0
100
AcDbLayout
  1
Model
 70
0
 71
0
 10
0.0
 20
0.0
 11
11.0
 21
8.5
 12
0.0
 22
0.0
 32
0.0
 14
0.0
 24
0.0
 34
0.0
 15
0.0
 25
0.0
 35
0.0
146
0.0
 13
0.0
 23
0.0
 33
0.0
 16
1.0
 26
0.0
 36
0.0
 17
0.0
 27
1.0
 37
0.0
 76
0
330
202
345
0
346
0
  0
LAYOUT
  5
2D6
102
{ACAD_REACTORS
330
1A
102
}
100
AcDbPlotSettings
  1

  2
none_device
  4
ANSI_A_(11.00_x_8.50_Inches)
  6

 40
0.0
 41
0.0
 42
0.0
 43
0.0
 44
279.4
 45
215.9
 46
0.0
 47
0.0
 48
0.0
 49
0.0
140
0.0
141
0.0
142
1.0
143
1.0
 70
0
 72
0
 73
0
 74
0
  7

 75
0
147
1.0
148
0.0
149
0.0
100
AcDbLayout
  1
Layout1
 70
0
 71
1
 10
0.0
 20
0.0
 11
11.0
 21
8.5
 12
0.0
 22
0.0
 32
0.0
 14
0.0
 24
0.0
 34
0.0
 15
0.0
 25
0.0
 35
0.0
146
0.0
 13
0.0
 23
0.0
 33
0.0
 16
1.0
 26
0.0
 36
0.0
 17
0.0
 27
1.0
 37
0.0
 76
0
330
203
345
0
346
0
  0
ENDSEC
  0
EOF
