999
DXF file: 808_top.dxf
999
Pro/ENGINEER 2018400 by Parametric Technology Corporation
  0
SECTION
  2
HEADER
  9
$ACADVER
  1
AC1027
  9
$DWGCODEPAGE
  3
ANSI_1252
  9
$EXTMAX
 10
11.0
 20
8.5
 30
0.0
  9
$EXTMIN
 10
0.0
 20
0.0
 30
0.0
  9
$LIMMIN
 10
0.0
 20
0.0
  9
$LIMMAX
 10
11.0
 20
8.5
  9
$VIEWCTR
 10
5.5
 20
4.25
  9
$VIEWSIZE
 40
8.5
  9
$CLAYER
  8
0
  9
$LTSCALE
 40
0.605
  9
$CELTYPE
  6
BYLAYER
  9
$DIMSCALE
 40
1.0
  9
$DIMASZ
 40
0.1
  9
$DIMEXO
 40
0.0625
  9
$DIMDLI
 40
0.418
  9
$DIMEXE
 40
0.125
  9
$DIMCEN
 40
0.099
  9
$DIMLFAC
 40
1.0
  9
$DIMBLK
  1
_FILLED
  9
$DIMALT
 70
1
  9
$DIMALTD
 70
1
  9
$DIMALTTD
 70
2
  9
$DIMALTF
 40
25.4
  9
$DIMTXT
 40
0.08
  9
$DIMTOL
 70
1
  9
$DIMLIM
 70
0
  9
$DIMTFAC
 40
1.0
  9
$DIMTP
 40
0.01
  9
$DIMTM
 40
0.01
  9
$DIMGAP
 40
0.09
  9
$DIMDSEP
 70
46
  9
$AUNITS
 70
0
  9
$PDMODE
 70
3
  9
$PDSIZE
 40
0.3125
  9
$HANDSEED
  5
29C
  9
$TILEMODE
 70
1
  9
$MEASUREMENT
 70
0
  9
$INSUNITS
 70
1
  0
ENDSEC
  0
SECTION
  2
CLASSES
  0
CLASS
  1
ACDBDICTIONARYWDFLT
  2
AcDbDictionaryWithDefault
  3
AutoCAD 2000
 90
0
 91
1
280
0
281
0
  0
CLASS
  1
ACDBPLACEHOLDER
  2
AcDbPlaceHolder
  3
AutoCAD 2000
 90
0
 91
1
280
0
281
0
  0
CLASS
  1
LAYOUT
  2
AcDbLayout
  3
AutoCAD 2000
 90
0
 91
0
280
0
281
0
  0
ENDSEC
  0
SECTION
  2
TABLES
  0
TABLE
  2
VPORT
  5
8
100
AcDbSymbolTable
 70
2
  0
VPORT
  5
1F4
100
AcDbSymbolTableRecord
100
AcDbViewportTableRecord
  2
*ACTIVE
 70
0
 10
0.0
 20
0.0
 11
1.0
 21
1.0
 12
5.5
 22
4.25
 13
0.0
 23
0.0
 14
1.0
 24
1.0
 15
0.0
 25
0.0
 16
0.0
 26
0.0
 36
1.0
 17
0.0
 27
0.0
 37
0.0
 40
8.5
 41
1.2941176471
 42
50.0
 43
0.0
 44
0.0
 50
0.0
 51
0.0
 71
0
 72
100
 73
1
 74
1
 75
0
 76
0
 77
0
 78
0
  0
ENDTAB
  0
TABLE
  2
LTYPE
  5
5
100
AcDbSymbolTable
 70
6
  0
LTYPE
  5
14
100
AcDbSymbolTableRecord
100
AcDbLinetypeTableRecord
  2
BYBLOCK
 70
0
  3

 72
65
 73
0
 40
0.0
  0
LTYPE
  5
15
100
AcDbSymbolTableRecord
100
AcDbLinetypeTableRecord
  2
BYLAYER
 70
0
  3

 72
65
 73
0
 40
0.0
  0
LTYPE
  5
16
100
AcDbSymbolTableRecord
100
AcDbLinetypeTableRecord
  2
CONTINUOUS
 70
64
  3
Solid line
 72
65
 73
0
 40
0.0
  0
LTYPE
  5
1F5
100
AcDbSymbolTableRecord
100
AcDbLinetypeTableRecord
  2
CENTER
 70
64
  3
____ _ ____ _ ____ _ ____ _ ____ _ ____ _ ____
 72
65
 73
4
 40
0.6
 49
0.375
 74
0
 49
-0.075
 74
0
 49
0.075
 74
0
 49
-0.075
 74
0
  0
LTYPE
  5
1F6
100
AcDbSymbolTableRecord
100
AcDbLinetypeTableRecord
  2
HIDDEN
 70
64
  3
- - - - - - - - - - - - - - - - - - - -
 72
65
 73
2
 40
0.2
 49
0.1
 74
0
 49
-0.1
 74
0
  0
LTYPE
  5
1F7
100
AcDbSymbolTableRecord
100
AcDbLinetypeTableRecord
  2
PHANTOM
 70
64
  3
_____ _ _ _____ _ _ _____ _ _ _____
 72
65
 73
6
 40
0.8
 49
0.45
 74
0
 49
-0.05
 74
0
 49
0.1
 74
0
 49
-0.05
 74
0
 49
0.1
 74
0
 49
-0.05
 74
0
  0
LTYPE
  5
1F8
100
AcDbSymbolTableRecord
100
AcDbLinetypeTableRecord
  2
DOT
 70
64
  3
. . . . . . . . . . . . . . . . . . . .
 72
65
 73
2
 40
0.2
 49
0.1
 74
0
 49
-0.1
 74
0
  0
LTYPE
  5
1F9
100
AcDbSymbolTableRecord
100
AcDbLinetypeTableRecord
  2
DASHED
 70
64
  3
- - - - - - - - - - - - - - - - - - - -
 72
65
 73
2
 40
0.2
 49
0.1
 74
0
 49
-0.1
 74
0
  0
ENDTAB
  0
TABLE
  2
LAYER
  5
2
100
AcDbSymbolTable
 70
36
  0
LAYER
  5
10
100
AcDbSymbolTableRecord
100
AcDbLayerTableRecord
  2
0
 70
0
 62
7
  6
CONTINUOUS
370
-3
390
F
  0
LAYER
  5
1FA
100
AcDbSymbolTableRecord
100
AcDbLayerTableRecord
  2
DEFAULT_1
 70
0
 62
7
  6
CENTER
370
-3
390
F
  0
LAYER
  5
1FB
100
AcDbSymbolTableRecord
100
AcDbLayerTableRecord
  2
DEFAULT_2
 70
0
 62
8
  6
HIDDEN
370
-3
390
F
  0
LAYER
  5
1FC
100
AcDbSymbolTableRecord
100
AcDbLayerTableRecord
  2
DEFAULT_3
 70
0
 62
7
  6
PHANTOM
370
-3
390
F
  0
LAYER
  5
1FD
100
AcDbSymbolTableRecord
100
AcDbLayerTableRecord
  2
DEFAULT_COORDINATE_SYSTEM
 70
0
 62
7
  6
CONTINUOUS
370
-3
390
F
  0
LAYER
  5
1FE
100
AcDbSymbolTableRecord
100
AcDbLayerTableRecord
  2
DEFAULT_DATUM_AXES
 70
0
 62
7
  6
CONTINUOUS
370
-3
390
F
  0
LAYER
  5
1FF
100
AcDbSymbolTableRecord
100
AcDbLayerTableRecord
  2
DEFAULT_DATUM_PLANES
 70
0
 62
7
  6
CONTINUOUS
370
-3
390
F
  0
ENDTAB
  0
TABLE
  2
STYLE
  5
3
100
AcDbSymbolTable
 70
1
  0
STYLE
  5
11
100
AcDbSymbolTableRecord
100
AcDbTextStyleTableRecord
  2
STANDARD
 70
0
 40
0.0
 41
0.8
 50
0.0
 71
0
 42
0.2
  3
txt
  4

  0
STYLE
  5
200
100
AcDbSymbolTableRecord
100
AcDbTextStyleTableRecord
  2
TEXTSTYLE_1
 70
0
 40
0.0
 41
0.8
 50
0.0
 71
0
 42
0.2
  3
gdt
  4

  0
ENDTAB
  0
TABLE
  2
VIEW
  5
6
100
AcDbSymbolTable
 70
0
  0
ENDTAB
  0
TABLE
  2
UCS
  5
7
100
AcDbSymbolTable
 70
0
  0
ENDTAB
  0
TABLE
  2
APPID
  5
9
100
AcDbSymbolTable
 70
1
  0
APPID
  5
201
100
AcDbSymbolTableRecord
100
AcDbRegAppTableRecord
  2
ACAD
 70
0
  0
ENDTAB
  0
TABLE
  2
BLOCK_RECORD
  5
1
100
AcDbSymbolTable
 70
0
  0
BLOCK_RECORD
  5
202
100
AcDbSymbolTableRecord
100
AcDbBlockTableRecord
  2
*Model_Space
  0
BLOCK_RECORD
  5
203
100
AcDbSymbolTableRecord
100
AcDbBlockTableRecord
  2
*Paper_Space
  0
BLOCK_RECORD
  5
204
100
AcDbSymbolTableRecord
100
AcDbBlockTableRecord
  2
_FILLED
  0
ENDTAB
  0
TABLE
  2
DIMSTYLE
  5
A
100
AcDbSymbolTable
 70
1
100
AcDbDimStyleTable
 71
0
  0
DIMSTYLE
105
205
100
AcDbSymbolTableRecord
100
AcDbDimStyleTableRecord
  2
STANDARD
 70
0
  3

  4

 40
1.0
 41
0.1
 42
0.0625
 43
0.38
 44
0.125
 45
0.0
 46
0.0
 47
0.01
 48
0.01
140
0.08
141
0.09
142
0.0
143
25.4
144
1.0
145
0.0
146
1.0
147
0.09
 71
1.0
 72
0.0
 73
1
 74
1
 75
0
 76
0
 77
0
 78
4
 79
1
170
1
171
1
172
0
173
0
174
0
175
0
176
0
177
0
178
0
270
2
179
2
271
2
272
2
273
2
274
2
275
0
280
0
281
0
282
0
283
1
284
4
285
0
286
0
287
3
288
0
340
11
278
46
341
204
342
204
343
204
344
204
  0
ENDTAB
  0
ENDSEC
  0
SECTION
  2
BLOCKS
  0
BLOCK
  5
20
100
AcDbEntity
  8
0
100
AcDbBlockBegin
  2
*Model_Space
 70
0
 10
0.0
 20
0.0
 30
0.0
  3
*Model_Space
  1

  0
ENDBLK
  5
21
100
AcDbEntity
  8
0
100
AcDbBlockEnd
  0
BLOCK
  5
1C
100
AcDbEntity
  8
0
100
AcDbBlockBegin
  2
*Paper_Space
 70
0
 10
0.0
 20
0.0
 30
0.0
  3
*Paper_Space
  1

  0
ENDBLK
  5
1D
100
AcDbEntity
  8
0
100
AcDbBlockEnd
  0
BLOCK
  5
206
100
AcDbEntity
  8
0
100
AcDbBlockBegin
  2
_FILLED
 70
64
 10
0.0
 20
0.0
  3
_FILLED
  1

  0
SOLID
  5
207
100
AcDbEntity
  8
0
  6
BYBLOCK
 62
0
100
AcDbTrace
 10
0.0
 20
0.0
 11
-1.0
 21
0.2
 12
-1.0
 22
-0.2
 13
-1.0
 23
-0.2
  0
ENDBLK
  5
208
100
AcDbEntity
  8
0
  6
BYBLOCK
 62
0
100
AcDbBlockEnd
  0
ENDSEC
  0
SECTION
  2
ENTITIES
  0
MTEXT
  5
209
100
AcDbEntity
  8
0
100
AcDbMText
 62
2
  6
CONTINUOUS
  7
STANDARD
 71
3
 72
1
 10
5.2578804348
 20
2.6699534261
 30
0.0
 11
1.0
 21
0.0
 31
0.0
 73
2
 44
0.9
  1
SCALE  .500
 40
0.08
 41
0.704
  0
LINE
  5
20A
100
AcDbEntity
  8
0
100
AcDbLine
 62
7
  6
CONTINUOUS
 10
0.0
 20
0.0
 11
0.0
 21
8.5
  0
LINE
  5
20B
100
AcDbEntity
  8
0
100
AcDbLine
 62
7
  6
CONTINUOUS
 10
0.0
 20
0.0
 11
11.0
 21
0.0
  0
LINE
  5
20C
100
AcDbEntity
  8
0
100
AcDbLine
 62
7
  6
CONTINUOUS
 10
0.0
 20
8.5
 11
11.0
 21
8.5
  0
LINE
  5
20D
100
AcDbEntity
  8
0
100
AcDbLine
 62
7
  6
CONTINUOUS
 10
11.0
 20
0.0
 11
11.0
 21
8.5
  0
LINE
  5
20E
100
AcDbEntity
  8
0
100
AcDbLine
 62
7
  6
CONTINUOUS
 10
3.0412396369
 20
5.6501817208
 11
3.0412396369
 21
5.8453927935
  0
LINE
  5
20F
100
AcDbEntity
  8
0
100
AcDbLine
 62
7
  6
CONTINUOUS
 10
3.1053434599
 20
5.6335212021
 11
3.1053434599
 21
5.8620533122
  0
LINE
  5
210
100
AcDbEntity
  8
0
100
AcDbLine
 62
7
  6
CONTINUOUS
 10
3.129189792
 20
5.6304653095
 11
3.129189792
 21
5.8651092048
  0
LINE
  5
211
100
AcDbEntity
  8
0
100
AcDbLine
 62
7
  6
CONTINUOUS
 10
3.3036098352
 20
5.5621333376
 11
3.3036098352
 21
5.9334411767
  0
LINE
  5
212
100
AcDbEntity
  8
0
100
AcDbLine
 62
7
  6
CONTINUOUS
 10
3.5359761036
 20
5.6259992674
 11
3.5359761036
 21
5.869575247
  0
LINE
  5
213
100
AcDbEntity
  8
0
100
AcDbLine
 62
7
  6
CONTINUOUS
 10
3.8791195544
 20
5.650186251
 11
3.8791195544
 21
5.8453882633
  0
LINE
  5
214
100
AcDbEntity
  8
0
100
AcDbLine
 62
7
  6
CONTINUOUS
 10
4.0538633012
 20
5.6277872572
 11
4.0538633012
 21
5.8677872572
  0
LINE
  5
215
100
AcDbEntity
  8
0
100
AcDbLine
 62
7
  6
CONTINUOUS
 10
4.0628804348
 20
5.6624855447
 11
4.0628804348
 21
5.8330889696
  0
LINE
  5
216
100
AcDbEntity
  8
0
100
AcDbLine
 62
7
  6
CONTINUOUS
 10
4.2578804348
 20
5.2152872572
 11
4.2578804348
 21
5.3947911298
  0
LINE
  5
217
100
AcDbEntity
  8
0
100
AcDbLine
 62
7
  6
CONTINUOUS
 10
4.2578804348
 20
6.1007833845
 11
4.2578804348
 21
6.2802872572
  0
LINE
  5
218
100
AcDbEntity
  8
0
100
AcDbLine
 62
7
  6
CONTINUOUS
 10
5.0306304348
 20
3.1700820695
 11
5.0306304348
 21
3.1266700251
  0
LINE
  5
219
100
AcDbEntity
  8
0
100
AcDbLine
 62
7
  6
CONTINUOUS
 10
5.0813804348
 20
5.7477872572
 11
5.0813804348
 21
3.1748573944
  0
LINE
  5
21A
100
AcDbEntity
  8
0
100
AcDbLine
 62
7
  6
CONTINUOUS
 10
5.4343804348
 20
5.7477872572
 11
5.4343804348
 21
3.1748573944
  0
LINE
  5
21B
100
AcDbEntity
  8
0
100
AcDbLine
 62
7
  6
CONTINUOUS
 10
5.4851304348
 20
3.1700820695
 11
5.4851304348
 21
3.1266700251
  0
LINE
  5
21C
100
AcDbEntity
  8
0
100
AcDbLine
 62
7
  6
CONTINUOUS
 10
6.2578804348
 20
5.2152872572
 11
5.4343804348
 21
5.2152872572
  0
LINE
  5
21D
100
AcDbEntity
  8
0
100
AcDbLine
 62
7
  6
CONTINUOUS
 10
5.0813804348
 20
5.2152872572
 11
4.2578804348
 21
5.2152872572
  0
LINE
  5
21E
100
AcDbEntity
  8
0
100
AcDbLine
 62
7
  6
CONTINUOUS
 10
6.2578804348
 20
5.2742577386
 11
5.4343804348
 21
5.2742577386
  0
LINE
  5
21F
100
AcDbEntity
  8
0
100
AcDbLine
 62
7
  6
CONTINUOUS
 10
5.0813804348
 20
5.2742577386
 11
4.2578804348
 21
5.2742577386
  0
LINE
  5
220
100
AcDbEntity
  8
0
100
AcDbLine
 62
7
  6
CONTINUOUS
 10
6.2578804348
 20
5.2857451834
 11
5.4343804348
 21
5.2857451834
  0
LINE
  5
221
100
AcDbEntity
  8
0
100
AcDbLine
 62
7
  6
CONTINUOUS
 10
5.0813804348
 20
5.2857451834
 11
4.2578804348
 21
5.2857451834
  0
LINE
  5
222
100
AcDbEntity
  8
0
100
AcDbLine
 62
7
  6
CONTINUOUS
 10
6.2578804348
 20
5.3467656991
 11
5.4343804348
 21
5.3467656991
  0
LINE
  5
223
100
AcDbEntity
  8
0
100
AcDbLine
 62
7
  6
CONTINUOUS
 10
5.0813804348
 20
5.3467656991
 11
4.2578804348
 21
5.3467656991
  0
LINE
  5
224
100
AcDbEntity
  8
0
100
AcDbLine
 62
7
  6
CONTINUOUS
 10
6.2578804348
 20
5.3573078778
 11
5.4343804348
 21
5.3573078778
  0
LINE
  5
225
100
AcDbEntity
  8
0
100
AcDbLine
 62
7
  6
CONTINUOUS
 10
5.0813804348
 20
5.3573078778
 11
4.2578804348
 21
5.3573078778
  0
LINE
  5
226
100
AcDbEntity
  8
0
100
AcDbLine
 62
7
  6
CONTINUOUS
 10
7.2121510344
 20
5.9334411767
 11
6.979784766
 21
5.869575247
  0
LINE
  5
227
100
AcDbEntity
  8
0
100
AcDbLine
 62
7
  6
CONTINUOUS
 10
6.6366413151
 20
5.650186251
 11
6.4618975683
 21
5.6277872572
  0
LINE
  5
228
100
AcDbEntity
  8
0
100
AcDbLine
 62
7
  6
CONTINUOUS
 10
6.2578804348
 20
5.3947911298
 11
5.4343804348
 21
5.3947911298
  0
LINE
  5
229
100
AcDbEntity
  8
0
100
AcDbLine
 62
7
  6
CONTINUOUS
 10
5.0813804348
 20
5.3947911298
 11
4.2578804348
 21
5.3947911298
  0
LINE
  5
22A
100
AcDbEntity
  8
0
100
AcDbLine
 62
7
  6
CONTINUOUS
 10
3.8791195544
 20
5.650186251
 11
4.0538633012
 21
5.6277872572
  0
LINE
  5
22B
100
AcDbEntity
  8
0
100
AcDbLine
 62
7
  6
CONTINUOUS
 10
3.3036098352
 20
5.9334411767
 11
3.5359761036
 21
5.869575247
  0
LINE
  5
22C
100
AcDbEntity
  8
0
100
AcDbLine
 62
7
  6
CONTINUOUS
 10
6.2578804348
 20
5.2152872572
 11
6.2578804348
 21
5.3947911298
  0
LINE
  5
22D
100
AcDbEntity
  8
0
100
AcDbLine
 62
7
  6
CONTINUOUS
 10
6.2578804348
 20
6.1007833845
 11
6.2578804348
 21
6.2802872572
  0
LINE
  5
22E
100
AcDbEntity
  8
0
100
AcDbLine
 62
7
  6
CONTINUOUS
 10
6.4528804348
 20
5.6624855447
 11
6.4528804348
 21
5.8330889696
  0
LINE
  5
22F
100
AcDbEntity
  8
0
100
AcDbLine
 62
7
  6
CONTINUOUS
 10
6.4618975683
 20
5.6277872572
 11
6.4618975683
 21
5.8677872572
  0
LINE
  5
230
100
AcDbEntity
  8
0
100
AcDbLine
 62
7
  6
CONTINUOUS
 10
6.6366413151
 20
5.650186251
 11
6.6366413151
 21
5.8453882633
  0
LINE
  5
231
100
AcDbEntity
  8
0
100
AcDbLine
 62
7
  6
CONTINUOUS
 10
3.3036098352
 20
5.5621333376
 11
3.5359761036
 21
5.6259992674
  0
LINE
  5
232
100
AcDbEntity
  8
0
100
AcDbLine
 62
7
  6
CONTINUOUS
 10
3.8791195544
 20
5.8453882633
 11
4.0538633012
 21
5.8677872572
  0
LINE
  5
233
100
AcDbEntity
  8
0
100
AcDbLine
 62
7
  6
CONTINUOUS
 10
4.2578804348
 20
6.1007833845
 11
6.2578804348
 21
6.1007833845
  0
LINE
  5
234
100
AcDbEntity
  8
0
100
AcDbLine
 62
7
  6
CONTINUOUS
 10
6.6366413151
 20
5.8453882633
 11
6.4618975683
 21
5.8677872572
  0
LINE
  5
235
100
AcDbEntity
  8
0
100
AcDbLine
 62
7
  6
CONTINUOUS
 10
7.2121510344
 20
5.5621333376
 11
6.979784766
 21
5.6259992674
  0
LINE
  5
236
100
AcDbEntity
  8
0
100
AcDbLine
 62
7
  6
CONTINUOUS
 10
4.2578804348
 20
6.1382666365
 11
6.2578804348
 21
6.1382666365
  0
LINE
  5
237
100
AcDbEntity
  8
0
100
AcDbLine
 62
7
  6
CONTINUOUS
 10
4.2578804348
 20
6.1488088152
 11
6.2578804348
 21
6.1488088152
  0
LINE
  5
238
100
AcDbEntity
  8
0
100
AcDbLine
 62
7
  6
CONTINUOUS
 10
4.2578804348
 20
6.2098293309
 11
6.2578804348
 21
6.2098293309
  0
LINE
  5
239
100
AcDbEntity
  8
0
100
AcDbLine
 62
7
  6
CONTINUOUS
 10
4.2578804348
 20
6.2213167757
 11
6.2578804348
 21
6.2213167757
  0
LINE
  5
23A
100
AcDbEntity
  8
0
100
AcDbLine
 62
7
  6
CONTINUOUS
 10
4.2578804348
 20
6.2802872572
 11
6.2578804348
 21
6.2802872572
  0
LINE
  5
23B
100
AcDbEntity
  8
0
100
AcDbLine
 62
7
  6
CONTINUOUS
 10
6.979784766
 20
5.6259992674
 11
6.979784766
 21
5.869575247
  0
LINE
  5
23C
100
AcDbEntity
  8
0
100
AcDbLine
 62
7
  6
CONTINUOUS
 10
7.2121510344
 20
5.5621333376
 11
7.2121510344
 21
5.9334411767
  0
LINE
  5
23D
100
AcDbEntity
  8
0
100
AcDbLine
 62
7
  6
CONTINUOUS
 10
7.3865710776
 20
5.6304653095
 11
7.3865710776
 21
5.8651092048
  0
LINE
  5
23E
100
AcDbEntity
  8
0
100
AcDbLine
 62
7
  6
CONTINUOUS
 10
7.4104174096
 20
5.6335212021
 11
7.4104174096
 21
5.8620533122
  0
LINE
  5
23F
100
AcDbEntity
  8
0
100
AcDbLine
 62
7
  6
CONTINUOUS
 10
7.4745212326
 20
5.6501817208
 11
7.4745212326
 21
5.8453927935
  0
ARC
  5
240
100
AcDbEntity
  8
0
100
AcDbCircle
 62
7
  6
CONTINUOUS
 10
3.7678705706
 20
4.7822872572
 40
0.875
100
AcDbArc
 50
82.695547113
 51
105.3682747844
  0
ARC
  5
241
100
AcDbEntity
  8
0
100
AcDbCircle
 62
7
  6
CONTINUOUS
 10
3.2621338534
 20
5.7130372572
 40
0.1565
100
AcDbArc
 50
211.8445374421
 51
285.3682747844
  0
ARC
  5
242
100
AcDbEntity
  8
0
100
AcDbCircle
 62
7
  6
CONTINUOUS
 10
3.0784728416
 20
5.6617872572
 40
0.039
100
AcDbArc
 50
197.312181393
 51
313.5502286876
  0
ARC
  5
243
100
AcDbEntity
  8
0
100
AcDbCircle
 62
7
  6
CONTINUOUS
 10
3.1160228083
 20
5.6222872572
 40
0.0155
100
AcDbArc
 50
31.8445374421
 51
133.5502286876
  0
ARC
  5
244
100
AcDbEntity
  8
0
100
AcDbCircle
 62
7
  6
CONTINUOUS
 10
4.0548804348
 20
5.6357223337
 40
0.008
100
AcDbArc
 50
262.695547113
 51
332.9129580138
  0
ARC
  5
245
100
AcDbEntity
  8
0
100
AcDbCircle
 62
7
  6
CONTINUOUS
 10
3.3543804348
 20
5.7477872572
 40
0.328
100
AcDbArc
 50
162.687818607
 51
197.312181393
  0
ARC
  5
246
100
AcDbEntity
  8
0
100
AcDbCircle
 62
7
  6
CONTINUOUS
 10
3.2621338534
 20
5.7825372572
 40
0.1565
100
AcDbArc
 50
74.6317252156
 51
148.1554625579
  0
ARC
  5
247
100
AcDbEntity
  8
0
100
AcDbCircle
 62
7
  6
CONTINUOUS
 10
3.0784728416
 20
5.8337872572
 40
0.039
100
AcDbArc
 50
46.4497713124
 51
162.687818607
  0
ARC
  5
248
100
AcDbEntity
  8
0
100
AcDbCircle
 62
7
  6
CONTINUOUS
 10
3.1160228083
 20
5.8732872572
 40
0.0155
100
AcDbArc
 50
226.4497713124
 51
328.1554625579
  0
ARC
  5
249
100
AcDbEntity
  8
0
100
AcDbCircle
 62
7
  6
CONTINUOUS
 10
4.2578804348
 20
5.7477872572
 40
0.5325
100
AcDbArc
 50
90.0
 51
170.1381409405
  0
ARC
  5
24A
100
AcDbEntity
  8
0
100
AcDbCircle
 62
7
  6
CONTINUOUS
 10
4.2578804348
 20
5.7477872572
 40
0.5325
100
AcDbArc
 50
189.8618590628
 51
270.0
  0
ARC
  5
24B
100
AcDbEntity
  8
0
100
AcDbCircle
 62
7
  6
CONTINUOUS
 10
4.2578804348
 20
5.7477872572
 40
0.4735295185
100
AcDbArc
 50
191.0643762629
 51
270.0000000009
  0
ARC
  5
24C
100
AcDbEntity
  8
0
100
AcDbCircle
 62
7
  6
CONTINUOUS
 10
4.2578804348
 20
5.7477872572
 40
0.4735295185
100
AcDbArc
 50
89.9999999989
 51
168.93562372
  0
ARC
  5
24D
100
AcDbEntity
  8
0
100
AcDbCircle
 62
7
  6
CONTINUOUS
 10
4.2578804348
 20
5.7477872572
 40
0.4620420737
100
AcDbArc
 50
191.3973708313
 51
270.0000000014
  0
ARC
  5
24E
100
AcDbEntity
  8
0
100
AcDbCircle
 62
7
  6
CONTINUOUS
 10
4.2578804348
 20
5.7477872572
 40
0.4620420737
100
AcDbArc
 50
89.9999999984
 51
168.6026291665
  0
ARC
  5
24F
100
AcDbEntity
  8
0
100
AcDbCircle
 62
7
  6
CONTINUOUS
 10
4.2578804348
 20
5.7477872572
 40
0.4010215581
100
AcDbArc
 50
193.9019260711
 51
270.000000001
  0
ARC
  5
250
100
AcDbEntity
  8
0
100
AcDbCircle
 62
7
  6
CONTINUOUS
 10
4.2578804348
 20
5.7477872572
 40
0.4010215581
100
AcDbArc
 50
89.9999999988
 51
166.0980738455
  0
ARC
  5
251
100
AcDbEntity
  8
0
100
AcDbCircle
 62
7
  6
CONTINUOUS
 10
4.2578804348
 20
5.7477872572
 40
0.3904793793
100
AcDbArc
 50
194.4895225205
 51
270.0000000022
  0
ARC
  5
252
100
AcDbEntity
  8
0
100
AcDbCircle
 62
7
  6
CONTINUOUS
 10
4.2578804348
 20
5.7477872572
 40
0.3904793793
100
AcDbArc
 50
89.9999999974
 51
165.5104774859
  0
ARC
  5
253
100
AcDbEntity
  8
0
100
AcDbCircle
 62
7
  6
CONTINUOUS
 10
4.2578804348
 20
5.7477872572
 40
0.3529961273
100
AcDbArc
 50
196.9432037744
 51
270.0
  0
ARC
  5
254
100
AcDbEntity
  8
0
100
AcDbCircle
 62
7
  6
CONTINUOUS
 10
4.2578804348
 20
5.7477872572
 40
0.3529961273
100
AcDbArc
 50
90.0
 51
163.0567962256
  0
ARC
  5
255
100
AcDbEntity
  8
0
100
AcDbCircle
 62
7
  6
CONTINUOUS
 10
4.2578804348
 20
5.7477872572
 40
0.3075
100
AcDbArc
 50
200.8250395469
 51
159.1749604531
  0
ARC
  5
256
100
AcDbEntity
  8
0
100
AcDbCircle
 62
7
  6
CONTINUOUS
 10
4.2578804348
 20
5.7477872572
 40
0.276
100
AcDbArc
 50
204.3803822472
 51
155.6196177529
  0
ARC
  5
257
100
AcDbEntity
  8
0
100
AcDbCircle
 62
7
  6
CONTINUOUS
 10
4.2578804348
 20
5.7477872572
 40
0.2425
100
AcDbArc
 50
209.4107443384
 51
150.5892556616
  0
ARC
  5
258
100
AcDbEntity
  8
0
100
AcDbCircle
 62
7
  6
CONTINUOUS
 10
4.2578804348
 20
5.7477872572
 40
0.2275
100
AcDbArc
 50
210.5709641847
 51
149.4290358153
  0
CIRCLE
  5
259
100
AcDbEntity
  8
0
100
AcDbCircle
 62
7
  6
CONTINUOUS
 10
4.2578804348
 20
5.7477872572
 40
0.16525
  0
CIRCLE
  5
25A
100
AcDbEntity
  8
0
100
AcDbCircle
 62
7
  6
CONTINUOUS
 10
4.2578804348
 20
5.7477872572
 40
0.14175
  0
CIRCLE
  5
25B
100
AcDbEntity
  8
0
100
AcDbCircle
 62
7
  6
CONTINUOUS
 10
4.2578804348
 20
5.7477872572
 40
0.136
  0
CIRCLE
  5
25C
100
AcDbEntity
  8
0
100
AcDbCircle
 62
7
  6
CONTINUOUS
 10
4.2578804348
 20
5.7477872572
 40
0.118
  0
CIRCLE
  5
25D
100
AcDbEntity
  8
0
100
AcDbCircle
 62
7
  6
CONTINUOUS
 10
4.2578804348
 20
5.7477872572
 40
0.09
  0
CIRCLE
  5
25E
100
AcDbEntity
  8
0
100
AcDbCircle
 62
7
  6
CONTINUOUS
 10
4.2578804348
 20
5.7477872572
 40
0.085
  0
ARC
  5
25F
100
AcDbEntity
  8
0
100
AcDbCircle
 62
7
  6
CONTINUOUS
 10
4.0548804348
 20
5.8598521806
 40
0.008
100
AcDbArc
 50
27.0870419862
 51
97.304452887
  0
ARC
  5
260
100
AcDbEntity
  8
0
100
AcDbCircle
 62
7
  6
CONTINUOUS
 10
3.7678705706
 20
6.7132872572
 40
0.875
100
AcDbArc
 50
254.6317252156
 51
277.304452887
  0
ARC
  5
261
100
AcDbEntity
  8
0
100
AcDbCircle
 62
7
  6
CONTINUOUS
 10
6.747890299
 20
4.7822872572
 40
0.875
100
AcDbArc
 50
74.6317252156
 51
97.304452887
  0
ARC
  5
262
100
AcDbEntity
  8
0
100
AcDbCircle
 62
7
  6
CONTINUOUS
 10
7.2536270162
 20
5.7130372572
 40
0.1565
100
AcDbArc
 50
254.6317252156
 51
328.1554625579
  0
ARC
  5
263
100
AcDbEntity
  8
0
100
AcDbCircle
 62
7
  6
CONTINUOUS
 10
7.437288028
 20
5.6617872572
 40
0.039
100
AcDbArc
 50
226.4497713124
 51
342.687818607
  0
ARC
  5
264
100
AcDbEntity
  8
0
100
AcDbCircle
 62
7
  6
CONTINUOUS
 10
7.3997380613
 20
5.6222872572
 40
0.0155
100
AcDbArc
 50
46.4497713124
 51
148.1554625579
  0
ARC
  5
265
100
AcDbEntity
  8
0
100
AcDbCircle
 62
7
  6
CONTINUOUS
 10
6.4608804348
 20
5.6357223337
 40
0.008
100
AcDbArc
 50
207.0870419862
 51
277.304452887
  0
ARC
  5
266
100
AcDbEntity
  8
0
100
AcDbCircle
 62
7
  6
CONTINUOUS
 10
6.2578804348
 20
5.7477872572
 40
0.5325
100
AcDbArc
 50
270.0
 51
350.1381409372
  0
ARC
  5
267
100
AcDbEntity
  8
0
100
AcDbCircle
 62
7
  6
CONTINUOUS
 10
6.2578804348
 20
5.7477872572
 40
0.5325
100
AcDbArc
 50
9.8618590628
 51
90.0
  0
ARC
  5
268
100
AcDbEntity
  8
0
100
AcDbCircle
 62
7
  6
CONTINUOUS
 10
6.2578804348
 20
5.7477872572
 40
0.4735295185
100
AcDbArc
 50
11.0643762629
 51
90.0000000009
  0
ARC
  5
269
100
AcDbEntity
  8
0
100
AcDbCircle
 62
7
  6
CONTINUOUS
 10
6.2578804348
 20
5.7477872572
 40
0.4735295185
100
AcDbArc
 50
269.9999999989
 51
348.93562372
  0
ARC
  5
26A
100
AcDbEntity
  8
0
100
AcDbCircle
 62
7
  6
CONTINUOUS
 10
6.2578804348
 20
5.7477872572
 40
0.4620420737
100
AcDbArc
 50
11.3973708313
 51
90.0000000014
  0
ARC
  5
26B
100
AcDbEntity
  8
0
100
AcDbCircle
 62
7
  6
CONTINUOUS
 10
6.2578804348
 20
5.7477872572
 40
0.4620420737
100
AcDbArc
 50
269.9999999984
 51
348.6026291665
  0
ARC
  5
26C
100
AcDbEntity
  8
0
100
AcDbCircle
 62
7
  6
CONTINUOUS
 10
6.2578804348
 20
5.7477872572
 40
0.4010215581
100
AcDbArc
 50
13.9019260711
 51
90.000000001
  0
ARC
  5
26D
100
AcDbEntity
  8
0
100
AcDbCircle
 62
7
  6
CONTINUOUS
 10
6.2578804348
 20
5.7477872572
 40
0.4010215581
100
AcDbArc
 50
269.9999999988
 51
346.0980738455
  0
ARC
  5
26E
100
AcDbEntity
  8
0
100
AcDbCircle
 62
7
  6
CONTINUOUS
 10
6.2578804348
 20
5.7477872572
 40
0.3904793793
100
AcDbArc
 50
14.4895225205
 51
90.0000000022
  0
ARC
  5
26F
100
AcDbEntity
  8
0
100
AcDbCircle
 62
7
  6
CONTINUOUS
 10
6.2578804348
 20
5.7477872572
 40
0.3904793793
100
AcDbArc
 50
269.9999999974
 51
345.5104774859
  0
ARC
  5
270
100
AcDbEntity
  8
0
100
AcDbCircle
 62
7
  6
CONTINUOUS
 10
6.2578804348
 20
5.7477872572
 40
0.3529961273
100
AcDbArc
 50
16.9432037744
 51
90.0
  0
ARC
  5
271
100
AcDbEntity
  8
0
100
AcDbCircle
 62
7
  6
CONTINUOUS
 10
6.2578804348
 20
5.7477872572
 40
0.3529961273
100
AcDbArc
 50
270.0
 51
343.0567962256
  0
ARC
  5
272
100
AcDbEntity
  8
0
100
AcDbCircle
 62
7
  6
CONTINUOUS
 10
5.2578804348
 20
5.7477872572
 40
0.34025
100
AcDbArc
 50
301.2480751143
 51
238.7519248857
  0
ARC
  5
273
100
AcDbEntity
  8
0
100
AcDbCircle
 62
7
  6
CONTINUOUS
 10
5.2578804348
 20
5.7477872572
 40
0.312
100
AcDbArc
 50
304.4530880708
 51
235.5469119292
  0
ARC
  5
274
100
AcDbEntity
  8
0
100
AcDbCircle
 62
7
  6
CONTINUOUS
 10
6.2578804348
 20
5.7477872572
 40
0.3075
100
AcDbArc
 50
20.8250395469
 51
339.1749604531
  0
ARC
  5
275
100
AcDbEntity
  8
0
100
AcDbCircle
 62
7
  6
CONTINUOUS
 10
5.2578804348
 20
5.7477872572
 40
0.3072588067
100
AcDbArc
 50
305.0628024905
 51
234.9371975095
  0
ARC
  5
276
100
AcDbEntity
  8
0
100
AcDbCircle
 62
7
  6
CONTINUOUS
 10
6.2578804348
 20
5.7477872572
 40
0.276
100
AcDbArc
 50
24.3803822471
 51
335.6196177529
  0
ARC
  5
277
100
AcDbEntity
  8
0
100
AcDbCircle
 62
7
  6
CONTINUOUS
 10
6.2578804348
 20
5.7477872572
 40
0.2425
100
AcDbArc
 50
29.4111947753
 51
330.5888052247
  0
ARC
  5
278
100
AcDbEntity
  8
0
100
AcDbCircle
 62
7
  6
CONTINUOUS
 10
5.2578804348
 20
5.7477872572
 40
0.2339044211
100
AcDbArc
 50
318.9938705682
 51
221.0061294318
  0
ARC
  5
279
100
AcDbEntity
  8
0
100
AcDbCircle
 62
7
  6
CONTINUOUS
 10
6.2578804348
 20
5.7477872572
 40
0.2275
100
AcDbArc
 50
30.5709641847
 51
329.4290358153
  0
ARC
  5
27A
100
AcDbEntity
  8
0
100
AcDbCircle
 62
7
  6
CONTINUOUS
 10
5.2578804348
 20
5.7477872572
 40
0.2175
100
AcDbArc
 50
324.2473847431
 51
215.7526152569
  0
ARC
  5
27B
100
AcDbEntity
  8
0
100
AcDbCircle
 62
7
  6
CONTINUOUS
 10
5.2578804348
 20
5.7477872572
 40
0.2020589822
100
AcDbArc
 50
330.878901628
 51
209.121098372
  0
ARC
  5
27C
100
AcDbEntity
  8
0
100
AcDbCircle
 62
7
  6
CONTINUOUS
 10
5.2578804348
 20
5.7477872572
 40
0.1765
100
AcDbArc
 50
0.0
 51
180.0
  0
CIRCLE
  5
27D
100
AcDbEntity
  8
0
100
AcDbCircle
 62
7
  6
CONTINUOUS
 10
6.2578804348
 20
5.7477872572
 40
0.16525
  0
CIRCLE
  5
27E
100
AcDbEntity
  8
0
100
AcDbCircle
 62
7
  6
CONTINUOUS
 10
6.2578804348
 20
5.7477872572
 40
0.14175
  0
CIRCLE
  5
27F
100
AcDbEntity
  8
0
100
AcDbCircle
 62
7
  6
CONTINUOUS
 10
6.2578804348
 20
5.7477872572
 40
0.136
  0
CIRCLE
  5
280
100
AcDbEntity
  8
0
100
AcDbCircle
 62
7
  6
CONTINUOUS
 10
6.2578804348
 20
5.7477872572
 40
0.118
  0
CIRCLE
  5
281
100
AcDbEntity
  8
0
100
AcDbCircle
 62
7
  6
CONTINUOUS
 10
6.2578804348
 20
5.7477872572
 40
0.09
  0
CIRCLE
  5
282
100
AcDbEntity
  8
0
100
AcDbCircle
 62
7
  6
CONTINUOUS
 10
6.2578804348
 20
5.7477872572
 40
0.085
  0
ARC
  5
283
100
AcDbEntity
  8
0
100
AcDbCircle
 62
7
  6
CONTINUOUS
 10
7.1613804348
 20
5.7477872572
 40
0.328
100
AcDbArc
 50
342.687818607
 51
17.312181393
  0
ARC
  5
284
100
AcDbEntity
  8
0
100
AcDbCircle
 62
7
  6
CONTINUOUS
 10
7.2536270162
 20
5.7825372572
 40
0.1565
100
AcDbArc
 50
31.8445374421
 51
105.3682747844
  0
ARC
  5
285
100
AcDbEntity
  8
0
100
AcDbCircle
 62
7
  6
CONTINUOUS
 10
7.437288028
 20
5.8337872572
 40
0.039
100
AcDbArc
 50
17.312181393
 51
133.5502286876
  0
ARC
  5
286
100
AcDbEntity
  8
0
100
AcDbCircle
 62
7
  6
CONTINUOUS
 10
7.3997380613
 20
5.8732872572
 40
0.0155
100
AcDbArc
 50
211.8445374421
 51
313.5502286876
  0
ARC
  5
287
100
AcDbEntity
  8
0
100
AcDbCircle
 62
7
  6
CONTINUOUS
 10
6.4608804348
 20
5.8598521806
 40
0.008
100
AcDbArc
 50
82.695547113
 51
152.9129580138
  0
ARC
  5
288
100
AcDbEntity
  8
0
100
AcDbCircle
 62
7
  6
CONTINUOUS
 10
6.747890299
 20
6.7132872572
 40
0.875
100
AcDbArc
 50
262.695547113
 51
285.3682747844
  0
SPLINE
  5
289
100
AcDbEntity
  8
0
100
AcDbSpline
 62
7
  6
CONTINUOUS
 70
0
 71
3
 72
15
 73
11
 74
0
 42
0.0000001
 43
0.0000001
 44
0.0000000001
 40
0.0
 40
0.0
 40
0.0
 40
0.0
 40
0.1254153628
 40
0.2506781675
 40
0.3758007696
 40
0.5007995757
 40
0.6256946596
 40
0.7505091613
 40
0.8752685549
 40
1.0
 40
1.0
 40
1.0
 40
1.0
 10
5.0813786584
 20
3.311049577
 30
0.0
 10
5.077318374
 20
3.3061190629
 30
0.0
 10
5.069619499
 20
3.2959120557
 30
0.0
 10
5.0594323031
 20
3.2796833433
 30
0.0
 10
5.0506830523
 20
3.2626584917
 30
0.0
 10
5.043436453
 20
3.2449623186
 30
0.0
 10
5.0377448217
 20
3.2267229274
 30
0.0
 10
5.0336495868
 20
3.2080722216
 30
0.0
 10
5.0311804783
 20
3.1891473479
 30
0.0
 10
5.0306304348
 20
3.176434404
 30
0.0
 10
5.0306304348
 20
3.1700820695
 30
0.0
  0
SPLINE
  5
28A
100
AcDbEntity
  8
0
100
AcDbSpline
 62
7
  6
CONTINUOUS
 70
0
 71
3
 72
15
 73
11
 74
0
 42
0.0000001
 43
0.0000001
 44
0.0000000001
 40
0.0
 40
0.0
 40
0.0
 40
0.0
 40
0.1254153628
 40
0.2506781675
 40
0.3758007696
 40
0.5007995757
 40
0.6256946596
 40
0.7505091613
 40
0.8752685549
 40
1.0
 40
1.0
 40
1.0
 40
1.0
 10
5.4343822112
 20
3.311049577
 30
0.0
 10
5.4384424955
 20
3.3061190629
 30
0.0
 10
5.4461413705
 20
3.2959120557
 30
0.0
 10
5.4563285665
 20
3.2796833433
 30
0.0
 10
5.4650778173
 20
3.2626584917
 30
0.0
 10
5.4723244165
 20
3.2449623186
 30
0.0
 10
5.4780160478
 20
3.2267229274
 30
0.0
 10
5.4821112827
 20
3.2080722216
 30
0.0
 10
5.4845803913
 20
3.1891473479
 30
0.0
 10
5.4851304348
 20
3.176434404
 30
0.0
 10
5.4851304348
 20
3.1700820695
 30
0.0
  0
SPLINE
  5
28B
100
AcDbEntity
  8
0
100
AcDbSpline
 62
7
  6
CONTINUOUS
 70
0
 71
3
 72
31
 73
27
 74
0
 42
0.0000001
 43
0.0000001
 44
0.0000000001
 40
0.0
 40
0.0
 40
0.0
 40
0.0
 40
0.0312567889
 40
0.0625166562
 40
0.0937741969
 40
0.1250319551
 40
0.1875286481
 40
0.2500244689
 40
0.2812813793
 40
0.3125380302
 40
0.3437944117
 40
0.3750505002
 40
0.4375428847
 40
0.5000339985
 40
0.5625237573
 40
0.6250122972
 40
0.6562655188
 40
0.6875184712
 40
0.7187711859
 40
0.7500236663
 40
0.8125090661
 40
0.8749939162
 40
0.9062454366
 40
0.9374965407
 40
0.9687497894
 40
1.0
 40
1.0
 40
1.0
 40
1.0
 10
5.2578804348
 20
2.8998340138
 30
0.0
 10
5.2541655715
 20
2.8998340138
 30
0.0
 10
5.2467341851
 20
2.9000160147
 30
0.0
 10
5.2356150012
 20
2.9008339447
 30
0.0
 10
5.2245485501
 20
2.9021952958
 30
0.0
 10
5.2099036347
 20
2.9047296294
 30
0.0
 10
5.1918561762
 20
2.909237737
 30
0.0
 10
5.1743365725
 20
2.915490223
 30
0.0
 10
5.1607434396
 20
2.921499827
 30
0.0
 10
5.1507794348
 20
2.9265020236
 30
0.0
 10
5.1410725691
 20
2.9319864109
 30
0.0
 10
5.128507055
 20
2.9399222672
 30
0.0
 10
5.1135519774
 20
2.9509839792
 30
0.0
 10
5.0969971369
 20
2.9659491395
 30
0.0
 10
5.0819887694
 20
2.9824642426
 30
0.0
 10
5.070889772
 20
2.9973906049
 30
0.0
 10
5.0629246702
 20
3.009936203
 30
0.0
 10
5.0574189624
 20
3.0196296201
 30
0.0
 10
5.0523963231
 20
3.0295817983
 30
0.0
 10
5.0463611085
 20
3.0431611719
 30
0.0
 10
5.0400802298
 20
3.06066751
 30
0.0
 10
5.0355503989
 20
3.0787063404
 30
0.0
 10
5.0330035709
 20
3.0933461805
 30
0.0
 10
5.0316354166
 20
3.1044095295
 30
0.0
 10
5.030813357
 20
3.1155261123
 30
0.0
 10
5.0306304348
 20
3.1229559436
 30
0.0
 10
5.0306304348
 20
3.1266700251
 30
0.0
  0
SPLINE
  5
28C
100
AcDbEntity
  8
0
100
AcDbSpline
 62
7
  6
CONTINUOUS
 70
0
 71
3
 72
31
 73
27
 74
0
 42
0.0000001
 43
0.0000001
 44
0.0000000001
 40
0.0
 40
0.0
 40
0.0
 40
0.0
 40
0.0312498636
 40
0.0625034125
 40
0.093754556
 40
0.1250059143
 40
0.1874907988
 40
0.2499761735
 40
0.2812286704
 40
0.3124813969
 40
0.3437343741
 40
0.3749876234
 40
0.4374761988
 40
0.4999659969
 40
0.5624571783
 40
0.6249496149
 40
0.6562057109
 40
0.6874621161
 40
0.7187187703
 40
0.7499756885
 40
0.8124714971
 40
0.8749682213
 40
0.9062258085
 40
0.9374833946
 40
0.9687435689
 40
1.0
 40
1.0
 40
1.0
 40
1.0
 10
5.4851304348
 20
3.1266700251
 30
0.0
 10
5.4851304348
 20
3.1229559849
 30
0.0
 10
5.4849474959
 20
3.11552616
 30
0.0
 10
5.4841254656
 20
3.1044095764
 30
0.0
 10
5.4827573052
 20
3.0933462064
 30
0.0
 10
5.480210464
 20
3.0787063793
 30
0.0
 10
5.4756806329
 20
3.0606675714
 30
0.0
 10
5.4693998166
 20
3.0431612046
 30
0.0
 10
5.4633645371
 20
3.0295818598
 30
0.0
 10
5.4583419401
 20
3.0196296544
 30
0.0
 10
5.4528362285
 20
3.0099362293
 30
0.0
 10
5.4448710812
 20
2.9973906484
 30
0.0
 10
5.4337721079
 20
2.9824642569
 30
0.0
 10
5.4187637533
 20
2.9659491162
 30
0.0
 10
5.4022088709
 20
2.9509839721
 30
0.0
 10
5.3872537674
 20
2.9399222739
 30
0.0
 10
5.3746882648
 20
2.931986382
 30
0.0
 10
5.3649813978
 20
2.9265019866
 30
0.0
 10
5.3550173671
 20
2.9214998343
 30
0.0
 10
5.3414242617
 20
2.91549017
 30
0.0
 10
5.3239046307
 20
2.9092377426
 30
0.0
 10
5.3058571943
 20
2.904729635
 30
0.0
 10
5.2912122925
 20
2.9021952893
 30
0.0
 10
5.2801458201
 20
2.9008339318
 30
0.0
 10
5.269026635
 20
2.9000160313
 30
0.0
 10
5.2615952555
 20
2.8998340138
 30
0.0
 10
5.2578804348
 20
2.8998340138
 30
0.0
  0
SPLINE
  5
28D
100
AcDbEntity
  8
0
100
AcDbSpline
 62
7
  6
CONTINUOUS
 70
0
 71
3
 72
39
 73
35
 74
0
 42
0.0000001
 43
0.0000001
 44
0.0000000001
 40
0.0
 40
0.0
 40
0.0
 40
0.0
 40
0.0000633805
 40
0.000142639
 40
0.0002536063
 40
0.0005706533
 40
0.0010144931
 40
0.0015850975
 40
0.002282438
 40
0.0031064865
 40
0.0040572146
 40
0.0063385963
 40
0.0091263568
 40
0.0124202697
 40
0.0162201084
 40
0.020525546
 40
0.0253359865
 40
0.0364693148
 40
0.0496149726
 40
0.0647678206
 40
0.0819214556
 40
0.1010675417
 40
0.122197587
 40
0.14530297
 40
0.1973963004
 40
0.2572532793
 40
0.3247657048
 40
0.3998106257
 40
0.4822515606
 40
0.571940983
 40
0.6687179063
 40
0.7724213069
 40
0.8829030067
 40
1.0
 40
1.0
 40
1.0
 40
1.0
 10
4.0620029616
 20
5.6320795857
 30
0.0
 10
4.0620026084
 20
5.6320790487
 30
0.0
 10
4.0620032941
 20
5.6320823532
 30
0.0
 10
4.0620031135
 20
5.6320839587
 30
0.0
 10
4.0620035638
 20
5.6320896449
 30
0.0
 10
4.0620038942
 20
5.6320980652
 30
0.0
 10
4.0620046676
 20
5.6321117459
 30
0.0
 10
4.0620055527
 20
5.6321290037
 30
0.0
 10
4.0620066732
 20
5.6321502165
 30
0.0
 10
4.0620079819
 20
5.6321752415
 30
0.0
 10
4.0620101332
 20
5.6322163214
 30
0.0
 10
4.0620133174
 20
5.6322772811
 30
0.0
 10
4.0620177319
 20
5.6323619739
 30
0.0
 10
4.0620229348
 20
5.6324620432
 30
0.0
 10
4.0620289225
 20
5.6325774832
 30
0.0
 10
4.062035689
 20
5.6327082819
 30
0.0
 10
4.0620462591
 20
5.6329133496
 30
0.0
 10
4.0620613411
 20
5.6332079492
 30
0.0
 10
4.0620815715
 20
5.6336073012
 30
0.0
 10
4.0621046241
 20
5.6340676381
 30
0.0
 10
4.0621303775
 20
5.6345887642
 30
0.0
 10
4.0621586648
 20
5.6351704514
 30
0.0
 10
4.0621893249
 20
5.6358124489
 30
0.0
 10
4.0622350212
 20
5.6367882149
 30
0.0
 10
4.0622968668
 20
5.6381563701
 30
0.0
 10
4.0623746007
 20
5.6399745782
 30
0.0
 10
4.0624564508
 20
5.6420255596
 30
0.0
 10
4.0625400365
 20
5.6443056591
 30
0.0
 10
4.062622536
 20
5.646810823
 30
0.0
 10
4.0627008742
 20
5.6495365985
 30
0.0
 10
4.0627712525
 20
5.6524782764
 30
0.0
 10
4.0628294056
 20
5.6556311125
 30
0.0
 10
4.0628700599
 20
5.6589903031
 30
0.0
 10
4.0628804348
 20
5.6612981063
 30
0.0
 10
4.0628804348
 20
5.6624855447
 30
0.0
  0
SPLINE
  5
28E
100
AcDbEntity
  8
0
100
AcDbSpline
 62
7
  6
CONTINUOUS
 70
0
 71
3
 72
39
 73
35
 74
0
 42
0.0000001
 43
0.0000001
 44
0.0000000001
 40
0.0
 40
0.0
 40
0.0
 40
0.0
 40
0.1170968827
 40
0.2275783558
 40
0.3312816461
 40
0.4280585704
 40
0.5177479914
 40
0.6001889862
 40
0.6752339685
 40
0.7427464762
 40
0.8026035
 40
0.8546968926
 40
0.8778022876
 40
0.8989323539
 40
0.9180784665
 40
0.9352321196
 40
0.950384974
 40
0.9635306479
 40
0.9746639931
 40
0.9794744389
 40
0.9837798778
 40
0.9875797161
 40
0.9908736313
 40
0.9936613959
 40
0.9959427823
 40
0.9968935126
 40
0.9977175631
 40
0.9984149052
 40
0.9989855105
 40
0.9994293507
 40
0.9997463972
 40
0.9998573639
 40
0.9999366215
 40
1.0
 40
1.0
 40
1.0
 40
1.0
 10
6.4528804348
 20
5.6624855447
 30
0.0
 10
6.4528804348
 20
5.6612981074
 30
0.0
 10
6.452890811
 20
5.6589903077
 30
0.0
 10
6.452931463
 20
5.6556311216
 30
0.0
 10
6.4529896174
 20
5.6524782889
 30
0.0
 10
6.453059995
 20
5.6495366122
 30
0.0
 10
6.4531383329
 20
5.646810836
 30
0.0
 10
6.453220833
 20
5.6443056709
 30
0.0
 10
6.4533044179
 20
5.6420255693
 30
0.0
 10
6.4533862689
 20
5.6399745861
 30
0.0
 10
6.4534640021
 20
5.638156376
 30
0.0
 10
6.4535258484
 20
5.6367882196
 30
0.0
 10
6.4535715444
 20
5.6358124527
 30
0.0
 10
6.4536022045
 20
5.6351704546
 30
0.0
 10
6.453630492
 20
5.6345887667
 30
0.0
 10
6.4536562455
 20
5.6340676401
 30
0.0
 10
6.4536792978
 20
5.6336073027
 30
0.0
 10
6.4536995283
 20
5.6332079504
 30
0.0
 10
6.4537146104
 20
5.6329133504
 30
0.0
 10
6.4537251806
 20
5.6327082825
 30
0.0
 10
6.4537319471
 20
5.6325774837
 30
0.0
 10
6.4537379347
 20
5.6324620437
 30
0.0
 10
6.4537431375
 20
5.6323619743
 30
0.0
 10
6.4537475521
 20
5.6322772814
 30
0.0
 10
6.4537507363
 20
5.6322163216
 30
0.0
 10
6.4537528876
 20
5.6321752416
 30
0.0
 10
6.4537541964
 20
5.6321502165
 30
0.0
 10
6.4537553169
 20
5.6321290037
 30
0.0
 10
6.453756202
 20
5.6321117458
 30
0.0
 10
6.4537569754
 20
5.6320980651
 30
0.0
 10
6.4537573058
 20
5.6320896448
 30
0.0
 10
6.4537577561
 20
5.6320839586
 30
0.0
 10
6.4537575755
 20
5.6320823532
 30
0.0
 10
6.4537582611
 20
5.6320790487
 30
0.0
 10
6.453757908
 20
5.6320795857
 30
0.0
  0
SPLINE
  5
28F
100
AcDbEntity
  8
0
100
AcDbSpline
 62
7
  6
CONTINUOUS
 70
0
 71
3
 72
39
 73
35
 74
0
 42
0.0000001
 43
0.0000001
 44
0.0000000001
 40
0.0
 40
0.0
 40
0.0
 40
0.0
 40
0.1170969443
 40
0.2275785663
 40
0.3312819457
 40
0.4280588864
 40
0.5177483284
 40
0.6001892968
 40
0.6752342444
 40
0.7427466854
 40
0.8026036703
 40
0.8546970078
 40
0.8778023928
 40
0.8989324411
 40
0.918078531
 40
0.9352321692
 40
0.9503850191
 40
0.9635306792
 40
0.9746640096
 40
0.979474451
 40
0.9837798892
 40
0.9875797284
 40
0.9908736417
 40
0.9936614025
 40
0.9959427846
 40
0.9968935128
 40
0.9977175614
 40
0.9984149021
 40
0.9989855066
 40
0.9994293465
 40
0.9997463936
 40
0.999857361
 40
0.9999366195
 40
1.0
 40
1.0
 40
1.0
 40
1.0
 10
4.0628804348
 20
5.8330889696
 30
0.0
 10
4.0628804348
 20
5.8342764075
 30
0.0
 10
4.0628700594
 20
5.8365842094
 30
0.0
 10
4.062829406
 20
5.8399433985
 30
0.0
 10
4.0627712524
 20
5.8430962338
 30
0.0
 10
4.0627008743
 20
5.8460379118
 30
0.0
 10
4.0626225362
 20
5.8487636881
 30
0.0
 10
4.0625400365
 20
5.8512688528
 30
0.0
 10
4.0624564509
 20
5.8535489531
 30
0.0
 10
4.0623746007
 20
5.8555999349
 30
0.0
 10
4.0622968669
 20
5.8574181433
 30
0.0
 10
4.0622350212
 20
5.8587862987
 30
0.0
 10
4.0621893249
 20
5.8597620648
 30
0.0
 10
4.0621586648
 20
5.8604040624
 30
0.0
 10
4.0621303775
 20
5.8609857497
 30
0.0
 10
4.0621046241
 20
5.8615068758
 30
0.0
 10
4.0620815716
 20
5.8619672129
 30
0.0
 10
4.0620613411
 20
5.8623665649
 30
0.0
 10
4.0620462591
 20
5.8626611646
 30
0.0
 10
4.062035689
 20
5.8628662323
 30
0.0
 10
4.0620289225
 20
5.862997031
 30
0.0
 10
4.0620229348
 20
5.863112471
 30
0.0
 10
4.0620177319
 20
5.8632125404
 30
0.0
 10
4.0620133174
 20
5.8632972332
 30
0.0
 10
4.0620101332
 20
5.8633581929
 30
0.0
 10
4.0620079819
 20
5.8633992728
 30
0.0
 10
4.0620066732
 20
5.8634242978
 30
0.0
 10
4.0620055527
 20
5.8634455106
 30
0.0
 10
4.0620046676
 20
5.8634627684
 30
0.0
 10
4.0620038943
 20
5.8634764492
 30
0.0
 10
4.0620035638
 20
5.8634848694
 30
0.0
 10
4.0620031135
 20
5.8634905556
 30
0.0
 10
4.0620032941
 20
5.8634921611
 30
0.0
 10
4.0620026084
 20
5.8634954656
 30
0.0
 10
4.0620029616
 20
5.8634949286
 30
0.0
  0
SPLINE
  5
290
100
AcDbEntity
  8
0
100
AcDbSpline
 62
7
  6
CONTINUOUS
 70
0
 71
3
 72
39
 73
35
 74
0
 42
0.0000001
 43
0.0000001
 44
0.0000000001
 40
0.0
 40
0.0
 40
0.0
 40
0.0
 40
0.0000633784
 40
0.000142636
 40
0.0002536027
 40
0.0005706491
 40
0.0010144892
 40
0.0015850944
 40
0.0022824364
 40
0.0031064867
 40
0.0040572168
 40
0.0063386029
 40
0.0091263672
 40
0.012420282
 40
0.0162201199
 40
0.0205255581
 40
0.025336003
 40
0.0364693461
 40
0.0496150179
 40
0.0647678704
 40
0.0819215204
 40
0.1010676292
 40
0.1221976925
 40
0.1453030857
 40
0.1973964712
 40
0.2572534893
 40
0.3247659818
 40
0.3998109373
 40
0.4822518982
 40
0.5719412997
 40
0.6687182071
 40
0.7724215187
 40
0.8829030687
 40
1.0
 40
1.0
 40
1.0
 40
1.0
 10
6.453757908
 20
5.8634949286
 30
0.0
 10
6.4537582611
 20
5.8634954656
 30
0.0
 10
6.4537575755
 20
5.8634921611
 30
0.0
 10
6.4537577561
 20
5.8634905557
 30
0.0
 10
6.4537573058
 20
5.8634848695
 30
0.0
 10
6.4537569754
 20
5.8634764492
 30
0.0
 10
6.453756202
 20
5.8634627685
 30
0.0
 10
6.4537553169
 20
5.8634455106
 30
0.0
 10
6.4537541964
 20
5.8634242978
 30
0.0
 10
6.4537528877
 20
5.8633992727
 30
0.0
 10
6.4537507363
 20
5.8633581928
 30
0.0
 10
6.4537475521
 20
5.863297233
 30
0.0
 10
6.4537431376
 20
5.8632125401
 30
0.0
 10
6.4537379347
 20
5.8631124707
 30
0.0
 10
6.4537319471
 20
5.8629970306
 30
0.0
 10
6.4537251806
 20
5.8628662319
 30
0.0
 10
6.4537146104
 20
5.862661164
 30
0.0
 10
6.4536995283
 20
5.8623665641
 30
0.0
 10
6.4536792978
 20
5.8619672118
 30
0.0
 10
6.4536562455
 20
5.8615068745
 30
0.0
 10
6.453630492
 20
5.860985748
 30
0.0
 10
6.4536022045
 20
5.8604040602
 30
0.0
 10
6.4535715444
 20
5.8597620622
 30
0.0
 10
6.4535258484
 20
5.8587862954
 30
0.0
 10
6.4534640022
 20
5.8574181391
 30
0.0
 10
6.4533862689
 20
5.8555999294
 30
0.0
 10
6.453304418
 20
5.8535489466
 30
0.0
 10
6.4532208331
 20
5.8512688458
 30
0.0
 10
6.453138333
 20
5.8487636815
 30
0.0
 10
6.4530599952
 20
5.8460379061
 30
0.0
 10
6.4529896173
 20
5.8430962295
 30
0.0
 10
6.4529314633
 20
5.839943396
 30
0.0
 10
6.4528908105
 20
5.8365842084
 30
0.0
 10
6.4528804348
 20
5.8342764074
 30
0.0
 10
6.4528804348
 20
5.8330889696
 30
0.0
  0
SPLINE
  5
291
100
AcDbEntity
  8
0
100
AcDbSpline
 62
7
  6
CONTINUOUS
 70
0
 71
3
 72
31
 73
27
 74
0
 42
0.0000001
 43
0.0000001
 44
0.0000000001
 40
0.0
 40
0.0
 40
0.0
 40
0.0
 40
0.0310153138
 40
0.0620329392
 40
0.0930551838
 40
0.1240842928
 40
0.1861525419
 40
0.248273209
 40
0.2793673112
 40
0.3104796438
 40
0.3416115825
 40
0.3727642952
 40
0.4351168018
 40
0.4975614025
 40
0.5600997672
 40
0.6227299606
 40
0.6540872339
 40
0.6854651443
 40
0.7168624856
 40
0.7482778954
 40
0.8111380158
 40
0.8740500913
 40
0.9055294069
 40
0.9370153768
 40
0.9685084514
 40
1.0
 40
1.0
 40
1.0
 40
1.0
 10
5.0306304348
 20
3.1700820695
 30
0.0
 10
5.0306304348
 20
3.1664205236
 30
0.0
 10
5.0308130466
 20
3.1590958355
 30
0.0
 10
5.0316339406
 20
3.1481365363
 30
0.0
 10
5.0330000014
 20
3.1372295875
 30
0.0
 10
5.035543491
 20
3.1227938377
 30
0.0
 10
5.0400686194
 20
3.1050036218
 30
0.0
 10
5.0463409656
 20
3.0877437694
 30
0.0
 10
5.0523677342
 20
3.0743550887
 30
0.0
 10
5.0573849747
 20
3.0645391974
 30
0.0
 10
5.0628853328
 20
3.0549776449
 30
0.0
 10
5.0708462701
 20
3.0425971961
 30
0.0
 10
5.0819421915
 20
3.0278649928
 30
0.0
 10
5.0969440198
 20
3.0115672524
 30
0.0
 10
5.1134949481
 20
2.996796142
 30
0.0
 10
5.1284441558
 20
2.9858795052
 30
0.0
 10
5.1410066844
 20
2.9780456391
 30
0.0
 10
5.1507155493
 20
2.9726293529
 30
0.0
 10
5.1606825639
 20
2.967688845
 30
0.0
 10
5.1742843956
 20
2.9617512075
 30
0.0
 10
5.191815985
 20
2.9555740743
 30
0.0
 10
5.2098704801
 20
2.9511215132
 30
0.0
 10
5.2245235066
 20
2.948617735
 30
0.0
 10
5.2355980921
 20
2.9472725622
 30
0.0
 10
5.2467256879
 20
2.9464643661
 30
0.0
 10
5.2541626665
 20
2.9462845076
 30
0.0
 10
5.2578804348
 20
2.9462845076
 30
0.0
  0
SPLINE
  5
292
100
AcDbEntity
  8
0
100
AcDbSpline
 62
7
  6
CONTINUOUS
 70
0
 71
3
 72
31
 73
27
 74
0
 42
0.0000001
 43
0.0000001
 44
0.0000000001
 40
0.0
 40
0.0
 40
0.0
 40
0.0
 40
0.0310153121
 40
0.0620329384
 40
0.0930551856
 40
0.1240842938
 40
0.1861525401
 40
0.2482732112
 40
0.2793673111
 40
0.3104796416
 40
0.3416115814
 40
0.3727642968
 40
0.4351168006
 40
0.4975614025
 40
0.5600997684
 40
0.622729959
 40
0.654087235
 40
0.6854651465
 40
0.7168624857
 40
0.7482778931
 40
0.8111380176
 40
0.8740500903
 40
0.905529405
 40
0.9370153776
 40
0.9685084525
 40
1.0
 40
1.0
 40
1.0
 40
1.0
 10
5.0306304348
 20
3.1266700251
 30
0.0
 10
5.0306304348
 20
3.1230084794
 30
0.0
 10
5.0308130465
 20
3.1156837913
 30
0.0
 10
5.0316339406
 20
3.104724492
 30
0.0
 10
5.0330000015
 20
3.0938175429
 30
0.0
 10
5.0355434909
 20
3.0793817932
 30
0.0
 10
5.0400686195
 20
3.0615915772
 30
0.0
 10
5.0463409657
 20
3.044331725
 30
0.0
 10
5.0523677341
 20
3.0309430442
 30
0.0
 10
5.0573849745
 20
3.0211271533
 30
0.0
 10
5.0628853326
 20
3.0115656006
 30
0.0
 10
5.0708462702
 20
2.9991851518
 30
0.0
 10
5.0819421914
 20
2.9844529483
 30
0.0
 10
5.0969440198
 20
2.968155208
 30
0.0
 10
5.113494948
 20
2.9533840975
 30
0.0
 10
5.128444156
 20
2.9424674608
 30
0.0
 10
5.1410066846
 20
2.9346335945
 30
0.0
 10
5.1507155497
 20
2.9292173084
 30
0.0
 10
5.1606825639
 20
2.9242768005
 30
0.0
 10
5.1742843956
 20
2.9183391631
 30
0.0
 10
5.1918159848
 20
2.9121620299
 30
0.0
 10
5.20987048
 20
2.9077094687
 30
0.0
 10
5.2245235064
 20
2.9052056907
 30
0.0
 10
5.2355980921
 20
2.9038605178
 30
0.0
 10
5.2467256881
 20
2.9030523216
 30
0.0
 10
5.2541626666
 20
2.9028724632
 30
0.0
 10
5.2578804348
 20
2.9028724632
 30
0.0
  0
SPLINE
  5
293
100
AcDbEntity
  8
0
100
AcDbSpline
 62
7
  6
CONTINUOUS
 70
0
 71
3
 72
47
 73
43
 74
0
 42
0.0000001
 43
0.0000001
 44
0.0000000001
 40
0.0
 40
0.0
 40
0.0
 40
0.0
 40
0.0155076714
 40
0.0310190126
 40
0.046531228
 40
0.0620466424
 40
0.093083179
 40
0.1241457837
 40
0.139693987
 40
0.1552513069
 40
0.1708184241
 40
0.1863959362
 40
0.2175744961
 40
0.2487991085
 40
0.280070605
 40
0.3113880167
 40
0.3427486189
 40
0.3741480412
 40
0.4055804396
 40
0.4370387226
 40
0.468514822
 40
0.5
 40
0.531485178
 40
0.5629612774
 40
0.5944195604
 40
0.6258519588
 40
0.6572513811
 40
0.6886119833
 40
0.719929395
 40
0.7512008915
 40
0.7824255039
 40
0.8136040638
 40
0.8291815759
 40
0.8447486931
 40
0.860306013
 40
0.8758542163
 40
0.906916821
 40
0.9379533576
 40
0.953468772
 40
0.9689809874
 40
0.9844923286
 40
1.0
 40
1.0
 40
1.0
 40
1.0
 10
5.4343804348
 20
3.1844080441
 30
0.0
 10
5.4343804348
 20
3.1815644111
 30
0.0
 10
5.4342385348
 20
3.1758754474
 30
0.0
 10
5.433601098
 20
3.1673635594
 30
0.0
 10
5.4325400332
 20
3.1588921914
 30
0.0
 10
5.430564551
 20
3.1476803135
 30
0.0
 10
5.4270500167
 20
3.1338630776
 30
0.0
 10
5.4221783724
 20
3.1204577398
 30
0.0
 10
5.4174975741
 20
3.1100590296
 30
0.0
 10
5.4136007834
 20
3.1024352511
 30
0.0
 10
5.4093287473
 20
3.0950090246
 30
0.0
 10
5.4031457353
 20
3.0853933681
 30
0.0
 10
5.3945277067
 20
3.073951196
 30
0.0
 10
5.3828762645
 20
3.0612932083
 30
0.0
 10
5.3700209553
 20
3.0498204842
 30
0.0
 10
5.3560862407
 20
3.0396443285
 30
0.0
 10
5.3412062081
 20
3.0308623511
 30
0.0
 10
5.3255241999
 20
3.0235590548
 30
0.0
 10
5.3091911878
 20
3.0178046295
 30
0.0
 10
5.2923643945
 20
3.0136543892
 30
0.0
 10
5.2752057704
 20
3.0111481933
 30
0.0
 10
5.2578804348
 20
3.010310112
 30
0.0
 10
5.2405550992
 20
3.0111481933
 30
0.0
 10
5.223396475
 20
3.0136543892
 30
0.0
 10
5.2065696818
 20
3.0178046295
 30
0.0
 10
5.1902366696
 20
3.0235590548
 30
0.0
 10
5.1745546615
 20
3.0308623511
 30
0.0
 10
5.1596746288
 20
3.0396443285
 30
0.0
 10
5.1457399143
 20
3.0498204842
 30
0.0
 10
5.1328846051
 20
3.0612932083
 30
0.0
 10
5.1212331628
 20
3.073951196
 30
0.0
 10
5.1126151343
 20
3.0853933681
 30
0.0
 10
5.1064321222
 20
3.0950090246
 30
0.0
 10
5.1021600862
 20
3.1024352511
 30
0.0
 10
5.0982632955
 20
3.1100590296
 30
0.0
 10
5.0935824972
 20
3.1204577398
 30
0.0
 10
5.0887108528
 20
3.1338630776
 30
0.0
 10
5.0851963185
 20
3.1476803135
 30
0.0
 10
5.0832208363
 20
3.1588921914
 30
0.0
 10
5.0821597716
 20
3.1673635594
 30
0.0
 10
5.0815223348
 20
3.1758754474
 30
0.0
 10
5.0813804348
 20
3.1815644111
 30
0.0
 10
5.0813804348
 20
3.1844080441
 30
0.0
  0
SPLINE
  5
294
100
AcDbEntity
  8
0
100
AcDbSpline
 62
7
  6
CONTINUOUS
 70
0
 71
3
 72
31
 73
27
 74
0
 42
0.0000001
 43
0.0000001
 44
0.0000000001
 40
0.0
 40
0.0
 40
0.0
 40
0.0
 40
0.0310153138
 40
0.0620329392
 40
0.0930551838
 40
0.1240842928
 40
0.1861525419
 40
0.248273209
 40
0.2793673112
 40
0.3104796438
 40
0.3416115825
 40
0.3727642952
 40
0.4351168018
 40
0.4975614025
 40
0.5600997672
 40
0.6227299606
 40
0.6540872339
 40
0.6854651443
 40
0.7168624856
 40
0.7482778954
 40
0.8111380158
 40
0.8740500913
 40
0.9055294069
 40
0.9370153768
 40
0.9685084514
 40
1.0
 40
1.0
 40
1.0
 40
1.0
 10
5.4851304348
 20
3.1700820695
 30
0.0
 10
5.4851304348
 20
3.1664205236
 30
0.0
 10
5.4849478229
 20
3.1590958355
 30
0.0
 10
5.484126929
 20
3.1481365363
 30
0.0
 10
5.4827608682
 20
3.1372295875
 30
0.0
 10
5.4802173786
 20
3.1227938377
 30
0.0
 10
5.4756922501
 20
3.1050036218
 30
0.0
 10
5.4694199039
 20
3.0877437694
 30
0.0
 10
5.4633931353
 20
3.0743550887
 30
0.0
 10
5.4583758949
 20
3.0645391974
 30
0.0
 10
5.4528755368
 20
3.0549776449
 30
0.0
 10
5.4449145994
 20
3.0425971961
 30
0.0
 10
5.4338186781
 20
3.0278649928
 30
0.0
 10
5.4188168498
 20
3.0115672524
 30
0.0
 10
5.4022659215
 20
2.996796142
 30
0.0
 10
5.3873167137
 20
2.9858795052
 30
0.0
 10
5.3747541851
 20
2.9780456391
 30
0.0
 10
5.3650453203
 20
2.9726293529
 30
0.0
 10
5.3550783056
 20
2.967688845
 30
0.0
 10
5.3414764739
 20
2.9617512075
 30
0.0
 10
5.3239448845
 20
2.9555740743
 30
0.0
 10
5.3058903894
 20
2.9511215132
 30
0.0
 10
5.2912373629
 20
2.948617735
 30
0.0
 10
5.2801627775
 20
2.9472725622
 30
0.0
 10
5.2690351817
 20
2.9464643661
 30
0.0
 10
5.261598203
 20
2.9462845076
 30
0.0
 10
5.2578804348
 20
2.9462845076
 30
0.0
  0
SPLINE
  5
295
100
AcDbEntity
  8
0
100
AcDbSpline
 62
7
  6
CONTINUOUS
 70
0
 71
3
 72
30
 73
26
 74
0
 42
0.0000001
 43
0.0000001
 44
0.0000000001
 40
0.0
 40
0.0
 40
0.0
 40
0.0
 40
0.0310138499
 40
0.0620345914
 40
0.0930571997
 40
0.1240864062
 40
0.1861559889
 40
0.2482777871
 40
0.2793724514
 40
0.3104853367
 40
0.3416178536
 40
0.3727711586
 40
0.4351248005
 40
0.4975705536
 40
0.5601100703
 40
0.6227414025
 40
0.654099275
 40
0.6854777649
 40
0.7168756676
 40
0.7482916443
 40
0.8111529288
 40
0.8740661929
 40
0.9055458863
 40
0.9370326171
 40
1.0
 40
1.0
 40
1.0
 40
1.0
 10
5.4343804348
 20
3.1748573944
 30
0.0
 10
5.4343804348
 20
3.1720137401
 30
0.0
 10
5.4342385458
 20
3.1663247745
 30
0.0
 10
5.4336010909
 20
3.1578128954
 30
0.0
 10
5.4325400356
 20
3.1493415461
 30
0.0
 10
5.4305645519
 20
3.1381296711
 30
0.0
 10
5.4270500116
 20
3.1243124286
 30
0.0
 10
5.4221783967
 20
3.1109070787
 30
0.0
 10
5.417497556
 20
3.1005083879
 30
0.0
 10
5.413600803
 20
3.0928845925
 30
0.0
 10
5.4093287428
 20
3.0854583803
 30
0.0
 10
5.4031457327
 20
3.0758427155
 30
0.0
 10
5.3945277248
 20
3.0644005768
 30
0.0
 10
5.3828761373
 20
3.051742493
 30
0.0
 10
5.3700214083
 20
3.0402700987
 30
0.0
 10
5.3584107261
 20
3.0317913372
 30
0.0
 10
5.3486536454
 20
3.0257070207
 30
0.0
 10
5.3411130182
 20
3.0215002568
 30
0.0
 10
5.3333718474
 20
3.0176631012
 30
0.0
 10
5.3228076132
 20
3.0130514839
 30
0.0
 10
5.3091911655
 20
3.0082538313
 30
0.0
 10
5.2951688482
 20
3.0047956306
 30
0.0
 10
5.2837877841
 20
3.0028509879
 30
0.0
 10
5.2723220272
 20
3.0014581452
 30
0.0
 10
5.2636539027
 20
3.001038826
 30
0.0
 10
5.2578804348
 20
3.001038826
 30
0.0
  0
SPLINE
  5
296
100
AcDbEntity
  8
0
100
AcDbSpline
 62
7
  6
CONTINUOUS
 70
0
 71
3
 72
31
 73
27
 74
0
 42
0.0000001
 43
0.0000001
 44
0.0000000001
 40
0.0
 40
0.0
 40
0.0
 40
0.0
 40
0.0310153121
 40
0.0620329384
 40
0.0930551856
 40
0.1240842938
 40
0.1861525401
 40
0.2482732112
 40
0.2793673111
 40
0.3104796416
 40
0.3416115814
 40
0.3727642968
 40
0.4351168006
 40
0.4975614025
 40
0.5600997684
 40
0.622729959
 40
0.654087235
 40
0.6854651465
 40
0.7168624857
 40
0.7482778931
 40
0.8111380176
 40
0.8740500903
 40
0.905529405
 40
0.9370153776
 40
0.9685084525
 40
1.0
 40
1.0
 40
1.0
 40
1.0
 10
5.4851304348
 20
3.1266700251
 30
0.0
 10
5.4851304348
 20
3.1230084794
 30
0.0
 10
5.484947823
 20
3.1156837913
 30
0.0
 10
5.4841269289
 20
3.104724492
 30
0.0
 10
5.4827608681
 20
3.0938175429
 30
0.0
 10
5.4802173786
 20
3.0793817932
 30
0.0
 10
5.4756922501
 20
3.0615915772
 30
0.0
 10
5.4694199039
 20
3.044331725
 30
0.0
 10
5.4633931354
 20
3.0309430442
 30
0.0
 10
5.458375895
 20
3.0211271533
 30
0.0
 10
5.4528755369
 20
3.0115656006
 30
0.0
 10
5.4449145994
 20
2.9991851518
 30
0.0
 10
5.4338186782
 20
2.9844529483
 30
0.0
 10
5.4188168497
 20
2.968155208
 30
0.0
 10
5.4022659216
 20
2.9533840975
 30
0.0
 10
5.3873167136
 20
2.9424674608
 30
0.0
 10
5.374754185
 20
2.9346335945
 30
0.0
 10
5.3650453199
 20
2.9292173084
 30
0.0
 10
5.3550783057
 20
2.9242768005
 30
0.0
 10
5.3414764739
 20
2.9183391631
 30
0.0
 10
5.3239448847
 20
2.9121620299
 30
0.0
 10
5.3058903896
 20
2.9077094687
 30
0.0
 10
5.2912373632
 20
2.9052056907
 30
0.0
 10
5.2801627774
 20
2.9038605178
 30
0.0
 10
5.2690351815
 20
2.9030523216
 30
0.0
 10
5.2615982029
 20
2.9028724632
 30
0.0
 10
5.2578804348
 20
2.9028724632
 30
0.0
  0
SPLINE
  5
297
100
AcDbEntity
  8
0
100
AcDbSpline
 62
7
  6
CONTINUOUS
 70
0
 71
3
 72
30
 73
26
 74
0
 42
0.0000001
 43
0.0000001
 44
0.0000000001
 40
0.0
 40
0.0
 40
0.0
 40
0.0
 40
0.0629673829
 40
0.0944541137
 40
0.1259338071
 40
0.1888470712
 40
0.2517083557
 40
0.2831243324
 40
0.3145222351
 40
0.345900725
 40
0.3772585975
 40
0.4398899297
 40
0.5024294464
 40
0.5648751995
 40
0.6272288414
 40
0.6583821464
 40
0.6895146633
 40
0.7206275486
 40
0.7517222129
 40
0.8138440111
 40
0.8759135938
 40
0.9069428003
 40
0.9379654086
 40
0.9689861501
 40
1.0
 40
1.0
 40
1.0
 40
1.0
 10
5.2578804348
 20
3.001038826
 30
0.0
 10
5.2521069668
 20
3.001038826
 30
0.0
 10
5.2434388423
 20
3.0014581452
 30
0.0
 10
5.2319730854
 20
3.0028509879
 30
0.0
 10
5.2205920214
 20
3.0047956306
 30
0.0
 10
5.2065697041
 20
3.0082538313
 30
0.0
 10
5.1929532564
 20
3.0130514839
 30
0.0
 10
5.1823890222
 20
3.0176631012
 30
0.0
 10
5.1746478513
 20
3.0215002568
 30
0.0
 10
5.1671072242
 20
3.0257070207
 30
0.0
 10
5.1573501435
 20
3.0317913372
 30
0.0
 10
5.1457394613
 20
3.0402700987
 30
0.0
 10
5.1328847322
 20
3.051742493
 30
0.0
 10
5.1212331447
 20
3.0644005768
 30
0.0
 10
5.1126151368
 20
3.0758427155
 30
0.0
 10
5.1064321268
 20
3.0854583803
 30
0.0
 10
5.1021600666
 20
3.0928845925
 30
0.0
 10
5.0982633136
 20
3.1005083879
 30
0.0
 10
5.0935824728
 20
3.1109070787
 30
0.0
 10
5.088710858
 20
3.1243124286
 30
0.0
 10
5.0851963176
 20
3.1381296711
 30
0.0
 10
5.083220834
 20
3.1493415461
 30
0.0
 10
5.0821597787
 20
3.1578128954
 30
0.0
 10
5.0815223238
 20
3.1663247745
 30
0.0
 10
5.0813804348
 20
3.1720137401
 30
0.0
 10
5.0813804348
 20
3.1748573944
 30
0.0
  0
SPLINE
  5
298
100
AcDbEntity
  8
0
100
AcDbSpline
 62
7
  6
CONTINUOUS
 70
0
 71
3
 72
39
 73
35
 74
0
 42
0.0000001
 43
0.0000001
 44
0.0000000001
 40
0.0
 40
0.0
 40
0.0
 40
0.0
 40
0.0311673875
 40
0.0623097154
 40
0.0934296784
 40
0.1245303617
 40
0.1556151856
 40
0.1866878438
 40
0.2177522416
 40
0.2488124328
 40
0.2798725474
 40
0.3109367166
 40
0.3420089975
 40
0.3730933017
 40
0.4041933328
 40
0.4353125227
 40
0.4664539703
 40
0.497620385
 40
0.5288140383
 40
0.5600367293
 40
0.5912897591
 40
0.6225739083
 40
0.6538894218
 40
0.6852360035
 40
0.7166128237
 40
0.7480185423
 40
0.779451327
 40
0.8109088985
 40
0.8423885406
 40
0.8738871371
 40
0.9054015044
 40
0.9369271687
 40
0.9684623697
 40
1.0
 40
1.0
 40
1.0
 40
1.0
 10
5.4343840514
 20
3.2708143439
 30
0.0
 10
5.436615962
 20
3.2670215097
 30
0.0
 10
5.4408291371
 20
3.2592892285
 30
0.0
 10
5.4463658312
 20
3.247305081
 30
0.0
 10
5.4510944194
 20
3.2349891243
 30
0.0
 10
5.4549942241
 20
3.2223948385
 30
0.0
 10
5.4580485954
 20
3.2095760732
 30
0.0
 10
5.4602443661
 20
3.1965878656
 30
0.0
 10
5.4615721278
 20
3.1834859329
 30
0.0
 10
5.4620261952
 20
3.1703264933
 30
0.0
 10
5.4616046224
 20
3.1571660047
 30
0.0
 10
5.4603092146
 20
3.1440609307
 30
0.0
 10
5.4581455132
 20
3.1310675007
 30
0.0
 10
5.4551228041
 20
3.1182414656
 30
0.0
 10
5.4512540906
 20
3.1056378468
 30
0.0
 10
5.4465559884
 20
3.093310709
 30
0.0
 10
5.4410486644
 20
3.081312929
 30
0.0
 10
5.4347557476
 20
3.0696959737
 30
0.0
 10
5.4277042326
 20
3.0585096798
 30
0.0
 10
5.419924406
 20
3.0478020097
 30
0.0
 10
5.4114496639
 20
3.0376188712
 30
0.0
 10
5.4023163711
 20
3.0280039236
 30
0.0
 10
5.3925637081
 20
3.0189983922
 30
0.0
 10
5.3822334995
 20
3.0106409021
 30
0.0
 10
5.3713700688
 20
3.0029672701
 30
0.0
 10
5.3600200233
 20
2.9960103709
 30
0.0
 10
5.3482320429
 20
2.9898000127
 30
0.0
 10
5.3360566748
 20
2.9843628131
 30
0.0
 10
5.3235461292
 20
2.9797220945
 30
0.0
 10
5.3107540187
 20
2.975897715
 30
0.0
 10
5.2977353199
 20
2.972906144
 30
0.0
 10
5.2845454811
 20
2.9707599605
 30
0.0
 10
5.2712419875
 20
2.9694687038
 30
0.0
 10
5.2623335098
 20
2.9691812879
 30
0.0
 10
5.2578804348
 20
2.9691812879
 30
0.0
  0
SPLINE
  5
299
100
AcDbEntity
  8
0
100
AcDbSpline
 62
7
  6
CONTINUOUS
 70
0
 71
3
 72
39
 73
35
 74
0
 42
0.0000001
 43
0.0000001
 44
0.0000000001
 40
0.0
 40
0.0
 40
0.0
 40
0.0
 40
0.0315376303
 40
0.0630728313
 40
0.0945984956
 40
0.1261128629
 40
0.1576114594
 40
0.1890911015
 40
0.220548673
 40
0.2519814577
 40
0.2833871763
 40
0.3147639965
 40
0.3461105782
 40
0.3774260917
 40
0.4087102409
 40
0.4399632707
 40
0.4711859617
 40
0.502379615
 40
0.5335460297
 40
0.5646874773
 40
0.5958066672
 40
0.6269066983
 40
0.6579910025
 40
0.6890632834
 40
0.7201274526
 40
0.7511875672
 40
0.7822477584
 40
0.8133121562
 40
0.8443848144
 40
0.8754696383
 40
0.9065703216
 40
0.9376902846
 40
0.9688326125
 40
1.0
 40
1.0
 40
1.0
 40
1.0
 10
5.2578804348
 20
2.9691812879
 30
0.0
 10
5.2534273598
 20
2.9691812879
 30
0.0
 10
5.2445188821
 20
2.9694687038
 30
0.0
 10
5.2312153885
 20
2.9707599605
 30
0.0
 10
5.2180255496
 20
2.972906144
 30
0.0
 10
5.2050068509
 20
2.975897715
 30
0.0
 10
5.1922147404
 20
2.9797220945
 30
0.0
 10
5.1797041948
 20
2.9843628131
 30
0.0
 10
5.1675288267
 20
2.9898000127
 30
0.0
 10
5.1557408463
 20
2.9960103709
 30
0.0
 10
5.1443908008
 20
3.0029672701
 30
0.0
 10
5.1335273701
 20
3.0106409021
 30
0.0
 10
5.1231971614
 20
3.0189983922
 30
0.0
 10
5.1134444984
 20
3.0280039236
 30
0.0
 10
5.1043112057
 20
3.0376188712
 30
0.0
 10
5.0958364635
 20
3.0478020097
 30
0.0
 10
5.088056637
 20
3.0585096798
 30
0.0
 10
5.081005122
 20
3.0696959737
 30
0.0
 10
5.0747122052
 20
3.081312929
 30
0.0
 10
5.0692048812
 20
3.093310709
 30
0.0
 10
5.064506779
 20
3.1056378468
 30
0.0
 10
5.0606380654
 20
3.1182414656
 30
0.0
 10
5.0576153564
 20
3.1310675007
 30
0.0
 10
5.0554516549
 20
3.1440609307
 30
0.0
 10
5.0541562472
 20
3.1571660047
 30
0.0
 10
5.0537346743
 20
3.1703264933
 30
0.0
 10
5.0541887417
 20
3.1834859329
 30
0.0
 10
5.0555165035
 20
3.1965878656
 30
0.0
 10
5.0577122742
 20
3.2095760732
 30
0.0
 10
5.0607666455
 20
3.2223948385
 30
0.0
 10
5.0646664502
 20
3.2349891243
 30
0.0
 10
5.0693950384
 20
3.247305081
 30
0.0
 10
5.0749317325
 20
3.2592892285
 30
0.0
 10
5.0791449076
 20
3.2670215097
 30
0.0
 10
5.0813768182
 20
3.2708143439
 30
0.0
  0
ENDSEC
  0
SECTION
  2
OBJECTS
  0
DICTIONARY
  5
C
100
AcDbDictionary
280
0
281
1
  3
ACAD_GROUP
350
D
  3
ACAD_MLINESTYLE
350
17
  3
ACAD_LAYOUT
350
1A
  3
ACAD_PLOTSETTINGS
350
19
  3
ACAD_PLOTSTYLENAME
350
E
  0
DICTIONARY
  5
D
102
{ACAD_REACTORS
330
C
102
}
100
AcDbDictionary
280
0
281
1
  0
ACDBDICTIONARYWDFLT
  5
E
102
{ACAD_REACTORS
330
C
102
}
100
AcDbDictionary
281
1
  3
Normal
350
F
100
AcDbDictionaryWithDefault
340
F
  0
DICTIONARY
  5
17
102
{ACAD_REACTORS
330
C
102
}
100
AcDbDictionary
280
0
281
1
  3
Standard
350
18
  0
DICTIONARY
  5
19
102
{ACAD_REACTORS
330
C
102
}
100
AcDbDictionary
281
1
  0
DICTIONARY
  5
1A
102
{ACAD_REACTORS
330
C
102
}
100
AcDbDictionary
281
1
  3
Model
350
29A
  3
Layout1
350
29B
  0
ACDBPLACEHOLDER
  5
F
102
{ACAD_REACTORS
330
E
102
}
  0
MLINESTYLE
  5
18
102
{ACAD_REACTORS
330
17
102
}
100
AcDbMlineStyle
  2
STANDARD
 70
0
  3

 62
256
 51
90.0
 52
90.0
 71
2
 49
0.5
 62
256
  6
BYLAYER
 49
-0.5
 62
256
  6
BYLAYER
  0
LAYOUT
  5
29A
102
{ACAD_REACTORS
330
1A
102
}
100
AcDbPlotSettings
  1

  2
none_device
  4
ANSI_A_(11.00_x_8.50_Inches)
  6

 40
0.0
 41
0.0
 42
0.0
 43
0.0
 44
279.4
 45
215.9
 46
0.0
 47
0.0
 48
0.0
 49
0.0
140
0.0
141
0.0
142
1.0
143
1.0
 70
1024
 72
0
 73
0
 74
0
  7

 75
0
147
1.0
148
0.0
149
0.0
100
AcDbLayout
  1
Model
 70
0
 71
0
 10
0.0
 20
0.0
 11
11.0
 21
8.5
 12
0.0
 22
0.0
 32
0.0
 14
0.0
 24
0.0
 34
0.0
 15
0.0
 25
0.0
 35
0.0
146
0.0
 13
0.0
 23
0.0
 33
0.0
 16
1.0
 26
0.0
 36
0.0
 17
0.0
 27
1.0
 37
0.0
 76
0
330
202
345
0
346
0
  0
LAYOUT
  5
29B
102
{ACAD_REACTORS
330
1A
102
}
100
AcDbPlotSettings
  1

  2
none_device
  4
ANSI_A_(11.00_x_8.50_Inches)
  6

 40
0.0
 41
0.0
 42
0.0
 43
0.0
 44
279.4
 45
215.9
 46
0.0
 47
0.0
 48
0.0
 49
0.0
140
0.0
141
0.0
142
1.0
143
1.0
 70
0
 72
0
 73
0
 74
0
  7

 75
0
147
1.0
148
0.0
149
0.0
100
AcDbLayout
  1
Layout1
 70
0
 71
1
 10
0.0
 20
0.0
 11
11.0
 21
8.5
 12
0.0
 22
0.0
 32
0.0
 14
0.0
 24
0.0
 34
0.0
 15
0.0
 25
0.0
 35
0.0
146
0.0
 13
0.0
 23
0.0
 33
0.0
 16
1.0
 26
0.0
 36
0.0
 17
0.0
 27
1.0
 37
0.0
 76
0
330
203
345
0
346
0
  0
ENDSEC
  0
EOF
