999
DXF file: 81-02_front.dxf
999
Pro/ENGINEER 2013150 by Parametric Technology Corporation
  0
SECTION
  2
HEADER
  9
$ACADVER
  1
AC1021
  9
$DWGCODEPAGE
  3
ANSI_1252
  9
$EXTMAX
 10
11.0
 20
8.5
 30
0.0
  9
$EXTMIN
 10
0.0
 20
0.0
 30
0.0
  9
$LIMMIN
 10
0.0
 20
0.0
  9
$LIMMAX
 10
11.0
 20
8.5
  9
$VIEWCTR
 10
5.5
 20
4.25
  9
$VIEWSIZE
 40
8.5
  9
$CLAYER
  8
0
  9
$LTSCALE
 40
0.605
  9
$CELTYPE
  6
BYLAYER
  9
$DIMSCALE
 40
1.0
  9
$DIMASZ
 40
0.1
  9
$DIMEXO
 40
0.0625
  9
$DIMDLI
 40
0.418
  9
$DIMEXE
 40
0.125
  9
$DIMCEN
 40
0.099
  9
$DIMLFAC
 40
1.0
  9
$DIMBLK
  1
_FILLED
  9
$DIMTXT
 40
0.08
  9
$DIMTOL
 70
1
  9
$DIMLIM
 70
0
  9
$DIMTFAC
 40
1.0
  9
$DIMTP
 40
0.001
  9
$DIMTM
 40
0.001
  9
$DIMGAP
 40
0.09
  9
$DIMDSEP
 70
46
  9
$PDMODE
 70
3
  9
$PDSIZE
 40
0.06
  9
$HANDSEED
  5
2BB
  9
$TILEMODE
 70
1
  9
$MEASUREMENT
 70
0
  9
$INSUNITS
 70
1
  0
ENDSEC
  0
SECTION
  2
CLASSES
  0
CLASS
  1
ACDBDICTIONARYWDFLT
  2
AcDbDictionaryWithDefault
  3
AutoCAD 2000
 90
0
 91
1
280
0
281
0
  0
CLASS
  1
ACDBPLACEHOLDER
  2
AcDbPlaceHolder
  3
AutoCAD 2000
 90
0
 91
1
280
0
281
0
  0
CLASS
  1
LAYOUT
  2
AcDbLayout
  3
AutoCAD 2000
 90
0
 91
0
280
0
281
0
  0
ENDSEC
  0
SECTION
  2
TABLES
  0
TABLE
  2
VPORT
  5
8
100
AcDbSymbolTable
 70
2
  0
VPORT
  5
1F4
100
AcDbSymbolTableRecord
100
AcDbViewportTableRecord
  2
*ACTIVE
 70
0
 10
0.0
 20
0.0
 11
1.0
 21
1.0
 12
5.5
 22
4.25
 13
0.0
 23
0.0
 14
1.0
 24
1.0
 15
0.0
 25
0.0
 16
0.0
 26
0.0
 36
1.0
 17
0.0
 27
0.0
 37
0.0
 40
8.5
 41
1.2941176471
 42
50.0
 43
0.0
 44
0.0
 50
0.0
 51
0.0
 71
0
 72
100
 73
1
 74
1
 75
0
 76
0
 77
0
 78
0
  0
ENDTAB
  0
TABLE
  2
LTYPE
  5
5
100
AcDbSymbolTable
 70
6
  0
LTYPE
  5
14
100
AcDbSymbolTableRecord
100
AcDbLinetypeTableRecord
  2
BYBLOCK
 70
0
  3

 72
65
 73
0
 40
0.0
  0
LTYPE
  5
15
100
AcDbSymbolTableRecord
100
AcDbLinetypeTableRecord
  2
BYLAYER
 70
0
  3

 72
65
 73
0
 40
0.0
  0
LTYPE
  5
16
100
AcDbSymbolTableRecord
100
AcDbLinetypeTableRecord
  2
CONTINUOUS
 70
64
  3
Solid line
 72
65
 73
0
 40
0.0
  0
LTYPE
  5
1F5
100
AcDbSymbolTableRecord
100
AcDbLinetypeTableRecord
  2
CENTER
 70
64
  3
____ _ ____ _ ____ _ ____ _ ____ _ ____ _ ____
 72
65
 73
4
 40
0.6
 49
0.375
 74
0
 49
-0.075
 74
0
 49
0.075
 74
0
 49
-0.075
 74
0
  0
LTYPE
  5
1F6
100
AcDbSymbolTableRecord
100
AcDbLinetypeTableRecord
  2
HIDDEN
 70
64
  3
- - - - - - - - - - - - - - - - - - - -
 72
65
 73
2
 40
0.2
 49
0.1
 74
0
 49
-0.1
 74
0
  0
LTYPE
  5
1F7
100
AcDbSymbolTableRecord
100
AcDbLinetypeTableRecord
  2
PHANTOM
 70
64
  3
_____ _ _ _____ _ _ _____ _ _ _____
 72
65
 73
6
 40
0.8
 49
0.45
 74
0
 49
-0.05
 74
0
 49
0.1
 74
0
 49
-0.05
 74
0
 49
0.1
 74
0
 49
-0.05
 74
0
  0
LTYPE
  5
1F8
100
AcDbSymbolTableRecord
100
AcDbLinetypeTableRecord
  2
DOT
 70
64
  3
. . . . . . . . . . . . . . . . . . . .
 72
65
 73
2
 40
0.2
 49
0.1
 74
0
 49
-0.1
 74
0
  0
LTYPE
  5
1F9
100
AcDbSymbolTableRecord
100
AcDbLinetypeTableRecord
  2
DASHED
 70
64
  3
- - - - - - - - - - - - - - - - - - - -
 72
65
 73
2
 40
0.2
 49
0.1
 74
0
 49
-0.1
 74
0
  0
ENDTAB
  0
TABLE
  2
LAYER
  5
2
100
AcDbSymbolTable
 70
36
  0
LAYER
  5
10
100
AcDbSymbolTableRecord
100
AcDbLayerTableRecord
  2
0
 70
0
 62
7
  6
CONTINUOUS
370
-3
390
F
  0
LAYER
  5
1FA
100
AcDbSymbolTableRecord
100
AcDbLayerTableRecord
  2
DEFAULT_1
 70
0
 62
7
  6
CENTER
370
-3
390
F
  0
LAYER
  5
1FB
100
AcDbSymbolTableRecord
100
AcDbLayerTableRecord
  2
DEFAULT_2
 70
0
 62
8
  6
HIDDEN
370
-3
390
F
  0
LAYER
  5
1FC
100
AcDbSymbolTableRecord
100
AcDbLayerTableRecord
  2
DEFAULT_3
 70
0
 62
7
  6
PHANTOM
370
-3
390
F
  0
LAYER
  5
1FD
100
AcDbSymbolTableRecord
100
AcDbLayerTableRecord
  2
DEFAULT_DATUM_CURVES
 70
0
 62
7
  6
CONTINUOUS
370
-3
390
F
  0
ENDTAB
  0
TABLE
  2
STYLE
  5
3
100
AcDbSymbolTable
 70
1
  0
STYLE
  5
11
100
AcDbSymbolTableRecord
100
AcDbTextStyleTableRecord
  2
STANDARD
 70
0
 40
0.0
 41
0.8
 50
0.0
 71
0
 42
0.2
  3
txt
  4

  0
STYLE
  5
1FE
100
AcDbSymbolTableRecord
100
AcDbTextStyleTableRecord
  2
TEXTSTYLE_1
 70
0
 40
0.0
 41
0.8
 50
0.0
 71
0
 42
0.2
  3
gdt
  4

  0
ENDTAB
  0
TABLE
  2
VIEW
  5
6
100
AcDbSymbolTable
 70
0
  0
ENDTAB
  0
TABLE
  2
UCS
  5
7
100
AcDbSymbolTable
 70
0
  0
ENDTAB
  0
TABLE
  2
APPID
  5
9
100
AcDbSymbolTable
 70
1
  0
APPID
  5
1FF
100
AcDbSymbolTableRecord
100
AcDbRegAppTableRecord
  2
ACAD
 70
0
  0
ENDTAB
  0
TABLE
  2
BLOCK_RECORD
  5
1
100
AcDbSymbolTable
 70
0
  0
BLOCK_RECORD
  5
200
100
AcDbSymbolTableRecord
100
AcDbBlockTableRecord
  2
*Model_Space
  0
BLOCK_RECORD
  5
201
100
AcDbSymbolTableRecord
100
AcDbBlockTableRecord
  2
*Paper_Space
  0
ENDTAB
  0
TABLE
  2
DIMSTYLE
  5
A
100
AcDbSymbolTable
 70
1
100
AcDbDimStyleTable
 71
0
  0
DIMSTYLE
105
202
100
AcDbSymbolTableRecord
100
AcDbDimStyleTableRecord
  2
STANDARD
 70
0
  3

  4

 40
1.0
 41
0.1
 42
0.0625
 43
0.38
 44
0.125
 45
0.0
 46
0.0
 47
0.001
 48
0.001
140
0.08
141
0.09
142
0.0
143
25.4
144
1.0
145
0.0
146
1.0
147
0.09
 71
1.0
 72
0.0
 73
1
 74
1
 75
0
 76
0
 77
0
 78
4
170
0
171
2
172
0
173
0
174
0
175
0
176
0
177
0
178
0
270
2
271
3
272
3
273
2
274
2
275
0
280
0
281
0
282
0
283
1
284
4
285
0
286
0
287
3
288
0
340
11
278
46
  0
ENDTAB
  0
ENDSEC
  0
SECTION
  2
BLOCKS
  0
BLOCK
  5
20
100
AcDbEntity
  8
0
100
AcDbBlockBegin
  2
*Model_Space
 70
0
 10
0.0
 20
0.0
 30
0.0
  3
*Model_Space
  1

  0
ENDBLK
  5
21
100
AcDbEntity
  8
0
100
AcDbBlockEnd
  0
BLOCK
  5
1C
100
AcDbEntity
  8
0
100
AcDbBlockBegin
  2
*Paper_Space
 70
0
 10
0.0
 20
0.0
 30
0.0
  3
*Paper_Space
  1

  0
ENDBLK
  5
1D
100
AcDbEntity
  8
0
100
AcDbBlockEnd
  0
ENDSEC
  0
SECTION
  2
ENTITIES
  0
LINE
  5
203
100
AcDbEntity
  8
0
100
AcDbLine
 62
7
  6
CONTINUOUS
 10
0.0
 20
0.0
 11
0.0
 21
8.5
  0
LINE
  5
204
100
AcDbEntity
  8
0
100
AcDbLine
 62
7
  6
CONTINUOUS
 10
0.0
 20
0.0
 11
11.0
 21
0.0
  0
LINE
  5
205
100
AcDbEntity
  8
0
100
AcDbLine
 62
7
  6
CONTINUOUS
 10
0.0
 20
8.5
 11
11.0
 21
8.5
  0
LINE
  5
206
100
AcDbEntity
  8
0
100
AcDbLine
 62
7
  6
CONTINUOUS
 10
11.0
 20
0.0
 11
11.0
 21
8.5
  0
LINE
  5
207
100
AcDbEntity
  8
0
100
AcDbLine
 62
7
  6
CONTINUOUS
 10
2.0161032719
 20
4.1184005817
 11
2.0161032719
 21
4.5888731308
  0
LINE
  5
208
100
AcDbEntity
  8
0
100
AcDbLine
 62
9
  6
CONTINUOUS
 10
2.0482070697
 20
4.5638509717
 11
2.0482070697
 21
4.1434226015
  0
LINE
  5
209
100
AcDbEntity
  8
0
100
AcDbLine
 62
9
  6
CONTINUOUS
 10
2.0652067721
 20
4.5404762536
 11
2.0652067721
 21
4.1667973196
  0
LINE
  5
20A
100
AcDbEntity
  8
0
100
AcDbLine
 62
9
  6
CONTINUOUS
 10
2.1547418695
 20
4.4502393268
 11
2.1547418695
 21
4.2570342462
  0
LINE
  5
20B
100
AcDbEntity
  8
0
100
AcDbLine
 62
7
  6
CONTINUOUS
 10
2.1553748879
 20
4.2576722197
 11
2.1553748879
 21
4.4496013535
  0
LINE
  5
20C
100
AcDbEntity
  8
0
100
AcDbLine
 62
9
  6
CONTINUOUS
 10
2.169500687
 20
4.2422754287
 11
2.169500687
 21
4.2429323117
  0
LINE
  5
20D
100
AcDbEntity
  8
0
100
AcDbLine
 62
9
  6
CONTINUOUS
 10
2.169500687
 20
4.4643412615
 11
2.169500687
 21
4.4649981445
  0
LINE
  5
20E
100
AcDbEntity
  8
0
100
AcDbLine
 62
9
  6
CONTINUOUS
 10
2.1701386675
 20
4.4643651331
 11
2.1701386675
 21
4.2429084401
  0
LINE
  5
20F
100
AcDbEntity
  8
0
100
AcDbLine
 62
9
  6
CONTINUOUS
 10
2.3620678013
 20
4.2429084401
 11
2.3620678013
 21
4.4643651331
  0
LINE
  5
210
100
AcDbEntity
  8
0
100
AcDbLine
 62
9
  6
CONTINUOUS
 10
2.3627057818
 20
4.2429323117
 11
2.3627057818
 21
4.2422754287
  0
LINE
  5
211
100
AcDbEntity
  8
0
100
AcDbLine
 62
9
  6
CONTINUOUS
 10
2.3627057817
 20
4.4643412615
 11
2.3627057817
 21
4.4649981445
  0
LINE
  5
212
100
AcDbEntity
  8
0
100
AcDbLine
 62
7
  6
CONTINUOUS
 10
2.3768315808
 20
4.4496013535
 11
2.3768315808
 21
4.2576722197
  0
LINE
  5
213
100
AcDbEntity
  8
0
100
AcDbLine
 62
9
  6
CONTINUOUS
 10
2.3774645993
 20
4.2570342464
 11
2.3774645993
 21
4.2832627709
  0
LINE
  5
214
100
AcDbEntity
  8
0
100
AcDbLine
 62
9
  6
CONTINUOUS
 10
2.3774645993
 20
4.4240108023
 11
2.3774645993
 21
4.450239327
  0
LINE
  5
215
100
AcDbEntity
  8
0
100
AcDbLine
 62
9
  6
CONTINUOUS
 10
2.4669996967
 20
4.1667973196
 11
2.4669996967
 21
4.2832627709
  0
LINE
  5
216
100
AcDbEntity
  8
0
100
AcDbLine
 62
9
  6
CONTINUOUS
 10
2.4669996967
 20
4.4240108023
 11
2.4669996967
 21
4.5404762536
  0
LINE
  5
217
100
AcDbEntity
  8
0
100
AcDbLine
 62
9
  6
CONTINUOUS
 10
2.4839993991
 20
4.1434226015
 11
2.4839993991
 21
4.2832627709
  0
LINE
  5
218
100
AcDbEntity
  8
0
100
AcDbLine
 62
9
  6
CONTINUOUS
 10
2.4839993991
 20
4.4240108023
 11
2.4839993991
 21
4.5638509717
  0
LINE
  5
219
100
AcDbEntity
  8
0
100
AcDbLine
 62
7
  6
CONTINUOUS
 10
2.5161031988
 20
4.5888730072
 11
2.5161031988
 21
4.4240108023
  0
LINE
  5
21A
100
AcDbEntity
  8
0
100
AcDbLine
 62
7
  6
CONTINUOUS
 10
2.5161031988
 20
4.2832627709
 11
2.5161031988
 21
4.1184004566
  0
LINE
  5
21B
100
AcDbEntity
  8
0
100
AcDbLine
 62
7
  6
CONTINUOUS
 10
2.0308669837
 20
4.1036367866
 11
2.5013394821
 21
4.1036367866
  0
LINE
  5
21C
100
AcDbEntity
  8
0
100
AcDbLine
 62
7
  6
CONTINUOUS
 10
8.0495677711
 20
4.1036367866
 11
8.5200402695
 21
4.1036367866
  0
LINE
  5
21D
100
AcDbEntity
  8
0
100
AcDbLine
 62
9
  6
CONTINUOUS
 10
2.0558890493
 20
4.1357405301
 11
2.2395250223
 21
4.13574053
  0
LINE
  5
21E
100
AcDbEntity
  8
0
100
AcDbLine
 62
9
  6
CONTINUOUS
 10
2.2926814465
 20
4.13574053
 11
2.4763174195
 21
4.13574053
  0
LINE
  5
21F
100
AcDbEntity
  8
0
100
AcDbLine
 62
9
  6
CONTINUOUS
 10
8.0745898367
 20
4.1357405301
 11
8.2582258097
 21
4.13574053
  0
LINE
  5
220
100
AcDbEntity
  8
0
100
AcDbLine
 62
9
  6
CONTINUOUS
 10
8.3113822339
 20
4.13574053
 11
8.4950182069
 21
4.13574053
  0
LINE
  5
221
100
AcDbEntity
  8
0
100
AcDbLine
 62
9
  6
CONTINUOUS
 10
2.0792637674
 20
4.1527403251
 11
2.4529427014
 21
4.1527403251
  0
LINE
  5
222
100
AcDbEntity
  8
0
100
AcDbLine
 62
9
  6
CONTINUOUS
 10
8.0979645548
 20
4.1527403251
 11
8.4716434888
 21
4.1527403251
  0
LINE
  5
223
100
AcDbEntity
  8
0
100
AcDbLine
 62
9
  6
CONTINUOUS
 10
2.169500687
 20
4.2422754287
 11
2.3627057818
 21
4.2422754287
  0
LINE
  5
224
100
AcDbEntity
  8
0
100
AcDbLine
 62
9
  6
CONTINUOUS
 10
8.1882014744
 20
4.2422754287
 11
8.3814065692
 21
4.2422754287
  0
LINE
  5
225
100
AcDbEntity
  8
0
100
AcDbLine
 62
7
  6
CONTINUOUS
 10
8.3807685887
 20
4.2429084401
 11
8.1888394549
 21
4.2429084401
  0
LINE
  5
226
100
AcDbEntity
  8
0
100
AcDbLine
 62
7
  6
CONTINUOUS
 10
2.3620678013
 20
4.2429084401
 11
2.1701386675
 21
4.2429084401
  0
LINE
  5
227
100
AcDbEntity
  8
0
100
AcDbLine
 62
9
  6
CONTINUOUS
 10
8.1734426569
 20
4.2570342462
 11
8.1740995466
 21
4.2570342463
  0
LINE
  5
228
100
AcDbEntity
  8
0
100
AcDbLine
 62
9
  6
CONTINUOUS
 10
2.3768077096
 20
4.2570342464
 11
2.3774645993
 21
4.2570342464
  0
LINE
  5
229
100
AcDbEntity
  8
0
100
AcDbLine
 62
9
  6
CONTINUOUS
 10
8.395508497
 20
4.2570342464
 11
8.3961653867
 21
4.2570342464
  0
LINE
  5
22A
100
AcDbEntity
  8
0
100
AcDbLine
 62
9
  6
CONTINUOUS
 10
2.1547418695
 20
4.2570342462
 11
2.1553987592
 21
4.2570342463
  0
LINE
  5
22B
100
AcDbEntity
  8
0
100
AcDbLine
 62
9
  6
CONTINUOUS
 10
2.1553748879
 20
4.2576722197
 11
2.3768315808
 21
4.2576722197
  0
LINE
  5
22C
100
AcDbEntity
  8
0
100
AcDbLine
 62
9
  6
CONTINUOUS
 10
8.1740756753
 20
4.2576722197
 11
8.3955323683
 21
4.2576722197
  0
LINE
  5
22D
100
AcDbEntity
  8
0
100
AcDbLine
 62
7
  6
CONTINUOUS
 10
8.1740756753
 20
4.2832627709
 11
2.3768315808
 21
4.2832627709
  0
LINE
  5
22E
100
AcDbEntity
  8
0
100
AcDbLine
 62
9
  6
CONTINUOUS
 10
2.3768315808
 20
4.2931052905
 11
8.1740756753
 21
4.2931052905
  0
LINE
  5
22F
100
AcDbEntity
  8
0
100
AcDbLine
 62
9
  6
CONTINUOUS
 10
8.1740756753
 20
4.4141682827
 11
2.3768315808
 21
4.4141682827
  0
LINE
  5
230
100
AcDbEntity
  8
0
100
AcDbLine
 62
7
  6
CONTINUOUS
 10
2.3768315808
 20
4.4240108023
 11
8.1740756753
 21
4.4240108023
  0
LINE
  5
231
100
AcDbEntity
  8
0
100
AcDbLine
 62
9
  6
CONTINUOUS
 10
8.3955323683
 20
4.4496013535
 11
8.1740756753
 21
4.4496013535
  0
LINE
  5
232
100
AcDbEntity
  8
0
100
AcDbLine
 62
9
  6
CONTINUOUS
 10
2.3768315808
 20
4.4496013535
 11
2.1553748879
 21
4.4496013535
  0
LINE
  5
233
100
AcDbEntity
  8
0
100
AcDbLine
 62
9
  6
CONTINUOUS
 10
8.395508497
 20
4.4502393269
 11
8.3961653867
 21
4.450239327
  0
LINE
  5
234
100
AcDbEntity
  8
0
100
AcDbLine
 62
9
  6
CONTINUOUS
 10
8.1740995466
 20
4.4502393268
 11
8.1734426569
 21
4.4502393268
  0
LINE
  5
235
100
AcDbEntity
  8
0
100
AcDbLine
 62
9
  6
CONTINUOUS
 10
2.1553987592
 20
4.4502393268
 11
2.1547418695
 21
4.4502393268
  0
LINE
  5
236
100
AcDbEntity
  8
0
100
AcDbLine
 62
9
  6
CONTINUOUS
 10
2.3768077096
 20
4.4502393269
 11
2.3774645993
 21
4.450239327
  0
LINE
  5
237
100
AcDbEntity
  8
0
100
AcDbLine
 62
7
  6
CONTINUOUS
 10
2.1701386675
 20
4.4643651331
 11
2.3620678013
 21
4.4643651331
  0
LINE
  5
238
100
AcDbEntity
  8
0
100
AcDbLine
 62
7
  6
CONTINUOUS
 10
8.1888394549
 20
4.4643651331
 11
8.3807685887
 21
4.4643651331
  0
LINE
  5
239
100
AcDbEntity
  8
0
100
AcDbLine
 62
9
  6
CONTINUOUS
 10
8.3814065692
 20
4.4649981445
 11
8.1882014744
 21
4.4649981445
  0
LINE
  5
23A
100
AcDbEntity
  8
0
100
AcDbLine
 62
9
  6
CONTINUOUS
 10
2.3627057817
 20
4.4649981445
 11
2.169500687
 21
4.4649981445
  0
LINE
  5
23B
100
AcDbEntity
  8
0
100
AcDbLine
 62
9
  6
CONTINUOUS
 10
8.4716434888
 20
4.5545332481
 11
8.0979645548
 21
4.5545332481
  0
LINE
  5
23C
100
AcDbEntity
  8
0
100
AcDbLine
 62
9
  6
CONTINUOUS
 10
2.4529427014
 20
4.5545332481
 11
2.0792637674
 21
4.5545332481
  0
LINE
  5
23D
100
AcDbEntity
  8
0
100
AcDbLine
 62
9
  6
CONTINUOUS
 10
8.4950182069
 20
4.5715330432
 11
8.0745898367
 21
4.5715330432
  0
LINE
  5
23E
100
AcDbEntity
  8
0
100
AcDbLine
 62
9
  6
CONTINUOUS
 10
2.4763174195
 20
4.5715330432
 11
2.0558890493
 21
4.5715330432
  0
LINE
  5
23F
100
AcDbEntity
  8
0
100
AcDbLine
 62
7
  6
CONTINUOUS
 10
8.5200402695
 20
4.6036367866
 11
8.0495677741
 21
4.6036367866
  0
LINE
  5
240
100
AcDbEntity
  8
0
100
AcDbLine
 62
7
  6
CONTINUOUS
 10
2.5013394821
 20
4.6036367866
 11
2.0308669867
 21
4.6036367866
  0
LINE
  5
241
100
AcDbEntity
  8
0
100
AcDbLine
 62
7
  6
CONTINUOUS
 10
8.0348040593
 20
4.1184005817
 11
8.0348040593
 21
4.2832627709
  0
LINE
  5
242
100
AcDbEntity
  8
0
100
AcDbLine
 62
7
  6
CONTINUOUS
 10
8.0348040593
 20
4.4240108023
 11
8.0348040593
 21
4.5888731308
  0
LINE
  5
243
100
AcDbEntity
  8
0
100
AcDbLine
 62
9
  6
CONTINUOUS
 10
8.0669078571
 20
4.5638509717
 11
8.0669078571
 21
4.4240108023
  0
LINE
  5
244
100
AcDbEntity
  8
0
100
AcDbLine
 62
9
  6
CONTINUOUS
 10
8.0669078571
 20
4.2832627709
 11
8.0669078571
 21
4.1434226015
  0
LINE
  5
245
100
AcDbEntity
  8
0
100
AcDbLine
 62
9
  6
CONTINUOUS
 10
8.0839075595
 20
4.5404762536
 11
8.0839075595
 21
4.4240108023
  0
LINE
  5
246
100
AcDbEntity
  8
0
100
AcDbLine
 62
9
  6
CONTINUOUS
 10
8.0839075595
 20
4.2832627709
 11
8.0839075595
 21
4.1667973196
  0
LINE
  5
247
100
AcDbEntity
  8
0
100
AcDbLine
 62
9
  6
CONTINUOUS
 10
8.1734426569
 20
4.4502393268
 11
8.1734426569
 21
4.4240108023
  0
LINE
  5
248
100
AcDbEntity
  8
0
100
AcDbLine
 62
9
  6
CONTINUOUS
 10
8.1734426569
 20
4.2832627709
 11
8.1734426569
 21
4.2570342462
  0
LINE
  5
249
100
AcDbEntity
  8
0
100
AcDbLine
 62
7
  6
CONTINUOUS
 10
8.1740756753
 20
4.2576722197
 11
8.1740756753
 21
4.4496013535
  0
LINE
  5
24A
100
AcDbEntity
  8
0
100
AcDbLine
 62
9
  6
CONTINUOUS
 10
8.1882014744
 20
4.2422754287
 11
8.1882014744
 21
4.2429323117
  0
LINE
  5
24B
100
AcDbEntity
  8
0
100
AcDbLine
 62
9
  6
CONTINUOUS
 10
8.1882014744
 20
4.4643412615
 11
8.1882014744
 21
4.4649981445
  0
LINE
  5
24C
100
AcDbEntity
  8
0
100
AcDbLine
 62
9
  6
CONTINUOUS
 10
8.1888394549
 20
4.4643651331
 11
8.1888394549
 21
4.2429084401
  0
LINE
  5
24D
100
AcDbEntity
  8
0
100
AcDbLine
 62
9
  6
CONTINUOUS
 10
8.3807685887
 20
4.2429084401
 11
8.3807685887
 21
4.4643651331
  0
LINE
  5
24E
100
AcDbEntity
  8
0
100
AcDbLine
 62
9
  6
CONTINUOUS
 10
8.3814065692
 20
4.2429323117
 11
8.3814065692
 21
4.2422754287
  0
LINE
  5
24F
100
AcDbEntity
  8
0
100
AcDbLine
 62
9
  6
CONTINUOUS
 10
8.3814065691
 20
4.4643412615
 11
8.3814065692
 21
4.4649981445
  0
LINE
  5
250
100
AcDbEntity
  8
0
100
AcDbLine
 62
7
  6
CONTINUOUS
 10
8.3955323683
 20
4.4496013535
 11
8.3955323683
 21
4.2576722197
  0
LINE
  5
251
100
AcDbEntity
  8
0
100
AcDbLine
 62
9
  6
CONTINUOUS
 10
8.3961653867
 20
4.2570342464
 11
8.3961653867
 21
4.450239327
  0
LINE
  5
252
100
AcDbEntity
  8
0
100
AcDbLine
 62
9
  6
CONTINUOUS
 10
8.4857004841
 20
4.1667973196
 11
8.4857004841
 21
4.5404762536
  0
LINE
  5
253
100
AcDbEntity
  8
0
100
AcDbLine
 62
9
  6
CONTINUOUS
 10
8.5027001865
 20
4.1434226015
 11
8.5027001865
 21
4.5638509717
  0
LINE
  5
254
100
AcDbEntity
  8
0
100
AcDbLine
 62
7
  6
CONTINUOUS
 10
8.5348039862
 20
4.5888730072
 11
8.5348039862
 21
4.1184004566
  0
ARC
  5
255
100
AcDbEntity
  8
0
100
AcDbCircle
 62
9
  6
CONTINUOUS
 10
8.1882133932
 20
4.4502274083
 40
0.0147708011
100
AcDbArc
 50
90.0462297619
 51
179.9537699648
  0
ARC
  5
256
100
AcDbEntity
  8
0
100
AcDbCircle
 62
9
  6
CONTINUOUS
 10
8.3813946504
 20
4.4502274083
 40
0.0147708011
100
AcDbArc
 50
0.0462287681
 51
89.9537689741
  0
ARC
  5
257
100
AcDbEntity
  8
0
100
AcDbCircle
 62
9
  6
CONTINUOUS
 10
2.1695126058
 20
4.4502274083
 40
0.0147708011
100
AcDbArc
 50
90.0462297619
 51
179.9537699648
  0
ARC
  5
258
100
AcDbEntity
  8
0
100
AcDbCircle
 62
9
  6
CONTINUOUS
 10
2.362693863
 20
4.4502274083
 40
0.0147708011
100
AcDbArc
 50
0.0462287682
 51
89.9537689741
  0
ARC
  5
259
100
AcDbEntity
  8
0
100
AcDbCircle
 62
9
  6
CONTINUOUS
 10
8.3813948179
 20
4.2570459974
 40
0.0147705968
100
AcDbArc
 50
270.0455805273
 51
359.9544191992
  0
ARC
  5
25A
100
AcDbEntity
  8
0
100
AcDbCircle
 62
9
  6
CONTINUOUS
 10
8.1882132257
 20
4.2570459973
 40
0.0147705968
100
AcDbArc
 50
180.0455796399
 51
269.9544193257
  0
ARC
  5
25B
100
AcDbEntity
  8
0
100
AcDbCircle
 62
9
  6
CONTINUOUS
 10
2.3626940305
 20
4.2570459974
 40
0.0147705968
100
AcDbArc
 50
270.0455805277
 51
359.9544191989
  0
ARC
  5
25C
100
AcDbEntity
  8
0
100
AcDbCircle
 62
9
  6
CONTINUOUS
 10
2.1695124383
 20
4.2570459973
 40
0.0147705968
100
AcDbArc
 50
180.0455796401
 51
269.9544193256
  0
ARC
  5
25D
100
AcDbEntity
  8
0
100
AcDbCircle
 62
7
  6
CONTINUOUS
 10
8.3807685887
 20
4.4496013535
 40
0.0147637795
100
AcDbArc
 50
0.0
 51
90.0
  0
ARC
  5
25E
100
AcDbEntity
  8
0
100
AcDbCircle
 62
7
  6
CONTINUOUS
 10
8.1888394549
 20
4.4496013535
 40
0.0147637795
100
AcDbArc
 50
90.0
 51
180.0
  0
ARC
  5
25F
100
AcDbEntity
  8
0
100
AcDbCircle
 62
7
  6
CONTINUOUS
 10
8.1888394549
 20
4.2576722197
 40
0.0147637795
100
AcDbArc
 50
180.0
 51
270.0
  0
ARC
  5
260
100
AcDbEntity
  8
0
100
AcDbCircle
 62
7
  6
CONTINUOUS
 10
8.3807685887
 20
4.2576722197
 40
0.0147637795
100
AcDbArc
 50
270.0
 51
360.0
  0
ARC
  5
261
100
AcDbEntity
  8
0
100
AcDbCircle
 62
7
  6
CONTINUOUS
 10
2.1701386675
 20
4.2576722197
 40
0.0147637795
100
AcDbArc
 50
180.0
 51
270.0
  0
ARC
  5
262
100
AcDbEntity
  8
0
100
AcDbCircle
 62
7
  6
CONTINUOUS
 10
2.3620678013
 20
4.2576722197
 40
0.0147637795
100
AcDbArc
 50
270.0
 51
360.0
  0
ARC
  5
263
100
AcDbEntity
  8
0
100
AcDbCircle
 62
7
  6
CONTINUOUS
 10
2.3620678013
 20
4.4496013535
 40
0.0147637795
100
AcDbArc
 50
0.0
 51
90.0
  0
ARC
  5
264
100
AcDbEntity
  8
0
100
AcDbCircle
 62
7
  6
CONTINUOUS
 10
2.1701386675
 20
4.4496013535
 40
0.0147637795
100
AcDbArc
 50
90.0
 51
180.0
  0
ARC
  5
265
100
AcDbEntity
  8
0
100
AcDbCircle
 62
7
  6
CONTINUOUS
 10
8.520040175
 20
4.588872987
 40
0.0147637571
100
AcDbArc
 50
0.0000782431
 51
90.0001504108
  0
ARC
  5
266
100
AcDbEntity
  8
0
100
AcDbCircle
 62
7
  6
CONTINUOUS
 10
2.5013393876
 20
4.588872987
 40
0.0147637571
100
AcDbArc
 50
0.0000782432
 51
90.0001504108
  0
ARC
  5
267
100
AcDbEntity
  8
0
100
AcDbCircle
 62
7
  6
CONTINUOUS
 10
8.520040175
 20
4.1184005861
 40
0.014763757
100
AcDbArc
 50
269.9996661424
 51
359.9994973261
  0
ARC
  5
268
100
AcDbEntity
  8
0
100
AcDbCircle
 62
7
  6
CONTINUOUS
 10
8.0495678686
 20
4.5888729871
 40
0.014763757
100
AcDbArc
 50
89.9996374806
 51
179.9994421626
  0
ARC
  5
269
100
AcDbEntity
  8
0
100
AcDbCircle
 62
7
  6
CONTINUOUS
 10
2.5013393876
 20
4.1184005861
 40
0.014763757
100
AcDbArc
 50
269.9996661424
 51
359.9994973261
  0
ARC
  5
26A
100
AcDbEntity
  8
0
100
AcDbCircle
 62
7
  6
CONTINUOUS
 10
2.0308670812
 20
4.5888729871
 40
0.014763757
100
AcDbArc
 50
89.9996374806
 51
179.9994421626
  0
ARC
  5
26B
100
AcDbEntity
  8
0
100
AcDbCircle
 62
7
  6
CONTINUOUS
 10
8.0495678745
 20
4.1184005877
 40
0.0147637539
100
AcDbArc
 50
180.0000232643
 51
270.0002014325
  0
ARC
  5
26C
100
AcDbEntity
  8
0
100
AcDbCircle
 62
7
  6
CONTINUOUS
 10
2.0308670871
 20
4.1184005877
 40
0.0147637539
100
AcDbArc
 50
180.0000232643
 51
270.0002014325
  0
SPLINE
  5
26D
100
AcDbEntity
  8
0
100
AcDbSpline
 62
7
  6
CONTINUOUS
 70
0
 71
3
 72
13
 73
9
 74
0
 42
0.0000001
 43
0.0000001
 44
0.0000000001
 40
0.0
 40
0.0
 40
0.0
 40
0.0
 40
0.2335513984
 40
0.3465278699
 40
0.4630895582
 40
0.5870166959
 40
0.7191280551
 40
1.0
 40
1.0
 40
1.0
 40
1.0
 10
8.3113822339
 20
4.13574053
 30
0.0
 10
8.3106523456
 20
4.1382155239
 30
0.0
 10
8.3090560656
 20
4.1418291282
 30
0.0
 10
8.3054646253
 20
4.1455391429
 30
0.0
 10
8.3021412627
 20
4.147649807
 30
0.0
 10
8.2982856218
 20
4.1491479857
 30
0.0
 10
8.2924901485
 20
4.150472182
 30
0.0
 10
8.2879072135
 20
4.150786369
 30
0.0
 10
8.2848040218
 20
4.150786369
 30
0.0
  0
SPLINE
  5
26E
100
AcDbEntity
  8
0
100
AcDbSpline
 62
7
  6
CONTINUOUS
 70
0
 71
3
 72
13
 73
9
 74
0
 42
0.0000001
 43
0.0000001
 44
0.0000000001
 40
0.0
 40
0.0
 40
0.0
 40
0.0
 40
0.2809048365
 40
0.4130516759
 40
0.5370249867
 40
0.6535763465
 40
0.7665364687
 40
1.0
 40
1.0
 40
1.0
 40
1.0
 10
8.2848040218
 20
4.150786369
 30
0.0
 10
8.281700448
 20
4.150786369
 30
0.0
 10
8.2771166441
 20
4.1504718223
 30
0.0
 10
8.2713202057
 20
4.1491469484
 30
0.0
 10
8.2674627084
 20
4.1476508191
 30
0.0
 10
8.2641408204
 20
4.1455370009
 30
0.0
 10
8.2605520788
 20
4.1418265641
 30
0.0
 10
8.2589554278
 20
4.1382146077
 30
0.0
 10
8.2582258097
 20
4.13574053
 30
0.0
  0
SPLINE
  5
26F
100
AcDbEntity
  8
0
100
AcDbSpline
 62
7
  6
CONTINUOUS
 70
0
 71
3
 72
9
 73
5
 74
0
 42
0.0000001
 43
0.0000001
 44
0.0000000001
 40
0.0
 40
0.0
 40
0.0
 40
0.0
 40
0.5335247251
 40
1.0
 40
1.0
 40
1.0
 40
1.0
 10
8.2582258097
 20
4.13574053
 30
0.0
 10
8.2574371935
 20
4.1330663942
 30
0.0
 10
8.2560533899
 20
4.1280306827
 30
0.0
 10
8.2552756238
 20
4.1228176765
 30
0.0
 10
8.2552765062
 20
4.1203800561
 30
0.0
  0
SPLINE
  5
270
100
AcDbEntity
  8
0
100
AcDbSpline
 62
7
  6
CONTINUOUS
 70
0
 71
3
 72
9
 73
5
 74
0
 42
0.0000001
 43
0.0000001
 44
0.0000000001
 40
0.0
 40
0.0
 40
0.0
 40
0.0
 40
0.5335028024
 40
1.0
 40
1.0
 40
1.0
 40
1.0
 10
8.3113822339
 20
4.13574053
 30
0.0
 10
8.3121707424
 20
4.1330667593
 30
0.0
 10
8.3135546598
 20
4.128031593
 30
0.0
 10
8.3143323612
 20
4.1228190832
 30
0.0
 10
8.3143315391
 20
4.1203815808
 30
0.0
  0
LINE
  5
271
100
AcDbEntity
  8
0
100
AcDbLine
 62
9
  6
CONTINUOUS
 10
8.0745902813
 20
4.5715332222
 11
8.0495679595
 21
4.6036367441
  0
SPLINE
  5
272
100
AcDbEntity
  8
0
100
AcDbSpline
 62
9
  6
CONTINUOUS
 70
0
 71
3
 72
11
 73
7
 74
0
 42
0.0000001
 43
0.0000001
 44
0.0000000001
 40
0.0
 40
0.0
 40
0.0
 40
0.0
 40
0.2352105164
 40
0.4952650266
 40
0.7580249054
 40
1.0
 40
1.0
 40
1.0
 40
1.0
 10
8.08390758
 20
4.5404764569
 30
0.0
 10
8.0840636816
 20
4.5421465575
 30
0.0
 10
8.0850192106
 20
4.545627673
 30
0.0
 10
8.088169274
 20
4.5501508494
 30
0.0
 10
8.0926991217
 20
4.553379855
 30
0.0
 10
8.0962464204
 20
4.5543726809
 30
0.0
 10
8.0979645548
 20
4.5545332474
 30
0.0
  0
LINE
  5
273
100
AcDbEntity
  8
0
100
AcDbLine
 62
9
  6
CONTINUOUS
 10
8.0348041578
 20
4.5888730618
 11
8.0669078571
 21
4.5638509717
  0
LINE
  5
274
100
AcDbEntity
  8
0
100
AcDbLine
 62
9
  6
CONTINUOUS
 10
8.4716434888
 20
4.5545332481
 11
8.3814065692
 21
4.4649981445
  0
SPLINE
  5
275
100
AcDbEntity
  8
0
100
AcDbSpline
 62
9
  6
CONTINUOUS
 70
0
 71
3
 72
11
 73
7
 74
0
 42
0.0000001
 43
0.0000001
 44
0.0000000001
 40
0.0
 40
0.0
 40
0.0
 40
0.0
 40
0.2419750946
 40
0.5047349734
 40
0.7647894836
 40
1.0
 40
1.0
 40
1.0
 40
1.0
 10
8.4716434888
 20
4.5545332474
 30
0.0
 10
8.4733616232
 20
4.5543726809
 30
0.0
 10
8.4769089219
 20
4.553379855
 30
0.0
 10
8.4814387696
 20
4.5501508494
 30
0.0
 10
8.484588833
 20
4.545627673
 30
0.0
 10
8.485544362
 20
4.5421465575
 30
0.0
 10
8.4857004636
 20
4.5404764569
 30
0.0
  0
LINE
  5
276
100
AcDbEntity
  8
0
100
AcDbLine
 62
9
  6
CONTINUOUS
 10
8.3961653869
 20
4.4502395402
 11
8.4857004635
 21
4.5404764568
  0
LINE
  5
277
100
AcDbEntity
  8
0
100
AcDbLine
 62
9
  6
CONTINUOUS
 10
8.4857004635
 20
4.1667971164
 11
8.3961653869
 21
4.257034033
  0
SPLINE
  5
278
100
AcDbEntity
  8
0
100
AcDbSpline
 62
9
  6
CONTINUOUS
 70
0
 71
3
 72
11
 73
7
 74
0
 42
0.0000001
 43
0.0000001
 44
0.0000000001
 40
0.0
 40
0.0
 40
0.0
 40
0.0
 40
0.2352105164
 40
0.4952650266
 40
0.7580249054
 40
1.0
 40
1.0
 40
1.0
 40
1.0
 10
8.4857004636
 20
4.1667971163
 30
0.0
 10
8.485544362
 20
4.1651270157
 30
0.0
 10
8.484588833
 20
4.1616459002
 30
0.0
 10
8.4814387696
 20
4.1571227238
 30
0.0
 10
8.4769089219
 20
4.1538937182
 30
0.0
 10
8.4733616232
 20
4.1529008923
 30
0.0
 10
8.4716434888
 20
4.1527403258
 30
0.0
  0
LINE
  5
279
100
AcDbEntity
  8
0
100
AcDbLine
 62
9
  6
CONTINUOUS
 10
8.4716434888
 20
4.1527403251
 11
8.3814065692
 21
4.2422754287
  0
LINE
  5
27A
100
AcDbEntity
  8
0
100
AcDbLine
 62
9
  6
CONTINUOUS
 10
8.0979645548
 20
4.1527403251
 11
8.1882014744
 21
4.2422754287
  0
LINE
  5
27B
100
AcDbEntity
  8
0
100
AcDbLine
 62
9
  6
CONTINUOUS
 10
8.0979645548
 20
4.1527403251
 11
8.0745898367
 21
4.13574053
  0
SPLINE
  5
27C
100
AcDbEntity
  8
0
100
AcDbSpline
 62
9
  6
CONTINUOUS
 70
0
 71
3
 72
9
 73
5
 74
0
 42
0.0000001
 43
0.0000001
 44
0.0000000001
 40
0.0
 40
0.0
 40
0.0
 40
0.0
 40
0.5000038499
 40
1.0
 40
1.0
 40
1.0
 40
1.0
 10
8.0839074656
 20
4.1667973289
 30
0.0
 10
8.0842343275
 20
4.1632995017
 30
0.0
 10
8.0875672784
 20
4.1564000204
 30
0.0
 10
8.0944667327
 20
4.1530670424
 30
0.0
 10
8.0979645044
 20
4.1527401676
 30
0.0
  0
LINE
  5
27D
100
AcDbEntity
  8
0
100
AcDbLine
 62
9
  6
CONTINUOUS
 10
8.0839073616
 20
4.1667980774
 11
8.0669072583
 21
4.143423101
  0
LINE
  5
27E
100
AcDbEntity
  8
0
100
AcDbLine
 62
9
  6
CONTINUOUS
 10
8.0669073711
 20
4.5638505839
 11
8.0839073739
 21
4.540475651
  0
LINE
  5
27F
100
AcDbEntity
  8
0
100
AcDbLine
 62
9
  6
CONTINUOUS
 10
8.0348041578
 20
4.1184005056
 11
8.0669078571
 21
4.1434226015
  0
SPLINE
  5
280
100
AcDbEntity
  8
0
100
AcDbSpline
 62
9
  6
CONTINUOUS
 70
0
 71
3
 72
9
 73
5
 74
0
 42
0.0000001
 43
0.0000001
 44
0.0000000001
 40
0.0
 40
0.0
 40
0.0
 40
0.0
 40
0.2595788985
 40
1.0
 40
1.0
 40
1.0
 40
1.0
 10
8.0669077817
 20
4.1434225695
 30
0.0
 10
8.0674628692
 20
4.1426613855
 30
0.0
 10
8.0697363079
 20
4.1398304226
 30
0.0
 10
8.0724186357
 20
4.1373239195
 30
0.0
 10
8.0745898591
 20
4.1357406292
 30
0.0
  0
LINE
  5
281
100
AcDbEntity
  8
0
100
AcDbLine
 62
9
  6
CONTINUOUS
 10
8.0979645548
 20
4.5545332481
 11
8.1882014744
 21
4.4649981445
  0
LINE
  5
282
100
AcDbEntity
  8
0
100
AcDbLine
 62
9
  6
CONTINUOUS
 10
8.0745898367
 20
4.5715330432
 11
8.0979645548
 21
4.5545332481
  0
SPLINE
  5
283
100
AcDbEntity
  8
0
100
AcDbSpline
 62
9
  6
CONTINUOUS
 70
0
 71
3
 72
9
 73
5
 74
0
 42
0.0000001
 43
0.0000001
 44
0.0000000001
 40
0.0
 40
0.0
 40
0.0
 40
0.0
 40
0.2316455744
 40
1.0
 40
1.0
 40
1.0
 40
1.0
 10
8.0669077603
 20
4.5638509716
 30
0.0
 10
8.0674030533
 20
4.5645301484
 30
0.0
 10
8.0696604298
 20
4.5673722573
 30
0.0
 10
8.0723370478
 20
4.5698901904
 30
0.0
 10
8.0745898361
 20
4.5715330476
 30
0.0
  0
LINE
  5
284
100
AcDbEntity
  8
0
100
AcDbLine
 62
9
  6
CONTINUOUS
 10
8.4950182069
 20
4.5715330432
 11
8.4716434888
 21
4.5545332481
  0
SPLINE
  5
285
100
AcDbEntity
  8
0
100
AcDbSpline
 62
9
  6
CONTINUOUS
 70
0
 71
3
 72
9
 73
5
 74
0
 42
0.0000001
 43
0.0000001
 44
0.0000000001
 40
0.0
 40
0.0
 40
0.0
 40
0.0
 40
0.257787135
 40
1.0
 40
1.0
 40
1.0
 40
1.0
 10
8.4950182075
 20
4.5715330476
 30
0.0
 10
8.4957741321
 20
4.5709817858
 30
0.0
 10
8.4986057623
 20
4.5687092767
 30
0.0
 10
8.5011131072
 20
4.5660274067
 30
0.0
 10
8.5027002833
 20
4.5638509716
 30
0.0
  0
LINE
  5
286
100
AcDbEntity
  8
0
100
AcDbLine
 62
9
  6
CONTINUOUS
 10
8.0495677713
 20
4.1036368338
 11
8.074590171
 21
4.135740409
  0
LINE
  5
287
100
AcDbEntity
  8
0
100
AcDbLine
 62
9
  6
CONTINUOUS
 10
8.5027006725
 20
4.1434229893
 11
8.4857006697
 21
4.1667979222
  0
LINE
  5
288
100
AcDbEntity
  8
0
100
AcDbLine
 62
9
  6
CONTINUOUS
 10
8.5200402743
 20
4.6036367441
 11
8.4950179192
 21
4.571533132
  0
LINE
  5
289
100
AcDbEntity
  8
0
100
AcDbLine
 62
9
  6
CONTINUOUS
 10
8.4857006803
 20
4.5404755675
 11
8.5027007308
 21
4.5638505258
  0
SPLINE
  5
28A
100
AcDbEntity
  8
0
100
AcDbSpline
 62
7
  6
CONTINUOUS
 70
0
 71
3
 72
13
 73
9
 74
0
 42
0.0000001
 43
0.0000001
 44
0.0000000001
 40
0.0
 40
0.0
 40
0.0
 40
0.0
 40
0.199566573
 40
0.2966112879
 40
0.4049967334
 40
0.5313816363
 40
0.6759560332
 40
1.0
 40
1.0
 40
1.0
 40
1.0
 10
8.3143315391
 20
4.1203815808
 30
0.0
 10
8.3143306996
 20
4.1178925066
 30
0.0
 10
8.3136682765
 20
4.1139796579
 30
0.0
 10
8.3102442484
 20
4.1101141613
 30
0.0
 10
8.3065955664
 20
4.1080506344
 30
0.0
 10
8.3020444452
 20
4.1066787277
 30
0.0
 10
8.2947061384
 20
4.1054982062
 30
0.0
 10
8.2888456281
 20
4.1052808573
 30
0.0
 10
8.2848040218
 20
4.1052808573
 30
0.0
  0
SPLINE
  5
28B
100
AcDbEntity
  8
0
100
AcDbSpline
 62
7
  6
CONTINUOUS
 70
0
 71
3
 72
14
 73
10
 74
0
 42
0.0000001
 43
0.0000001
 44
0.0000000001
 40
0.0
 40
0.0
 40
0.0
 40
0.0
 40
0.1045785312
 40
0.2010144619
 40
0.2978926314
 40
0.406077614
 40
0.5322348926
 40
0.6765343616
 40
1.0
 40
1.0
 40
1.0
 40
1.0
 10
8.2552765062
 20
4.1203800561
 30
0.0
 10
8.2552769793
 20
4.1190733919
 30
0.0
 10
8.2554859133
 20
4.1165476392
 30
0.0
 10
8.2568139777
 20
4.1129995131
 30
0.0
 10
8.2593626403
 20
4.1101134624
 30
0.0
 10
8.2630132474
 20
4.1080519568
 30
0.0
 10
8.267563263
 20
4.1066785977
 30
0.0
 10
8.2749029598
 20
4.1055069352
 30
0.0
 10
8.2807624561
 20
4.1052852269
 30
0.0
 10
8.2848040218
 20
4.1052852269
 30
0.0
  0
LINE
  5
28C
100
AcDbEntity
  8
0
100
AcDbLine
 62
9
  6
CONTINUOUS
 10
8.4950182069
 20
4.13574053
 11
8.4716434888
 21
4.1527403251
  0
SPLINE
  5
28D
100
AcDbEntity
  8
0
100
AcDbSpline
 62
9
  6
CONTINUOUS
 70
0
 71
3
 72
9
 73
5
 74
0
 42
0.0000001
 43
0.0000001
 44
0.0000000001
 40
0.0
 40
0.0
 40
0.0
 40
0.0
 40
0.2316455744
 40
1.0
 40
1.0
 40
1.0
 40
1.0
 10
8.5027002833
 20
4.1434226016
 30
0.0
 10
8.5022049903
 20
4.1427434248
 30
0.0
 10
8.4999476138
 20
4.1399013159
 30
0.0
 10
8.4972709958
 20
4.1373833828
 30
0.0
 10
8.4950182075
 20
4.1357405256
 30
0.0
  0
LINE
  5
28E
100
AcDbEntity
  8
0
100
AcDbLine
 62
9
  6
CONTINUOUS
 10
8.1734426567
 20
4.2570340221
 11
8.0839075813
 21
4.1667971063
  0
LINE
  5
28F
100
AcDbEntity
  8
0
100
AcDbLine
 62
9
  6
CONTINUOUS
 10
8.4950177623
 20
4.135740351
 11
8.520040084
 21
4.1036368291
  0
LINE
  5
290
100
AcDbEntity
  8
0
100
AcDbLine
 62
9
  6
CONTINUOUS
 10
8.0839075801
 20
4.5404764568
 11
8.1734426567
 21
4.4502395402
  0
LINE
  5
291
100
AcDbEntity
  8
0
100
AcDbLine
 62
9
  6
CONTINUOUS
 10
8.5348038858
 20
4.1184005114
 11
8.5027001865
 21
4.1434226015
  0
LINE
  5
292
100
AcDbEntity
  8
0
100
AcDbLine
 62
9
  6
CONTINUOUS
 10
8.5348038858
 20
4.5888730618
 11
8.5027001865
 21
4.5638509717
  0
SPLINE
  5
293
100
AcDbEntity
  8
0
100
AcDbSpline
 62
7
  6
CONTINUOUS
 70
0
 71
3
 72
13
 73
9
 74
0
 42
0.0000001
 43
0.0000001
 44
0.0000000001
 40
0.0
 40
0.0
 40
0.0
 40
0.0
 40
0.2335513984
 40
0.3465278699
 40
0.4630895582
 40
0.5870166959
 40
0.7191280551
 40
1.0
 40
1.0
 40
1.0
 40
1.0
 10
2.2926814465
 20
4.13574053
 30
0.0
 10
2.2919515582
 20
4.1382155239
 30
0.0
 10
2.2903552782
 20
4.1418291282
 30
0.0
 10
2.2867638379
 20
4.1455391429
 30
0.0
 10
2.2834404753
 20
4.147649807
 30
0.0
 10
2.2795848344
 20
4.1491479857
 30
0.0
 10
2.2737893611
 20
4.150472182
 30
0.0
 10
2.2692064261
 20
4.150786369
 30
0.0
 10
2.2661032344
 20
4.150786369
 30
0.0
  0
SPLINE
  5
294
100
AcDbEntity
  8
0
100
AcDbSpline
 62
7
  6
CONTINUOUS
 70
0
 71
3
 72
13
 73
9
 74
0
 42
0.0000001
 43
0.0000001
 44
0.0000000001
 40
0.0
 40
0.0
 40
0.0
 40
0.0
 40
0.2809048365
 40
0.4130516759
 40
0.5370249867
 40
0.6535763465
 40
0.7665364687
 40
1.0
 40
1.0
 40
1.0
 40
1.0
 10
2.2661032344
 20
4.150786369
 30
0.0
 10
2.2629996606
 20
4.150786369
 30
0.0
 10
2.2584158567
 20
4.1504718223
 30
0.0
 10
2.2526194183
 20
4.1491469484
 30
0.0
 10
2.248761921
 20
4.1476508191
 30
0.0
 10
2.245440033
 20
4.1455370009
 30
0.0
 10
2.2418512914
 20
4.1418265641
 30
0.0
 10
2.2402546404
 20
4.1382146077
 30
0.0
 10
2.2395250223
 20
4.13574053
 30
0.0
  0
SPLINE
  5
295
100
AcDbEntity
  8
0
100
AcDbSpline
 62
7
  6
CONTINUOUS
 70
0
 71
3
 72
9
 73
5
 74
0
 42
0.0000001
 43
0.0000001
 44
0.0000000001
 40
0.0
 40
0.0
 40
0.0
 40
0.0
 40
0.5335247251
 40
1.0
 40
1.0
 40
1.0
 40
1.0
 10
2.2395250223
 20
4.13574053
 30
0.0
 10
2.2387364061
 20
4.1330663942
 30
0.0
 10
2.2373526025
 20
4.1280306827
 30
0.0
 10
2.2365748364
 20
4.1228176765
 30
0.0
 10
2.2365757188
 20
4.1203800561
 30
0.0
  0
SPLINE
  5
296
100
AcDbEntity
  8
0
100
AcDbSpline
 62
7
  6
CONTINUOUS
 70
0
 71
3
 72
9
 73
5
 74
0
 42
0.0000001
 43
0.0000001
 44
0.0000000001
 40
0.0
 40
0.0
 40
0.0
 40
0.0
 40
0.5335028024
 40
1.0
 40
1.0
 40
1.0
 40
1.0
 10
2.2926814465
 20
4.13574053
 30
0.0
 10
2.293469955
 20
4.1330667593
 30
0.0
 10
2.2948538724
 20
4.128031593
 30
0.0
 10
2.2956315738
 20
4.1228190832
 30
0.0
 10
2.2956307517
 20
4.1203815808
 30
0.0
  0
LINE
  5
297
100
AcDbEntity
  8
0
100
AcDbLine
 62
9
  6
CONTINUOUS
 10
2.0558894939
 20
4.5715332222
 11
2.0308671721
 21
4.6036367441
  0
SPLINE
  5
298
100
AcDbEntity
  8
0
100
AcDbSpline
 62
9
  6
CONTINUOUS
 70
0
 71
3
 72
11
 73
7
 74
0
 42
0.0000001
 43
0.0000001
 44
0.0000000001
 40
0.0
 40
0.0
 40
0.0
 40
0.0
 40
0.2352105164
 40
0.4952650266
 40
0.7580249054
 40
1.0
 40
1.0
 40
1.0
 40
1.0
 10
2.0652067926
 20
4.5404764569
 30
0.0
 10
2.0653628942
 20
4.5421465575
 30
0.0
 10
2.0663184232
 20
4.545627673
 30
0.0
 10
2.0694684866
 20
4.5501508494
 30
0.0
 10
2.0739983343
 20
4.553379855
 30
0.0
 10
2.077545633
 20
4.5543726809
 30
0.0
 10
2.0792637674
 20
4.5545332474
 30
0.0
  0
LINE
  5
299
100
AcDbEntity
  8
0
100
AcDbLine
 62
9
  6
CONTINUOUS
 10
2.0161033704
 20
4.5888730618
 11
2.0482070697
 21
4.5638509717
  0
LINE
  5
29A
100
AcDbEntity
  8
0
100
AcDbLine
 62
9
  6
CONTINUOUS
 10
2.4529427014
 20
4.5545332481
 11
2.3627057817
 21
4.4649981445
  0
SPLINE
  5
29B
100
AcDbEntity
  8
0
100
AcDbSpline
 62
9
  6
CONTINUOUS
 70
0
 71
3
 72
11
 73
7
 74
0
 42
0.0000001
 43
0.0000001
 44
0.0000000001
 40
0.0
 40
0.0
 40
0.0
 40
0.0
 40
0.2419750946
 40
0.5047349734
 40
0.7647894836
 40
1.0
 40
1.0
 40
1.0
 40
1.0
 10
2.4529427014
 20
4.5545332474
 30
0.0
 10
2.4546608358
 20
4.5543726809
 30
0.0
 10
2.4582081345
 20
4.553379855
 30
0.0
 10
2.4627379822
 20
4.5501508494
 30
0.0
 10
2.4658880456
 20
4.545627673
 30
0.0
 10
2.4668435746
 20
4.5421465575
 30
0.0
 10
2.4669996762
 20
4.5404764569
 30
0.0
  0
LINE
  5
29C
100
AcDbEntity
  8
0
100
AcDbLine
 62
9
  6
CONTINUOUS
 10
2.3774645995
 20
4.4502395402
 11
2.4669996761
 21
4.5404764568
  0
LINE
  5
29D
100
AcDbEntity
  8
0
100
AcDbLine
 62
9
  6
CONTINUOUS
 10
2.4669996761
 20
4.1667971164
 11
2.3774645995
 21
4.257034033
  0
SPLINE
  5
29E
100
AcDbEntity
  8
0
100
AcDbSpline
 62
9
  6
CONTINUOUS
 70
0
 71
3
 72
11
 73
7
 74
0
 42
0.0000001
 43
0.0000001
 44
0.0000000001
 40
0.0
 40
0.0
 40
0.0
 40
0.0
 40
0.2352105164
 40
0.4952650266
 40
0.7580249054
 40
1.0
 40
1.0
 40
1.0
 40
1.0
 10
2.4669996762
 20
4.1667971163
 30
0.0
 10
2.4668435746
 20
4.1651270157
 30
0.0
 10
2.4658880456
 20
4.1616459002
 30
0.0
 10
2.4627379822
 20
4.1571227238
 30
0.0
 10
2.4582081345
 20
4.1538937182
 30
0.0
 10
2.4546608358
 20
4.1529008923
 30
0.0
 10
2.4529427014
 20
4.1527403258
 30
0.0
  0
LINE
  5
29F
100
AcDbEntity
  8
0
100
AcDbLine
 62
9
  6
CONTINUOUS
 10
2.4529427014
 20
4.1527403251
 11
2.3627057818
 21
4.2422754287
  0
LINE
  5
2A0
100
AcDbEntity
  8
0
100
AcDbLine
 62
9
  6
CONTINUOUS
 10
2.0792637674
 20
4.1527403251
 11
2.169500687
 21
4.2422754287
  0
LINE
  5
2A1
100
AcDbEntity
  8
0
100
AcDbLine
 62
9
  6
CONTINUOUS
 10
2.0792637674
 20
4.1527403251
 11
2.0558890493
 21
4.13574053
  0
SPLINE
  5
2A2
100
AcDbEntity
  8
0
100
AcDbSpline
 62
9
  6
CONTINUOUS
 70
0
 71
3
 72
9
 73
5
 74
0
 42
0.0000001
 43
0.0000001
 44
0.0000000001
 40
0.0
 40
0.0
 40
0.0
 40
0.0
 40
0.5000038499
 40
1.0
 40
1.0
 40
1.0
 40
1.0
 10
2.0652066782
 20
4.1667973289
 30
0.0
 10
2.0655335401
 20
4.1632995017
 30
0.0
 10
2.068866491
 20
4.1564000204
 30
0.0
 10
2.0757659453
 20
4.1530670424
 30
0.0
 10
2.079263717
 20
4.1527401676
 30
0.0
  0
LINE
  5
2A3
100
AcDbEntity
  8
0
100
AcDbLine
 62
9
  6
CONTINUOUS
 10
2.0652065742
 20
4.1667980774
 11
2.0482064709
 21
4.143423101
  0
LINE
  5
2A4
100
AcDbEntity
  8
0
100
AcDbLine
 62
9
  6
CONTINUOUS
 10
2.0482065837
 20
4.5638505839
 11
2.0652065865
 21
4.540475651
  0
LINE
  5
2A5
100
AcDbEntity
  8
0
100
AcDbLine
 62
9
  6
CONTINUOUS
 10
2.0161033704
 20
4.1184005056
 11
2.0482070697
 21
4.1434226015
  0
SPLINE
  5
2A6
100
AcDbEntity
  8
0
100
AcDbSpline
 62
9
  6
CONTINUOUS
 70
0
 71
3
 72
9
 73
5
 74
0
 42
0.0000001
 43
0.0000001
 44
0.0000000001
 40
0.0
 40
0.0
 40
0.0
 40
0.0
 40
0.2595788985
 40
1.0
 40
1.0
 40
1.0
 40
1.0
 10
2.0482069943
 20
4.1434225695
 30
0.0
 10
2.0487620818
 20
4.1426613855
 30
0.0
 10
2.0510355205
 20
4.1398304226
 30
0.0
 10
2.0537178483
 20
4.1373239195
 30
0.0
 10
2.0558890717
 20
4.1357406292
 30
0.0
  0
LINE
  5
2A7
100
AcDbEntity
  8
0
100
AcDbLine
 62
9
  6
CONTINUOUS
 10
2.0792637674
 20
4.5545332481
 11
2.169500687
 21
4.4649981445
  0
LINE
  5
2A8
100
AcDbEntity
  8
0
100
AcDbLine
 62
9
  6
CONTINUOUS
 10
2.0558890493
 20
4.5715330432
 11
2.0792637674
 21
4.5545332481
  0
SPLINE
  5
2A9
100
AcDbEntity
  8
0
100
AcDbSpline
 62
9
  6
CONTINUOUS
 70
0
 71
3
 72
9
 73
5
 74
0
 42
0.0000001
 43
0.0000001
 44
0.0000000001
 40
0.0
 40
0.0
 40
0.0
 40
0.0
 40
0.2316455744
 40
1.0
 40
1.0
 40
1.0
 40
1.0
 10
2.0482069729
 20
4.5638509716
 30
0.0
 10
2.0487022659
 20
4.5645301484
 30
0.0
 10
2.0509596424
 20
4.5673722573
 30
0.0
 10
2.0536362604
 20
4.5698901904
 30
0.0
 10
2.0558890487
 20
4.5715330476
 30
0.0
  0
LINE
  5
2AA
100
AcDbEntity
  8
0
100
AcDbLine
 62
9
  6
CONTINUOUS
 10
2.4763174195
 20
4.5715330432
 11
2.4529427014
 21
4.5545332481
  0
SPLINE
  5
2AB
100
AcDbEntity
  8
0
100
AcDbSpline
 62
9
  6
CONTINUOUS
 70
0
 71
3
 72
9
 73
5
 74
0
 42
0.0000001
 43
0.0000001
 44
0.0000000001
 40
0.0
 40
0.0
 40
0.0
 40
0.0
 40
0.257787135
 40
1.0
 40
1.0
 40
1.0
 40
1.0
 10
2.4763174201
 20
4.5715330476
 30
0.0
 10
2.4770733446
 20
4.5709817858
 30
0.0
 10
2.4799049749
 20
4.5687092767
 30
0.0
 10
2.4824123198
 20
4.5660274067
 30
0.0
 10
2.4839994959
 20
4.5638509716
 30
0.0
  0
LINE
  5
2AC
100
AcDbEntity
  8
0
100
AcDbLine
 62
9
  6
CONTINUOUS
 10
2.0308669839
 20
4.1036368338
 11
2.0558893836
 21
4.135740409
  0
LINE
  5
2AD
100
AcDbEntity
  8
0
100
AcDbLine
 62
9
  6
CONTINUOUS
 10
2.4839998851
 20
4.1434229893
 11
2.4669998823
 21
4.1667979222
  0
LINE
  5
2AE
100
AcDbEntity
  8
0
100
AcDbLine
 62
9
  6
CONTINUOUS
 10
2.5013394869
 20
4.6036367441
 11
2.4763171318
 21
4.571533132
  0
LINE
  5
2AF
100
AcDbEntity
  8
0
100
AcDbLine
 62
9
  6
CONTINUOUS
 10
2.4669998929
 20
4.5404755675
 11
2.4839999434
 21
4.5638505258
  0
SPLINE
  5
2B0
100
AcDbEntity
  8
0
100
AcDbSpline
 62
7
  6
CONTINUOUS
 70
0
 71
3
 72
13
 73
9
 74
0
 42
0.0000001
 43
0.0000001
 44
0.0000000001
 40
0.0
 40
0.0
 40
0.0
 40
0.0
 40
0.199566573
 40
0.2966112879
 40
0.4049967334
 40
0.5313816363
 40
0.6759560332
 40
1.0
 40
1.0
 40
1.0
 40
1.0
 10
2.2956307517
 20
4.1203815808
 30
0.0
 10
2.2956299122
 20
4.1178925066
 30
0.0
 10
2.2949674891
 20
4.1139796579
 30
0.0
 10
2.291543461
 20
4.1101141613
 30
0.0
 10
2.287894779
 20
4.1080506344
 30
0.0
 10
2.2833436578
 20
4.1066787277
 30
0.0
 10
2.276005351
 20
4.1054982062
 30
0.0
 10
2.2701448407
 20
4.1052808573
 30
0.0
 10
2.2661032344
 20
4.1052808573
 30
0.0
  0
SPLINE
  5
2B1
100
AcDbEntity
  8
0
100
AcDbSpline
 62
7
  6
CONTINUOUS
 70
0
 71
3
 72
14
 73
10
 74
0
 42
0.0000001
 43
0.0000001
 44
0.0000000001
 40
0.0
 40
0.0
 40
0.0
 40
0.0
 40
0.1045785312
 40
0.2010144619
 40
0.2978926314
 40
0.406077614
 40
0.5322348926
 40
0.6765343616
 40
1.0
 40
1.0
 40
1.0
 40
1.0
 10
2.2365757188
 20
4.1203800561
 30
0.0
 10
2.2365761919
 20
4.1190733919
 30
0.0
 10
2.2367851259
 20
4.1165476392
 30
0.0
 10
2.2381131903
 20
4.1129995131
 30
0.0
 10
2.2406618529
 20
4.1101134624
 30
0.0
 10
2.2443124599
 20
4.1080519568
 30
0.0
 10
2.2488624756
 20
4.1066785977
 30
0.0
 10
2.2562021724
 20
4.1055069352
 30
0.0
 10
2.2620616687
 20
4.1052852269
 30
0.0
 10
2.2661032344
 20
4.1052852269
 30
0.0
  0
LINE
  5
2B2
100
AcDbEntity
  8
0
100
AcDbLine
 62
9
  6
CONTINUOUS
 10
2.4763174195
 20
4.13574053
 11
2.4529427014
 21
4.1527403251
  0
SPLINE
  5
2B3
100
AcDbEntity
  8
0
100
AcDbSpline
 62
9
  6
CONTINUOUS
 70
0
 71
3
 72
9
 73
5
 74
0
 42
0.0000001
 43
0.0000001
 44
0.0000000001
 40
0.0
 40
0.0
 40
0.0
 40
0.0
 40
0.2316455744
 40
1.0
 40
1.0
 40
1.0
 40
1.0
 10
2.4839994959
 20
4.1434226016
 30
0.0
 10
2.4835042029
 20
4.1427434248
 30
0.0
 10
2.4812468264
 20
4.1399013159
 30
0.0
 10
2.4785702084
 20
4.1373833828
 30
0.0
 10
2.4763174201
 20
4.1357405256
 30
0.0
  0
LINE
  5
2B4
100
AcDbEntity
  8
0
100
AcDbLine
 62
9
  6
CONTINUOUS
 10
2.1547418693
 20
4.2570340221
 11
2.0652067939
 21
4.1667971063
  0
LINE
  5
2B5
100
AcDbEntity
  8
0
100
AcDbLine
 62
9
  6
CONTINUOUS
 10
2.4763169749
 20
4.135740351
 11
2.5013392966
 21
4.1036368291
  0
LINE
  5
2B6
100
AcDbEntity
  8
0
100
AcDbLine
 62
9
  6
CONTINUOUS
 10
2.0652067927
 20
4.5404764568
 11
2.1547418693
 21
4.4502395402
  0
LINE
  5
2B7
100
AcDbEntity
  8
0
100
AcDbLine
 62
9
  6
CONTINUOUS
 10
2.5161030984
 20
4.1184005114
 11
2.4839993991
 21
4.1434226015
  0
LINE
  5
2B8
100
AcDbEntity
  8
0
100
AcDbLine
 62
9
  6
CONTINUOUS
 10
2.5161030984
 20
4.5888730618
 11
2.4839993991
 21
4.5638509717
  0
ENDSEC
  0
SECTION
  2
OBJECTS
  0
DICTIONARY
  5
C
100
AcDbDictionary
280
0
281
1
  3
ACAD_GROUP
350
D
  3
ACAD_MLINESTYLE
350
17
  3
ACAD_LAYOUT
350
1A
  3
ACAD_PLOTSETTINGS
350
19
  3
ACAD_PLOTSTYLENAME
350
E
  0
DICTIONARY
  5
D
102
{ACAD_REACTORS
330
C
102
}
100
AcDbDictionary
280
0
281
1
  0
ACDBDICTIONARYWDFLT
  5
E
102
{ACAD_REACTORS
330
C
102
}
100
AcDbDictionary
281
1
  3
Normal
350
F
100
AcDbDictionaryWithDefault
340
F
  0
DICTIONARY
  5
17
102
{ACAD_REACTORS
330
C
102
}
100
AcDbDictionary
280
0
281
1
  3
Standard
350
18
  0
DICTIONARY
  5
19
102
{ACAD_REACTORS
330
C
102
}
100
AcDbDictionary
281
1
  0
DICTIONARY
  5
1A
102
{ACAD_REACTORS
330
C
102
}
100
AcDbDictionary
281
1
  3
Model
350
2B9
  3
Layout1
350
2BA
  0
ACDBPLACEHOLDER
  5
F
102
{ACAD_REACTORS
330
E
102
}
  0
MLINESTYLE
  5
18
102
{ACAD_REACTORS
330
17
102
}
100
AcDbMlineStyle
  2
STANDARD
 70
0
  3

 62
256
 51
90.0
 52
90.0
 71
2
 49
0.5
 62
256
  6
BYLAYER
 49
-0.5
 62
256
  6
BYLAYER
  0
LAYOUT
  5
2B9
102
{ACAD_REACTORS
330
1A
102
}
100
AcDbPlotSettings
  1

  2
none_device
  4
ANSI_A_(11.00_x_8.50_Inches)
  6

 40
0.0
 41
0.0
 42
0.0
 43
0.0
 44
279.4
 45
215.9
 46
0.0
 47
0.0
 48
0.0
 49
0.0
140
0.0
141
0.0
142
1.0
143
1.0
 70
1024
 72
0
 73
0
 74
0
  7

 75
0
147
1.0
148
0.0
149
0.0
100
AcDbLayout
  1
Model
 70
0
 71
0
 10
0.0
 20
0.0
 11
11.0
 21
8.5
 12
0.0
 22
0.0
 32
0.0
 14
0.0
 24
0.0
 34
0.0
 15
0.0
 25
0.0
 35
0.0
146
0.0
 13
0.0
 23
0.0
 33
0.0
 16
1.0
 26
0.0
 36
0.0
 17
0.0
 27
1.0
 37
0.0
 76
0
330
200
345
0
346
0
  0
LAYOUT
  5
2BA
102
{ACAD_REACTORS
330
1A
102
}
100
AcDbPlotSettings
  1

  2
none_device
  4
ANSI_A_(11.00_x_8.50_Inches)
  6

 40
0.0
 41
0.0
 42
0.0
 43
0.0
 44
279.4
 45
215.9
 46
0.0
 47
0.0
 48
0.0
 49
0.0
140
0.0
141
0.0
142
1.0
143
1.0
 70
0
 72
0
 73
0
 74
0
  7

 75
0
147
1.0
148
0.0
149
0.0
100
AcDbLayout
  1
Layout1
 70
0
 71
1
 10
0.0
 20
0.0
 11
11.0
 21
8.5
 12
0.0
 22
0.0
 32
0.0
 14
0.0
 24
0.0
 34
0.0
 15
0.0
 25
0.0
 35
0.0
146
0.0
 13
0.0
 23
0.0
 33
0.0
 16
1.0
 26
0.0
 36
0.0
 17
0.0
 27
1.0
 37
0.0
 76
0
330
201
345
0
346
0
  0
ENDSEC
  0
EOF
