999
DXF file: 81-02_top.dxf
999
Pro/ENGINEER 2013150 by Parametric Technology Corporation
  0
SECTION
  2
HEADER
  9
$ACADVER
  1
AC1021
  9
$DWGCODEPAGE
  3
ANSI_1252
  9
$EXTMAX
 10
11.0
 20
8.5
 30
0.0
  9
$EXTMIN
 10
0.0
 20
0.0
 30
0.0
  9
$LIMMIN
 10
0.0
 20
0.0
  9
$LIMMAX
 10
11.0
 20
8.5
  9
$VIEWCTR
 10
5.5
 20
4.25
  9
$VIEWSIZE
 40
8.5
  9
$CLAYER
  8
0
  9
$LTSCALE
 40
0.605
  9
$CELTYPE
  6
BYLAYER
  9
$DIMSCALE
 40
1.0
  9
$DIMASZ
 40
0.1
  9
$DIMEXO
 40
0.0625
  9
$DIMDLI
 40
0.418
  9
$DIMEXE
 40
0.125
  9
$DIMCEN
 40
0.099
  9
$DIMLFAC
 40
1.0
  9
$DIMBLK
  1
_FILLED
  9
$DIMTXT
 40
0.08
  9
$DIMTOL
 70
1
  9
$DIMLIM
 70
0
  9
$DIMTFAC
 40
1.0
  9
$DIMTP
 40
0.001
  9
$DIMTM
 40
0.001
  9
$DIMGAP
 40
0.09
  9
$DIMDSEP
 70
46
  9
$PDMODE
 70
3
  9
$PDSIZE
 40
0.06
  9
$HANDSEED
  5
263
  9
$TILEMODE
 70
1
  9
$MEASUREMENT
 70
0
  9
$INSUNITS
 70
1
  0
ENDSEC
  0
SECTION
  2
CLASSES
  0
CLASS
  1
ACDBDICTIONARYWDFLT
  2
AcDbDictionaryWithDefault
  3
AutoCAD 2000
 90
0
 91
1
280
0
281
0
  0
CLASS
  1
ACDBPLACEHOLDER
  2
AcDbPlaceHolder
  3
AutoCAD 2000
 90
0
 91
1
280
0
281
0
  0
CLASS
  1
LAYOUT
  2
AcDbLayout
  3
AutoCAD 2000
 90
0
 91
0
280
0
281
0
  0
ENDSEC
  0
SECTION
  2
TABLES
  0
TABLE
  2
VPORT
  5
8
100
AcDbSymbolTable
 70
2
  0
VPORT
  5
1F4
100
AcDbSymbolTableRecord
100
AcDbViewportTableRecord
  2
*ACTIVE
 70
0
 10
0.0
 20
0.0
 11
1.0
 21
1.0
 12
5.5
 22
4.25
 13
0.0
 23
0.0
 14
1.0
 24
1.0
 15
0.0
 25
0.0
 16
0.0
 26
0.0
 36
1.0
 17
0.0
 27
0.0
 37
0.0
 40
8.5
 41
1.2941176471
 42
50.0
 43
0.0
 44
0.0
 50
0.0
 51
0.0
 71
0
 72
100
 73
1
 74
1
 75
0
 76
0
 77
0
 78
0
  0
ENDTAB
  0
TABLE
  2
LTYPE
  5
5
100
AcDbSymbolTable
 70
6
  0
LTYPE
  5
14
100
AcDbSymbolTableRecord
100
AcDbLinetypeTableRecord
  2
BYBLOCK
 70
0
  3

 72
65
 73
0
 40
0.0
  0
LTYPE
  5
15
100
AcDbSymbolTableRecord
100
AcDbLinetypeTableRecord
  2
BYLAYER
 70
0
  3

 72
65
 73
0
 40
0.0
  0
LTYPE
  5
16
100
AcDbSymbolTableRecord
100
AcDbLinetypeTableRecord
  2
CONTINUOUS
 70
64
  3
Solid line
 72
65
 73
0
 40
0.0
  0
LTYPE
  5
1F5
100
AcDbSymbolTableRecord
100
AcDbLinetypeTableRecord
  2
CENTER
 70
64
  3
____ _ ____ _ ____ _ ____ _ ____ _ ____ _ ____
 72
65
 73
4
 40
0.6
 49
0.375
 74
0
 49
-0.075
 74
0
 49
0.075
 74
0
 49
-0.075
 74
0
  0
LTYPE
  5
1F6
100
AcDbSymbolTableRecord
100
AcDbLinetypeTableRecord
  2
HIDDEN
 70
64
  3
- - - - - - - - - - - - - - - - - - - -
 72
65
 73
2
 40
0.2
 49
0.1
 74
0
 49
-0.1
 74
0
  0
LTYPE
  5
1F7
100
AcDbSymbolTableRecord
100
AcDbLinetypeTableRecord
  2
PHANTOM
 70
64
  3
_____ _ _ _____ _ _ _____ _ _ _____
 72
65
 73
6
 40
0.8
 49
0.45
 74
0
 49
-0.05
 74
0
 49
0.1
 74
0
 49
-0.05
 74
0
 49
0.1
 74
0
 49
-0.05
 74
0
  0
LTYPE
  5
1F8
100
AcDbSymbolTableRecord
100
AcDbLinetypeTableRecord
  2
DOT
 70
64
  3
. . . . . . . . . . . . . . . . . . . .
 72
65
 73
2
 40
0.2
 49
0.1
 74
0
 49
-0.1
 74
0
  0
LTYPE
  5
1F9
100
AcDbSymbolTableRecord
100
AcDbLinetypeTableRecord
  2
DASHED
 70
64
  3
- - - - - - - - - - - - - - - - - - - -
 72
65
 73
2
 40
0.2
 49
0.1
 74
0
 49
-0.1
 74
0
  0
ENDTAB
  0
TABLE
  2
LAYER
  5
2
100
AcDbSymbolTable
 70
36
  0
LAYER
  5
10
100
AcDbSymbolTableRecord
100
AcDbLayerTableRecord
  2
0
 70
0
 62
7
  6
CONTINUOUS
370
-3
390
F
  0
LAYER
  5
1FA
100
AcDbSymbolTableRecord
100
AcDbLayerTableRecord
  2
DEFAULT_1
 70
0
 62
7
  6
CENTER
370
-3
390
F
  0
LAYER
  5
1FB
100
AcDbSymbolTableRecord
100
AcDbLayerTableRecord
  2
DEFAULT_2
 70
0
 62
8
  6
HIDDEN
370
-3
390
F
  0
LAYER
  5
1FC
100
AcDbSymbolTableRecord
100
AcDbLayerTableRecord
  2
DEFAULT_3
 70
0
 62
7
  6
PHANTOM
370
-3
390
F
  0
LAYER
  5
1FD
100
AcDbSymbolTableRecord
100
AcDbLayerTableRecord
  2
DEFAULT_DATUM_CURVES
 70
0
 62
7
  6
CONTINUOUS
370
-3
390
F
  0
ENDTAB
  0
TABLE
  2
STYLE
  5
3
100
AcDbSymbolTable
 70
1
  0
STYLE
  5
11
100
AcDbSymbolTableRecord
100
AcDbTextStyleTableRecord
  2
STANDARD
 70
0
 40
0.0
 41
0.8
 50
0.0
 71
0
 42
0.2
  3
txt
  4

  0
STYLE
  5
1FE
100
AcDbSymbolTableRecord
100
AcDbTextStyleTableRecord
  2
TEXTSTYLE_1
 70
0
 40
0.0
 41
0.8
 50
0.0
 71
0
 42
0.2
  3
gdt
  4

  0
ENDTAB
  0
TABLE
  2
VIEW
  5
6
100
AcDbSymbolTable
 70
0
  0
ENDTAB
  0
TABLE
  2
UCS
  5
7
100
AcDbSymbolTable
 70
0
  0
ENDTAB
  0
TABLE
  2
APPID
  5
9
100
AcDbSymbolTable
 70
1
  0
APPID
  5
1FF
100
AcDbSymbolTableRecord
100
AcDbRegAppTableRecord
  2
ACAD
 70
0
  0
ENDTAB
  0
TABLE
  2
BLOCK_RECORD
  5
1
100
AcDbSymbolTable
 70
0
  0
BLOCK_RECORD
  5
200
100
AcDbSymbolTableRecord
100
AcDbBlockTableRecord
  2
*Model_Space
  0
BLOCK_RECORD
  5
201
100
AcDbSymbolTableRecord
100
AcDbBlockTableRecord
  2
*Paper_Space
  0
ENDTAB
  0
TABLE
  2
DIMSTYLE
  5
A
100
AcDbSymbolTable
 70
1
100
AcDbDimStyleTable
 71
0
  0
DIMSTYLE
105
202
100
AcDbSymbolTableRecord
100
AcDbDimStyleTableRecord
  2
STANDARD
 70
0
  3

  4

 40
1.0
 41
0.1
 42
0.0625
 43
0.38
 44
0.125
 45
0.0
 46
0.0
 47
0.001
 48
0.001
140
0.08
141
0.09
142
0.0
143
25.4
144
1.0
145
0.0
146
1.0
147
0.09
 71
1.0
 72
0.0
 73
1
 74
1
 75
0
 76
0
 77
0
 78
4
170
0
171
2
172
0
173
0
174
0
175
0
176
0
177
0
178
0
270
2
271
3
272
3
273
2
274
2
275
0
280
0
281
0
282
0
283
1
284
4
285
0
286
0
287
3
288
0
340
11
278
46
  0
ENDTAB
  0
ENDSEC
  0
SECTION
  2
BLOCKS
  0
BLOCK
  5
20
100
AcDbEntity
  8
0
100
AcDbBlockBegin
  2
*Model_Space
 70
0
 10
0.0
 20
0.0
 30
0.0
  3
*Model_Space
  1

  0
ENDBLK
  5
21
100
AcDbEntity
  8
0
100
AcDbBlockEnd
  0
BLOCK
  5
1C
100
AcDbEntity
  8
0
100
AcDbBlockBegin
  2
*Paper_Space
 70
0
 10
0.0
 20
0.0
 30
0.0
  3
*Paper_Space
  1

  0
ENDBLK
  5
1D
100
AcDbEntity
  8
0
100
AcDbBlockEnd
  0
ENDSEC
  0
SECTION
  2
ENTITIES
  0
LINE
  5
203
100
AcDbEntity
  8
0
100
AcDbLine
 62
7
  6
CONTINUOUS
 10
0.0
 20
0.0
 11
0.0
 21
8.5
  0
LINE
  5
204
100
AcDbEntity
  8
0
100
AcDbLine
 62
7
  6
CONTINUOUS
 10
0.0
 20
0.0
 11
11.0
 21
0.0
  0
LINE
  5
205
100
AcDbEntity
  8
0
100
AcDbLine
 62
7
  6
CONTINUOUS
 10
0.0
 20
8.5
 11
11.0
 21
8.5
  0
LINE
  5
206
100
AcDbEntity
  8
0
100
AcDbLine
 62
7
  6
CONTINUOUS
 10
11.0
 20
0.0
 11
11.0
 21
8.5
  0
LINE
  5
207
100
AcDbEntity
  8
0
100
AcDbLine
 62
7
  6
CONTINUOUS
 10
2.1553748879
 20
3.9304084284
 11
2.1553748879
 21
4.1223375623
  0
LINE
  5
208
100
AcDbEntity
  8
0
100
AcDbLine
 62
9
  6
CONTINUOUS
 10
2.1695006874
 20
4.1715501607
 11
2.169500687
 21
4.1859312095
  0
LINE
  5
209
100
AcDbEntity
  8
0
100
AcDbLine
 62
9
  6
CONTINUOUS
 10
2.1701386675
 20
4.1371013418
 11
2.1701386675
 21
3.9156446489
  0
LINE
  5
20A
100
AcDbEntity
  8
0
100
AcDbLine
 62
7
  6
CONTINUOUS
 10
2.1824418171
 20
4.1371013418
 11
2.1824418171
 21
4.1715501607
  0
LINE
  5
20B
100
AcDbEntity
  8
0
100
AcDbLine
 62
9
  6
CONTINUOUS
 10
2.1972055966
 20
4.1715501607
 11
2.1972055966
 21
4.1371013418
  0
LINE
  5
20C
100
AcDbEntity
  8
0
100
AcDbLine
 62
9
  6
CONTINUOUS
 10
2.3350008722
 20
4.1371013418
 11
2.3350008722
 21
4.1715501607
  0
LINE
  5
20D
100
AcDbEntity
  8
0
100
AcDbLine
 62
7
  6
CONTINUOUS
 10
2.3497646517
 20
4.1715501607
 11
2.3497646517
 21
4.1371013418
  0
LINE
  5
20E
100
AcDbEntity
  8
0
100
AcDbLine
 62
9
  6
CONTINUOUS
 10
2.3620678013
 20
3.9156446489
 11
2.3620678013
 21
4.1371013418
  0
LINE
  5
20F
100
AcDbEntity
  8
0
100
AcDbLine
 62
9
  6
CONTINUOUS
 10
2.3627057817
 20
4.1715501607
 11
2.3627057817
 21
4.1859312095
  0
LINE
  5
210
100
AcDbEntity
  8
0
100
AcDbLine
 62
7
  6
CONTINUOUS
 10
2.3768315808
 20
4.1223375623
 11
2.3768315808
 21
3.9304084284
  0
LINE
  5
211
100
AcDbEntity
  8
0
100
AcDbLine
 62
7
  6
CONTINUOUS
 10
8.3807685887
 20
3.9156446489
 11
8.1888394549
 21
3.9156446489
  0
LINE
  5
212
100
AcDbEntity
  8
0
100
AcDbLine
 62
7
  6
CONTINUOUS
 10
2.3620678013
 20
3.9156446489
 11
2.1701386675
 21
3.9156446489
  0
LINE
  5
213
100
AcDbEntity
  8
0
100
AcDbLine
 62
9
  6
CONTINUOUS
 10
2.1553748879
 20
3.9304084284
 11
2.3768315808
 21
3.9304084284
  0
LINE
  5
214
100
AcDbEntity
  8
0
100
AcDbLine
 62
9
  6
CONTINUOUS
 10
8.1740756753
 20
3.9304084284
 11
8.3955323683
 21
3.9304084284
  0
LINE
  5
215
100
AcDbEntity
  8
0
100
AcDbLine
 62
7
  6
CONTINUOUS
 10
8.1740756753
 20
3.9559989796
 11
2.3768315808
 21
3.9559989796
  0
LINE
  5
216
100
AcDbEntity
  8
0
100
AcDbLine
 62
9
  6
CONTINUOUS
 10
2.3768315808
 20
3.9658414993
 11
8.1740756753
 21
3.9658414993
  0
LINE
  5
217
100
AcDbEntity
  8
0
100
AcDbLine
 62
9
  6
CONTINUOUS
 10
8.1740756753
 20
4.0869044914
 11
2.3768315808
 21
4.0869044914
  0
LINE
  5
218
100
AcDbEntity
  8
0
100
AcDbLine
 62
7
  6
CONTINUOUS
 10
2.3768315808
 20
4.0967470111
 11
8.1740756753
 21
4.0967470111
  0
LINE
  5
219
100
AcDbEntity
  8
0
100
AcDbLine
 62
9
  6
CONTINUOUS
 10
8.3955323683
 20
4.1223375623
 11
8.1740756753
 21
4.1223375623
  0
LINE
  5
21A
100
AcDbEntity
  8
0
100
AcDbLine
 62
9
  6
CONTINUOUS
 10
2.3768315808
 20
4.1223375623
 11
2.1553748879
 21
4.1223375623
  0
LINE
  5
21B
100
AcDbEntity
  8
0
100
AcDbLine
 62
7
  6
CONTINUOUS
 10
2.1701386675
 20
4.1371013418
 11
2.3620678013
 21
4.1371013418
  0
LINE
  5
21C
100
AcDbEntity
  8
0
100
AcDbLine
 62
7
  6
CONTINUOUS
 10
8.1888394549
 20
4.1371013418
 11
8.3807685887
 21
4.1371013418
  0
LINE
  5
21D
100
AcDbEntity
  8
0
100
AcDbLine
 62
7
  6
CONTINUOUS
 10
8.3814065687
 20
4.1715501607
 11
8.1882014748
 21
4.1715501607
  0
LINE
  5
21E
100
AcDbEntity
  8
0
100
AcDbLine
 62
7
  6
CONTINUOUS
 10
2.3627057813
 20
4.1715501607
 11
2.1695006874
 21
4.1715501607
  0
LINE
  5
21F
100
AcDbEntity
  8
0
100
AcDbLine
 62
9
  6
CONTINUOUS
 10
8.3814065692
 20
4.1859312095
 11
8.1882014744
 21
4.1859312095
  0
LINE
  5
220
100
AcDbEntity
  8
0
100
AcDbLine
 62
9
  6
CONTINUOUS
 10
2.3627057817
 20
4.1859312095
 11
2.169500687
 21
4.1859312095
  0
LINE
  5
221
100
AcDbEntity
  8
0
100
AcDbLine
 62
9
  6
CONTINUOUS
 10
8.4716434888
 20
4.7128887434
 11
8.0979645548
 21
4.7128887434
  0
LINE
  5
222
100
AcDbEntity
  8
0
100
AcDbLine
 62
9
  6
CONTINUOUS
 10
2.4529427014
 20
4.7128887434
 11
2.0792637674
 21
4.7128887434
  0
LINE
  5
223
100
AcDbEntity
  8
0
100
AcDbLine
 62
9
  6
CONTINUOUS
 10
8.4950182069
 20
4.7344738386
 11
8.0745898367
 21
4.7344738386
  0
LINE
  5
224
100
AcDbEntity
  8
0
100
AcDbLine
 62
9
  6
CONTINUOUS
 10
2.4763174195
 20
4.7344738386
 11
2.0558890493
 21
4.7344738386
  0
LINE
  5
225
100
AcDbEntity
  8
0
100
AcDbLine
 62
7
  6
CONTINUOUS
 10
2.0161032719
 20
4.7916289008
 11
2.5161031988
 21
4.7916289008
  0
LINE
  5
226
100
AcDbEntity
  8
0
100
AcDbLine
 62
7
  6
CONTINUOUS
 10
8.0348040593
 20
4.7916289008
 11
8.5348039862
 21
4.7916289008
  0
LINE
  5
227
100
AcDbEntity
  8
0
100
AcDbLine
 62
7
  6
CONTINUOUS
 10
8.1740756753
 20
3.9304084284
 11
8.1740756753
 21
4.1223375623
  0
LINE
  5
228
100
AcDbEntity
  8
0
100
AcDbLine
 62
9
  6
CONTINUOUS
 10
8.1882014748
 20
4.1715501607
 11
8.1882014744
 21
4.1859312095
  0
LINE
  5
229
100
AcDbEntity
  8
0
100
AcDbLine
 62
9
  6
CONTINUOUS
 10
8.1888394549
 20
4.1371013418
 11
8.1888394549
 21
3.9156446489
  0
LINE
  5
22A
100
AcDbEntity
  8
0
100
AcDbLine
 62
7
  6
CONTINUOUS
 10
8.2011426045
 20
4.1371013418
 11
8.2011426045
 21
4.1715501607
  0
LINE
  5
22B
100
AcDbEntity
  8
0
100
AcDbLine
 62
9
  6
CONTINUOUS
 10
8.215906384
 20
4.1715501607
 11
8.215906384
 21
4.1371013418
  0
LINE
  5
22C
100
AcDbEntity
  8
0
100
AcDbLine
 62
9
  6
CONTINUOUS
 10
8.3537016596
 20
4.1371013418
 11
8.3537016596
 21
4.1715501607
  0
LINE
  5
22D
100
AcDbEntity
  8
0
100
AcDbLine
 62
7
  6
CONTINUOUS
 10
8.3684654391
 20
4.1715501607
 11
8.3684654391
 21
4.1371013418
  0
LINE
  5
22E
100
AcDbEntity
  8
0
100
AcDbLine
 62
9
  6
CONTINUOUS
 10
8.3807685887
 20
3.9156446489
 11
8.3807685887
 21
4.1371013418
  0
LINE
  5
22F
100
AcDbEntity
  8
0
100
AcDbLine
 62
9
  6
CONTINUOUS
 10
8.3814065691
 20
4.1715501607
 11
8.3814065692
 21
4.1859312095
  0
LINE
  5
230
100
AcDbEntity
  8
0
100
AcDbLine
 62
7
  6
CONTINUOUS
 10
8.3955323683
 20
4.1223375623
 11
8.3955323683
 21
3.9304084284
  0
ARC
  5
231
100
AcDbEntity
  8
0
100
AcDbCircle
 62
7
  6
CONTINUOUS
 10
0.2718753893
 20
4.1370994871
 40
1.8834995935
100
AcDbArc
 50
1.4856201258
 51
17.8003921332
  0
ARC
  5
232
100
AcDbEntity
  8
0
100
AcDbCircle
 62
7
  6
CONTINUOUS
 10
4.2603310795
 20
4.1370994871
 40
1.8834995935
100
AcDbArc
 50
162.1996078668
 51
178.5143798731
  0
ARC
  5
233
100
AcDbEntity
  8
0
100
AcDbCircle
 62
7
  6
CONTINUOUS
 10
2.3620678013
 20
3.9304084284
 40
0.0147637795
100
AcDbArc
 50
270.0
 51
360.0
  0
ARC
  5
234
100
AcDbEntity
  8
0
100
AcDbCircle
 62
7
  6
CONTINUOUS
 10
2.1701386675
 20
3.9304084284
 40
0.0147637795
100
AcDbArc
 50
180.0
 51
270.0
  0
ARC
  5
235
100
AcDbEntity
  8
0
100
AcDbCircle
 62
7
  6
CONTINUOUS
 10
2.1701386675
 20
4.1223375623
 40
0.0147637795
100
AcDbArc
 50
90.0
 51
180.0
  0
ARC
  5
236
100
AcDbEntity
  8
0
100
AcDbCircle
 62
7
  6
CONTINUOUS
 10
2.3620678013
 20
4.1223375623
 40
0.0147637795
100
AcDbArc
 50
0.0
 51
90.0
  0
ARC
  5
237
100
AcDbEntity
  8
0
100
AcDbCircle
 62
7
  6
CONTINUOUS
 10
2.1695006872
 20
4.1863139402
 40
0.0147637795
100
AcDbArc
 50
181.485496083
 51
270.00000064
  0
ARC
  5
238
100
AcDbEntity
  8
0
100
AcDbCircle
 62
7
  6
CONTINUOUS
 10
2.3627057816
 20
4.1863139402
 40
0.0147637795
100
AcDbArc
 50
269.9999988027
 51
358.5145040663
  0
ARC
  5
239
100
AcDbEntity
  8
0
100
AcDbCircle
 62
7
  6
CONTINUOUS
 10
2.4491718675
 20
4.7916302027
 40
0.0669312309
100
AcDbArc
 50
301.355596974
 51
359.9988855907
  0
ARC
  5
23A
100
AcDbEntity
  8
0
100
AcDbCircle
 62
7
  6
CONTINUOUS
 10
2.0830346013
 20
4.7916302027
 40
0.0669312309
100
AcDbArc
 50
180.0011144091
 51
238.6444030317
  0
ARC
  5
23B
100
AcDbEntity
  8
0
100
AcDbCircle
 62
7
  6
CONTINUOUS
 10
2.5044891127
 20
4.7008500737
 40
0.0393749397
100
AcDbArc
 50
121.3572592148
 51
162.1970423662
  0
ARC
  5
23C
100
AcDbEntity
  8
0
100
AcDbCircle
 62
7
  6
CONTINUOUS
 10
2.0277173561
 20
4.7008500737
 40
0.0393749397
100
AcDbArc
 50
17.8029576336
 51
58.6427407806
  0
ARC
  5
23D
100
AcDbEntity
  8
0
100
AcDbCircle
 62
7
  6
CONTINUOUS
 10
6.2905761767
 20
4.1370994871
 40
1.8834995935
100
AcDbArc
 50
1.4856201258
 51
17.8003921332
  0
ARC
  5
23E
100
AcDbEntity
  8
0
100
AcDbCircle
 62
7
  6
CONTINUOUS
 10
10.2790318669
 20
4.1370994871
 40
1.8834995935
100
AcDbArc
 50
162.1996078668
 51
178.5143798731
  0
ARC
  5
23F
100
AcDbEntity
  8
0
100
AcDbCircle
 62
7
  6
CONTINUOUS
 10
8.3807685887
 20
3.9304084284
 40
0.0147637795
100
AcDbArc
 50
270.0
 51
360.0
  0
ARC
  5
240
100
AcDbEntity
  8
0
100
AcDbCircle
 62
7
  6
CONTINUOUS
 10
8.1888394549
 20
3.9304084284
 40
0.0147637795
100
AcDbArc
 50
180.0
 51
270.0
  0
ARC
  5
241
100
AcDbEntity
  8
0
100
AcDbCircle
 62
7
  6
CONTINUOUS
 10
8.1888394549
 20
4.1223375623
 40
0.0147637795
100
AcDbArc
 50
90.0
 51
180.0
  0
ARC
  5
242
100
AcDbEntity
  8
0
100
AcDbCircle
 62
7
  6
CONTINUOUS
 10
8.3807685887
 20
4.1223375623
 40
0.0147637795
100
AcDbArc
 50
0.0
 51
90.0
  0
ARC
  5
243
100
AcDbEntity
  8
0
100
AcDbCircle
 62
7
  6
CONTINUOUS
 10
8.1882014746
 20
4.1863139402
 40
0.0147637795
100
AcDbArc
 50
181.485496083
 51
270.00000064
  0
ARC
  5
244
100
AcDbEntity
  8
0
100
AcDbCircle
 62
7
  6
CONTINUOUS
 10
8.381406569
 20
4.1863139402
 40
0.0147637795
100
AcDbArc
 50
269.9999988027
 51
358.5145040663
  0
ARC
  5
245
100
AcDbEntity
  8
0
100
AcDbCircle
 62
7
  6
CONTINUOUS
 10
8.4678726549
 20
4.7916302027
 40
0.0669312309
100
AcDbArc
 50
301.355596974
 51
359.9988855907
  0
ARC
  5
246
100
AcDbEntity
  8
0
100
AcDbCircle
 62
7
  6
CONTINUOUS
 10
8.1017353887
 20
4.7916302027
 40
0.0669312309
100
AcDbArc
 50
180.0011144091
 51
238.6444030317
  0
ARC
  5
247
100
AcDbEntity
  8
0
100
AcDbCircle
 62
7
  6
CONTINUOUS
 10
8.5231899001
 20
4.7008500737
 40
0.0393749397
100
AcDbArc
 50
121.3572592148
 51
162.1970423662
  0
ARC
  5
248
100
AcDbEntity
  8
0
100
AcDbCircle
 62
7
  6
CONTINUOUS
 10
8.0464181435
 20
4.7008500737
 40
0.0393749397
100
AcDbArc
 50
17.8029576336
 51
58.6427407806
  0
SPLINE
  5
249
100
AcDbEntity
  8
0
100
AcDbSpline
 62
9
  6
CONTINUOUS
 70
0
 71
3
 72
13
 73
9
 74
0
 42
0.0000001
 43
0.0000001
 44
0.0000000001
 40
0.0
 40
0.0
 40
0.0
 40
0.0
 40
0.3490131994
 40
0.5148442368
 40
0.6630387963
 40
0.7861622946
 40
0.8816760073
 40
1.0
 40
1.0
 40
1.0
 40
1.0
 10
8.4716434888
 20
4.7128887436
 30
0.0
 10
8.473283591
 20
4.712411363
 30
0.0
 10
8.4757409302
 20
4.7118227255
 30
0.0
 10
8.4789599664
 20
4.7113844508
 30
0.0
 10
8.481094897
 20
4.7112574039
 30
0.0
 10
8.4829047949
 20
4.7113689771
 30
0.0
 10
8.4844898581
 20
4.7116793086
 30
0.0
 10
8.4855234011
 20
4.7123373072
 30
0.0
 10
8.4857004636
 20
4.7128886844
 30
0.0
  0
SPLINE
  5
24A
100
AcDbEntity
  8
0
100
AcDbSpline
 62
9
  6
CONTINUOUS
 70
0
 71
3
 72
12
 73
8
 74
0
 42
0.0000001
 43
0.0000001
 44
0.0000000001
 40
0.0
 40
0.0
 40
0.0
 40
0.0
 40
0.2379211569
 40
0.4203952873
 40
0.6072316722
 40
0.8000984055
 40
1.0
 40
1.0
 40
1.0
 40
1.0
 10
8.0745898367
 20
4.7344738386
 30
0.0
 10
8.0769529979
 20
4.7334427297
 30
0.0
 10
8.0809985027
 20
4.7313078044
 30
0.0
 10
8.0864183416
 20
4.7275555373
 30
0.0
 10
8.0909580117
 20
4.7234591247
 30
0.0
 10
8.0949550738
 20
4.7185908486
 30
0.0
 10
8.0971232676
 20
4.7148850174
 30
0.0
 10
8.0979645548
 20
4.7128887434
 30
0.0
  0
SPLINE
  5
24B
100
AcDbEntity
  8
0
100
AcDbSpline
 62
9
  6
CONTINUOUS
 70
0
 71
3
 72
12
 73
8
 74
0
 42
0.0000001
 43
0.0000001
 44
0.0000000001
 40
0.0
 40
0.0
 40
0.0
 40
0.0
 40
0.2859586628
 40
0.5516958297
 40
0.7889905737
 40
0.8974979663
 40
1.0
 40
1.0
 40
1.0
 40
1.0
 10
8.5200402743
 20
4.7916289008
 30
0.0
 10
8.5200401285
 20
4.7854911266
 30
0.0
 10
8.5187805477
 20
4.7736041562
 30
0.0
 10
8.5133733953
 20
4.7574254093
 30
0.0
 10
8.5065261347
 20
4.7460760987
 30
0.0
 10
8.5001365821
 20
4.7388587647
 30
0.0
 10
8.4967568553
 20
4.7358218364
 30
0.0
 10
8.4950179192
 20
4.7344740641
 30
0.0
  0
SPLINE
  5
24C
100
AcDbEntity
  8
0
100
AcDbSpline
 62
9
  6
CONTINUOUS
 70
0
 71
3
 72
12
 73
8
 74
0
 42
0.0000001
 43
0.0000001
 44
0.0000000001
 40
0.0
 40
0.0
 40
0.0
 40
0.0
 40
0.1025022004
 40
0.2110097381
 40
0.4483046118
 40
0.7140416683
 40
1.0
 40
1.0
 40
1.0
 40
1.0
 10
8.0745902813
 20
4.7344741187
 30
0.0
 10
8.072851346
 20
4.735821894
 30
0.0
 10
8.0694716182
 20
4.738858824
 30
0.0
 10
8.0630820857
 20
4.7460761741
 30
0.0
 10
8.0562348197
 20
4.7574254659
 30
0.0
 10
8.0508276825
 20
4.7736041935
 30
0.0
 10
8.0495681052
 20
4.7854911405
 30
0.0
 10
8.0495679595
 20
4.7916289008
 30
0.0
  0
SPLINE
  5
24D
100
AcDbEntity
  8
0
100
AcDbSpline
 62
9
  6
CONTINUOUS
 70
0
 71
3
 72
9
 73
5
 74
0
 42
0.0000001
 43
0.0000001
 44
0.0000000001
 40
0.0
 40
0.0
 40
0.0
 40
0.0
 40
0.4475091077
 40
1.0
 40
1.0
 40
1.0
 40
1.0
 10
8.0669077603
 20
4.7344738303
 30
0.0
 10
8.0679161705
 20
4.7338593909
 30
0.0
 10
8.0706154074
 20
4.7331718777
 30
0.0
 10
8.0732575621
 20
4.7338818411
 30
0.0
 10
8.0745898361
 20
4.7344738322
 30
0.0
  0
SPLINE
  5
24E
100
AcDbEntity
  8
0
100
AcDbSpline
 62
9
  6
CONTINUOUS
 70
0
 71
3
 72
9
 73
5
 74
0
 42
0.0000001
 43
0.0000001
 44
0.0000000001
 40
0.0
 40
0.0
 40
0.0
 40
0.0
 40
0.2404867909
 40
1.0
 40
1.0
 40
1.0
 40
1.0
 10
8.4950182069
 20
4.7344738386
 30
0.0
 10
8.4926548239
 20
4.733443362
 30
0.0
 10
8.4832006445
 20
4.728488517
 30
0.0
 10
8.4748258004
 20
4.7203839116
 30
0.0
 10
8.4716434888
 20
4.7128887434
 30
0.0
  0
SPLINE
  5
24F
100
AcDbEntity
  8
0
100
AcDbSpline
 62
9
  6
CONTINUOUS
 70
0
 71
3
 72
9
 73
5
 74
0
 42
0.0000001
 43
0.0000001
 44
0.0000000001
 40
0.0
 40
0.0
 40
0.0
 40
0.0
 40
0.5524908919
 40
1.0
 40
1.0
 40
1.0
 40
1.0
 10
8.4950182075
 20
4.7344738321
 30
0.0
 10
8.4963504815
 20
4.733881841
 30
0.0
 10
8.4989926362
 20
4.7331718777
 30
0.0
 10
8.5016918731
 20
4.7338593909
 30
0.0
 10
8.5027002833
 20
4.7344738303
 30
0.0
  0
SPLINE
  5
250
100
AcDbEntity
  8
0
100
AcDbSpline
 62
9
  6
CONTINUOUS
 70
0
 71
3
 72
18
 73
14
 74
0
 42
0.0000001
 43
0.0000001
 44
0.0000000001
 40
0.0
 40
0.0
 40
0.0
 40
0.0
 40
0.18194502
 40
0.3676836142
 40
0.5465197035
 40
0.7062827845
 40
0.8357335625
 40
0.8871202578
 40
0.9288238829
 40
0.9604513746
 40
0.9823988984
 40
0.9952893531
 40
1.0
 40
1.0
 40
1.0
 40
1.0
 10
8.1882014753
 20
4.1859311779
 30
0.0
 10
8.187305811
 20
4.1859079668
 30
0.0
 10
8.1854956841
 20
4.1858653567
 30
0.0
 10
8.1828049164
 20
4.185815155
 30
0.0
 10
8.1802229244
 20
4.1857823604
 30
0.0
 10
8.1779185458
 20
4.1857692994
 30
0.0
 10
8.1762401557
 20
4.1857766696
 30
0.0
 10
8.1751461456
 20
4.1857960851
 30
0.0
 10
8.1745286716
 20
4.1858134124
 30
0.0
 10
8.174068857
 20
4.1858366133
 30
0.0
 10
8.1737230242
 20
4.1858589495
 30
0.0
 10
8.1735633385
 20
4.1858892979
 30
0.0
 10
8.1734432584
 20
4.1859079848
 30
0.0
 10
8.1734426574
 20
4.185931174
 30
0.0
  0
SPLINE
  5
251
100
AcDbEntity
  8
0
100
AcDbSpline
 62
9
  6
CONTINUOUS
 70
0
 71
3
 72
13
 73
9
 74
0
 42
0.0000001
 43
0.0000001
 44
0.0000000001
 40
0.0
 40
0.0
 40
0.0
 40
0.0
 40
0.1183239927
 40
0.2138377054
 40
0.3369612036
 40
0.4851557632
 40
0.6509868005
 40
1.0
 40
1.0
 40
1.0
 40
1.0
 10
8.08390758
 20
4.7128886844
 30
0.0
 10
8.0840846425
 20
4.7123373072
 30
0.0
 10
8.0851181855
 20
4.7116793086
 30
0.0
 10
8.0867032487
 20
4.7113689771
 30
0.0
 10
8.0885131466
 20
4.7112574039
 30
0.0
 10
8.0906480772
 20
4.7113844508
 30
0.0
 10
8.0938671134
 20
4.7118227255
 30
0.0
 10
8.0963244526
 20
4.712411363
 30
0.0
 10
8.0979645548
 20
4.7128887436
 30
0.0
  0
SPLINE
  5
252
100
AcDbEntity
  8
0
100
AcDbSpline
 62
9
  6
CONTINUOUS
 70
0
 71
3
 72
19
 73
15
 74
0
 42
0.0000001
 43
0.0000001
 44
0.0000000001
 40
0.0
 40
0.0
 40
0.0
 40
0.0
 40
0.0304296388
 40
0.0609278265
 40
0.1221254738
 40
0.1835838719
 40
0.2452922377
 40
0.4943262779
 40
0.6200108059
 40
0.7462836955
 40
0.8095983355
 40
0.8730018897
 40
0.9364761125
 40
1.0
 40
1.0
 40
1.0
 40
1.0
 10
8.0979645548
 20
4.7128887434
 30
0.0
 10
8.0996572588
 20
4.707717658
 30
0.0
 10
8.1029444795
 20
4.6973306251
 30
0.0
 10
8.1094019774
 20
4.676470104
 30
0.0
 10
8.1171409391
 20
4.6501994007
 30
0.0
 10
8.1259110095
 20
4.6184194419
 30
0.0
 10
8.1424755548
 20
4.5539600594
 30
0.0
 10
8.1585284968
 20
4.4775067597
 30
0.0
 10
8.1722054485
 20
4.3889617336
 30
0.0
 10
8.1787825707
 20
4.3329587706
 30
0.0
 10
8.1828538231
 20
4.2879037745
 30
0.0
 10
8.1852915693
 20
4.2539802915
 30
0.0
 10
8.1870462314
 20
4.2199802681
 30
0.0
 10
8.1880028224
 20
4.197288091
 30
0.0
 10
8.1882014744
 20
4.1859312095
 30
0.0
  0
SPLINE
  5
253
100
AcDbEntity
  8
0
100
AcDbSpline
 62
9
  6
CONTINUOUS
 70
0
 71
3
 72
18
 73
14
 74
0
 42
0.0000001
 43
0.0000001
 44
0.0000000001
 40
0.0
 40
0.0
 40
0.0
 40
0.0
 40
0.0304297741
 40
0.0609281047
 40
0.1221260402
 40
0.2452885855
 40
0.49432377
 40
0.6200088684
 40
0.7462823643
 40
0.8095973579
 40
0.8730011121
 40
0.9364758046
 40
1.0
 40
1.0
 40
1.0
 40
1.0
 10
8.4716434888
 20
4.7128887434
 30
0.0
 10
8.4699511506
 20
4.7077175401
 30
0.0
 10
8.4666635886
 20
4.6973306211
 30
0.0
 10
8.4602063569
 20
4.6764700273
 30
0.0
 10
8.4493480863
 20
4.6396155776
 30
0.0
 10
8.4293887309
 20
4.5647225501
 30
0.0
 10
8.4110804204
 20
4.4775072608
 30
0.0
 10
8.3974022097
 20
4.3889617163
 30
0.0
 10
8.3908259649
 20
4.3329587992
 30
0.0
 10
8.3867532901
 20
4.2879038988
 30
0.0
 10
8.3843187242
 20
4.2539801909
 30
0.0
 10
8.3825594781
 20
4.2199804012
 30
0.0
 10
8.381605155
 20
4.197288093
 30
0.0
 10
8.3814065692
 20
4.1859312095
 30
0.0
  0
SPLINE
  5
254
100
AcDbEntity
  8
0
100
AcDbSpline
 62
9
  6
CONTINUOUS
 70
0
 71
3
 72
18
 73
14
 74
0
 42
0.0000001
 43
0.0000001
 44
0.0000000001
 40
0.0
 40
0.0
 40
0.0
 40
0.0
 40
0.0047106452
 40
0.017601098
 40
0.03954862
 40
0.0711761098
 40
0.1128797333
 40
0.1642664273
 40
0.293717204
 40
0.4534802852
 40
0.6323163768
 40
0.8180549749
 40
1.0
 40
1.0
 40
1.0
 40
1.0
 10
8.3961653862
 20
4.185931174
 30
0.0
 10
8.3961647852
 20
4.1859079848
 30
0.0
 10
8.3960447051
 20
4.1858892979
 30
0.0
 10
8.3958850195
 20
4.1858589495
 30
0.0
 10
8.3955391867
 20
4.1858366133
 30
0.0
 10
8.3950793722
 20
4.1858134124
 30
0.0
 10
8.3944618981
 20
4.1857960851
 30
0.0
 10
8.3933678881
 20
4.1857766696
 30
0.0
 10
8.391689498
 20
4.1857692994
 30
0.0
 10
8.3893851195
 20
4.1857823604
 30
0.0
 10
8.3868031275
 20
4.185815155
 30
0.0
 10
8.3841123598
 20
4.1858653567
 30
0.0
 10
8.382302233
 20
4.1859079668
 30
0.0
 10
8.3814065686
 20
4.1859311779
 30
0.0
  0
SPLINE
  5
255
100
AcDbEntity
  8
0
100
AcDbSpline
 62
9
  6
CONTINUOUS
 70
0
 71
3
 72
13
 73
9
 74
0
 42
0.0000001
 43
0.0000001
 44
0.0000000001
 40
0.0
 40
0.0
 40
0.0
 40
0.0
 40
0.3490131994
 40
0.5148442368
 40
0.6630387963
 40
0.7861622946
 40
0.8816760073
 40
1.0
 40
1.0
 40
1.0
 40
1.0
 10
2.4529427014
 20
4.7128887436
 30
0.0
 10
2.4545828036
 20
4.712411363
 30
0.0
 10
2.4570401428
 20
4.7118227255
 30
0.0
 10
2.460259179
 20
4.7113844508
 30
0.0
 10
2.4623941096
 20
4.7112574039
 30
0.0
 10
2.4642040075
 20
4.7113689771
 30
0.0
 10
2.4657890707
 20
4.7116793086
 30
0.0
 10
2.4668226137
 20
4.7123373072
 30
0.0
 10
2.4669996762
 20
4.7128886844
 30
0.0
  0
SPLINE
  5
256
100
AcDbEntity
  8
0
100
AcDbSpline
 62
9
  6
CONTINUOUS
 70
0
 71
3
 72
12
 73
8
 74
0
 42
0.0000001
 43
0.0000001
 44
0.0000000001
 40
0.0
 40
0.0
 40
0.0
 40
0.0
 40
0.2379211569
 40
0.4203952873
 40
0.6072316722
 40
0.8000984055
 40
1.0
 40
1.0
 40
1.0
 40
1.0
 10
2.0558890493
 20
4.7344738386
 30
0.0
 10
2.0582522105
 20
4.7334427297
 30
0.0
 10
2.0622977153
 20
4.7313078044
 30
0.0
 10
2.0677175542
 20
4.7275555373
 30
0.0
 10
2.0722572242
 20
4.7234591247
 30
0.0
 10
2.0762542864
 20
4.7185908486
 30
0.0
 10
2.0784224802
 20
4.7148850174
 30
0.0
 10
2.0792637674
 20
4.7128887434
 30
0.0
  0
SPLINE
  5
257
100
AcDbEntity
  8
0
100
AcDbSpline
 62
9
  6
CONTINUOUS
 70
0
 71
3
 72
12
 73
8
 74
0
 42
0.0000001
 43
0.0000001
 44
0.0000000001
 40
0.0
 40
0.0
 40
0.0
 40
0.0
 40
0.2859586628
 40
0.5516958297
 40
0.7889905737
 40
0.8974979663
 40
1.0
 40
1.0
 40
1.0
 40
1.0
 10
2.5013394869
 20
4.7916289008
 30
0.0
 10
2.5013393411
 20
4.7854911266
 30
0.0
 10
2.5000797603
 20
4.7736041562
 30
0.0
 10
2.4946726079
 20
4.7574254093
 30
0.0
 10
2.4878253473
 20
4.7460760987
 30
0.0
 10
2.4814357947
 20
4.7388587647
 30
0.0
 10
2.4780560679
 20
4.7358218364
 30
0.0
 10
2.4763171318
 20
4.7344740641
 30
0.0
  0
SPLINE
  5
258
100
AcDbEntity
  8
0
100
AcDbSpline
 62
9
  6
CONTINUOUS
 70
0
 71
3
 72
12
 73
8
 74
0
 42
0.0000001
 43
0.0000001
 44
0.0000000001
 40
0.0
 40
0.0
 40
0.0
 40
0.0
 40
0.1025022004
 40
0.2110097381
 40
0.4483046118
 40
0.7140416683
 40
1.0
 40
1.0
 40
1.0
 40
1.0
 10
2.0558894939
 20
4.7344741187
 30
0.0
 10
2.0541505586
 20
4.735821894
 30
0.0
 10
2.0507708308
 20
4.738858824
 30
0.0
 10
2.0443812983
 20
4.7460761741
 30
0.0
 10
2.0375340323
 20
4.7574254659
 30
0.0
 10
2.0321268951
 20
4.7736041935
 30
0.0
 10
2.0308673178
 20
4.7854911405
 30
0.0
 10
2.0308671721
 20
4.7916289008
 30
0.0
  0
SPLINE
  5
259
100
AcDbEntity
  8
0
100
AcDbSpline
 62
9
  6
CONTINUOUS
 70
0
 71
3
 72
9
 73
5
 74
0
 42
0.0000001
 43
0.0000001
 44
0.0000000001
 40
0.0
 40
0.0
 40
0.0
 40
0.0
 40
0.4475091077
 40
1.0
 40
1.0
 40
1.0
 40
1.0
 10
2.0482069729
 20
4.7344738303
 30
0.0
 10
2.0492153831
 20
4.7338593909
 30
0.0
 10
2.05191462
 20
4.7331718777
 30
0.0
 10
2.0545567747
 20
4.7338818411
 30
0.0
 10
2.0558890487
 20
4.7344738322
 30
0.0
  0
SPLINE
  5
25A
100
AcDbEntity
  8
0
100
AcDbSpline
 62
9
  6
CONTINUOUS
 70
0
 71
3
 72
9
 73
5
 74
0
 42
0.0000001
 43
0.0000001
 44
0.0000000001
 40
0.0
 40
0.0
 40
0.0
 40
0.0
 40
0.2404867909
 40
1.0
 40
1.0
 40
1.0
 40
1.0
 10
2.4763174195
 20
4.7344738386
 30
0.0
 10
2.4739540365
 20
4.733443362
 30
0.0
 10
2.4644998571
 20
4.728488517
 30
0.0
 10
2.456125013
 20
4.7203839116
 30
0.0
 10
2.4529427014
 20
4.7128887434
 30
0.0
  0
SPLINE
  5
25B
100
AcDbEntity
  8
0
100
AcDbSpline
 62
9
  6
CONTINUOUS
 70
0
 71
3
 72
9
 73
5
 74
0
 42
0.0000001
 43
0.0000001
 44
0.0000000001
 40
0.0
 40
0.0
 40
0.0
 40
0.0
 40
0.5524908919
 40
1.0
 40
1.0
 40
1.0
 40
1.0
 10
2.4763174201
 20
4.7344738321
 30
0.0
 10
2.4776496941
 20
4.733881841
 30
0.0
 10
2.4802918488
 20
4.7331718777
 30
0.0
 10
2.4829910857
 20
4.7338593909
 30
0.0
 10
2.4839994959
 20
4.7344738303
 30
0.0
  0
SPLINE
  5
25C
100
AcDbEntity
  8
0
100
AcDbSpline
 62
9
  6
CONTINUOUS
 70
0
 71
3
 72
18
 73
14
 74
0
 42
0.0000001
 43
0.0000001
 44
0.0000000001
 40
0.0
 40
0.0
 40
0.0
 40
0.0
 40
0.18194502
 40
0.3676836142
 40
0.5465197035
 40
0.7062827845
 40
0.8357335625
 40
0.8871202578
 40
0.9288238829
 40
0.9604513746
 40
0.9823988984
 40
0.9952893531
 40
1.0
 40
1.0
 40
1.0
 40
1.0
 10
2.1695006879
 20
4.1859311779
 30
0.0
 10
2.1686050236
 20
4.1859079668
 30
0.0
 10
2.1667948967
 20
4.1858653567
 30
0.0
 10
2.164104129
 20
4.185815155
 30
0.0
 10
2.161522137
 20
4.1857823604
 30
0.0
 10
2.1592177584
 20
4.1857692994
 30
0.0
 10
2.1575393683
 20
4.1857766696
 30
0.0
 10
2.1564453582
 20
4.1857960851
 30
0.0
 10
2.1558278842
 20
4.1858134124
 30
0.0
 10
2.1553680696
 20
4.1858366133
 30
0.0
 10
2.1550222368
 20
4.1858589495
 30
0.0
 10
2.1548625511
 20
4.1858892979
 30
0.0
 10
2.154742471
 20
4.1859079848
 30
0.0
 10
2.15474187
 20
4.185931174
 30
0.0
  0
SPLINE
  5
25D
100
AcDbEntity
  8
0
100
AcDbSpline
 62
9
  6
CONTINUOUS
 70
0
 71
3
 72
13
 73
9
 74
0
 42
0.0000001
 43
0.0000001
 44
0.0000000001
 40
0.0
 40
0.0
 40
0.0
 40
0.0
 40
0.1183239927
 40
0.2138377054
 40
0.3369612036
 40
0.4851557632
 40
0.6509868005
 40
1.0
 40
1.0
 40
1.0
 40
1.0
 10
2.0652067926
 20
4.7128886844
 30
0.0
 10
2.0653838551
 20
4.7123373072
 30
0.0
 10
2.0664173981
 20
4.7116793086
 30
0.0
 10
2.0680024613
 20
4.7113689771
 30
0.0
 10
2.0698123592
 20
4.7112574039
 30
0.0
 10
2.0719472898
 20
4.7113844508
 30
0.0
 10
2.075166326
 20
4.7118227255
 30
0.0
 10
2.0776236652
 20
4.712411363
 30
0.0
 10
2.0792637674
 20
4.7128887436
 30
0.0
  0
SPLINE
  5
25E
100
AcDbEntity
  8
0
100
AcDbSpline
 62
9
  6
CONTINUOUS
 70
0
 71
3
 72
19
 73
15
 74
0
 42
0.0000001
 43
0.0000001
 44
0.0000000001
 40
0.0
 40
0.0
 40
0.0
 40
0.0
 40
0.0304296388
 40
0.0609278265
 40
0.1221254738
 40
0.1835838719
 40
0.2452922377
 40
0.4943262779
 40
0.6200108059
 40
0.7462836955
 40
0.8095983355
 40
0.8730018897
 40
0.9364761125
 40
1.0
 40
1.0
 40
1.0
 40
1.0
 10
2.0792637674
 20
4.7128887434
 30
0.0
 10
2.0809564714
 20
4.707717658
 30
0.0
 10
2.0842436921
 20
4.6973306251
 30
0.0
 10
2.09070119
 20
4.676470104
 30
0.0
 10
2.0984401517
 20
4.6501994007
 30
0.0
 10
2.1072102221
 20
4.6184194419
 30
0.0
 10
2.1237747674
 20
4.5539600594
 30
0.0
 10
2.1398277094
 20
4.4775067597
 30
0.0
 10
2.1535046611
 20
4.3889617336
 30
0.0
 10
2.1600817833
 20
4.3329587706
 30
0.0
 10
2.1641530357
 20
4.2879037745
 30
0.0
 10
2.1665907819
 20
4.2539802915
 30
0.0
 10
2.168345444
 20
4.2199802681
 30
0.0
 10
2.169302035
 20
4.197288091
 30
0.0
 10
2.169500687
 20
4.1859312095
 30
0.0
  0
SPLINE
  5
25F
100
AcDbEntity
  8
0
100
AcDbSpline
 62
9
  6
CONTINUOUS
 70
0
 71
3
 72
18
 73
14
 74
0
 42
0.0000001
 43
0.0000001
 44
0.0000000001
 40
0.0
 40
0.0
 40
0.0
 40
0.0
 40
0.0304297741
 40
0.0609281047
 40
0.1221260402
 40
0.2452885855
 40
0.49432377
 40
0.6200088684
 40
0.7462823643
 40
0.8095973579
 40
0.8730011121
 40
0.9364758046
 40
1.0
 40
1.0
 40
1.0
 40
1.0
 10
2.4529427014
 20
4.7128887434
 30
0.0
 10
2.4512503632
 20
4.7077175401
 30
0.0
 10
2.4479628012
 20
4.6973306211
 30
0.0
 10
2.4415055695
 20
4.6764700273
 30
0.0
 10
2.4306472989
 20
4.6396155776
 30
0.0
 10
2.4106879435
 20
4.5647225501
 30
0.0
 10
2.392379633
 20
4.4775072608
 30
0.0
 10
2.3787014223
 20
4.3889617163
 30
0.0
 10
2.3721251775
 20
4.3329587992
 30
0.0
 10
2.3680525027
 20
4.2879038988
 30
0.0
 10
2.3656179368
 20
4.2539801909
 30
0.0
 10
2.3638586907
 20
4.2199804012
 30
0.0
 10
2.3629043676
 20
4.197288093
 30
0.0
 10
2.3627057817
 20
4.1859312095
 30
0.0
  0
SPLINE
  5
260
100
AcDbEntity
  8
0
100
AcDbSpline
 62
9
  6
CONTINUOUS
 70
0
 71
3
 72
18
 73
14
 74
0
 42
0.0000001
 43
0.0000001
 44
0.0000000001
 40
0.0
 40
0.0
 40
0.0
 40
0.0
 40
0.0047106452
 40
0.017601098
 40
0.03954862
 40
0.0711761098
 40
0.1128797333
 40
0.1642664273
 40
0.293717204
 40
0.4534802852
 40
0.6323163768
 40
0.8180549749
 40
1.0
 40
1.0
 40
1.0
 40
1.0
 10
2.3774645988
 20
4.185931174
 30
0.0
 10
2.3774639978
 20
4.1859079848
 30
0.0
 10
2.3773439177
 20
4.1858892979
 30
0.0
 10
2.3771842321
 20
4.1858589495
 30
0.0
 10
2.3768383993
 20
4.1858366133
 30
0.0
 10
2.3763785848
 20
4.1858134124
 30
0.0
 10
2.3757611107
 20
4.1857960851
 30
0.0
 10
2.3746671007
 20
4.1857766696
 30
0.0
 10
2.3729887106
 20
4.1857692994
 30
0.0
 10
2.3706843321
 20
4.1857823604
 30
0.0
 10
2.3681023401
 20
4.185815155
 30
0.0
 10
2.3654115724
 20
4.1858653567
 30
0.0
 10
2.3636014456
 20
4.1859079668
 30
0.0
 10
2.3627057812
 20
4.1859311779
 30
0.0
  0
ENDSEC
  0
SECTION
  2
OBJECTS
  0
DICTIONARY
  5
C
100
AcDbDictionary
280
0
281
1
  3
ACAD_GROUP
350
D
  3
ACAD_MLINESTYLE
350
17
  3
ACAD_LAYOUT
350
1A
  3
ACAD_PLOTSETTINGS
350
19
  3
ACAD_PLOTSTYLENAME
350
E
  0
DICTIONARY
  5
D
102
{ACAD_REACTORS
330
C
102
}
100
AcDbDictionary
280
0
281
1
  0
ACDBDICTIONARYWDFLT
  5
E
102
{ACAD_REACTORS
330
C
102
}
100
AcDbDictionary
281
1
  3
Normal
350
F
100
AcDbDictionaryWithDefault
340
F
  0
DICTIONARY
  5
17
102
{ACAD_REACTORS
330
C
102
}
100
AcDbDictionary
280
0
281
1
  3
Standard
350
18
  0
DICTIONARY
  5
19
102
{ACAD_REACTORS
330
C
102
}
100
AcDbDictionary
281
1
  0
DICTIONARY
  5
1A
102
{ACAD_REACTORS
330
C
102
}
100
AcDbDictionary
281
1
  3
Model
350
261
  3
Layout1
350
262
  0
ACDBPLACEHOLDER
  5
F
102
{ACAD_REACTORS
330
E
102
}
  0
MLINESTYLE
  5
18
102
{ACAD_REACTORS
330
17
102
}
100
AcDbMlineStyle
  2
STANDARD
 70
0
  3

 62
256
 51
90.0
 52
90.0
 71
2
 49
0.5
 62
256
  6
BYLAYER
 49
-0.5
 62
256
  6
BYLAYER
  0
LAYOUT
  5
261
102
{ACAD_REACTORS
330
1A
102
}
100
AcDbPlotSettings
  1

  2
none_device
  4
ANSI_A_(11.00_x_8.50_Inches)
  6

 40
0.0
 41
0.0
 42
0.0
 43
0.0
 44
279.4
 45
215.9
 46
0.0
 47
0.0
 48
0.0
 49
0.0
140
0.0
141
0.0
142
1.0
143
1.0
 70
1024
 72
0
 73
0
 74
0
  7

 75
0
147
1.0
148
0.0
149
0.0
100
AcDbLayout
  1
Model
 70
0
 71
0
 10
0.0
 20
0.0
 11
11.0
 21
8.5
 12
0.0
 22
0.0
 32
0.0
 14
0.0
 24
0.0
 34
0.0
 15
0.0
 25
0.0
 35
0.0
146
0.0
 13
0.0
 23
0.0
 33
0.0
 16
1.0
 26
0.0
 36
0.0
 17
0.0
 27
1.0
 37
0.0
 76
0
330
200
345
0
346
0
  0
LAYOUT
  5
262
102
{ACAD_REACTORS
330
1A
102
}
100
AcDbPlotSettings
  1

  2
none_device
  4
ANSI_A_(11.00_x_8.50_Inches)
  6

 40
0.0
 41
0.0
 42
0.0
 43
0.0
 44
279.4
 45
215.9
 46
0.0
 47
0.0
 48
0.0
 49
0.0
140
0.0
141
0.0
142
1.0
143
1.0
 70
0
 72
0
 73
0
 74
0
  7

 75
0
147
1.0
148
0.0
149
0.0
100
AcDbLayout
  1
Layout1
 70
0
 71
1
 10
0.0
 20
0.0
 11
11.0
 21
8.5
 12
0.0
 22
0.0
 32
0.0
 14
0.0
 24
0.0
 34
0.0
 15
0.0
 25
0.0
 35
0.0
146
0.0
 13
0.0
 23
0.0
 33
0.0
 16
1.0
 26
0.0
 36
0.0
 17
0.0
 27
1.0
 37
0.0
 76
0
330
201
345
0
346
0
  0
ENDSEC
  0
EOF
