999
DXF file: 81-09_front.dxf
999
Pro/ENGINEER 2013150 by Parametric Technology Corporation
  0
SECTION
  2
HEADER
  9
$ACADVER
  1
AC1021
  9
$DWGCODEPAGE
  3
ANSI_1252
  9
$EXTMAX
 10
11.0
 20
8.5
 30
0.0
  9
$EXTMIN
 10
0.0
 20
0.0
 30
0.0
  9
$LIMMIN
 10
0.0
 20
0.0
  9
$LIMMAX
 10
11.0
 20
8.5
  9
$VIEWCTR
 10
5.5
 20
4.25
  9
$VIEWSIZE
 40
8.5
  9
$CLAYER
  8
0
  9
$LTSCALE
 40
0.605
  9
$CELTYPE
  6
BYLAYER
  9
$DIMSCALE
 40
1.0
  9
$DIMASZ
 40
0.1
  9
$DIMEXO
 40
0.0625
  9
$DIMDLI
 40
0.418
  9
$DIMEXE
 40
0.125
  9
$DIMCEN
 40
0.099
  9
$DIMLFAC
 40
1.0
  9
$DIMBLK
  1
_FILLED
  9
$DIMTXT
 40
0.08
  9
$DIMTOL
 70
1
  9
$DIMLIM
 70
0
  9
$DIMTFAC
 40
1.0
  9
$DIMTP
 40
0.001
  9
$DIMTM
 40
0.001
  9
$DIMGAP
 40
0.09
  9
$DIMDSEP
 70
46
  9
$PDMODE
 70
3
  9
$PDSIZE
 40
0.06
  9
$HANDSEED
  5
28E
  9
$TILEMODE
 70
1
  9
$MEASUREMENT
 70
0
  9
$INSUNITS
 70
1
  0
ENDSEC
  0
SECTION
  2
CLASSES
  0
CLASS
  1
ACDBDICTIONARYWDFLT
  2
AcDbDictionaryWithDefault
  3
AutoCAD 2000
 90
0
 91
1
280
0
281
0
  0
CLASS
  1
ACDBPLACEHOLDER
  2
AcDbPlaceHolder
  3
AutoCAD 2000
 90
0
 91
1
280
0
281
0
  0
CLASS
  1
LAYOUT
  2
AcDbLayout
  3
AutoCAD 2000
 90
0
 91
0
280
0
281
0
  0
ENDSEC
  0
SECTION
  2
TABLES
  0
TABLE
  2
VPORT
  5
8
100
AcDbSymbolTable
 70
2
  0
VPORT
  5
1F4
100
AcDbSymbolTableRecord
100
AcDbViewportTableRecord
  2
*ACTIVE
 70
0
 10
0.0
 20
0.0
 11
1.0
 21
1.0
 12
5.5
 22
4.25
 13
0.0
 23
0.0
 14
1.0
 24
1.0
 15
0.0
 25
0.0
 16
0.0
 26
0.0
 36
1.0
 17
0.0
 27
0.0
 37
0.0
 40
8.5
 41
1.2941176471
 42
50.0
 43
0.0
 44
0.0
 50
0.0
 51
0.0
 71
0
 72
100
 73
1
 74
1
 75
0
 76
0
 77
0
 78
0
  0
ENDTAB
  0
TABLE
  2
LTYPE
  5
5
100
AcDbSymbolTable
 70
6
  0
LTYPE
  5
14
100
AcDbSymbolTableRecord
100
AcDbLinetypeTableRecord
  2
BYBLOCK
 70
0
  3

 72
65
 73
0
 40
0.0
  0
LTYPE
  5
15
100
AcDbSymbolTableRecord
100
AcDbLinetypeTableRecord
  2
BYLAYER
 70
0
  3

 72
65
 73
0
 40
0.0
  0
LTYPE
  5
16
100
AcDbSymbolTableRecord
100
AcDbLinetypeTableRecord
  2
CONTINUOUS
 70
64
  3
Solid line
 72
65
 73
0
 40
0.0
  0
LTYPE
  5
1F5
100
AcDbSymbolTableRecord
100
AcDbLinetypeTableRecord
  2
CENTER
 70
64
  3
____ _ ____ _ ____ _ ____ _ ____ _ ____ _ ____
 72
65
 73
4
 40
0.6
 49
0.375
 74
0
 49
-0.075
 74
0
 49
0.075
 74
0
 49
-0.075
 74
0
  0
LTYPE
  5
1F6
100
AcDbSymbolTableRecord
100
AcDbLinetypeTableRecord
  2
HIDDEN
 70
64
  3
- - - - - - - - - - - - - - - - - - - -
 72
65
 73
2
 40
0.2
 49
0.1
 74
0
 49
-0.1
 74
0
  0
LTYPE
  5
1F7
100
AcDbSymbolTableRecord
100
AcDbLinetypeTableRecord
  2
PHANTOM
 70
64
  3
_____ _ _ _____ _ _ _____ _ _ _____
 72
65
 73
6
 40
0.8
 49
0.45
 74
0
 49
-0.05
 74
0
 49
0.1
 74
0
 49
-0.05
 74
0
 49
0.1
 74
0
 49
-0.05
 74
0
  0
LTYPE
  5
1F8
100
AcDbSymbolTableRecord
100
AcDbLinetypeTableRecord
  2
DOT
 70
64
  3
. . . . . . . . . . . . . . . . . . . .
 72
65
 73
2
 40
0.2
 49
0.1
 74
0
 49
-0.1
 74
0
  0
LTYPE
  5
1F9
100
AcDbSymbolTableRecord
100
AcDbLinetypeTableRecord
  2
DASHED
 70
64
  3
- - - - - - - - - - - - - - - - - - - -
 72
65
 73
2
 40
0.2
 49
0.1
 74
0
 49
-0.1
 74
0
  0
ENDTAB
  0
TABLE
  2
LAYER
  5
2
100
AcDbSymbolTable
 70
36
  0
LAYER
  5
10
100
AcDbSymbolTableRecord
100
AcDbLayerTableRecord
  2
0
 70
0
 62
7
  6
CONTINUOUS
370
-3
390
F
  0
LAYER
  5
1FA
100
AcDbSymbolTableRecord
100
AcDbLayerTableRecord
  2
DEFAULT_1
 70
0
 62
7
  6
CENTER
370
-3
390
F
  0
LAYER
  5
1FB
100
AcDbSymbolTableRecord
100
AcDbLayerTableRecord
  2
DEFAULT_2
 70
0
 62
8
  6
HIDDEN
370
-3
390
F
  0
LAYER
  5
1FC
100
AcDbSymbolTableRecord
100
AcDbLayerTableRecord
  2
DEFAULT_3
 70
0
 62
7
  6
PHANTOM
370
-3
390
F
  0
LAYER
  5
1FD
100
AcDbSymbolTableRecord
100
AcDbLayerTableRecord
  2
DEFAULT_DATUM_CURVES
 70
0
 62
7
  6
CONTINUOUS
370
-3
390
F
  0
ENDTAB
  0
TABLE
  2
STYLE
  5
3
100
AcDbSymbolTable
 70
1
  0
STYLE
  5
11
100
AcDbSymbolTableRecord
100
AcDbTextStyleTableRecord
  2
STANDARD
 70
0
 40
0.0
 41
0.8
 50
0.0
 71
0
 42
0.2
  3
txt
  4

  0
STYLE
  5
1FE
100
AcDbSymbolTableRecord
100
AcDbTextStyleTableRecord
  2
TEXTSTYLE_1
 70
0
 40
0.0
 41
0.8
 50
0.0
 71
0
 42
0.2
  3
gdt
  4

  0
ENDTAB
  0
TABLE
  2
VIEW
  5
6
100
AcDbSymbolTable
 70
0
  0
ENDTAB
  0
TABLE
  2
UCS
  5
7
100
AcDbSymbolTable
 70
0
  0
ENDTAB
  0
TABLE
  2
APPID
  5
9
100
AcDbSymbolTable
 70
1
  0
APPID
  5
1FF
100
AcDbSymbolTableRecord
100
AcDbRegAppTableRecord
  2
ACAD
 70
0
  0
ENDTAB
  0
TABLE
  2
BLOCK_RECORD
  5
1
100
AcDbSymbolTable
 70
0
  0
BLOCK_RECORD
  5
200
100
AcDbSymbolTableRecord
100
AcDbBlockTableRecord
  2
*Model_Space
  0
BLOCK_RECORD
  5
201
100
AcDbSymbolTableRecord
100
AcDbBlockTableRecord
  2
*Paper_Space
  0
ENDTAB
  0
TABLE
  2
DIMSTYLE
  5
A
100
AcDbSymbolTable
 70
1
100
AcDbDimStyleTable
 71
0
  0
DIMSTYLE
105
202
100
AcDbSymbolTableRecord
100
AcDbDimStyleTableRecord
  2
STANDARD
 70
0
  3

  4

 40
1.0
 41
0.1
 42
0.0625
 43
0.38
 44
0.125
 45
0.0
 46
0.0
 47
0.001
 48
0.001
140
0.08
141
0.09
142
0.0
143
25.4
144
1.0
145
0.0
146
1.0
147
0.09
 71
1.0
 72
0.0
 73
1
 74
1
 75
0
 76
0
 77
0
 78
4
170
0
171
2
172
0
173
0
174
0
175
0
176
0
177
0
178
0
270
2
271
3
272
3
273
2
274
2
275
0
280
0
281
0
282
0
283
1
284
4
285
0
286
0
287
3
288
0
340
11
278
46
  0
ENDTAB
  0
ENDSEC
  0
SECTION
  2
BLOCKS
  0
BLOCK
  5
20
100
AcDbEntity
  8
0
100
AcDbBlockBegin
  2
*Model_Space
 70
0
 10
0.0
 20
0.0
 30
0.0
  3
*Model_Space
  1

  0
ENDBLK
  5
21
100
AcDbEntity
  8
0
100
AcDbBlockEnd
  0
BLOCK
  5
1C
100
AcDbEntity
  8
0
100
AcDbBlockBegin
  2
*Paper_Space
 70
0
 10
0.0
 20
0.0
 30
0.0
  3
*Paper_Space
  1

  0
ENDBLK
  5
1D
100
AcDbEntity
  8
0
100
AcDbBlockEnd
  0
ENDSEC
  0
SECTION
  2
ENTITIES
  0
LINE
  5
203
100
AcDbEntity
  8
0
100
AcDbLine
 62
7
  6
CONTINUOUS
 10
0.0
 20
0.0
 11
0.0
 21
8.5
  0
LINE
  5
204
100
AcDbEntity
  8
0
100
AcDbLine
 62
7
  6
CONTINUOUS
 10
0.0
 20
0.0
 11
11.0
 21
0.0
  0
LINE
  5
205
100
AcDbEntity
  8
0
100
AcDbLine
 62
7
  6
CONTINUOUS
 10
0.0
 20
8.5
 11
11.0
 21
8.5
  0
LINE
  5
206
100
AcDbEntity
  8
0
100
AcDbLine
 62
7
  6
CONTINUOUS
 10
11.0
 20
0.0
 11
11.0
 21
8.5
  0
LINE
  5
207
100
AcDbEntity
  8
0
100
AcDbLine
 62
7
  6
CONTINUOUS
 10
1.9719334018
 20
2.7154626473
 11
1.9719334018
 21
4.7823917811
  0
LINE
  5
208
100
AcDbEntity
  8
0
100
AcDbLine
 62
9
  6
CONTINUOUS
 10
2.0014609609
 20
4.7823917811
 11
2.0014609609
 21
2.7154626473
  0
LINE
  5
209
100
AcDbEntity
  8
0
100
AcDbLine
 62
9
  6
CONTINUOUS
 10
2.2672089924
 20
2.7154626473
 11
2.2672089924
 21
4.7823917811
  0
LINE
  5
20A
100
AcDbEntity
  8
0
100
AcDbLine
 62
7
  6
CONTINUOUS
 10
2.2967365514
 20
4.7823917811
 11
2.2967365514
 21
2.7154626473
  0
LINE
  5
20B
100
AcDbEntity
  8
0
100
AcDbLine
 62
7
  6
CONTINUOUS
 10
6.5634688349
 20
1.6672343008
 11
3.0201617483
 21
1.6672343008
  0
LINE
  5
20C
100
AcDbEntity
  8
0
100
AcDbLine
 62
9
  6
CONTINUOUS
 10
3.0201617483
 20
1.6967618599
 11
6.5634688349
 21
1.6967618599
  0
LINE
  5
20D
100
AcDbEntity
  8
0
100
AcDbLine
 62
9
  6
CONTINUOUS
 10
6.5634688349
 20
1.9625098914
 11
3.0201617483
 21
1.9625098914
  0
LINE
  5
20E
100
AcDbEntity
  8
0
100
AcDbLine
 62
7
  6
CONTINUOUS
 10
3.0201617483
 20
1.9920374504
 11
6.5634688349
 21
1.9920374504
  0
LINE
  5
20F
100
AcDbEntity
  8
0
100
AcDbLine
 62
9
  6
CONTINUOUS
 10
3.0201617483
 20
5.8306201276
 11
3.0201617483
 21
5.8010925685
  0
LINE
  5
210
100
AcDbEntity
  8
0
100
AcDbLine
 62
9
  6
CONTINUOUS
 10
3.0201617483
 20
5.535344537
 11
3.0201617483
 21
5.505816978
  0
LINE
  5
211
100
AcDbEntity
  8
0
100
AcDbLine
 62
9
  6
CONTINUOUS
 10
3.0201617483
 20
1.9920374504
 11
3.0201617483
 21
1.9625098914
  0
LINE
  5
212
100
AcDbEntity
  8
0
100
AcDbLine
 62
9
  6
CONTINUOUS
 10
3.0201617483
 20
1.6967618599
 11
3.0201617483
 21
1.6672343008
  0
LINE
  5
213
100
AcDbEntity
  8
0
100
AcDbLine
 62
9
  6
CONTINUOUS
 10
1.9719334018
 20
2.7154626473
 11
2.0014609609
 21
2.7154626473
  0
LINE
  5
214
100
AcDbEntity
  8
0
100
AcDbLine
 62
9
  6
CONTINUOUS
 10
2.2672089924
 20
2.7154626473
 11
2.2967365514
 21
2.7154626473
  0
LINE
  5
215
100
AcDbEntity
  8
0
100
AcDbLine
 62
9
  6
CONTINUOUS
 10
7.2868940317
 20
2.7154626473
 11
7.3164215735
 21
2.7154626473
  0
LINE
  5
216
100
AcDbEntity
  8
0
100
AcDbLine
 62
9
  6
CONTINUOUS
 10
7.5821696254
 20
2.7154626473
 11
7.6116971813
 21
2.7154626473
  0
LINE
  5
217
100
AcDbEntity
  8
0
100
AcDbLine
 62
9
  6
CONTINUOUS
 10
7.6116971813
 20
2.7302264265
 11
7.2868940317
 21
2.7302264265
  0
LINE
  5
218
100
AcDbEntity
  8
0
100
AcDbLine
 62
7
  6
CONTINUOUS
 10
7.3459491498
 20
2.7892815449
 11
7.5526420632
 21
2.7892815449
  0
LINE
  5
219
100
AcDbEntity
  8
0
100
AcDbLine
 62
7
  6
CONTINUOUS
 10
4.0934886323
 20
4.9625099381
 11
4.0934886323
 21
5.505816978
  0
LINE
  5
21A
100
AcDbEntity
  8
0
100
AcDbLine
 62
7
  6
CONTINUOUS
 10
4.0934886323
 20
5.8306201276
 11
4.0934886323
 21
6.3739275854
  0
LINE
  5
21B
100
AcDbEntity
  8
0
100
AcDbLine
 62
9
  6
CONTINUOUS
 10
4.1898000259
 20
6.2988611082
 11
4.1898000259
 21
5.8306201276
  0
LINE
  5
21C
100
AcDbEntity
  8
0
100
AcDbLine
 62
9
  6
CONTINUOUS
 10
4.1898000259
 20
5.505816978
 11
4.1898000259
 21
5.0375759974
  0
LINE
  5
21D
100
AcDbEntity
  8
0
100
AcDbLine
 62
9
  6
CONTINUOUS
 10
4.2407991331
 20
6.2287369537
 11
4.2407991331
 21
5.8306201276
  0
LINE
  5
21E
100
AcDbEntity
  8
0
100
AcDbLine
 62
9
  6
CONTINUOUS
 10
4.2407991331
 20
5.505816978
 11
4.2407991331
 21
5.1077001519
  0
LINE
  5
21F
100
AcDbEntity
  8
0
100
AcDbLine
 62
9
  6
CONTINUOUS
 10
4.5094044252
 20
5.9580261735
 11
4.5094044252
 21
5.8306201276
  0
LINE
  5
220
100
AcDbEntity
  8
0
100
AcDbLine
 62
9
  6
CONTINUOUS
 10
4.5094044252
 20
5.505816978
 11
4.5094044252
 21
5.3784109315
  0
LINE
  5
221
100
AcDbEntity
  8
0
100
AcDbLine
 62
7
  6
CONTINUOUS
 10
4.5113034805
 20
5.380324852
 11
4.5113034805
 21
5.9561122536
  0
LINE
  5
222
100
AcDbEntity
  8
0
100
AcDbLine
 62
9
  6
CONTINUOUS
 10
4.5536808776
 20
5.334134479
 11
4.5536808777
 21
5.336105128
  0
LINE
  5
223
100
AcDbEntity
  8
0
100
AcDbLine
 62
9
  6
CONTINUOUS
 10
4.5536808778
 20
6.0003319775
 11
4.5536808777
 21
6.0023026265
  0
LINE
  5
224
100
AcDbEntity
  8
0
100
AcDbLine
 62
9
  6
CONTINUOUS
 10
4.5555948191
 20
6.0004035922
 11
4.5555948191
 21
5.3360335134
  0
LINE
  5
225
100
AcDbEntity
  8
0
100
AcDbLine
 62
9
  6
CONTINUOUS
 10
5.1313822207
 20
5.3360335134
 11
5.1313822207
 21
6.0004035922
  0
LINE
  5
226
100
AcDbEntity
  8
0
100
AcDbLine
 62
9
  6
CONTINUOUS
 10
5.1332961619
 20
6.0003319775
 11
5.133296162
 21
6.0023026265
  0
LINE
  5
227
100
AcDbEntity
  8
0
100
AcDbLine
 62
9
  6
CONTINUOUS
 10
5.133296162
 20
5.336105128
 11
5.1332961621
 21
5.334134479
  0
LINE
  5
228
100
AcDbEntity
  8
0
100
AcDbLine
 62
7
  6
CONTINUOUS
 10
5.1756735593
 20
5.9561122536
 11
5.1756735593
 21
5.380324852
  0
LINE
  5
229
100
AcDbEntity
  8
0
100
AcDbLine
 62
9
  6
CONTINUOUS
 10
5.1775726147
 20
5.3784109321
 11
5.1775726147
 21
5.9580261739
  0
LINE
  5
22A
100
AcDbEntity
  8
0
100
AcDbLine
 62
9
  6
CONTINUOUS
 10
5.4461779067
 20
5.1077001519
 11
5.4461779067
 21
6.2287369537
  0
LINE
  5
22B
100
AcDbEntity
  8
0
100
AcDbLine
 62
9
  6
CONTINUOUS
 10
5.4971770139
 20
5.0375759974
 11
5.4971770139
 21
6.2988611082
  0
LINE
  5
22C
100
AcDbEntity
  8
0
100
AcDbLine
 62
9
  6
CONTINUOUS
 10
2.2967365514
 20
4.7823917811
 11
2.2672089924
 21
4.7823917811
  0
LINE
  5
22D
100
AcDbEntity
  8
0
100
AcDbLine
 62
9
  6
CONTINUOUS
 10
2.0014609609
 20
4.7823917811
 11
1.9719334018
 21
4.7823917811
  0
LINE
  5
22E
100
AcDbEntity
  8
0
100
AcDbLine
 62
7
  6
CONTINUOUS
 10
5.5934884132
 20
6.3739272146
 11
5.5934884132
 21
4.9625095628
  0
LINE
  5
22F
100
AcDbEntity
  8
0
100
AcDbLine
 62
7
  6
CONTINUOUS
 10
5.5491967215
 20
4.9182186089
 11
4.1377802338
 21
4.9182186089
  0
LINE
  5
230
100
AcDbEntity
  8
0
100
AcDbLine
 62
9
  6
CONTINUOUS
 10
4.2128459645
 20
5.0145297831
 11
4.7637538837
 21
5.0145297831
  0
LINE
  5
231
100
AcDbEntity
  8
0
100
AcDbLine
 62
9
  6
CONTINUOUS
 10
4.9232231561
 20
5.0145297831
 11
5.4741310753
 21
5.0145297831
  0
LINE
  5
232
100
AcDbEntity
  8
0
100
AcDbLine
 62
9
  6
CONTINUOUS
 10
4.282970119
 20
5.0655291682
 11
5.4040069208
 21
5.0655291682
  0
LINE
  5
233
100
AcDbEntity
  8
0
100
AcDbLine
 62
9
  6
CONTINUOUS
 10
4.5536808776
 20
5.334134479
 11
5.1332961621
 21
5.334134479
  0
LINE
  5
234
100
AcDbEntity
  8
0
100
AcDbLine
 62
7
  6
CONTINUOUS
 10
5.1313822207
 20
5.3360335134
 11
4.5555948191
 21
5.3360335134
  0
LINE
  5
235
100
AcDbEntity
  8
0
100
AcDbLine
 62
9
  6
CONTINUOUS
 10
4.5094044252
 20
5.3784109315
 11
4.5113750944
 21
5.3784109318
  0
LINE
  5
236
100
AcDbEntity
  8
0
100
AcDbLine
 62
9
  6
CONTINUOUS
 10
5.1756019454
 20
5.3784109321
 11
5.1775726147
 21
5.3784109321
  0
LINE
  5
237
100
AcDbEntity
  8
0
100
AcDbLine
 62
9
  6
CONTINUOUS
 10
4.5113034805
 20
5.380324852
 11
5.1756735593
 21
5.380324852
  0
LINE
  5
238
100
AcDbEntity
  8
0
100
AcDbLine
 62
7
  6
CONTINUOUS
 10
4.5113034805
 20
5.505816978
 11
3.0201617483
 21
5.505816978
  0
LINE
  5
239
100
AcDbEntity
  8
0
100
AcDbLine
 62
9
  6
CONTINUOUS
 10
3.0201617483
 20
5.535344537
 11
4.5113034805
 21
5.535344537
  0
LINE
  5
23A
100
AcDbEntity
  8
0
100
AcDbLine
 62
9
  6
CONTINUOUS
 10
6.5634688349
 20
1.6672343008
 11
6.5634688349
 21
1.6967618599
  0
LINE
  5
23B
100
AcDbEntity
  8
0
100
AcDbLine
 62
9
  6
CONTINUOUS
 10
6.5634688349
 20
1.9625098914
 11
6.5634688349
 21
1.9920374504
  0
LINE
  5
23C
100
AcDbEntity
  8
0
100
AcDbLine
 62
9
  6
CONTINUOUS
 10
4.5113034805
 20
5.8010925685
 11
3.0201617483
 21
5.8010925685
  0
LINE
  5
23D
100
AcDbEntity
  8
0
100
AcDbLine
 62
7
  6
CONTINUOUS
 10
3.0201617483
 20
5.8306201276
 11
4.5113034805
 21
5.8306201276
  0
LINE
  5
23E
100
AcDbEntity
  8
0
100
AcDbLine
 62
9
  6
CONTINUOUS
 10
5.1756735593
 20
5.9561122536
 11
4.5113034805
 21
5.9561122536
  0
LINE
  5
23F
100
AcDbEntity
  8
0
100
AcDbLine
 62
9
  6
CONTINUOUS
 10
5.1756019454
 20
5.9580261736
 11
5.1775726147
 21
5.9580261739
  0
LINE
  5
240
100
AcDbEntity
  8
0
100
AcDbLine
 62
9
  6
CONTINUOUS
 10
4.5113750944
 20
5.9580261735
 11
4.5094044252
 21
5.9580261735
  0
LINE
  5
241
100
AcDbEntity
  8
0
100
AcDbLine
 62
7
  6
CONTINUOUS
 10
4.5555948191
 20
6.0004035922
 11
5.1313822207
 21
6.0004035922
  0
LINE
  5
242
100
AcDbEntity
  8
0
100
AcDbLine
 62
9
  6
CONTINUOUS
 10
5.133296162
 20
6.0023026265
 11
4.5536808777
 21
6.0023026265
  0
LINE
  5
243
100
AcDbEntity
  8
0
100
AcDbLine
 62
9
  6
CONTINUOUS
 10
5.4040069208
 20
6.2709079374
 11
4.282970119
 21
6.2709079374
  0
LINE
  5
244
100
AcDbEntity
  8
0
100
AcDbLine
 62
9
  6
CONTINUOUS
 10
5.4741310753
 20
6.3219073224
 11
4.2128459645
 21
6.3219073224
  0
LINE
  5
245
100
AcDbEntity
  8
0
100
AcDbLine
 62
7
  6
CONTINUOUS
 10
5.5491972631
 20
6.4182185528
 11
4.1377797767
 21
6.4182185528
  0
LINE
  5
246
100
AcDbEntity
  8
0
100
AcDbLine
 62
7
  6
CONTINUOUS
 10
7.2868940317
 20
2.7154626473
 11
7.2868940317
 21
2.7302264265
  0
LINE
  5
247
100
AcDbEntity
  8
0
100
AcDbLine
 62
9
  6
CONTINUOUS
 10
7.3164215735
 20
2.7302254901
 11
7.3164215735
 21
2.7154624501
  0
LINE
  5
248
100
AcDbEntity
  8
0
100
AcDbLine
 62
9
  6
CONTINUOUS
 10
7.5821696254
 20
2.715462687
 11
7.5821696254
 21
2.7302254901
  0
LINE
  5
249
100
AcDbEntity
  8
0
100
AcDbLine
 62
7
  6
CONTINUOUS
 10
7.6116971813
 20
2.7302254901
 11
7.6116971813
 21
2.7154626473
  0
ARC
  5
24A
100
AcDbEntity
  8
0
100
AcDbCircle
 62
7
  6
CONTINUOUS
 10
3.0201617483
 20
2.7154626473
 40
1.0482283465
100
AcDbArc
 50
180.0
 51
270.0
  0
ARC
  5
24B
100
AcDbEntity
  8
0
100
AcDbCircle
 62
9
  6
CONTINUOUS
 10
3.0201617483
 20
2.7154626473
 40
1.0187007874
100
AcDbArc
 50
180.0
 51
270.0
  0
ARC
  5
24C
100
AcDbEntity
  8
0
100
AcDbCircle
 62
9
  6
CONTINUOUS
 10
3.0201617483
 20
2.7154626473
 40
0.7529527559
100
AcDbArc
 50
180.0
 51
270.0
  0
ARC
  5
24D
100
AcDbEntity
  8
0
100
AcDbCircle
 62
7
  6
CONTINUOUS
 10
3.0201617483
 20
2.7154626473
 40
0.7234251969
100
AcDbArc
 50
180.0
 51
270.0
  0
ARC
  5
24E
100
AcDbEntity
  8
0
100
AcDbCircle
 62
7
  6
CONTINUOUS
 10
3.0201617483
 20
4.7823917811
 40
1.0482283465
100
AcDbArc
 50
90.0
 51
180.0
  0
ARC
  5
24F
100
AcDbEntity
  8
0
100
AcDbCircle
 62
9
  6
CONTINUOUS
 10
3.0201617483
 20
4.7823917811
 40
1.0187007874
100
AcDbArc
 50
90.0
 51
180.0
  0
ARC
  5
250
100
AcDbEntity
  8
0
100
AcDbCircle
 62
9
  6
CONTINUOUS
 10
3.0201617483
 20
4.7823917811
 40
0.7529527559
100
AcDbArc
 50
90.0
 51
180.0
  0
ARC
  5
251
100
AcDbEntity
  8
0
100
AcDbCircle
 62
7
  6
CONTINUOUS
 10
3.0201617483
 20
4.7823917811
 40
0.7234251969
100
AcDbArc
 50
90.0
 51
180.0
  0
ARC
  5
252
100
AcDbEntity
  8
0
100
AcDbCircle
 62
9
  6
CONTINUOUS
 10
5.1332430124
 20
5.3784640808
 40
0.0443304592
100
AcDbArc
 50
270.0686922014
 51
359.931307525
  0
ARC
  5
253
100
AcDbEntity
  8
0
100
AcDbCircle
 62
9
  6
CONTINUOUS
 10
4.5537340274
 20
5.9579730248
 40
0.0443304592
100
AcDbArc
 50
90.0686922019
 51
179.9313075248
  0
ARC
  5
254
100
AcDbEntity
  8
0
100
AcDbCircle
 62
9
  6
CONTINUOUS
 10
5.1332430124
 20
5.9579730248
 40
0.0443304592
100
AcDbArc
 50
0.0686911955
 51
89.9313065468
  0
ARC
  5
255
100
AcDbEntity
  8
0
100
AcDbCircle
 62
9
  6
CONTINUOUS
 10
4.5537340272
 20
5.3784640806
 40
0.0443304592
100
AcDbArc
 50
180.0686912799
 51
269.9313076859
  0
ARC
  5
256
100
AcDbEntity
  8
0
100
AcDbCircle
 62
7
  6
CONTINUOUS
 10
4.1377977526
 20
6.3739094616
 40
0.0443097183
100
AcDbArc
 50
90.0225155037
 51
179.9765641388
  0
ARC
  5
257
100
AcDbEntity
  8
0
100
AcDbCircle
 62
7
  6
CONTINUOUS
 10
4.1377977703
 20
4.9625276483
 40
0.0443097087
100
AcDbArc
 50
180.0229010647
 51
269.9773236326
  0
ARC
  5
258
100
AcDbEntity
  8
0
100
AcDbCircle
 62
7
  6
CONTINUOUS
 10
5.1313822207
 20
5.9561122536
 40
0.0442913386
100
AcDbArc
 50
0.0
 51
90.0
  0
ARC
  5
259
100
AcDbEntity
  8
0
100
AcDbCircle
 62
7
  6
CONTINUOUS
 10
4.5555948191
 20
5.9561122536
 40
0.0442913386
100
AcDbArc
 50
90.0
 51
180.0
  0
ARC
  5
25A
100
AcDbEntity
  8
0
100
AcDbCircle
 62
7
  6
CONTINUOUS
 10
4.5555948191
 20
5.380324852
 40
0.0442913386
100
AcDbArc
 50
180.0
 51
270.0
  0
ARC
  5
25B
100
AcDbEntity
  8
0
100
AcDbCircle
 62
7
  6
CONTINUOUS
 10
5.1313822207
 20
5.380324852
 40
0.0442913386
100
AcDbArc
 50
270.0
 51
360.0
  0
ARC
  5
25C
100
AcDbEntity
  8
0
100
AcDbCircle
 62
7
  6
CONTINUOUS
 10
6.5634688349
 20
2.7154626473
 40
1.0482283465
100
AcDbArc
 50
270.0
 51
360.0
  0
ARC
  5
25D
100
AcDbEntity
  8
0
100
AcDbCircle
 62
9
  6
CONTINUOUS
 10
6.5634688349
 20
2.7154626473
 40
1.0187007874
100
AcDbArc
 50
270.0
 51
0.0000022335
  0
ARC
  5
25E
100
AcDbEntity
  8
0
100
AcDbCircle
 62
9
  6
CONTINUOUS
 10
6.5634688349
 20
2.7154626473
 40
0.7529527559
100
AcDbArc
 50
270.0
 51
359.9999849944
  0
ARC
  5
25F
100
AcDbEntity
  8
0
100
AcDbCircle
 62
7
  6
CONTINUOUS
 10
6.5634688349
 20
2.7154626473
 40
0.7234251969
100
AcDbArc
 50
270.0
 51
360.0
  0
ARC
  5
260
100
AcDbEntity
  8
0
100
AcDbCircle
 62
7
  6
CONTINUOUS
 10
7.5526420632
 20
2.7302264268
 40
0.0590551181
100
AcDbArc
 50
359.9990912431
 51
90.0
  0
ARC
  5
261
100
AcDbEntity
  8
0
100
AcDbCircle
 62
7
  6
CONTINUOUS
 10
7.3459491498
 20
2.7302264268
 40
0.0590551181
100
AcDbArc
 50
90.0
 51
180.000908757
  0
ARC
  5
262
100
AcDbEntity
  8
0
100
AcDbCircle
 62
7
  6
CONTINUOUS
 10
5.5491792872
 20
6.3739094617
 40
0.0443097183
100
AcDbArc
 50
0.0229561612
 51
89.9772724942
  0
ARC
  5
263
100
AcDbEntity
  8
0
100
AcDbCircle
 62
7
  6
CONTINUOUS
 10
5.5491792873
 20
4.9625276439
 40
0.0443097183
100
AcDbArc
 50
270.0225441448
 51
359.976619323
  0
SPLINE
  5
264
100
AcDbEntity
  8
0
100
AcDbSpline
 62
7
  6
CONTINUOUS
 70
0
 71
3
 72
15
 73
11
 74
0
 42
0.0000001
 43
0.0000001
 44
0.0000000001
 40
0.0
 40
0.0
 40
0.0
 40
0.0
 40
0.1197783486
 40
0.2342538775
 40
0.347089347
 40
0.4635055587
 40
0.5872780272
 40
0.7192245028
 40
0.8578691515
 40
1.0
 40
1.0
 40
1.0
 40
1.0
 10
4.9232231561
 20
5.0145297831
 30
0.0
 10
4.9220987691
 20
5.0183424916
 30
0.0
 10
4.9194133181
 20
5.0256772971
 30
0.0
 10
4.9134758689
 20
5.035646201
 30
0.0
 10
4.9054708203
 20
5.0439276783
 30
0.0
 10
4.8954999803
 20
5.0502574234
 30
0.0
 10
4.8839338913
 20
5.0547505384
 30
0.0
 10
4.8711447578
 20
5.0576809707
 30
0.0
 10
4.8575275349
 20
5.059314943
 30
0.0
 10
4.8482053715
 20
5.0596672998
 30
0.0
 10
4.8434885199
 20
5.0596672998
 30
0.0
  0
SPLINE
  5
265
100
AcDbEntity
  8
0
100
AcDbSpline
 62
7
  6
CONTINUOUS
 70
0
 71
3
 72
15
 73
11
 74
0
 42
0.0000001
 43
0.0000001
 44
0.0000000001
 40
0.0
 40
0.0
 40
0.0
 40
0.0
 40
0.1421430881
 40
0.2808090231
 40
0.4127908717
 40
0.5366093968
 40
0.6530152376
 40
0.7658343244
 40
0.8802586848
 40
1.0
 40
1.0
 40
1.0
 40
1.0
 10
4.8434885199
 20
5.0596672998
 30
0.0
 10
4.8387712314
 20
5.0596672998
 30
0.0
 10
4.8294478511
 20
5.0593158884
 30
0.0
 10
4.8158283831
 20
5.0576791694
 30
0.0
 10
4.8030364918
 20
5.0547475097
 30
0.0
 10
4.7914648638
 20
5.0502604238
 30
0.0
 10
4.7814983523
 20
5.043921313
 30
0.0
 10
4.7734994905
 20
5.0356384563
 30
0.0
 10
4.7675622597
 20
5.0256736036
 30
0.0
 10
4.7648779304
 20
5.0183413376
 30
0.0
 10
4.7637538837
 20
5.0145297831
 30
0.0
  0
SPLINE
  5
266
100
AcDbEntity
  8
0
100
AcDbSpline
 62
7
  6
CONTINUOUS
 70
0
 71
3
 72
10
 73
6
 74
0
 42
0.0000001
 43
0.0000001
 44
0.0000000001
 40
0.0
 40
0.0
 40
0.0
 40
0.0
 40
0.5332120477
 40
0.7758109993
 40
1.0
 40
1.0
 40
1.0
 40
1.0
 10
4.7637538837
 20
5.0145297831
 30
0.0
 10
4.7613880351
 20
5.0065073757
 30
0.0
 10
4.7581463053
 20
4.9947544454
 30
0.0
 10
4.7554517246
 20
4.9792887845
 30
0.0
 10
4.7549047002
 20
4.9719649988
 30
0.0
 10
4.7549059733
 20
4.9684483612
 30
0.0
  0
SPLINE
  5
267
100
AcDbEntity
  8
0
100
AcDbSpline
 62
7
  6
CONTINUOUS
 70
0
 71
3
 72
10
 73
6
 74
0
 42
0.0000001
 43
0.0000001
 44
0.0000000001
 40
0.0
 40
0.0
 40
0.0
 40
0.0
 40
0.5331902742
 40
0.7758166427
 40
1.0
 40
1.0
 40
1.0
 40
1.0
 10
4.9232231561
 20
5.0145297831
 30
0.0
 10
4.9255886817
 20
5.006508471
 30
0.0
 10
4.9288308675
 20
4.9947567656
 30
0.0
 10
4.9315249457
 20
4.9792925405
 30
0.0
 10
4.9320722578
 20
4.971969148
 30
0.0
 10
4.9320710718
 20
4.9684529355
 30
0.0
  0
LINE
  5
268
100
AcDbEntity
  8
0
100
AcDbLine
 62
9
  6
CONTINUOUS
 10
4.0934889279
 20
6.3739273785
 11
4.1898000259
 21
6.2988611082
  0
LINE
  5
269
100
AcDbEntity
  8
0
100
AcDbLine
 62
9
  6
CONTINUOUS
 10
4.0934889279
 20
4.9625097098
 11
4.1898000259
 21
5.0375759974
  0
LINE
  5
26A
100
AcDbEntity
  8
0
100
AcDbLine
 62
9
  6
CONTINUOUS
 10
5.5491972775
 20
6.4182184253
 11
5.4741302122
 21
6.3219075891
  0
SPLINE
  5
26B
100
AcDbEntity
  8
0
100
AcDbSpline
 62
9
  6
CONTINUOUS
 70
0
 71
3
 72
9
 73
5
 74
0
 42
0.0000001
 43
0.0000001
 44
0.0000000001
 40
0.0
 40
0.0
 40
0.0
 40
0.0
 40
0.5203441761
 40
1.0
 40
1.0
 40
1.0
 40
1.0
 10
4.1897997996
 20
5.0375759015
 30
0.0
 10
4.1931400786
 20
5.0329954226
 30
0.0
 10
4.2003401816
 20
5.0247498783
 30
0.0
 10
4.2086236705
 20
5.017609093
 30
0.0
 10
4.2128460318
 20
5.0145300806
 30
0.0
  0
SPLINE
  5
26C
100
AcDbEntity
  8
0
100
AcDbSpline
 62
9
  6
CONTINUOUS
 70
0
 71
3
 72
9
 73
5
 74
0
 42
0.0000001
 43
0.0000001
 44
0.0000000001
 40
0.0
 40
0.0
 40
0.0
 40
0.0
 40
0.482034466
 40
1.0
 40
1.0
 40
1.0
 40
1.0
 10
4.1897997354
 20
6.2988611079
 30
0.0
 10
4.1928941536
 20
6.3031043674
 30
0.0
 10
4.2000386066
 20
6.3113855618
 30
0.0
 10
4.2082864089
 20
6.3185822582
 30
0.0
 10
4.2128459629
 20
6.3219073358
 30
0.0
  0
LINE
  5
26D
100
AcDbEntity
  8
0
100
AcDbLine
 62
9
  6
CONTINUOUS
 10
4.1377797685
 20
4.9182186943
 11
4.2128469675
 21
5.0145294199
  0
LINE
  5
26E
100
AcDbEntity
  8
0
100
AcDbLine
 62
9
  6
CONTINUOUS
 10
5.4741310753
 20
6.3219073224
 11
5.4040069208
 21
6.2709079374
  0
SPLINE
  5
26F
100
AcDbEntity
  8
0
100
AcDbSpline
 62
9
  6
CONTINUOUS
 70
0
 71
3
 72
9
 73
5
 74
0
 42
0.0000001
 43
0.0000001
 44
0.0000000001
 40
0.0
 40
0.0
 40
0.0
 40
0.0
 40
0.5179655338
 40
1.0
 40
1.0
 40
1.0
 40
1.0
 10
5.4741310769
 20
6.3219073358
 30
0.0
 10
5.4786906309
 20
6.3185822582
 30
0.0
 10
5.4869384332
 20
6.3113855618
 30
0.0
 10
5.4940828862
 20
6.3031043674
 30
0.0
 10
5.4971773045
 20
6.2988611079
 30
0.0
  0
LINE
  5
270
100
AcDbEntity
  8
0
100
AcDbLine
 62
9
  6
CONTINUOUS
 10
5.497178472
 20
5.0375771608
 11
5.4461784636
 21
5.1077019596
  0
LINE
  5
271
100
AcDbEntity
  8
0
100
AcDbLine
 62
9
  6
CONTINUOUS
 10
5.4461784956
 20
6.2287348955
 11
5.4971786469
 21
6.2988597705
  0
LINE
  5
272
100
AcDbEntity
  8
0
100
AcDbLine
 62
9
  6
CONTINUOUS
 10
5.4741310753
 20
5.0145297831
 11
5.4040069208
 21
5.0655291682
  0
SPLINE
  5
273
100
AcDbEntity
  8
0
100
AcDbSpline
 62
9
  6
CONTINUOUS
 70
0
 71
3
 72
9
 73
5
 74
0
 42
0.0000001
 43
0.0000001
 44
0.0000000001
 40
0.0
 40
0.0
 40
0.0
 40
0.0
 40
0.482034466
 40
1.0
 40
1.0
 40
1.0
 40
1.0
 10
5.4971773045
 20
5.0375759976
 30
0.0
 10
5.4940828862
 20
5.0333327381
 30
0.0
 10
5.4869384332
 20
5.0250515438
 30
0.0
 10
5.4786906309
 20
5.0178548474
 30
0.0
 10
5.4741310769
 20
5.0145297698
 30
0.0
  0
LINE
  5
274
100
AcDbEntity
  8
0
100
AcDbLine
 62
9
  6
CONTINUOUS
 10
4.5094044245
 20
5.3784102594
 11
4.2407991984
 21
5.1076995119
  0
LINE
  5
275
100
AcDbEntity
  8
0
100
AcDbLine
 62
9
  6
CONTINUOUS
 10
5.4741297415
 20
5.014529246
 11
5.5491967067
 21
4.9182186804
  0
LINE
  5
276
100
AcDbEntity
  8
0
100
AcDbLine
 62
9
  6
CONTINUOUS
 10
4.2407991949
 20
6.2287375634
 11
4.5094044247
 21
5.9580268136
  0
LINE
  5
277
100
AcDbEntity
  8
0
100
AcDbLine
 62
9
  6
CONTINUOUS
 10
5.5934881119
 20
4.9625097271
 11
5.4971770139
 21
5.0375759974
  0
SPLINE
  5
278
100
AcDbEntity
  8
0
100
AcDbSpline
 62
7
  6
CONTINUOUS
 70
0
 71
3
 72
15
 73
11
 74
0
 42
0.0000001
 43
0.0000001
 44
0.0000000001
 40
0.0
 40
0.0
 40
0.0
 40
0.0
 40
0.1045642504
 40
0.2009870123
 40
0.2978519526
 40
0.4060221619
 40
0.5321622131
 40
0.6764419772
 40
0.8345632315
 40
1.0
 40
1.0
 40
1.0
 40
1.0
 10
4.7549059733
 20
4.9684483612
 30
0.0
 10
4.7549073924
 20
4.9645283685
 30
0.0
 10
4.7555341942
 20
4.9569511192
 30
0.0
 10
4.7595183888
 20
4.9463067043
 30
0.0
 10
4.7671643707
 20
4.9376486904
 30
0.0
 10
4.7781162174
 20
4.9314635655
 30
0.0
 10
4.7917661459
 20
4.9273463178
 30
0.0
 10
4.8076565917
 20
4.9247969619
 30
0.0
 10
4.8251543072
 20
4.9234423948
 30
0.0
 10
4.8372864866
 20
4.9231638737
 30
0.0
 10
4.8434885199
 20
4.9231638737
 30
0.0
  0
LINE
  5
279
100
AcDbEntity
  8
0
100
AcDbLine
 62
9
  6
CONTINUOUS
 10
4.1897985678
 20
6.2988599448
 11
4.2407985762
 21
6.228735146
  0
LINE
  5
27A
100
AcDbEntity
  8
0
100
AcDbLine
 62
9
  6
CONTINUOUS
 10
4.2407985393
 20
5.1077024251
 11
4.1897982295
 21
5.037577496
  0
SPLINE
  5
27B
100
AcDbEntity
  8
0
100
AcDbSpline
 62
9
  6
CONTINUOUS
 70
0
 71
3
 72
11
 73
7
 74
0
 42
0.0000001
 43
0.0000001
 44
0.0000000001
 40
0.0
 40
0.0
 40
0.0
 40
0.0
 40
0.2385784842
 40
0.5000039031
 40
0.7614270692
 40
1.0
 40
1.0
 40
1.0
 40
1.0
 10
4.2407988512
 20
5.1077001797
 30
0.0
 10
4.2412737639
 20
5.1026180262
 30
0.0
 10
4.2441958342
 20
5.0920750803
 30
0.0
 10
4.2537645067
 20
5.0784943039
 30
0.0
 10
4.267345169
 20
5.0689256822
 30
0.0
 10
4.277887935
 20
5.0660036235
 30
0.0
 10
4.2829699677
 20
5.0655286958
 30
0.0
  0
LINE
  5
27C
100
AcDbEntity
  8
0
100
AcDbLine
 62
9
  6
CONTINUOUS
 10
4.282970119
 20
5.0655291682
 11
4.2128459645
 21
5.0145297831
  0
LINE
  5
27D
100
AcDbEntity
  8
0
100
AcDbLine
 62
9
  6
CONTINUOUS
 10
4.282970119
 20
5.0655291682
 11
4.5536808776
 21
5.334134479
  0
LINE
  5
27E
100
AcDbEntity
  8
0
100
AcDbLine
 62
9
  6
CONTINUOUS
 10
5.4040069208
 20
5.0655291682
 11
5.1332961621
 21
5.334134479
  0
SPLINE
  5
27F
100
AcDbEntity
  8
0
100
AcDbSpline
 62
7
  6
CONTINUOUS
 70
0
 71
3
 72
15
 73
11
 74
0
 42
0.0000001
 43
0.0000001
 44
0.0000000001
 40
0.0
 40
0.0
 40
0.0
 40
0.0
 40
0.1045568823
 40
0.2010176761
 40
0.2978698558
 40
0.4060402663
 40
0.5321744236
 40
0.6764619872
 40
0.8345727529
 40
1.0
 40
1.0
 40
1.0
 40
1.0
 10
4.9320710718
 20
4.9684529355
 30
0.0
 10
4.9320697497
 20
4.9645329323
 30
0.0
 10
4.931441906
 20
4.9569544107
 30
0.0
 10
4.9274610734
 20
4.9463067259
 30
0.0
 10
4.9198122108
 20
4.9376488688
 30
0.0
 10
4.9088621482
 20
4.9314601945
 30
0.0
 10
4.8952101641
 20
4.9273466926
 30
0.0
 10
4.8793224055
 20
4.9247773337
 30
0.0
 10
4.86182276
 20
4.9234283047
 30
0.0
 10
4.8496906498
 20
4.9231507648
 30
0.0
 10
4.8434885199
 20
4.9231507648
 30
0.0
  0
SPLINE
  5
280
100
AcDbEntity
  8
0
100
AcDbSpline
 62
9
  6
CONTINUOUS
 70
0
 71
3
 72
11
 73
7
 74
0
 42
0.0000001
 43
0.0000001
 44
0.0000000001
 40
0.0
 40
0.0
 40
0.0
 40
0.0
 40
0.2352105164
 40
0.4952650266
 40
0.7580249054
 40
1.0
 40
1.0
 40
1.0
 40
1.0
 10
5.4461778453
 20
5.1076995418
 30
0.0
 10
5.4457095406
 20
5.1026892399
 30
0.0
 10
5.4428429535
 20
5.0922458936
 30
0.0
 10
5.4333927632
 20
5.0786763644
 30
0.0
 10
5.4198032202
 20
5.0689893475
 30
0.0
 10
5.4091613241
 20
5.06601087
 30
0.0
 10
5.4040069208
 20
5.0655291703
 30
0.0
  0
LINE
  5
281
100
AcDbEntity
  8
0
100
AcDbLine
 62
9
  6
CONTINUOUS
 10
5.5934881119
 20
6.3739273784
 11
5.4971770139
 21
6.2988611082
  0
SPLINE
  5
282
100
AcDbEntity
  8
0
100
AcDbSpline
 62
9
  6
CONTINUOUS
 70
0
 71
3
 72
11
 73
7
 74
0
 42
0.0000001
 43
0.0000001
 44
0.0000000001
 40
0.0
 40
0.0
 40
0.0
 40
0.0
 40
0.2352105164
 40
0.4952650266
 40
0.7580249054
 40
1.0
 40
1.0
 40
1.0
 40
1.0
 10
4.2407991945
 20
6.2287375638
 30
0.0
 10
4.2412674992
 20
6.2337478656
 30
0.0
 10
4.2441340863
 20
6.244191212
 30
0.0
 10
4.2535842766
 20
6.2577607412
 30
0.0
 10
4.2671738196
 20
6.267447758
 30
0.0
 10
4.2778157157
 20
6.2704262355
 30
0.0
 10
4.282970119
 20
6.2709079353
 30
0.0
  0
LINE
  5
283
100
AcDbEntity
  8
0
100
AcDbLine
 62
9
  6
CONTINUOUS
 10
5.4461778449
 20
5.1076995422
 11
5.1775726151
 21
5.3784102919
  0
LINE
  5
284
100
AcDbEntity
  8
0
100
AcDbLine
 62
9
  6
CONTINUOUS
 10
5.1775726151
 20
5.9580268136
 11
5.4461778449
 21
6.2287375634
  0
SPLINE
  5
285
100
AcDbEntity
  8
0
100
AcDbSpline
 62
9
  6
CONTINUOUS
 70
0
 71
3
 72
11
 73
7
 74
0
 42
0.0000001
 43
0.0000001
 44
0.0000000001
 40
0.0
 40
0.0
 40
0.0
 40
0.0
 40
0.2419750946
 40
0.5047349734
 40
0.7647894836
 40
1.0
 40
1.0
 40
1.0
 40
1.0
 10
5.4040069208
 20
6.2709079353
 30
0.0
 10
5.4091613241
 20
6.2704262355
 30
0.0
 10
5.4198032202
 20
6.267447758
 30
0.0
 10
5.4333927632
 20
6.2577607412
 30
0.0
 10
5.4428429535
 20
6.244191212
 30
0.0
 10
5.4457095406
 20
6.2337478656
 30
0.0
 10
5.4461778453
 20
6.2287375638
 30
0.0
  0
LINE
  5
286
100
AcDbEntity
  8
0
100
AcDbLine
 62
9
  6
CONTINUOUS
 10
5.4040069208
 20
6.2709079374
 11
5.133296162
 21
6.0023026265
  0
LINE
  5
287
100
AcDbEntity
  8
0
100
AcDbLine
 62
9
  6
CONTINUOUS
 10
4.2128472983
 20
6.3219078596
 11
4.1377803332
 21
6.4182184252
  0
LINE
  5
288
100
AcDbEntity
  8
0
100
AcDbLine
 62
9
  6
CONTINUOUS
 10
4.282970119
 20
6.2709079374
 11
4.5536808777
 21
6.0023026265
  0
LINE
  5
289
100
AcDbEntity
  8
0
100
AcDbLine
 62
9
  6
CONTINUOUS
 10
4.2128459645
 20
6.3219073224
 11
4.282970119
 21
6.2709079374
  0
SPLINE
  5
28A
100
AcDbEntity
  8
0
100
AcDbSpline
 62
9
  6
CONTINUOUS
 70
0
 71
3
 72
13
 73
9
 74
0
 42
0.0000001
 43
0.0000001
 44
0.0000000001
 40
0.0
 40
0.0
 40
0.0
 40
0.0
 40
0.3345974074
 40
0.6195641824
 40
0.7363037499
 40
0.8360365195
 40
0.9220404515
 40
1.0
 40
1.0
 40
1.0
 40
1.0
 10
7.3164215991
 20
2.7302254901
 30
0.0
 10
7.3164222495
 20
2.7381811473
 30
0.0
 10
7.3178725767
 20
2.7529455392
 30
0.0
 10
7.3233556016
 20
2.7698154213
 30
0.0
 10
7.3297056382
 20
2.7799776964
 30
0.0
 10
7.3347168423
 20
2.7852268022
 30
0.0
 10
7.3401693095
 20
2.7885069641
 30
0.0
 10
7.3440955209
 20
2.7892813947
 30
0.0
 10
7.3459491498
 20
2.7892815449
 30
0.0
  0
SPLINE
  5
28B
100
AcDbEntity
  8
0
100
AcDbSpline
 62
9
  6
CONTINUOUS
 70
0
 71
3
 72
13
 73
9
 74
0
 42
0.0000001
 43
0.0000001
 44
0.0000000001
 40
0.0
 40
0.0
 40
0.0
 40
0.0
 40
0.0769064972
 40
0.1615598016
 40
0.259941871
 40
0.3755021835
 40
0.6607126917
 40
1.0
 40
1.0
 40
1.0
 40
1.0
 10
7.5526420755
 20
2.7892815449
 30
0.0
 10
7.5544706554
 20
2.7892812485
 30
0.0
 10
7.5583398964
 20
2.7885336285
 30
0.0
 10
7.5637325503
 20
2.7853317169
 30
0.0
 10
7.5687184618
 20
2.7801883702
 30
0.0
 10
7.5751107391
 20
2.77011587
 30
0.0
 10
7.5806862988
 20
2.7531755546
 30
0.0
 10
7.5821695946
 20
2.7382926104
 30
0.0
 10
7.5821696283
 20
2.7302254901
 30
0.0
  0
ENDSEC
  0
SECTION
  2
OBJECTS
  0
DICTIONARY
  5
C
100
AcDbDictionary
280
0
281
1
  3
ACAD_GROUP
350
D
  3
ACAD_MLINESTYLE
350
17
  3
ACAD_LAYOUT
350
1A
  3
ACAD_PLOTSETTINGS
350
19
  3
ACAD_PLOTSTYLENAME
350
E
  0
DICTIONARY
  5
D
102
{ACAD_REACTORS
330
C
102
}
100
AcDbDictionary
280
0
281
1
  0
ACDBDICTIONARYWDFLT
  5
E
102
{ACAD_REACTORS
330
C
102
}
100
AcDbDictionary
281
1
  3
Normal
350
F
100
AcDbDictionaryWithDefault
340
F
  0
DICTIONARY
  5
17
102
{ACAD_REACTORS
330
C
102
}
100
AcDbDictionary
280
0
281
1
  3
Standard
350
18
  0
DICTIONARY
  5
19
102
{ACAD_REACTORS
330
C
102
}
100
AcDbDictionary
281
1
  0
DICTIONARY
  5
1A
102
{ACAD_REACTORS
330
C
102
}
100
AcDbDictionary
281
1
  3
Model
350
28C
  3
Layout1
350
28D
  0
ACDBPLACEHOLDER
  5
F
102
{ACAD_REACTORS
330
E
102
}
  0
MLINESTYLE
  5
18
102
{ACAD_REACTORS
330
17
102
}
100
AcDbMlineStyle
  2
STANDARD
 70
0
  3

 62
256
 51
90.0
 52
90.0
 71
2
 49
0.5
 62
256
  6
BYLAYER
 49
-0.5
 62
256
  6
BYLAYER
  0
LAYOUT
  5
28C
102
{ACAD_REACTORS
330
1A
102
}
100
AcDbPlotSettings
  1

  2
none_device
  4
ANSI_A_(11.00_x_8.50_Inches)
  6

 40
0.0
 41
0.0
 42
0.0
 43
0.0
 44
279.4
 45
215.9
 46
0.0
 47
0.0
 48
0.0
 49
0.0
140
0.0
141
0.0
142
1.0
143
1.0
 70
1024
 72
0
 73
0
 74
0
  7

 75
0
147
1.0
148
0.0
149
0.0
100
AcDbLayout
  1
Model
 70
0
 71
0
 10
0.0
 20
0.0
 11
11.0
 21
8.5
 12
0.0
 22
0.0
 32
0.0
 14
0.0
 24
0.0
 34
0.0
 15
0.0
 25
0.0
 35
0.0
146
0.0
 13
0.0
 23
0.0
 33
0.0
 16
1.0
 26
0.0
 36
0.0
 17
0.0
 27
1.0
 37
0.0
 76
0
330
200
345
0
346
0
  0
LAYOUT
  5
28D
102
{ACAD_REACTORS
330
1A
102
}
100
AcDbPlotSettings
  1

  2
none_device
  4
ANSI_A_(11.00_x_8.50_Inches)
  6

 40
0.0
 41
0.0
 42
0.0
 43
0.0
 44
279.4
 45
215.9
 46
0.0
 47
0.0
 48
0.0
 49
0.0
140
0.0
141
0.0
142
1.0
143
1.0
 70
0
 72
0
 73
0
 74
0
  7

 75
0
147
1.0
148
0.0
149
0.0
100
AcDbLayout
  1
Layout1
 70
0
 71
1
 10
0.0
 20
0.0
 11
11.0
 21
8.5
 12
0.0
 22
0.0
 32
0.0
 14
0.0
 24
0.0
 34
0.0
 15
0.0
 25
0.0
 35
0.0
146
0.0
 13
0.0
 23
0.0
 33
0.0
 16
1.0
 26
0.0
 36
0.0
 17
0.0
 27
1.0
 37
0.0
 76
0
330
201
345
0
346
0
  0
ENDSEC
  0
EOF
