999
DXF file: 81-09_right.dxf
999
Pro/ENGINEER 2013150 by Parametric Technology Corporation
  0
SECTION
  2
HEADER
  9
$ACADVER
  1
AC1021
  9
$DWGCODEPAGE
  3
ANSI_1252
  9
$EXTMAX
 10
11.0
 20
8.5
 30
0.0
  9
$EXTMIN
 10
0.0
 20
0.0
 30
0.0
  9
$LIMMIN
 10
0.0
 20
0.0
  9
$LIMMAX
 10
11.0
 20
8.5
  9
$VIEWCTR
 10
5.5
 20
4.25
  9
$VIEWSIZE
 40
8.5
  9
$CLAYER
  8
0
  9
$LTSCALE
 40
0.605
  9
$CELTYPE
  6
BYLAYER
  9
$DIMSCALE
 40
1.0
  9
$DIMASZ
 40
0.1
  9
$DIMEXO
 40
0.0625
  9
$DIMDLI
 40
0.418
  9
$DIMEXE
 40
0.125
  9
$DIMCEN
 40
0.099
  9
$DIMLFAC
 40
1.0
  9
$DIMBLK
  1
_FILLED
  9
$DIMTXT
 40
0.08
  9
$DIMTOL
 70
1
  9
$DIMLIM
 70
0
  9
$DIMTFAC
 40
1.0
  9
$DIMTP
 40
0.001
  9
$DIMTM
 40
0.001
  9
$DIMGAP
 40
0.09
  9
$DIMDSEP
 70
46
  9
$PDMODE
 70
3
  9
$PDSIZE
 40
0.06
  9
$HANDSEED
  5
245
  9
$TILEMODE
 70
1
  9
$MEASUREMENT
 70
0
  9
$INSUNITS
 70
1
  0
ENDSEC
  0
SECTION
  2
CLASSES
  0
CLASS
  1
ACDBDICTIONARYWDFLT
  2
AcDbDictionaryWithDefault
  3
AutoCAD 2000
 90
0
 91
1
280
0
281
0
  0
CLASS
  1
ACDBPLACEHOLDER
  2
AcDbPlaceHolder
  3
AutoCAD 2000
 90
0
 91
1
280
0
281
0
  0
CLASS
  1
LAYOUT
  2
AcDbLayout
  3
AutoCAD 2000
 90
0
 91
0
280
0
281
0
  0
ENDSEC
  0
SECTION
  2
TABLES
  0
TABLE
  2
VPORT
  5
8
100
AcDbSymbolTable
 70
2
  0
VPORT
  5
1F4
100
AcDbSymbolTableRecord
100
AcDbViewportTableRecord
  2
*ACTIVE
 70
0
 10
0.0
 20
0.0
 11
1.0
 21
1.0
 12
5.5
 22
4.25
 13
0.0
 23
0.0
 14
1.0
 24
1.0
 15
0.0
 25
0.0
 16
0.0
 26
0.0
 36
1.0
 17
0.0
 27
0.0
 37
0.0
 40
8.5
 41
1.2941176471
 42
50.0
 43
0.0
 44
0.0
 50
0.0
 51
0.0
 71
0
 72
100
 73
1
 74
1
 75
0
 76
0
 77
0
 78
0
  0
ENDTAB
  0
TABLE
  2
LTYPE
  5
5
100
AcDbSymbolTable
 70
6
  0
LTYPE
  5
14
100
AcDbSymbolTableRecord
100
AcDbLinetypeTableRecord
  2
BYBLOCK
 70
0
  3

 72
65
 73
0
 40
0.0
  0
LTYPE
  5
15
100
AcDbSymbolTableRecord
100
AcDbLinetypeTableRecord
  2
BYLAYER
 70
0
  3

 72
65
 73
0
 40
0.0
  0
LTYPE
  5
16
100
AcDbSymbolTableRecord
100
AcDbLinetypeTableRecord
  2
CONTINUOUS
 70
64
  3
Solid line
 72
65
 73
0
 40
0.0
  0
LTYPE
  5
1F5
100
AcDbSymbolTableRecord
100
AcDbLinetypeTableRecord
  2
CENTER
 70
64
  3
____ _ ____ _ ____ _ ____ _ ____ _ ____ _ ____
 72
65
 73
4
 40
0.6
 49
0.375
 74
0
 49
-0.075
 74
0
 49
0.075
 74
0
 49
-0.075
 74
0
  0
LTYPE
  5
1F6
100
AcDbSymbolTableRecord
100
AcDbLinetypeTableRecord
  2
HIDDEN
 70
64
  3
- - - - - - - - - - - - - - - - - - - -
 72
65
 73
2
 40
0.2
 49
0.1
 74
0
 49
-0.1
 74
0
  0
LTYPE
  5
1F7
100
AcDbSymbolTableRecord
100
AcDbLinetypeTableRecord
  2
PHANTOM
 70
64
  3
_____ _ _ _____ _ _ _____ _ _ _____
 72
65
 73
6
 40
0.8
 49
0.45
 74
0
 49
-0.05
 74
0
 49
0.1
 74
0
 49
-0.05
 74
0
 49
0.1
 74
0
 49
-0.05
 74
0
  0
LTYPE
  5
1F8
100
AcDbSymbolTableRecord
100
AcDbLinetypeTableRecord
  2
DOT
 70
64
  3
. . . . . . . . . . . . . . . . . . . .
 72
65
 73
2
 40
0.2
 49
0.1
 74
0
 49
-0.1
 74
0
  0
LTYPE
  5
1F9
100
AcDbSymbolTableRecord
100
AcDbLinetypeTableRecord
  2
DASHED
 70
64
  3
- - - - - - - - - - - - - - - - - - - -
 72
65
 73
2
 40
0.2
 49
0.1
 74
0
 49
-0.1
 74
0
  0
ENDTAB
  0
TABLE
  2
LAYER
  5
2
100
AcDbSymbolTable
 70
36
  0
LAYER
  5
10
100
AcDbSymbolTableRecord
100
AcDbLayerTableRecord
  2
0
 70
0
 62
7
  6
CONTINUOUS
370
-3
390
F
  0
LAYER
  5
1FA
100
AcDbSymbolTableRecord
100
AcDbLayerTableRecord
  2
DEFAULT_1
 70
0
 62
7
  6
CENTER
370
-3
390
F
  0
LAYER
  5
1FB
100
AcDbSymbolTableRecord
100
AcDbLayerTableRecord
  2
DEFAULT_2
 70
0
 62
8
  6
HIDDEN
370
-3
390
F
  0
LAYER
  5
1FC
100
AcDbSymbolTableRecord
100
AcDbLayerTableRecord
  2
DEFAULT_3
 70
0
 62
7
  6
PHANTOM
370
-3
390
F
  0
LAYER
  5
1FD
100
AcDbSymbolTableRecord
100
AcDbLayerTableRecord
  2
DEFAULT_DATUM_CURVES
 70
0
 62
7
  6
CONTINUOUS
370
-3
390
F
  0
ENDTAB
  0
TABLE
  2
STYLE
  5
3
100
AcDbSymbolTable
 70
1
  0
STYLE
  5
11
100
AcDbSymbolTableRecord
100
AcDbTextStyleTableRecord
  2
STANDARD
 70
0
 40
0.0
 41
0.8
 50
0.0
 71
0
 42
0.2
  3
txt
  4

  0
STYLE
  5
1FE
100
AcDbSymbolTableRecord
100
AcDbTextStyleTableRecord
  2
TEXTSTYLE_1
 70
0
 40
0.0
 41
0.8
 50
0.0
 71
0
 42
0.2
  3
gdt
  4

  0
ENDTAB
  0
TABLE
  2
VIEW
  5
6
100
AcDbSymbolTable
 70
0
  0
ENDTAB
  0
TABLE
  2
UCS
  5
7
100
AcDbSymbolTable
 70
0
  0
ENDTAB
  0
TABLE
  2
APPID
  5
9
100
AcDbSymbolTable
 70
1
  0
APPID
  5
1FF
100
AcDbSymbolTableRecord
100
AcDbRegAppTableRecord
  2
ACAD
 70
0
  0
ENDTAB
  0
TABLE
  2
BLOCK_RECORD
  5
1
100
AcDbSymbolTable
 70
0
  0
BLOCK_RECORD
  5
200
100
AcDbSymbolTableRecord
100
AcDbBlockTableRecord
  2
*Model_Space
  0
BLOCK_RECORD
  5
201
100
AcDbSymbolTableRecord
100
AcDbBlockTableRecord
  2
*Paper_Space
  0
ENDTAB
  0
TABLE
  2
DIMSTYLE
  5
A
100
AcDbSymbolTable
 70
1
100
AcDbDimStyleTable
 71
0
  0
DIMSTYLE
105
202
100
AcDbSymbolTableRecord
100
AcDbDimStyleTableRecord
  2
STANDARD
 70
0
  3

  4

 40
1.0
 41
0.1
 42
0.0625
 43
0.38
 44
0.125
 45
0.0
 46
0.0
 47
0.001
 48
0.001
140
0.08
141
0.09
142
0.0
143
25.4
144
1.0
145
0.0
146
1.0
147
0.09
 71
1.0
 72
0.0
 73
1
 74
1
 75
0
 76
0
 77
0
 78
4
170
0
171
2
172
0
173
0
174
0
175
0
176
0
177
0
178
0
270
2
271
3
272
3
273
2
274
2
275
0
280
0
281
0
282
0
283
1
284
4
285
0
286
0
287
3
288
0
340
11
278
46
  0
ENDTAB
  0
ENDSEC
  0
SECTION
  2
BLOCKS
  0
BLOCK
  5
20
100
AcDbEntity
  8
0
100
AcDbBlockBegin
  2
*Model_Space
 70
0
 10
0.0
 20
0.0
 30
0.0
  3
*Model_Space
  1

  0
ENDBLK
  5
21
100
AcDbEntity
  8
0
100
AcDbBlockEnd
  0
BLOCK
  5
1C
100
AcDbEntity
  8
0
100
AcDbBlockBegin
  2
*Paper_Space
 70
0
 10
0.0
 20
0.0
 30
0.0
  3
*Paper_Space
  1

  0
ENDBLK
  5
1D
100
AcDbEntity
  8
0
100
AcDbBlockEnd
  0
ENDSEC
  0
SECTION
  2
ENTITIES
  0
LINE
  5
203
100
AcDbEntity
  8
0
100
AcDbLine
 62
7
  6
CONTINUOUS
 10
0.0
 20
0.0
 11
0.0
 21
8.5
  0
LINE
  5
204
100
AcDbEntity
  8
0
100
AcDbLine
 62
7
  6
CONTINUOUS
 10
0.0
 20
0.0
 11
11.0
 21
0.0
  0
LINE
  5
205
100
AcDbEntity
  8
0
100
AcDbLine
 62
7
  6
CONTINUOUS
 10
0.0
 20
8.5
 11
11.0
 21
8.5
  0
LINE
  5
206
100
AcDbEntity
  8
0
100
AcDbLine
 62
7
  6
CONTINUOUS
 10
11.0
 20
0.0
 11
11.0
 21
8.5
  0
LINE
  5
207
100
AcDbEntity
  8
0
100
AcDbLine
 62
7
  6
CONTINUOUS
 10
3.9428979335
 20
1.6672343008
 11
3.677149902
 21
1.6672343008
  0
LINE
  5
208
100
AcDbEntity
  8
0
100
AcDbLine
 62
7
  6
CONTINUOUS
 10
3.4778388784
 20
5.380324852
 11
3.4778388784
 21
5.9561122536
  0
LINE
  5
209
100
AcDbEntity
  8
0
100
AcDbLine
 62
9
  6
CONTINUOUS
 10
3.5221302169
 20
6.0004035922
 11
3.5221302169
 21
5.3360335134
  0
LINE
  5
20A
100
AcDbEntity
  8
0
100
AcDbLine
 62
9
  6
CONTINUOUS
 10
3.6476223429
 20
2.7154626473
 11
3.9724254925
 21
2.7154626473
  0
LINE
  5
20B
100
AcDbEntity
  8
0
100
AcDbLine
 62
9
  6
CONTINUOUS
 10
3.9724254925
 20
2.7302264265
 11
3.6476223429
 21
2.7302264265
  0
LINE
  5
20C
100
AcDbEntity
  8
0
100
AcDbLine
 62
7
  6
CONTINUOUS
 10
3.706677461
 20
2.7892815449
 11
3.9133703744
 21
2.7892815449
  0
LINE
  5
20D
100
AcDbEntity
  8
0
100
AcDbLine
 62
7
  6
CONTINUOUS
 10
3.6476223429
 20
1.6967618599
 11
3.6476223429
 21
5.3360335134
  0
LINE
  5
20E
100
AcDbEntity
  8
0
100
AcDbLine
 62
9
  6
CONTINUOUS
 10
3.677149902
 20
5.3360335134
 11
3.677149902
 21
2.7812976032
  0
LINE
  5
20F
100
AcDbEntity
  8
0
100
AcDbLine
 62
9
  6
CONTINUOUS
 10
3.6771498847
 20
2.7302254901
 11
3.677149902
 21
1.6672343008
  0
LINE
  5
210
100
AcDbEntity
  8
0
100
AcDbLine
 62
9
  6
CONTINUOUS
 10
3.9428979335
 20
1.6672343008
 11
3.9428979366
 21
2.7302254901
  0
LINE
  5
211
100
AcDbEntity
  8
0
100
AcDbLine
 62
9
  6
CONTINUOUS
 10
3.9428979335
 20
2.7813138561
 11
3.9428979335
 21
5.3360335134
  0
LINE
  5
212
100
AcDbEntity
  8
0
100
AcDbLine
 62
7
  6
CONTINUOUS
 10
3.9724254925
 20
1.6967618599
 11
3.9724254925
 21
5.3360335134
  0
LINE
  5
213
100
AcDbEntity
  8
0
100
AcDbLine
 62
9
  6
CONTINUOUS
 10
4.0979176185
 20
5.3360335134
 11
4.0979176185
 21
6.0004035922
  0
LINE
  5
214
100
AcDbEntity
  8
0
100
AcDbLine
 62
7
  6
CONTINUOUS
 10
4.1422089571
 20
5.9561122536
 11
4.1422089571
 21
5.380324852
  0
LINE
  5
215
100
AcDbEntity
  8
0
100
AcDbLine
 62
7
  6
CONTINUOUS
 10
4.2455554138
 20
5.9580261756
 11
4.2455554138
 21
5.3784109321
  0
LINE
  5
216
100
AcDbEntity
  8
0
100
AcDbLine
 62
9
  6
CONTINUOUS
 10
4.2886985486
 20
5.3784109321
 11
4.2886985486
 21
5.9580261739
  0
LINE
  5
217
100
AcDbEntity
  8
0
100
AcDbLine
 62
9
  6
CONTINUOUS
 10
3.9724254925
 20
4.7823917811
 11
3.6476223429
 21
4.7823917811
  0
LINE
  5
218
100
AcDbEntity
  8
0
100
AcDbLine
 62
9
  6
CONTINUOUS
 10
5.8695711611
 20
5.1077001519
 11
5.8695711611
 21
6.2287369537
  0
LINE
  5
219
100
AcDbEntity
  8
0
100
AcDbLine
 62
9
  6
CONTINUOUS
 10
5.9343268999
 20
5.0375759974
 11
5.9343268999
 21
6.2988611082
  0
LINE
  5
21A
100
AcDbEntity
  8
0
100
AcDbLine
 62
7
  6
CONTINUOUS
 10
6.1057916343
 20
4.9182186089
 11
6.1057916343
 21
6.4182184996
  0
LINE
  5
21B
100
AcDbEntity
  8
0
100
AcDbLine
 62
7
  6
CONTINUOUS
 10
4.0979176185
 20
5.3360335134
 11
3.5221302169
 21
5.3360335134
  0
LINE
  5
21C
100
AcDbEntity
  8
0
100
AcDbLine
 62
9
  6
CONTINUOUS
 10
4.2455554138
 20
5.3784109321
 11
4.2886985486
 21
5.3784109321
  0
LINE
  5
21D
100
AcDbEntity
  8
0
100
AcDbLine
 62
9
  6
CONTINUOUS
 10
3.4778388784
 20
5.380324852
 11
4.1422089571
 21
5.380324852
  0
LINE
  5
21E
100
AcDbEntity
  8
0
100
AcDbLine
 62
7
  6
CONTINUOUS
 10
4.2455554138
 20
5.4172343008
 11
4.1422089571
 21
5.4172343008
  0
LINE
  5
21F
100
AcDbEntity
  8
0
100
AcDbLine
 62
9
  6
CONTINUOUS
 10
4.1422089571
 20
5.4615256394
 11
4.2455554138
 21
5.4615256394
  0
LINE
  5
220
100
AcDbEntity
  8
0
100
AcDbLine
 62
9
  6
CONTINUOUS
 10
4.2455554138
 20
5.8749114662
 11
4.1422089571
 21
5.8749114662
  0
LINE
  5
221
100
AcDbEntity
  8
0
100
AcDbLine
 62
7
  6
CONTINUOUS
 10
4.1422089571
 20
5.9192028048
 11
4.2455554138
 21
5.9192028048
  0
LINE
  5
222
100
AcDbEntity
  8
0
100
AcDbLine
 62
9
  6
CONTINUOUS
 10
4.1422089571
 20
5.9561122536
 11
3.4778388784
 21
5.9561122536
  0
LINE
  5
223
100
AcDbEntity
  8
0
100
AcDbLine
 62
9
  6
CONTINUOUS
 10
4.2455554138
 20
5.9580261756
 11
4.2886985486
 21
5.9580261739
  0
LINE
  5
224
100
AcDbEntity
  8
0
100
AcDbLine
 62
7
  6
CONTINUOUS
 10
3.5221302169
 20
6.0004035922
 11
4.0979176185
 21
6.0004035922
  0
ARC
  5
225
100
AcDbEntity
  8
0
100
AcDbCircle
 62
7
  6
CONTINUOUS
 10
4.1422067865
 20
-0.3144445625
 40
5.6504783009
100
AcDbArc
 50
72.199577331
 51
88.5144087915
  0
ARC
  5
226
100
AcDbEntity
  8
0
100
AcDbCircle
 62
9
  6
CONTINUOUS
 10
4.1418705124
 20
-0.2302970898
 40
5.6106289275
100
AcDbArc
 50
72.0652637616
 51
88.5004201022
  0
ARC
  5
227
100
AcDbEntity
  8
0
100
AcDbCircle
 62
7
  6
CONTINUOUS
 10
3.706677461
 20
2.7302264268
 40
0.0590551181
100
AcDbArc
 50
90.0
 51
180.000908757
  0
ARC
  5
228
100
AcDbEntity
  8
0
100
AcDbCircle
 62
7
  6
CONTINUOUS
 10
3.9133703744
 20
2.7302264268
 40
0.0590551181
100
AcDbArc
 50
359.9990912431
 51
90.0
  0
ARC
  5
229
100
AcDbEntity
  8
0
100
AcDbCircle
 62
7
  6
CONTINUOUS
 10
3.5221302169
 20
5.380324852
 40
0.0442913386
100
AcDbArc
 50
180.0
 51
270.0
  0
ARC
  5
22A
100
AcDbEntity
  8
0
100
AcDbCircle
 62
7
  6
CONTINUOUS
 10
4.0979176185
 20
5.380324852
 40
0.0442913386
100
AcDbArc
 50
270.0
 51
360.0
  0
ARC
  5
22B
100
AcDbEntity
  8
0
100
AcDbCircle
 62
7
  6
CONTINUOUS
 10
4.2898467524
 20
5.3784109325
 40
0.0442913386
100
AcDbArc
 50
180.0000023419
 51
268.5145189959
  0
ARC
  5
22C
100
AcDbEntity
  8
0
100
AcDbCircle
 62
7
  6
CONTINUOUS
 10
3.677149902
 20
1.6967618599
 40
0.0295275591
100
AcDbArc
 50
180.0
 51
270.0
  0
ARC
  5
22D
100
AcDbEntity
  8
0
100
AcDbCircle
 62
7
  6
CONTINUOUS
 10
3.9428979335
 20
1.6967618599
 40
0.0295275591
100
AcDbArc
 50
270.0
 51
360.0
  0
ARC
  5
22E
100
AcDbEntity
  8
0
100
AcDbCircle
 62
7
  6
CONTINUOUS
 10
4.1422067865
 20
11.6508816681
 40
5.6504783009
100
AcDbArc
 50
271.4855912097
 51
287.800422669
  0
ARC
  5
22F
100
AcDbEntity
  8
0
100
AcDbCircle
 62
9
  6
CONTINUOUS
 10
4.1418705124
 20
11.5667341953
 40
5.6106289274
100
AcDbArc
 50
271.4995798978
 51
287.9347362385
  0
ARC
  5
230
100
AcDbEntity
  8
0
100
AcDbCircle
 62
7
  6
CONTINUOUS
 10
4.0979176185
 20
5.9561122536
 40
0.0442913386
100
AcDbArc
 50
0.0
 51
90.0
  0
ARC
  5
231
100
AcDbEntity
  8
0
100
AcDbCircle
 62
7
  6
CONTINUOUS
 10
3.5221302169
 20
5.9561122536
 40
0.0442913386
100
AcDbArc
 50
90.0
 51
180.0
  0
ARC
  5
232
100
AcDbEntity
  8
0
100
AcDbCircle
 62
7
  6
CONTINUOUS
 10
4.2898467524
 20
5.9580261731
 40
0.0442913386
100
AcDbArc
 50
91.4854808523
 51
179.9999967157
  0
ARC
  5
233
100
AcDbEntity
  8
0
100
AcDbCircle
 62
7
  6
CONTINUOUS
 10
6.1057916343
 20
5.1190059544
 40
0.2007874016
100
AcDbArc
 50
211.3545444224
 51
270.0000000002
  0
ARC
  5
234
100
AcDbEntity
  8
0
100
AcDbCircle
 62
7
  6
CONTINUOUS
 10
5.8334645729
 20
4.9530732118
 40
0.1181102362
100
AcDbArc
 50
31.3545444355
 51
72.199569882
  0
ARC
  5
235
100
AcDbEntity
  8
0
100
AcDbCircle
 62
7
  6
CONTINUOUS
 10
6.1057916343
 20
6.2174311512
 40
0.2007874016
100
AcDbArc
 50
89.9999999998
 51
148.6454555824
  0
ARC
  5
236
100
AcDbEntity
  8
0
100
AcDbCircle
 62
7
  6
CONTINUOUS
 10
5.8334645729
 20
6.3833638938
 40
0.1181102362
100
AcDbArc
 50
287.8004301179
 51
328.6454555559
  0
SPLINE
  5
237
100
AcDbEntity
  8
0
100
AcDbSpline
 62
9
  6
CONTINUOUS
 70
0
 71
3
 72
13
 73
9
 74
0
 42
0.0000001
 43
0.0000001
 44
0.0000000001
 40
0.0
 40
0.0
 40
0.0
 40
0.0
 40
0.0769064972
 40
0.1615598016
 40
0.259941871
 40
0.3755021835
 40
0.6607126917
 40
1.0
 40
1.0
 40
1.0
 40
1.0
 10
3.9133703867
 20
2.7892815449
 30
0.0
 10
3.9151989667
 20
2.7892812485
 30
0.0
 10
3.9190682076
 20
2.7885336285
 30
0.0
 10
3.9244608616
 20
2.7853317169
 30
0.0
 10
3.929446773
 20
2.7801883702
 30
0.0
 10
3.9358390503
 20
2.77011587
 30
0.0
 10
3.94141461
 20
2.7531755546
 30
0.0
 10
3.9428979058
 20
2.7382926104
 30
0.0
 10
3.9428979395
 20
2.7302254901
 30
0.0
  0
SPLINE
  5
238
100
AcDbEntity
  8
0
100
AcDbSpline
 62
9
  6
CONTINUOUS
 70
0
 71
3
 72
13
 73
9
 74
0
 42
0.0000001
 43
0.0000001
 44
0.0000000001
 40
0.0
 40
0.0
 40
0.0
 40
0.0
 40
0.3345974074
 40
0.6195641824
 40
0.7363037499
 40
0.8360365195
 40
0.9220404515
 40
1.0
 40
1.0
 40
1.0
 40
1.0
 10
3.6771499103
 20
2.7302254901
 30
0.0
 10
3.6771505607
 20
2.7381811473
 30
0.0
 10
3.6786008879
 20
2.7529455392
 30
0.0
 10
3.6840839128
 20
2.7698154213
 30
0.0
 10
3.6904339494
 20
2.7799776964
 30
0.0
 10
3.6954451535
 20
2.7852268022
 30
0.0
 10
3.7008976207
 20
2.7885069641
 30
0.0
 10
3.7048238321
 20
2.7892813947
 30
0.0
 10
3.706677461
 20
2.7892815449
 30
0.0
  0
SPLINE
  5
239
100
AcDbEntity
  8
0
100
AcDbSpline
 62
9
  6
CONTINUOUS
 70
0
 71
3
 72
20
 73
16
 74
0
 42
0.0000001
 43
0.0000001
 44
0.0000000001
 40
0.0
 40
0.0
 40
0.0
 40
0.0
 40
0.1819224379
 40
0.3676379858
 40
0.5464517936
 40
0.7061950214
 40
0.7751605186
 40
0.8356303718
 40
0.8870106159
 40
0.9287090527
 40
0.9603326263
 40
0.9822773974
 40
0.9951662246
 40
0.9984647683
 40
1.0
 40
1.0
 40
1.0
 40
1.0
 10
4.2886984537
 20
5.958026171
 30
0.0
 10
4.288628821
 20
5.960713165
 30
0.0
 10
4.2885010095
 20
5.9661435196
 30
0.0
 10
4.28835033
 20
5.9742159509
 30
0.0
 10
4.288252213
 20
5.9819614952
 30
0.0
 10
4.2882173805
 20
5.9879825607
 30
0.0
 10
4.2882283999
 20
5.9922552636
 30
0.0
 10
4.2882529182
 20
5.9949264985
 30
0.0
 10
4.288292992
 20
5.9971954974
 30
0.0
 10
4.2883457902
 20
5.9990354977
 30
0.0
 10
4.2884132828
 20
6.0004459882
 30
0.0
 10
4.2884849109
 20
6.0014157418
 30
0.0
 10
4.2885650112
 20
6.0019905723
 30
0.0
 10
4.2886278772
 20
6.0022290444
 30
0.0
 10
4.28867579
 20
6.0023020374
 30
0.0
 10
4.2886984654
 20
6.0023026255
 30
0.0
  0
SPLINE
  5
23A
100
AcDbEntity
  8
0
100
AcDbSpline
 62
9
  6
CONTINUOUS
 70
0
 71
3
 72
11
 73
7
 74
0
 42
0.0000001
 43
0.0000001
 44
0.0000000001
 40
0.0
 40
0.0
 40
0.0
 40
0.0
 40
0.2624636121
 40
0.5172282458
 40
0.7621888479
 40
1.0
 40
1.0
 40
1.0
 40
1.0
 10
5.9343264226
 20
5.0375759976
 30
0.0
 10
5.9334767757
 20
5.0356638683
 30
0.0
 10
5.9321035367
 20
5.0317506444
 30
0.0
 10
5.9312276921
 20
5.0256870125
 30
0.0
 10
5.9318580854
 20
5.0197744787
 30
0.0
 10
5.9333399459
 20
5.0161487708
 30
0.0
 10
5.9343264282
 20
5.0145297698
 30
0.0
  0
SPLINE
  5
23B
100
AcDbEntity
  8
0
100
AcDbSpline
 62
9
  6
CONTINUOUS
 70
0
 71
3
 72
11
 73
7
 74
0
 42
0.0000001
 43
0.0000001
 44
0.0000000001
 40
0.0
 40
0.0
 40
0.0
 40
0.0
 40
0.2378111521
 40
0.4827717542
 40
0.7375363879
 40
1.0
 40
1.0
 40
1.0
 40
1.0
 10
5.9343264282
 20
6.3219073358
 30
0.0
 10
5.9333399459
 20
6.3202883348
 30
0.0
 10
5.9318580854
 20
6.3166626269
 30
0.0
 10
5.9312276921
 20
6.3107500931
 30
0.0
 10
5.9321035367
 20
6.3046864612
 30
0.0
 10
5.9334767757
 20
6.3007732373
 30
0.0
 10
5.9343264226
 20
6.2988611079
 30
0.0
  0
SPLINE
  5
23C
100
AcDbEntity
  8
0
100
AcDbSpline
 62
9
  6
CONTINUOUS
 70
0
 71
3
 72
12
 73
8
 74
0
 42
0.0000001
 43
0.0000001
 44
0.0000000001
 40
0.0
 40
0.0
 40
0.0
 40
0.0
 40
0.2833687346
 40
0.5484532764
 40
0.7868847075
 40
0.8964261173
 40
1.0
 40
1.0
 40
1.0
 40
1.0
 10
6.1057916343
 20
4.9625097271
 30
0.0
 10
6.0875449381
 20
4.9625465216
 30
0.0
 10
6.0520957663
 20
4.966217979
 30
0.0
 10
6.0036550367
 20
4.9822989622
 30
0.0
 10
5.9694560335
 20
5.0027837176
 30
0.0
 10
5.9476276098
 20
5.0220777644
 30
0.0
 10
5.9384446769
 20
5.0323296529
 30
0.0
 10
5.9343268999
 20
5.0375759974
 30
0.0
  0
SPLINE
  5
23D
100
AcDbEntity
  8
0
100
AcDbSpline
 62
9
  6
CONTINUOUS
 70
0
 71
3
 72
11
 73
7
 74
0
 42
0.0000001
 43
0.0000001
 44
0.0000000001
 40
0.0
 40
0.0
 40
0.0
 40
0.0
 40
0.2425102413
 40
0.4888022704
 40
0.7408695042
 40
1.0
 40
1.0
 40
1.0
 40
1.0
 10
5.9343271341
 20
5.0375771608
 30
0.0
 10
5.9311366186
 20
5.0447822302
 30
0.0
 10
5.9237733405
 20
5.0589204889
 30
0.0
 10
5.9095030813
 20
5.0784376997
 30
0.0
 10
5.8916317554
 20
5.0955651664
 30
0.0
 10
5.8772764022
 20
5.1043058214
 30
0.0
 10
5.869571779
 20
5.1077019596
 30
0.0
  0
SPLINE
  5
23E
100
AcDbEntity
  8
0
100
AcDbSpline
 62
9
  6
CONTINUOUS
 70
0
 71
3
 72
15
 73
11
 74
0
 42
0.0000001
 43
0.0000001
 44
0.0000000001
 40
0.0
 40
0.0
 40
0.0
 40
0.0
 40
0.1685838124
 40
0.3388995467
 40
0.5027953497
 40
0.6512623406
 40
0.7764102093
 40
0.8746121972
 40
0.9462187356
 40
1.0
 40
1.0
 40
1.0
 40
1.0
 10
5.8695709849
 20
5.1076995418
 30
0.0
 10
5.8688770773
 20
5.1053154953
 30
0.0
 10
5.8676019282
 20
5.100487146
 30
0.0
 10
5.8660929608
 20
5.093232783
 30
0.0
 10
5.8651009343
 20
5.0861875544
 30
0.0
 10
5.8646908321
 20
5.0797480251
 30
0.0
 10
5.8649457373
 20
5.074262268
 30
0.0
 10
5.8658058344
 20
5.0699814085
 30
0.0
 10
5.8672600167
 20
5.0669571104
 30
0.0
 10
5.8688169684
 20
5.0657713219
 30
0.0
 10
5.8695711625
 20
5.0655291703
 30
0.0
  0
SPLINE
  5
23F
100
AcDbEntity
  8
0
100
AcDbSpline
 62
9
  6
CONTINUOUS
 70
0
 71
3
 72
20
 73
16
 74
0
 42
0.0000001
 43
0.0000001
 44
0.0000000001
 40
0.0
 40
0.0
 40
0.0
 40
0.0
 40
0.0015352311
 40
0.0048337739
 40
0.0177225991
 40
0.0396673684
 40
0.0712909402
 40
0.1129893754
 40
0.1643696182
 40
0.2248394705
 40
0.2938049672
 40
0.4535481953
 40
0.6323620053
 40
0.8180775571
 40
1.0
 40
1.0
 40
1.0
 40
1.0
 10
4.2886984654
 20
5.3341344801
 30
0.0
 10
4.2886757901
 20
5.3341350681
 30
0.0
 10
4.2886278773
 20
5.3342080612
 30
0.0
 10
4.2885650113
 20
5.3344465332
 30
0.0
 10
4.288484911
 20
5.3350213636
 30
0.0
 10
4.2884132829
 20
5.3359911171
 30
0.0
 10
4.2883457902
 20
5.3374016075
 30
0.0
 10
4.288292992
 20
5.3392416077
 30
0.0
 10
4.2882529183
 20
5.3415106064
 30
0.0
 10
4.2882283999
 20
5.3441818412
 30
0.0
 10
4.2882173806
 20
5.3484545441
 30
0.0
 10
4.288252213
 20
5.3544756094
 30
0.0
 10
4.28835033
 20
5.3622211537
 30
0.0
 10
4.2885010096
 20
5.370293585
 30
0.0
 10
4.2886288211
 20
5.3757239396
 30
0.0
 10
4.2886984537
 20
5.3784109336
 30
0.0
  0
SPLINE
  5
240
100
AcDbEntity
  8
0
100
AcDbSpline
 62
9
  6
CONTINUOUS
 70
0
 71
3
 72
14
 73
10
 74
0
 42
0.0000001
 43
0.0000001
 44
0.0000000001
 40
0.0
 40
0.0
 40
0.0
 40
0.0
 40
0.283243516
 40
0.3518508514
 40
0.4190546463
 40
0.548653273
 40
0.7869773088
 40
0.8964650777
 40
1.0
 40
1.0
 40
1.0
 40
1.0
 10
6.1057916343
 20
6.3739273784
 30
0.0
 10
6.0875447596
 20
6.3738859726
 30
0.0
 10
6.06474809
 20
6.3715646159
 30
0.0
 10
6.0385557315
 20
6.3650133511
 30
0.0
 10
6.0221956011
 20
6.3600095121
 30
0.0
 10
5.9961162519
 20
6.3496294929
 30
0.0
 10
5.9694547343
 20
6.3336510128
 30
0.0
 10
5.9476253798
 20
6.3143632601
 30
0.0
 10
5.9384438594
 20
6.3041087391
 30
0.0
 10
5.9343268999
 20
6.2988611082
 30
0.0
  0
SPLINE
  5
241
100
AcDbEntity
  8
0
100
AcDbSpline
 62
9
  6
CONTINUOUS
 70
0
 71
3
 72
11
 73
7
 74
0
 42
0.0000001
 43
0.0000001
 44
0.0000000001
 40
0.0
 40
0.0
 40
0.0
 40
0.0
 40
0.2591305376
 40
0.511197848
 40
0.7574898581
 40
1.0
 40
1.0
 40
1.0
 40
1.0
 10
5.8695718792
 20
6.2287348955
 30
0.0
 10
5.8772765095
 20
6.2321310352
 30
0.0
 10
5.8916318755
 20
6.2408717008
 30
0.0
 10
5.909503206
 20
6.2579991923
 30
0.0
 10
5.9237734634
 20
6.2775164236
 30
0.0
 10
5.9311367318
 20
6.2916546956
 30
0.0
 10
5.9343272407
 20
6.2988597705
 30
0.0
  0
SPLINE
  5
242
100
AcDbEntity
  8
0
100
AcDbSpline
 62
9
  6
CONTINUOUS
 70
0
 71
3
 72
15
 73
11
 74
0
 42
0.0000001
 43
0.0000001
 44
0.0000000001
 40
0.0
 40
0.0
 40
0.0
 40
0.0
 40
0.0537812644
 40
0.1253878028
 40
0.2235897907
 40
0.3487376594
 40
0.4972046502
 40
0.6611004533
 40
0.8314161876
 40
1.0
 40
1.0
 40
1.0
 40
1.0
 10
5.8695711625
 20
6.2709079353
 30
0.0
 10
5.8688169684
 20
6.2706657837
 30
0.0
 10
5.8672600167
 20
6.2694799952
 30
0.0
 10
5.8658058344
 20
6.2664556971
 30
0.0
 10
5.8649457373
 20
6.2621748376
 30
0.0
 10
5.8646908321
 20
6.2566890804
 30
0.0
 10
5.8651009343
 20
6.2502495512
 30
0.0
 10
5.8660929608
 20
6.2432043226
 30
0.0
 10
5.8676019282
 20
6.2359499595
 30
0.0
 10
5.8688770773
 20
6.2311216103
 30
0.0
 10
5.8695709849
 20
6.2287375638
 30
0.0
  0
ENDSEC
  0
SECTION
  2
OBJECTS
  0
DICTIONARY
  5
C
100
AcDbDictionary
280
0
281
1
  3
ACAD_GROUP
350
D
  3
ACAD_MLINESTYLE
350
17
  3
ACAD_LAYOUT
350
1A
  3
ACAD_PLOTSETTINGS
350
19
  3
ACAD_PLOTSTYLENAME
350
E
  0
DICTIONARY
  5
D
102
{ACAD_REACTORS
330
C
102
}
100
AcDbDictionary
280
0
281
1
  0
ACDBDICTIONARYWDFLT
  5
E
102
{ACAD_REACTORS
330
C
102
}
100
AcDbDictionary
281
1
  3
Normal
350
F
100
AcDbDictionaryWithDefault
340
F
  0
DICTIONARY
  5
17
102
{ACAD_REACTORS
330
C
102
}
100
AcDbDictionary
280
0
281
1
  3
Standard
350
18
  0
DICTIONARY
  5
19
102
{ACAD_REACTORS
330
C
102
}
100
AcDbDictionary
281
1
  0
DICTIONARY
  5
1A
102
{ACAD_REACTORS
330
C
102
}
100
AcDbDictionary
281
1
  3
Model
350
243
  3
Layout1
350
244
  0
ACDBPLACEHOLDER
  5
F
102
{ACAD_REACTORS
330
E
102
}
  0
MLINESTYLE
  5
18
102
{ACAD_REACTORS
330
17
102
}
100
AcDbMlineStyle
  2
STANDARD
 70
0
  3

 62
256
 51
90.0
 52
90.0
 71
2
 49
0.5
 62
256
  6
BYLAYER
 49
-0.5
 62
256
  6
BYLAYER
  0
LAYOUT
  5
243
102
{ACAD_REACTORS
330
1A
102
}
100
AcDbPlotSettings
  1

  2
none_device
  4
ANSI_A_(11.00_x_8.50_Inches)
  6

 40
0.0
 41
0.0
 42
0.0
 43
0.0
 44
279.4
 45
215.9
 46
0.0
 47
0.0
 48
0.0
 49
0.0
140
0.0
141
0.0
142
1.0
143
1.0
 70
1024
 72
0
 73
0
 74
0
  7

 75
0
147
1.0
148
0.0
149
0.0
100
AcDbLayout
  1
Model
 70
0
 71
0
 10
0.0
 20
0.0
 11
11.0
 21
8.5
 12
0.0
 22
0.0
 32
0.0
 14
0.0
 24
0.0
 34
0.0
 15
0.0
 25
0.0
 35
0.0
146
0.0
 13
0.0
 23
0.0
 33
0.0
 16
1.0
 26
0.0
 36
0.0
 17
0.0
 27
1.0
 37
0.0
 76
0
330
200
345
0
346
0
  0
LAYOUT
  5
244
102
{ACAD_REACTORS
330
1A
102
}
100
AcDbPlotSettings
  1

  2
none_device
  4
ANSI_A_(11.00_x_8.50_Inches)
  6

 40
0.0
 41
0.0
 42
0.0
 43
0.0
 44
279.4
 45
215.9
 46
0.0
 47
0.0
 48
0.0
 49
0.0
140
0.0
141
0.0
142
1.0
143
1.0
 70
0
 72
0
 73
0
 74
0
  7

 75
0
147
1.0
148
0.0
149
0.0
100
AcDbLayout
  1
Layout1
 70
0
 71
1
 10
0.0
 20
0.0
 11
11.0
 21
8.5
 12
0.0
 22
0.0
 32
0.0
 14
0.0
 24
0.0
 34
0.0
 15
0.0
 25
0.0
 35
0.0
146
0.0
 13
0.0
 23
0.0
 33
0.0
 16
1.0
 26
0.0
 36
0.0
 17
0.0
 27
1.0
 37
0.0
 76
0
330
201
345
0
346
0
  0
ENDSEC
  0
EOF
