999
DXF file: 81-09_top.dxf
999
Pro/ENGINEER 2013150 by Parametric Technology Corporation
  0
SECTION
  2
HEADER
  9
$ACADVER
  1
AC1021
  9
$DWGCODEPAGE
  3
ANSI_1252
  9
$EXTMAX
 10
11.0
 20
8.5
 30
0.0
  9
$EXTMIN
 10
0.0
 20
0.0
 30
0.0
  9
$LIMMIN
 10
0.0
 20
0.0
  9
$LIMMAX
 10
11.0
 20
8.5
  9
$VIEWCTR
 10
5.5
 20
4.25
  9
$VIEWSIZE
 40
8.5
  9
$CLAYER
  8
0
  9
$LTSCALE
 40
0.605
  9
$CELTYPE
  6
BYLAYER
  9
$DIMSCALE
 40
1.0
  9
$DIMASZ
 40
0.1
  9
$DIMEXO
 40
0.0625
  9
$DIMDLI
 40
0.418
  9
$DIMEXE
 40
0.125
  9
$DIMCEN
 40
0.099
  9
$DIMLFAC
 40
1.0
  9
$DIMBLK
  1
_FILLED
  9
$DIMTXT
 40
0.08
  9
$DIMTOL
 70
1
  9
$DIMLIM
 70
0
  9
$DIMTFAC
 40
1.0
  9
$DIMTP
 40
0.001
  9
$DIMTM
 40
0.001
  9
$DIMGAP
 40
0.09
  9
$DIMDSEP
 70
46
  9
$PDMODE
 70
3
  9
$PDSIZE
 40
0.06
  9
$HANDSEED
  5
253
  9
$TILEMODE
 70
1
  9
$MEASUREMENT
 70
0
  9
$INSUNITS
 70
1
  0
ENDSEC
  0
SECTION
  2
CLASSES
  0
CLASS
  1
ACDBDICTIONARYWDFLT
  2
AcDbDictionaryWithDefault
  3
AutoCAD 2000
 90
0
 91
1
280
0
281
0
  0
CLASS
  1
ACDBPLACEHOLDER
  2
AcDbPlaceHolder
  3
AutoCAD 2000
 90
0
 91
1
280
0
281
0
  0
CLASS
  1
LAYOUT
  2
AcDbLayout
  3
AutoCAD 2000
 90
0
 91
0
280
0
281
0
  0
ENDSEC
  0
SECTION
  2
TABLES
  0
TABLE
  2
VPORT
  5
8
100
AcDbSymbolTable
 70
2
  0
VPORT
  5
1F4
100
AcDbSymbolTableRecord
100
AcDbViewportTableRecord
  2
*ACTIVE
 70
0
 10
0.0
 20
0.0
 11
1.0
 21
1.0
 12
5.5
 22
4.25
 13
0.0
 23
0.0
 14
1.0
 24
1.0
 15
0.0
 25
0.0
 16
0.0
 26
0.0
 36
1.0
 17
0.0
 27
0.0
 37
0.0
 40
8.5
 41
1.2941176471
 42
50.0
 43
0.0
 44
0.0
 50
0.0
 51
0.0
 71
0
 72
100
 73
1
 74
1
 75
0
 76
0
 77
0
 78
0
  0
ENDTAB
  0
TABLE
  2
LTYPE
  5
5
100
AcDbSymbolTable
 70
6
  0
LTYPE
  5
14
100
AcDbSymbolTableRecord
100
AcDbLinetypeTableRecord
  2
BYBLOCK
 70
0
  3

 72
65
 73
0
 40
0.0
  0
LTYPE
  5
15
100
AcDbSymbolTableRecord
100
AcDbLinetypeTableRecord
  2
BYLAYER
 70
0
  3

 72
65
 73
0
 40
0.0
  0
LTYPE
  5
16
100
AcDbSymbolTableRecord
100
AcDbLinetypeTableRecord
  2
CONTINUOUS
 70
64
  3
Solid line
 72
65
 73
0
 40
0.0
  0
LTYPE
  5
1F5
100
AcDbSymbolTableRecord
100
AcDbLinetypeTableRecord
  2
CENTER
 70
64
  3
____ _ ____ _ ____ _ ____ _ ____ _ ____ _ ____
 72
65
 73
4
 40
0.6
 49
0.375
 74
0
 49
-0.075
 74
0
 49
0.075
 74
0
 49
-0.075
 74
0
  0
LTYPE
  5
1F6
100
AcDbSymbolTableRecord
100
AcDbLinetypeTableRecord
  2
HIDDEN
 70
64
  3
- - - - - - - - - - - - - - - - - - - -
 72
65
 73
2
 40
0.2
 49
0.1
 74
0
 49
-0.1
 74
0
  0
LTYPE
  5
1F7
100
AcDbSymbolTableRecord
100
AcDbLinetypeTableRecord
  2
PHANTOM
 70
64
  3
_____ _ _ _____ _ _ _____ _ _ _____
 72
65
 73
6
 40
0.8
 49
0.45
 74
0
 49
-0.05
 74
0
 49
0.1
 74
0
 49
-0.05
 74
0
 49
0.1
 74
0
 49
-0.05
 74
0
  0
LTYPE
  5
1F8
100
AcDbSymbolTableRecord
100
AcDbLinetypeTableRecord
  2
DOT
 70
64
  3
. . . . . . . . . . . . . . . . . . . .
 72
65
 73
2
 40
0.2
 49
0.1
 74
0
 49
-0.1
 74
0
  0
LTYPE
  5
1F9
100
AcDbSymbolTableRecord
100
AcDbLinetypeTableRecord
  2
DASHED
 70
64
  3
- - - - - - - - - - - - - - - - - - - -
 72
65
 73
2
 40
0.2
 49
0.1
 74
0
 49
-0.1
 74
0
  0
ENDTAB
  0
TABLE
  2
LAYER
  5
2
100
AcDbSymbolTable
 70
36
  0
LAYER
  5
10
100
AcDbSymbolTableRecord
100
AcDbLayerTableRecord
  2
0
 70
0
 62
7
  6
CONTINUOUS
370
-3
390
F
  0
LAYER
  5
1FA
100
AcDbSymbolTableRecord
100
AcDbLayerTableRecord
  2
DEFAULT_1
 70
0
 62
7
  6
CENTER
370
-3
390
F
  0
LAYER
  5
1FB
100
AcDbSymbolTableRecord
100
AcDbLayerTableRecord
  2
DEFAULT_2
 70
0
 62
8
  6
HIDDEN
370
-3
390
F
  0
LAYER
  5
1FC
100
AcDbSymbolTableRecord
100
AcDbLayerTableRecord
  2
DEFAULT_3
 70
0
 62
7
  6
PHANTOM
370
-3
390
F
  0
LAYER
  5
1FD
100
AcDbSymbolTableRecord
100
AcDbLayerTableRecord
  2
DEFAULT_DATUM_CURVES
 70
0
 62
7
  6
CONTINUOUS
370
-3
390
F
  0
ENDTAB
  0
TABLE
  2
STYLE
  5
3
100
AcDbSymbolTable
 70
1
  0
STYLE
  5
11
100
AcDbSymbolTableRecord
100
AcDbTextStyleTableRecord
  2
STANDARD
 70
0
 40
0.0
 41
0.8
 50
0.0
 71
0
 42
0.2
  3
txt
  4

  0
STYLE
  5
1FE
100
AcDbSymbolTableRecord
100
AcDbTextStyleTableRecord
  2
TEXTSTYLE_1
 70
0
 40
0.0
 41
0.8
 50
0.0
 71
0
 42
0.2
  3
gdt
  4

  0
ENDTAB
  0
TABLE
  2
VIEW
  5
6
100
AcDbSymbolTable
 70
0
  0
ENDTAB
  0
TABLE
  2
UCS
  5
7
100
AcDbSymbolTable
 70
0
  0
ENDTAB
  0
TABLE
  2
APPID
  5
9
100
AcDbSymbolTable
 70
1
  0
APPID
  5
1FF
100
AcDbSymbolTableRecord
100
AcDbRegAppTableRecord
  2
ACAD
 70
0
  0
ENDTAB
  0
TABLE
  2
BLOCK_RECORD
  5
1
100
AcDbSymbolTable
 70
0
  0
BLOCK_RECORD
  5
200
100
AcDbSymbolTableRecord
100
AcDbBlockTableRecord
  2
*Model_Space
  0
BLOCK_RECORD
  5
201
100
AcDbSymbolTableRecord
100
AcDbBlockTableRecord
  2
*Paper_Space
  0
ENDTAB
  0
TABLE
  2
DIMSTYLE
  5
A
100
AcDbSymbolTable
 70
1
100
AcDbDimStyleTable
 71
0
  0
DIMSTYLE
105
202
100
AcDbSymbolTableRecord
100
AcDbDimStyleTableRecord
  2
STANDARD
 70
0
  3

  4

 40
1.0
 41
0.1
 42
0.0625
 43
0.38
 44
0.125
 45
0.0
 46
0.0
 47
0.001
 48
0.001
140
0.08
141
0.09
142
0.0
143
25.4
144
1.0
145
0.0
146
1.0
147
0.09
 71
1.0
 72
0.0
 73
1
 74
1
 75
0
 76
0
 77
0
 78
4
170
0
171
2
172
0
173
0
174
0
175
0
176
0
177
0
178
0
270
2
271
3
272
3
273
2
274
2
275
0
280
0
281
0
282
0
283
1
284
4
285
0
286
0
287
3
288
0
340
11
278
46
  0
ENDTAB
  0
ENDSEC
  0
SECTION
  2
BLOCKS
  0
BLOCK
  5
20
100
AcDbEntity
  8
0
100
AcDbBlockBegin
  2
*Model_Space
 70
0
 10
0.0
 20
0.0
 30
0.0
  3
*Model_Space
  1

  0
ENDBLK
  5
21
100
AcDbEntity
  8
0
100
AcDbBlockEnd
  0
BLOCK
  5
1C
100
AcDbEntity
  8
0
100
AcDbBlockBegin
  2
*Paper_Space
 70
0
 10
0.0
 20
0.0
 30
0.0
  3
*Paper_Space
  1

  0
ENDBLK
  5
1D
100
AcDbEntity
  8
0
100
AcDbBlockEnd
  0
ENDSEC
  0
SECTION
  2
ENTITIES
  0
LINE
  5
203
100
AcDbEntity
  8
0
100
AcDbLine
 62
7
  6
CONTINUOUS
 10
0.0
 20
0.0
 11
0.0
 21
8.5
  0
LINE
  5
204
100
AcDbEntity
  8
0
100
AcDbLine
 62
7
  6
CONTINUOUS
 10
0.0
 20
0.0
 11
11.0
 21
0.0
  0
LINE
  5
205
100
AcDbEntity
  8
0
100
AcDbLine
 62
7
  6
CONTINUOUS
 10
0.0
 20
8.5
 11
11.0
 21
8.5
  0
LINE
  5
206
100
AcDbEntity
  8
0
100
AcDbLine
 62
7
  6
CONTINUOUS
 10
11.0
 20
0.0
 11
11.0
 21
8.5
  0
LINE
  5
207
100
AcDbEntity
  8
0
100
AcDbLine
 62
7
  6
CONTINUOUS
 10
1.9719334018
 20
2.9280610372
 11
1.9719334018
 21
3.1938090687
  0
LINE
  5
208
100
AcDbEntity
  8
0
100
AcDbLine
 62
9
  6
CONTINUOUS
 10
3.0201617483
 20
3.2233366278
 11
3.0201617483
 21
2.8985334782
  0
LINE
  5
209
100
AcDbEntity
  8
0
100
AcDbLine
 62
7
  6
CONTINUOUS
 10
5.1313822207
 20
2.7287500136
 11
4.5555948191
 21
2.7287500136
  0
LINE
  5
20A
100
AcDbEntity
  8
0
100
AcDbLine
 62
9
  6
CONTINUOUS
 10
4.5113034805
 20
2.7730413522
 11
5.1756735593
 21
2.7730413522
  0
LINE
  5
20B
100
AcDbEntity
  8
0
100
AcDbLine
 62
7
  6
CONTINUOUS
 10
4.5113034805
 20
2.8985334782
 11
2.0014609609
 21
2.8985334782
  0
LINE
  5
20C
100
AcDbEntity
  8
0
100
AcDbLine
 62
7
  6
CONTINUOUS
 10
5.1756735593
 20
2.8985334782
 11
7.5821696254
 21
2.8985334782
  0
LINE
  5
20D
100
AcDbEntity
  8
0
100
AcDbLine
 62
9
  6
CONTINUOUS
 10
1.9719334018
 20
2.9280610372
 11
4.5113034805
 21
2.9280610372
  0
LINE
  5
20E
100
AcDbEntity
  8
0
100
AcDbLine
 62
9
  6
CONTINUOUS
 10
5.1756735593
 20
2.9280610372
 11
7.2868940317
 21
2.9280610372
  0
LINE
  5
20F
100
AcDbEntity
  8
0
100
AcDbLine
 62
9
  6
CONTINUOUS
 10
7.3459491498
 20
2.9575885963
 11
7.5526420632
 21
2.9575885963
  0
LINE
  5
210
100
AcDbEntity
  8
0
100
AcDbLine
 62
9
  6
CONTINUOUS
 10
7.5526420632
 20
3.1642815097
 11
7.3459491498
 21
3.1642815097
  0
LINE
  5
211
100
AcDbEntity
  8
0
100
AcDbLine
 62
9
  6
CONTINUOUS
 10
7.2868940317
 20
3.1938090687
 11
5.1756735593
 21
3.1938090687
  0
LINE
  5
212
100
AcDbEntity
  8
0
100
AcDbLine
 62
9
  6
CONTINUOUS
 10
4.5113034805
 20
3.1938090687
 11
1.9719334018
 21
3.1938090687
  0
LINE
  5
213
100
AcDbEntity
  8
0
100
AcDbLine
 62
7
  6
CONTINUOUS
 10
2.0014609609
 20
3.2233366278
 11
4.5113034805
 21
3.2233366278
  0
LINE
  5
214
100
AcDbEntity
  8
0
100
AcDbLine
 62
7
  6
CONTINUOUS
 10
5.1756735593
 20
3.2233366278
 11
7.5821695435
 21
3.2233366278
  0
LINE
  5
215
100
AcDbEntity
  8
0
100
AcDbLine
 62
9
  6
CONTINUOUS
 10
5.1756735593
 20
3.3488287538
 11
4.5113034805
 21
3.3488287538
  0
LINE
  5
216
100
AcDbEntity
  8
0
100
AcDbLine
 62
7
  6
CONTINUOUS
 10
4.5555948191
 20
3.3931200923
 11
5.1313822207
 21
3.3931200923
  0
LINE
  5
217
100
AcDbEntity
  8
0
100
AcDbLine
 62
7
  6
CONTINUOUS
 10
5.1332961606
 20
3.496466549
 11
4.5536808788
 21
3.496466549
  0
LINE
  5
218
100
AcDbEntity
  8
0
100
AcDbLine
 62
9
  6
CONTINUOUS
 10
5.133296162
 20
3.5396096955
 11
4.5536808777
 21
3.5396096955
  0
LINE
  5
219
100
AcDbEntity
  8
0
100
AcDbLine
 62
7
  6
CONTINUOUS
 10
4.5113034805
 20
2.7730413522
 11
4.5113034805
 21
3.3488287538
  0
LINE
  5
21A
100
AcDbEntity
  8
0
100
AcDbLine
 62
9
  6
CONTINUOUS
 10
4.5536808788
 20
3.496466549
 11
4.5536808777
 21
3.5396096955
  0
LINE
  5
21B
100
AcDbEntity
  8
0
100
AcDbLine
 62
9
  6
CONTINUOUS
 10
4.5555948191
 20
3.3931200923
 11
4.5555948191
 21
2.7287500136
  0
LINE
  5
21C
100
AcDbEntity
  8
0
100
AcDbLine
 62
7
  6
CONTINUOUS
 10
4.5925042679
 20
3.3931200923
 11
4.5925042679
 21
3.496466549
  0
LINE
  5
21D
100
AcDbEntity
  8
0
100
AcDbLine
 62
9
  6
CONTINUOUS
 10
4.6367956065
 20
3.496466549
 11
4.6367956065
 21
3.3931200923
  0
LINE
  5
21E
100
AcDbEntity
  8
0
100
AcDbLine
 62
9
  6
CONTINUOUS
 10
5.0501814333
 20
3.3931200923
 11
5.0501814333
 21
3.496466549
  0
LINE
  5
21F
100
AcDbEntity
  8
0
100
AcDbLine
 62
7
  6
CONTINUOUS
 10
5.0944727719
 20
3.496466549
 11
5.0944727719
 21
3.3931200923
  0
LINE
  5
220
100
AcDbEntity
  8
0
100
AcDbLine
 62
9
  6
CONTINUOUS
 10
5.1313822207
 20
2.7287500136
 11
5.1313822207
 21
3.3931200923
  0
LINE
  5
221
100
AcDbEntity
  8
0
100
AcDbLine
 62
9
  6
CONTINUOUS
 10
5.1332961619
 20
3.496466549
 11
5.133296162
 21
3.5396096955
  0
LINE
  5
222
100
AcDbEntity
  8
0
100
AcDbLine
 62
7
  6
CONTINUOUS
 10
5.1756735593
 20
3.3488287538
 11
5.1756735593
 21
2.7730413522
  0
LINE
  5
223
100
AcDbEntity
  8
0
100
AcDbLine
 62
9
  6
CONTINUOUS
 10
5.4040069208
 20
5.1204822971
 11
4.282970119
 21
5.1204822971
  0
LINE
  5
224
100
AcDbEntity
  8
0
100
AcDbLine
 62
9
  6
CONTINUOUS
 10
5.4741310753
 20
5.1852375827
 11
4.2128459645
 21
5.1852375827
  0
LINE
  5
225
100
AcDbEntity
  8
0
100
AcDbLine
 62
7
  6
CONTINUOUS
 10
4.0934886323
 20
5.3567027695
 11
5.5934884132
 21
5.3567027695
  0
LINE
  5
226
100
AcDbEntity
  8
0
100
AcDbLine
 62
9
  6
CONTINUOUS
 10
6.5634688349
 20
2.8985334782
 11
6.5634688349
 21
3.2233366278
  0
LINE
  5
227
100
AcDbEntity
  8
0
100
AcDbLine
 62
7
  6
CONTINUOUS
 10
7.2868940317
 20
3.19380899
 11
7.2868940317
 21
2.9280610573
  0
LINE
  5
228
100
AcDbEntity
  8
0
100
AcDbLine
 62
9
  6
CONTINUOUS
 10
7.3459491498
 20
3.1642815097
 11
7.3459491498
 21
2.9575885963
  0
LINE
  5
229
100
AcDbEntity
  8
0
100
AcDbLine
 62
9
  6
CONTINUOUS
 10
7.5526420632
 20
2.9575885963
 11
7.5526420632
 21
3.1642815097
  0
LINE
  5
22A
100
AcDbEntity
  8
0
100
AcDbLine
 62
7
  6
CONTINUOUS
 10
7.6116971813
 20
3.1938090718
 11
7.6116971813
 21
2.9280610199
  0
ARC
  5
22B
100
AcDbEntity
  8
0
100
AcDbCircle
 62
7
  6
CONTINUOUS
 10
-1.1391950153
 20
3.3931145283
 40
5.6504987806
100
AcDbArc
 50
1.4856201258
 51
17.8003921332
  0
ARC
  5
22C
100
AcDbEntity
  8
0
100
AcDbCircle
 62
7
  6
CONTINUOUS
 10
4.5555948191
 20
2.7730413522
 40
0.0442913386
100
AcDbArc
 50
180.0
 51
270.0
  0
ARC
  5
22D
100
AcDbEntity
  8
0
100
AcDbCircle
 62
7
  6
CONTINUOUS
 10
4.5555948191
 20
3.3488287538
 40
0.0442913386
100
AcDbArc
 50
90.0
 51
180.0
  0
ARC
  5
22E
100
AcDbEntity
  8
0
100
AcDbCircle
 62
7
  6
CONTINUOUS
 10
4.5536808783
 20
3.5407578876
 40
0.0442913386
100
AcDbArc
 50
181.485496083
 51
270.00000064
  0
ARC
  5
22F
100
AcDbEntity
  8
0
100
AcDbCircle
 62
7
  6
CONTINUOUS
 10
2.0014609609
 20
3.1938090687
 40
0.0295275591
100
AcDbArc
 50
90.0
 51
180.0
  0
ARC
  5
230
100
AcDbEntity
  8
0
100
AcDbCircle
 62
7
  6
CONTINUOUS
 10
2.0014609609
 20
2.9280610372
 40
0.0295275591
100
AcDbArc
 50
180.0
 51
270.0
  0
ARC
  5
231
100
AcDbEntity
  8
0
100
AcDbCircle
 62
7
  6
CONTINUOUS
 10
4.2942826207
 20
5.356706675
 40
0.2007936928
100
AcDbArc
 50
180.0011144091
 51
238.6444030317
  0
ARC
  5
232
100
AcDbEntity
  8
0
100
AcDbCircle
 62
7
  6
CONTINUOUS
 10
4.128330885
 20
5.084366288
 40
0.1181248191
100
AcDbArc
 50
17.8029576336
 51
58.6427407806
  0
ARC
  5
233
100
AcDbEntity
  8
0
100
AcDbCircle
 62
7
  6
CONTINUOUS
 10
10.8261720552
 20
3.3931145283
 40
5.6504987806
100
AcDbArc
 50
162.1996078668
 51
178.5143798731
  0
ARC
  5
234
100
AcDbEntity
  8
0
100
AcDbCircle
 62
7
  6
CONTINUOUS
 10
5.1313822207
 20
2.7730413522
 40
0.0442913386
100
AcDbArc
 50
270.0
 51
360.0
  0
ARC
  5
235
100
AcDbEntity
  8
0
100
AcDbCircle
 62
7
  6
CONTINUOUS
 10
5.1313822207
 20
3.3488287538
 40
0.0442913386
100
AcDbArc
 50
0.0
 51
90.0
  0
ARC
  5
236
100
AcDbEntity
  8
0
100
AcDbCircle
 62
7
  6
CONTINUOUS
 10
5.1332961615
 20
3.5407578876
 40
0.0442913386
100
AcDbArc
 50
269.9999988027
 51
358.5145040663
  0
ARC
  5
237
100
AcDbEntity
  8
0
100
AcDbCircle
 62
7
  6
CONTINUOUS
 10
7.5821696223
 20
2.9280610372
 40
0.0295275591
100
AcDbArc
 50
270.0000060825
 51
359.9999664675
  0
ARC
  5
238
100
AcDbEntity
  8
0
100
AcDbCircle
 62
7
  6
CONTINUOUS
 10
7.3164215908
 20
2.9280610372
 40
0.0295275591
100
AcDbArc
 50
180.0
 51
269.9999664675
  0
ARC
  5
239
100
AcDbEntity
  8
0
100
AcDbCircle
 62
7
  6
CONTINUOUS
 10
7.3164215908
 20
3.1938090687
 40
0.0295275591
100
AcDbArc
 50
90.0000060825
 51
180.0
  0
ARC
  5
23A
100
AcDbEntity
  8
0
100
AcDbCircle
 62
7
  6
CONTINUOUS
 10
7.5821696223
 20
3.1938090687
 40
0.0295275591
100
AcDbArc
 50
0.0000060825
 51
89.9999664675
  0
ARC
  5
23B
100
AcDbEntity
  8
0
100
AcDbCircle
 62
7
  6
CONTINUOUS
 10
5.3926944192
 20
5.356706675
 40
0.2007936928
100
AcDbArc
 50
301.355596974
 51
359.9988855907
  0
ARC
  5
23C
100
AcDbEntity
  8
0
100
AcDbCircle
 62
7
  6
CONTINUOUS
 10
5.5586461548
 20
5.084366288
 40
0.1181248191
100
AcDbArc
 50
121.3572592148
 51
162.1970423662
  0
LINE
  5
23D
100
AcDbEntity
  8
0
100
AcDbLine
 62
9
  6
CONTINUOUS
 10
7.6116971813
 20
2.9280610456
 11
7.5526420632
 21
2.9575885963
  0
LINE
  5
23E
100
AcDbEntity
  8
0
100
AcDbLine
 62
9
  6
CONTINUOUS
 10
7.5526420755
 20
2.9575886024
 11
7.5821696283
 21
2.8985334951
  0
LINE
  5
23F
100
AcDbEntity
  8
0
100
AcDbLine
 62
9
  6
CONTINUOUS
 10
7.3164215992
 20
2.8985334782
 11
7.3459491498
 21
2.9575885963
  0
LINE
  5
240
100
AcDbEntity
  8
0
100
AcDbLine
 62
9
  6
CONTINUOUS
 10
7.345949156
 20
2.957588584
 11
7.2868940487
 21
2.9280610312
  0
LINE
  5
241
100
AcDbEntity
  8
0
100
AcDbLine
 62
9
  6
CONTINUOUS
 10
7.2868940318
 20
3.1938090603
 11
7.3459491498
 21
3.1642815097
  0
LINE
  5
242
100
AcDbEntity
  8
0
100
AcDbLine
 62
9
  6
CONTINUOUS
 10
7.5526420571
 20
3.164281522
 11
7.6116971644
 21
3.1938090748
  0
LINE
  5
243
100
AcDbEntity
  8
0
100
AcDbLine
 62
9
  6
CONTINUOUS
 10
7.5821696138
 20
3.2233366277
 11
7.5526420632
 21
3.1642815097
  0
LINE
  5
244
100
AcDbEntity
  8
0
100
AcDbLine
 62
9
  6
CONTINUOUS
 10
7.3459491375
 20
3.1642815035
 11
7.3164215847
 21
3.2233366108
  0
SPLINE
  5
245
100
AcDbEntity
  8
0
100
AcDbSpline
 62
9
  6
CONTINUOUS
 70
0
 71
3
 72
11
 73
7
 74
0
 42
0.0000001
 43
0.0000001
 44
0.0000000001
 40
0.0
 40
0.0
 40
0.0
 40
0.0
 40
0.2139018202
 40
0.448279042
 40
0.7099953811
 40
1.0
 40
1.0
 40
1.0
 40
1.0
 10
4.1897997354
 20
5.1852375579
 30
0.0
 10
4.1912561219
 20
5.1843501598
 30
0.0
 10
4.1945854254
 20
5.182915479
 30
0.0
 10
4.2002564501
 20
5.1821303236
 30
0.0
 10
4.2065366782
 20
5.1828744228
 30
0.0
 10
4.2107329595
 20
5.1842986581
 30
0.0
 10
4.2128459629
 20
5.1852375635
 30
0.0
  0
SPLINE
  5
246
100
AcDbEntity
  8
0
100
AcDbSpline
 62
9
  6
CONTINUOUS
 70
0
 71
3
 72
14
 73
10
 74
0
 42
0.0000001
 43
0.0000001
 44
0.0000000001
 40
0.0
 40
0.0
 40
0.0
 40
0.0
 40
0.1445616082
 40
0.2861434959
 40
0.551664136
 40
0.6740557842
 40
0.7891625076
 40
0.8975814866
 40
1.0
 40
1.0
 40
1.0
 40
1.0
 10
5.5491972775
 20
5.3567027695
 30
0.0
 10
5.5491970562
 20
5.347386632
 30
0.0
 10
5.5481852971
 20
5.3289284588
 30
0.0
 10
5.5424730891
 20
5.2937918747
 30
0.0
 10
5.5315171225
 20
5.2611252952
 30
0.0
 10
5.5162019256
 20
5.2324930145
 30
0.0
 10
5.5034299091
 20
5.2141542841
 30
0.0
 10
5.4894873605
 20
5.1983905878
 30
0.0
 10
5.4793470204
 20
5.1892815763
 30
0.0
 10
5.4741302122
 20
5.1852382592
 30
0.0
  0
SPLINE
  5
247
100
AcDbEntity
  8
0
100
AcDbSpline
 62
9
  6
CONTINUOUS
 70
0
 71
3
 72
14
 73
10
 74
0
 42
0.0000001
 43
0.0000001
 44
0.0000000001
 40
0.0
 40
0.0
 40
0.0
 40
0.0
 40
0.10241868
 40
0.2108378041
 40
0.3259446193
 40
0.4483363063
 40
0.713856836
 40
0.8554385809
 40
1.0
 40
1.0
 40
1.0
 40
1.0
 10
4.2128472983
 20
5.185238423
 30
0.0
 10
4.2076304926
 20
5.189281749
 30
0.0
 10
4.1974901484
 20
5.198390765
 30
0.0
 10
4.1835476447
 20
5.2141545045
 30
0.0
 10
4.1707756178
 20
5.232493217
 30
0.0
 10
4.155460445
 20
5.2611254735
 30
0.0
 10
4.1445044987
 20
5.2937920041
 30
0.0
 10
4.1387923089
 20
5.328928523
 30
0.0
 10
4.1377805543
 20
5.3473866544
 30
0.0
 10
4.1377803332
 20
5.3567027695
 30
0.0
  0
SPLINE
  5
248
100
AcDbEntity
  8
0
100
AcDbSpline
 62
9
  6
CONTINUOUS
 70
0
 71
3
 72
15
 73
11
 74
0
 42
0.0000001
 43
0.0000001
 44
0.0000000001
 40
0.0
 40
0.0
 40
0.0
 40
0.0
 40
0.1740129933
 40
0.3480416112
 40
0.5133450774
 40
0.6610681741
 40
0.7837999701
 40
0.8790098177
 40
0.948062198
 40
1.0
 40
1.0
 40
1.0
 40
1.0
 10
5.4040069208
 20
5.1204822977
 30
0.0
 10
5.4064679449
 20
5.1197659735
 30
0.0
 10
5.4114283091
 20
5.118460841
 30
0.0
 10
5.4188392707
 20
5.1169370387
 30
0.0
 10
5.4259535686
 20
5.1159667932
 30
0.0
 10
5.432370646
 20
5.1155978198
 30
0.0
 10
5.4377644005
 20
5.1158963478
 30
0.0
 10
5.4419201896
 20
5.1167853876
 30
0.0
 10
5.4448225336
 20
5.1182406597
 30
0.0
 10
5.4459439388
 20
5.119753729
 30
0.0
 10
5.4461778453
 20
5.1204821201
 30
0.0
  0
SPLINE
  5
249
100
AcDbEntity
  8
0
100
AcDbSpline
 62
9
  6
CONTINUOUS
 70
0
 71
3
 72
20
 73
16
 74
0
 42
0.0000001
 43
0.0000001
 44
0.0000000001
 40
0.0
 40
0.0
 40
0.0
 40
0.0
 40
0.0015352169
 40
0.0048337596
 40
0.0177226083
 40
0.0396673992
 40
0.0712909533
 40
0.1129893873
 40
0.1643696868
 40
0.2248395963
 40
0.2938050929
 40
0.4535482935
 40
0.6323621309
 40
0.8180776159
 40
1.0
 40
1.0
 40
1.0
 40
1.0
 10
5.1775726131
 20
3.5396095889
 30
0.0
 10
5.1775720254
 20
3.5395869138
 30
0.0
 10
5.1774990319
 20
3.5395390012
 30
0.0
 10
5.1772605602
 20
3.5394761366
 30
0.0
 10
5.1766857283
 20
3.5393960369
 30
0.0
 10
5.1757159747
 20
3.5393244104
 30
0.0
 10
5.1743054841
 20
3.5392569188
 30
0.0
 10
5.1724654835
 20
3.5392041222
 30
0.0
 10
5.1701964831
 20
3.5391640502
 30
0.0
 10
5.1675252467
 20
3.5391395336
 30
0.0
 10
5.1632525435
 20
3.5391285165
 30
0.0
 10
5.1572314784
 20
3.5391633518
 30
0.0
 10
5.1494859355
 20
3.539261472
 30
0.0
 10
5.1414135059
 20
3.5394121542
 30
0.0
 10
5.1359831534
 20
3.5395399673
 30
0.0
 10
5.1332961604
 20
3.5396096006
 30
0.0
  0
SPLINE
  5
24A
100
AcDbEntity
  8
0
100
AcDbSpline
 62
9
  6
CONTINUOUS
 70
0
 71
3
 72
24
 73
20
 74
0
 42
0.0000001
 43
0.0000001
 44
0.0000000001
 40
0.0
 40
0.0
 40
0.0
 40
0.0
 40
0.0152056207
 40
0.0304282081
 40
0.0609248587
 40
0.0914890843
 40
0.122119957
 40
0.183575257
 40
0.2452805126
 40
0.3072239085
 40
0.3693929091
 40
0.4943464146
 40
0.62002459
 40
0.6830959994
 40
0.7462963397
 40
0.8096078458
 40
0.8730081075
 40
0.9364793037
 40
1.0
 40
1.0
 40
1.0
 40
1.0
 10
5.4040069208
 20
5.1204822971
 30
0.0
 10
5.4014698199
 20
5.1127297893
 30
0.0
 10
5.3964908409
 20
5.0971841363
 30
0.0
 10
5.3866428431
 20
5.0660198315
 30
0.0
 10
5.3745530254
 20
5.0269233078
 30
0.0
 10
5.3604575851
 20
4.9797972363
 30
0.0
 10
5.3421042026
 20
4.9166120117
 30
0.0
 10
5.320172432
 20
4.8370737165
 30
0.0
 10
5.2954469001
 20
4.7408965952
 30
0.0
 10
5.2723717587
 20
4.6439160637
 30
0.0
 10
5.2437164857
 20
4.5134070493
 30
0.0
 10
5.2121546863
 20
4.3485598619
 30
0.0
 10
5.1864661693
 20
4.1822059664
 30
0.0
 10
5.1694587489
 20
4.0481147018
 30
0.0
 10
5.1585119548
 20
3.946997186
 30
0.0
 10
5.1493353854
 20
3.8455276046
 30
0.0
 10
5.1420328806
 20
3.7437566825
 30
0.0
 10
5.1367548164
 20
3.6417572583
 30
0.0
 10
5.1338919196
 20
3.5736803459
 30
0.0
 10
5.133296162
 20
3.5396096955
 30
0.0
  0
SPLINE
  5
24B
100
AcDbEntity
  8
0
100
AcDbSpline
 62
9
  6
CONTINUOUS
 70
0
 71
3
 72
12
 73
8
 74
0
 42
0.0000001
 43
0.0000001
 44
0.0000000001
 40
0.0
 40
0.0
 40
0.0
 40
0.0
 40
0.2379174895
 40
0.4203830478
 40
0.6072254116
 40
0.8000915644
 40
1.0
 40
1.0
 40
1.0
 40
1.0
 10
5.4741310753
 20
5.1852375827
 30
0.0
 10
5.4670409263
 20
5.1821461531
 30
0.0
 10
5.4549057409
 20
5.175739407
 30
0.0
 10
5.438646671
 20
5.1644824485
 30
0.0
 10
5.425027539
 20
5.1521947148
 30
0.0
 10
5.4130318684
 20
5.137589743
 30
0.0
 10
5.4065468676
 20
5.1264645296
 30
0.0
 10
5.4040069208
 20
5.1204822971
 30
0.0
  0
SPLINE
  5
24C
100
AcDbEntity
  8
0
100
AcDbSpline
 62
9
  6
CONTINUOUS
 70
0
 71
3
 72
11
 73
7
 74
0
 42
0.0000001
 43
0.0000001
 44
0.0000000001
 40
0.0
 40
0.0
 40
0.0
 40
0.0
 40
0.2900046186
 40
0.5517209576
 40
0.7860981795
 40
1.0
 40
1.0
 40
1.0
 40
1.0
 10
5.4741310769
 20
5.1852375634
 30
0.0
 10
5.4762440803
 20
5.1842986581
 30
0.0
 10
5.4804403616
 20
5.1828744228
 30
0.0
 10
5.4867205897
 20
5.1821303235
 30
0.0
 10
5.4923916144
 20
5.182915479
 30
0.0
 10
5.4957209179
 20
5.1843501598
 30
0.0
 10
5.4971773045
 20
5.1852375579
 30
0.0
  0
SPLINE
  5
24D
100
AcDbEntity
  8
0
100
AcDbSpline
 62
9
  6
CONTINUOUS
 70
0
 71
3
 72
20
 73
16
 74
0
 42
0.0000001
 43
0.0000001
 44
0.0000000001
 40
0.0
 40
0.0
 40
0.0
 40
0.0
 40
0.181922379
 40
0.3676378602
 40
0.5464516954
 40
0.7061948956
 40
0.7751603929
 40
0.8356303032
 40
0.887010604
 40
0.9287090395
 40
0.9603325955
 40
0.9822773882
 40
0.9951662389
 40
0.9984647825
 40
1.0
 40
1.0
 40
1.0
 40
1.0
 10
4.5536808804
 20
3.5396096007
 30
0.0
 10
4.5509938874
 20
3.5395399674
 30
0.0
 10
4.5455635349
 20
3.5394121543
 30
0.0
 10
4.5374911053
 20
3.5392614721
 30
0.0
 10
4.5297455623
 20
3.5391633519
 30
0.0
 10
4.5237244971
 20
3.5391285166
 30
0.0
 10
4.5194517938
 20
3.5391395336
 30
0.0
 10
4.5167805574
 20
3.5391640502
 30
0.0
 10
4.5145115569
 20
3.5392041223
 30
0.0
 10
4.5126715561
 20
3.5392569189
 30
0.0
 10
4.5112610654
 20
3.5393244104
 30
0.0
 10
4.5102913117
 20
3.539396037
 30
0.0
 10
4.5097164798
 20
3.5394761366
 30
0.0
 10
4.509478008
 20
3.5395390013
 30
0.0
 10
4.5094050144
 20
3.5395869138
 30
0.0
 10
4.5094044267
 20
3.539609589
 30
0.0
  0
SPLINE
  5
24E
100
AcDbEntity
  8
0
100
AcDbSpline
 62
9
  6
CONTINUOUS
 70
0
 71
3
 72
15
 73
11
 74
0
 42
0.0000001
 43
0.0000001
 44
0.0000000001
 40
0.0
 40
0.0
 40
0.0
 40
0.0
 40
0.051937802
 40
0.1209901823
 40
0.2162000299
 40
0.3389318258
 40
0.4866549226
 40
0.6519583888
 40
0.8259870067
 40
1.0
 40
1.0
 40
1.0
 40
1.0
 10
4.2407991945
 20
5.1204821201
 30
0.0
 10
4.2410331011
 20
5.119753729
 30
0.0
 10
4.2421545062
 20
5.1182406597
 30
0.0
 10
4.2450568502
 20
5.1167853876
 30
0.0
 10
4.2492126393
 20
5.1158963478
 30
0.0
 10
4.2546063938
 20
5.1155978198
 30
0.0
 10
4.2610234712
 20
5.1159667932
 30
0.0
 10
4.2681377691
 20
5.1169370386
 30
0.0
 10
4.2755487307
 20
5.118460841
 30
0.0
 10
4.2805090949
 20
5.1197659735
 30
0.0
 10
4.282970119
 20
5.1204822977
 30
0.0
  0
SPLINE
  5
24F
100
AcDbEntity
  8
0
100
AcDbSpline
 62
9
  6
CONTINUOUS
 70
0
 71
3
 72
24
 73
20
 74
0
 42
0.0000001
 43
0.0000001
 44
0.0000000001
 40
0.0
 40
0.0
 40
0.0
 40
0.0
 40
0.015205631
 40
0.0304282196
 40
0.0609248736
 40
0.0914890951
 40
0.1221199748
 40
0.1835752822
 40
0.2452805447
 40
0.307223945
 40
0.3693929556
 40
0.4943464974
 40
0.6200247048
 40
0.6830961512
 40
0.7462964548
 40
0.8096079108
 40
0.8730082764
 40
0.9364793071
 40
1.0
 40
1.0
 40
1.0
 40
1.0
 10
4.282970119
 20
5.1204822971
 30
0.0
 10
4.2855077692
 20
5.1127299634
 30
0.0
 10
4.2904867128
 20
5.0971842882
 30
0.0
 10
4.3003345531
 20
5.0660199287
 30
0.0
 10
4.3124246947
 20
5.0269235017
 30
0.0
 10
4.326518881
 20
4.979797053
 30
0.0
 10
4.3448729638
 20
4.9166120302
 30
0.0
 10
4.3668042959
 20
4.8370735975
 30
0.0
 10
4.3915300187
 20
4.7408965196
 30
0.0
 10
4.4146049233
 20
4.6439159219
 30
0.0
 10
4.4432608982
 20
4.5134070379
 30
0.0
 10
4.4748224514
 20
4.3485597503
 30
0.0
 10
4.5005106693
 20
4.1822057543
 30
0.0
 10
4.5175181788
 20
4.0481145011
 30
0.0
 10
4.5284656427
 20
3.9469970514
 30
0.0
 10
4.5376388246
 20
3.8455272225
 30
0.0
 10
4.5449509194
 20
3.7437569867
 30
0.0
 10
4.5502152183
 20
3.6417568584
 30
0.0
 10
4.5530849216
 20
3.5736803401
 30
0.0
 10
4.5536808777
 20
3.5396096955
 30
0.0
  0
SPLINE
  5
250
100
AcDbEntity
  8
0
100
AcDbSpline
 62
9
  6
CONTINUOUS
 70
0
 71
3
 72
13
 73
9
 74
0
 42
0.0000001
 43
0.0000001
 44
0.0000000001
 40
0.0
 40
0.0
 40
0.0
 40
0.0
 40
0.2378589926
 40
0.4819044314
 40
0.6070232907
 40
0.7348088793
 40
0.8659411195
 40
1.0
 40
1.0
 40
1.0
 40
1.0
 10
4.2128459645
 20
5.1852375827
 30
0.0
 10
4.2199354483
 20
5.182144256
 30
0.0
 10
4.2338442838
 20
5.1748062281
 30
0.0
 10
4.2499432301
 20
5.1632341659
 30
0.0
 10
4.2616886318
 20
5.1520986937
 30
0.0
 10
4.2698572472
 20
5.142624469
 30
0.0
 10
4.2772259269
 20
5.1321583125
 30
0.0
 10
4.2812771136
 20
5.1244995967
 30
0.0
 10
4.282970119
 20
5.1204822971
 30
0.0
  0
ENDSEC
  0
SECTION
  2
OBJECTS
  0
DICTIONARY
  5
C
100
AcDbDictionary
280
0
281
1
  3
ACAD_GROUP
350
D
  3
ACAD_MLINESTYLE
350
17
  3
ACAD_LAYOUT
350
1A
  3
ACAD_PLOTSETTINGS
350
19
  3
ACAD_PLOTSTYLENAME
350
E
  0
DICTIONARY
  5
D
102
{ACAD_REACTORS
330
C
102
}
100
AcDbDictionary
280
0
281
1
  0
ACDBDICTIONARYWDFLT
  5
E
102
{ACAD_REACTORS
330
C
102
}
100
AcDbDictionary
281
1
  3
Normal
350
F
100
AcDbDictionaryWithDefault
340
F
  0
DICTIONARY
  5
17
102
{ACAD_REACTORS
330
C
102
}
100
AcDbDictionary
280
0
281
1
  3
Standard
350
18
  0
DICTIONARY
  5
19
102
{ACAD_REACTORS
330
C
102
}
100
AcDbDictionary
281
1
  0
DICTIONARY
  5
1A
102
{ACAD_REACTORS
330
C
102
}
100
AcDbDictionary
281
1
  3
Model
350
251
  3
Layout1
350
252
  0
ACDBPLACEHOLDER
  5
F
102
{ACAD_REACTORS
330
E
102
}
  0
MLINESTYLE
  5
18
102
{ACAD_REACTORS
330
17
102
}
100
AcDbMlineStyle
  2
STANDARD
 70
0
  3

 62
256
 51
90.0
 52
90.0
 71
2
 49
0.5
 62
256
  6
BYLAYER
 49
-0.5
 62
256
  6
BYLAYER
  0
LAYOUT
  5
251
102
{ACAD_REACTORS
330
1A
102
}
100
AcDbPlotSettings
  1

  2
none_device
  4
ANSI_A_(11.00_x_8.50_Inches)
  6

 40
0.0
 41
0.0
 42
0.0
 43
0.0
 44
279.4
 45
215.9
 46
0.0
 47
0.0
 48
0.0
 49
0.0
140
0.0
141
0.0
142
1.0
143
1.0
 70
1024
 72
0
 73
0
 74
0
  7

 75
0
147
1.0
148
0.0
149
0.0
100
AcDbLayout
  1
Model
 70
0
 71
0
 10
0.0
 20
0.0
 11
11.0
 21
8.5
 12
0.0
 22
0.0
 32
0.0
 14
0.0
 24
0.0
 34
0.0
 15
0.0
 25
0.0
 35
0.0
146
0.0
 13
0.0
 23
0.0
 33
0.0
 16
1.0
 26
0.0
 36
0.0
 17
0.0
 27
1.0
 37
0.0
 76
0
330
200
345
0
346
0
  0
LAYOUT
  5
252
102
{ACAD_REACTORS
330
1A
102
}
100
AcDbPlotSettings
  1

  2
none_device
  4
ANSI_A_(11.00_x_8.50_Inches)
  6

 40
0.0
 41
0.0
 42
0.0
 43
0.0
 44
279.4
 45
215.9
 46
0.0
 47
0.0
 48
0.0
 49
0.0
140
0.0
141
0.0
142
1.0
143
1.0
 70
0
 72
0
 73
0
 74
0
  7

 75
0
147
1.0
148
0.0
149
0.0
100
AcDbLayout
  1
Layout1
 70
0
 71
1
 10
0.0
 20
0.0
 11
11.0
 21
8.5
 12
0.0
 22
0.0
 32
0.0
 14
0.0
 24
0.0
 34
0.0
 15
0.0
 25
0.0
 35
0.0
146
0.0
 13
0.0
 23
0.0
 33
0.0
 16
1.0
 26
0.0
 36
0.0
 17
0.0
 27
1.0
 37
0.0
 76
0
330
201
345
0
346
0
  0
ENDSEC
  0
EOF
