999
DXF file: 81-12_right.dxf
999
Pro/ENGINEER 2013150 by Parametric Technology Corporation
  0
SECTION
  2
HEADER
  9
$ACADVER
  1
AC1021
  9
$DWGCODEPAGE
  3
ANSI_1252
  9
$EXTMAX
 10
11.0
 20
8.5
 30
0.0
  9
$EXTMIN
 10
0.0
 20
0.0
 30
0.0
  9
$LIMMIN
 10
0.0
 20
0.0
  9
$LIMMAX
 10
11.0
 20
8.5
  9
$VIEWCTR
 10
5.5
 20
4.25
  9
$VIEWSIZE
 40
8.5
  9
$CLAYER
  8
0
  9
$LTSCALE
 40
0.605
  9
$CELTYPE
  6
BYLAYER
  9
$DIMSCALE
 40
1.0
  9
$DIMASZ
 40
0.1
  9
$DIMEXO
 40
0.0625
  9
$DIMDLI
 40
0.418
  9
$DIMEXE
 40
0.125
  9
$DIMCEN
 40
0.099
  9
$DIMLFAC
 40
1.0
  9
$DIMBLK
  1
_FILLED
  9
$DIMTXT
 40
0.08
  9
$DIMTOL
 70
1
  9
$DIMLIM
 70
0
  9
$DIMTFAC
 40
1.0
  9
$DIMTP
 40
0.001
  9
$DIMTM
 40
0.001
  9
$DIMGAP
 40
0.09
  9
$DIMDSEP
 70
46
  9
$PDMODE
 70
3
  9
$PDSIZE
 40
0.06
  9
$HANDSEED
  5
243
  9
$TILEMODE
 70
1
  9
$MEASUREMENT
 70
0
  9
$INSUNITS
 70
1
  0
ENDSEC
  0
SECTION
  2
CLASSES
  0
CLASS
  1
ACDBDICTIONARYWDFLT
  2
AcDbDictionaryWithDefault
  3
AutoCAD 2000
 90
0
 91
1
280
0
281
0
  0
CLASS
  1
ACDBPLACEHOLDER
  2
AcDbPlaceHolder
  3
AutoCAD 2000
 90
0
 91
1
280
0
281
0
  0
CLASS
  1
LAYOUT
  2
AcDbLayout
  3
AutoCAD 2000
 90
0
 91
0
280
0
281
0
  0
ENDSEC
  0
SECTION
  2
TABLES
  0
TABLE
  2
VPORT
  5
8
100
AcDbSymbolTable
 70
2
  0
VPORT
  5
1F4
100
AcDbSymbolTableRecord
100
AcDbViewportTableRecord
  2
*ACTIVE
 70
0
 10
0.0
 20
0.0
 11
1.0
 21
1.0
 12
5.5
 22
4.25
 13
0.0
 23
0.0
 14
1.0
 24
1.0
 15
0.0
 25
0.0
 16
0.0
 26
0.0
 36
1.0
 17
0.0
 27
0.0
 37
0.0
 40
8.5
 41
1.2941176471
 42
50.0
 43
0.0
 44
0.0
 50
0.0
 51
0.0
 71
0
 72
100
 73
1
 74
1
 75
0
 76
0
 77
0
 78
0
  0
ENDTAB
  0
TABLE
  2
LTYPE
  5
5
100
AcDbSymbolTable
 70
6
  0
LTYPE
  5
14
100
AcDbSymbolTableRecord
100
AcDbLinetypeTableRecord
  2
BYBLOCK
 70
0
  3

 72
65
 73
0
 40
0.0
  0
LTYPE
  5
15
100
AcDbSymbolTableRecord
100
AcDbLinetypeTableRecord
  2
BYLAYER
 70
0
  3

 72
65
 73
0
 40
0.0
  0
LTYPE
  5
16
100
AcDbSymbolTableRecord
100
AcDbLinetypeTableRecord
  2
CONTINUOUS
 70
64
  3
Solid line
 72
65
 73
0
 40
0.0
  0
LTYPE
  5
1F5
100
AcDbSymbolTableRecord
100
AcDbLinetypeTableRecord
  2
CENTER
 70
64
  3
____ _ ____ _ ____ _ ____ _ ____ _ ____ _ ____
 72
65
 73
4
 40
0.6
 49
0.375
 74
0
 49
-0.075
 74
0
 49
0.075
 74
0
 49
-0.075
 74
0
  0
LTYPE
  5
1F6
100
AcDbSymbolTableRecord
100
AcDbLinetypeTableRecord
  2
HIDDEN
 70
64
  3
- - - - - - - - - - - - - - - - - - - -
 72
65
 73
2
 40
0.2
 49
0.1
 74
0
 49
-0.1
 74
0
  0
LTYPE
  5
1F7
100
AcDbSymbolTableRecord
100
AcDbLinetypeTableRecord
  2
PHANTOM
 70
64
  3
_____ _ _ _____ _ _ _____ _ _ _____
 72
65
 73
6
 40
0.8
 49
0.45
 74
0
 49
-0.05
 74
0
 49
0.1
 74
0
 49
-0.05
 74
0
 49
0.1
 74
0
 49
-0.05
 74
0
  0
LTYPE
  5
1F8
100
AcDbSymbolTableRecord
100
AcDbLinetypeTableRecord
  2
DOT
 70
64
  3
. . . . . . . . . . . . . . . . . . . .
 72
65
 73
2
 40
0.2
 49
0.1
 74
0
 49
-0.1
 74
0
  0
LTYPE
  5
1F9
100
AcDbSymbolTableRecord
100
AcDbLinetypeTableRecord
  2
DASHED
 70
64
  3
- - - - - - - - - - - - - - - - - - - -
 72
65
 73
2
 40
0.2
 49
0.1
 74
0
 49
-0.1
 74
0
  0
ENDTAB
  0
TABLE
  2
LAYER
  5
2
100
AcDbSymbolTable
 70
36
  0
LAYER
  5
10
100
AcDbSymbolTableRecord
100
AcDbLayerTableRecord
  2
0
 70
0
 62
7
  6
CONTINUOUS
370
-3
390
F
  0
LAYER
  5
1FA
100
AcDbSymbolTableRecord
100
AcDbLayerTableRecord
  2
DEFAULT_1
 70
0
 62
7
  6
CENTER
370
-3
390
F
  0
LAYER
  5
1FB
100
AcDbSymbolTableRecord
100
AcDbLayerTableRecord
  2
DEFAULT_2
 70
0
 62
8
  6
HIDDEN
370
-3
390
F
  0
LAYER
  5
1FC
100
AcDbSymbolTableRecord
100
AcDbLayerTableRecord
  2
DEFAULT_3
 70
0
 62
7
  6
PHANTOM
370
-3
390
F
  0
LAYER
  5
1FD
100
AcDbSymbolTableRecord
100
AcDbLayerTableRecord
  2
DEFAULT_DATUM_CURVES
 70
0
 62
7
  6
CONTINUOUS
370
-3
390
F
  0
LAYER
  5
1FE
100
AcDbSymbolTableRecord
100
AcDbLayerTableRecord
  2
LAY0001
 70
0
 62
7
  6
CONTINUOUS
370
-3
390
F
  0
ENDTAB
  0
TABLE
  2
STYLE
  5
3
100
AcDbSymbolTable
 70
1
  0
STYLE
  5
11
100
AcDbSymbolTableRecord
100
AcDbTextStyleTableRecord
  2
STANDARD
 70
0
 40
0.0
 41
0.8
 50
0.0
 71
0
 42
0.2
  3
txt
  4

  0
STYLE
  5
1FF
100
AcDbSymbolTableRecord
100
AcDbTextStyleTableRecord
  2
TEXTSTYLE_1
 70
0
 40
0.0
 41
0.8
 50
0.0
 71
0
 42
0.2
  3
gdt
  4

  0
ENDTAB
  0
TABLE
  2
VIEW
  5
6
100
AcDbSymbolTable
 70
0
  0
ENDTAB
  0
TABLE
  2
UCS
  5
7
100
AcDbSymbolTable
 70
0
  0
ENDTAB
  0
TABLE
  2
APPID
  5
9
100
AcDbSymbolTable
 70
1
  0
APPID
  5
200
100
AcDbSymbolTableRecord
100
AcDbRegAppTableRecord
  2
ACAD
 70
0
  0
ENDTAB
  0
TABLE
  2
BLOCK_RECORD
  5
1
100
AcDbSymbolTable
 70
0
  0
BLOCK_RECORD
  5
201
100
AcDbSymbolTableRecord
100
AcDbBlockTableRecord
  2
*Model_Space
  0
BLOCK_RECORD
  5
202
100
AcDbSymbolTableRecord
100
AcDbBlockTableRecord
  2
*Paper_Space
  0
ENDTAB
  0
TABLE
  2
DIMSTYLE
  5
A
100
AcDbSymbolTable
 70
1
100
AcDbDimStyleTable
 71
0
  0
DIMSTYLE
105
203
100
AcDbSymbolTableRecord
100
AcDbDimStyleTableRecord
  2
STANDARD
 70
0
  3

  4

 40
1.0
 41
0.1
 42
0.0625
 43
0.38
 44
0.125
 45
0.0
 46
0.0
 47
0.001
 48
0.001
140
0.08
141
0.09
142
0.0
143
25.4
144
1.0
145
0.0
146
1.0
147
0.09
 71
1.0
 72
0.0
 73
1
 74
1
 75
0
 76
0
 77
0
 78
4
170
0
171
2
172
0
173
0
174
0
175
0
176
0
177
0
178
0
270
2
271
3
272
3
273
2
274
2
275
0
280
0
281
0
282
0
283
1
284
4
285
0
286
0
287
3
288
0
340
11
278
46
  0
ENDTAB
  0
ENDSEC
  0
SECTION
  2
BLOCKS
  0
BLOCK
  5
20
100
AcDbEntity
  8
0
100
AcDbBlockBegin
  2
*Model_Space
 70
0
 10
0.0
 20
0.0
 30
0.0
  3
*Model_Space
  1

  0
ENDBLK
  5
21
100
AcDbEntity
  8
0
100
AcDbBlockEnd
  0
BLOCK
  5
1C
100
AcDbEntity
  8
0
100
AcDbBlockBegin
  2
*Paper_Space
 70
0
 10
0.0
 20
0.0
 30
0.0
  3
*Paper_Space
  1

  0
ENDBLK
  5
1D
100
AcDbEntity
  8
0
100
AcDbBlockEnd
  0
ENDSEC
  0
SECTION
  2
ENTITIES
  0
LINE
  5
204
100
AcDbEntity
  8
0
100
AcDbLine
 62
7
  6
CONTINUOUS
 10
0.0
 20
0.0
 11
0.0
 21
8.5
  0
LINE
  5
205
100
AcDbEntity
  8
0
100
AcDbLine
 62
7
  6
CONTINUOUS
 10
0.0
 20
0.0
 11
11.0
 21
0.0
  0
LINE
  5
206
100
AcDbEntity
  8
0
100
AcDbLine
 62
7
  6
CONTINUOUS
 10
0.0
 20
8.5
 11
11.0
 21
8.5
  0
LINE
  5
207
100
AcDbEntity
  8
0
100
AcDbLine
 62
7
  6
CONTINUOUS
 10
11.0
 20
0.0
 11
11.0
 21
8.5
  0
LINE
  5
208
100
AcDbEntity
  8
0
100
AcDbLine
 62
7
  6
CONTINUOUS
 10
4.1978896703
 20
4.320522475
 11
4.1978896703
 21
4.7043807427
  0
LINE
  5
209
100
AcDbEntity
  8
0
100
AcDbLine
 62
7
  6
CONTINUOUS
 10
4.2274172294
 20
4.7339083018
 11
4.2274172294
 21
4.290994916
  0
LINE
  5
20A
100
AcDbEntity
  8
0
100
AcDbLine
 62
7
  6
CONTINUOUS
 10
4.2493427641
 20
5.2211130262
 11
4.2493427641
 21
5.1820020438
  0
LINE
  5
20B
100
AcDbEntity
  8
0
100
AcDbLine
 62
7
  6
CONTINUOUS
 10
4.5893499624
 20
5.1820020438
 11
4.5893499624
 21
5.2211130262
  0
LINE
  5
20C
100
AcDbEntity
  8
0
100
AcDbLine
 62
7
  6
CONTINUOUS
 10
4.6112754971
 20
4.290994916
 11
4.6112754971
 21
4.7339083018
  0
LINE
  5
20D
100
AcDbEntity
  8
0
100
AcDbLine
 62
7
  6
CONTINUOUS
 10
4.6112754971
 20
4.290994916
 11
4.2274172294
 21
4.290994916
  0
LINE
  5
20E
100
AcDbEntity
  8
0
100
AcDbLine
 62
7
  6
CONTINUOUS
 10
4.6408030562
 20
4.7043807427
 11
4.6408030562
 21
4.320522475
  0
LINE
  5
20F
100
AcDbEntity
  8
0
100
AcDbLine
 62
7
  6
CONTINUOUS
 10
4.709700694
 20
4.3192465284
 11
4.7384627838
 21
4.3192465284
  0
LINE
  5
210
100
AcDbEntity
  8
0
100
AcDbLine
 62
7
  6
CONTINUOUS
 10
4.1978896703
 20
4.320522475
 11
4.6408030562
 21
4.320522475
  0
LINE
  5
211
100
AcDbEntity
  8
0
100
AcDbLine
 62
7
  6
CONTINUOUS
 10
4.709700694
 20
4.3451287742
 11
4.6408030562
 21
4.3451287742
  0
LINE
  5
212
100
AcDbEntity
  8
0
100
AcDbLine
 62
7
  6
CONTINUOUS
 10
4.6408030562
 20
4.3746563333
 11
4.709700694
 21
4.3746563333
  0
LINE
  5
213
100
AcDbEntity
  8
0
100
AcDbLine
 62
7
  6
CONTINUOUS
 10
4.709700694
 20
4.7056566908
 11
4.709700694
 21
4.3192465284
  0
LINE
  5
214
100
AcDbEntity
  8
0
100
AcDbLine
 62
7
  6
CONTINUOUS
 10
4.7384627838
 20
4.3192465284
 11
4.7384627838
 21
4.7056566896
  0
LINE
  5
215
100
AcDbEntity
  8
0
100
AcDbLine
 62
7
  6
CONTINUOUS
 10
4.709700694
 20
4.6502468845
 11
4.6408030562
 21
4.6502468845
  0
LINE
  5
216
100
AcDbEntity
  8
0
100
AcDbLine
 62
7
  6
CONTINUOUS
 10
4.6408030562
 20
4.6797744435
 11
4.709700694
 21
4.6797744435
  0
LINE
  5
217
100
AcDbEntity
  8
0
100
AcDbLine
 62
7
  6
CONTINUOUS
 10
4.6408030562
 20
4.7043807427
 11
4.1978896703
 21
4.7043807427
  0
LINE
  5
218
100
AcDbEntity
  8
0
100
AcDbLine
 62
7
  6
CONTINUOUS
 10
4.709700694
 20
4.7056566908
 11
4.7384627838
 21
4.7056566896
  0
LINE
  5
219
100
AcDbEntity
  8
0
100
AcDbLine
 62
7
  6
CONTINUOUS
 10
4.2274172294
 20
4.7339083018
 11
4.6112754971
 21
4.7339083018
  0
LINE
  5
21A
100
AcDbEntity
  8
0
100
AcDbLine
 62
7
  6
CONTINUOUS
 10
4.2493427641
 20
5.1820020438
 11
4.5893499624
 21
5.1820020438
  0
LINE
  5
21B
100
AcDbEntity
  8
0
100
AcDbLine
 62
7
  6
CONTINUOUS
 10
4.2493427641
 20
5.2211130262
 11
4.5893499624
 21
5.2211130262
  0
LINE
  5
21C
100
AcDbEntity
  8
0
100
AcDbLine
 62
7
  6
CONTINUOUS
 10
5.7923778588
 20
4.1387726749
 11
5.7923778588
 21
4.8861305428
  0
LINE
  5
21D
100
AcDbEntity
  8
0
100
AcDbLine
 62
7
  6
CONTINUOUS
 10
5.8355483514
 20
4.0920232386
 11
5.8355483514
 21
4.9328799792
  0
LINE
  5
21E
100
AcDbEntity
  8
0
100
AcDbLine
 62
7
  6
CONTINUOUS
 10
5.9498581743
 20
4.0124516463
 11
5.9498581743
 21
5.0124515735
  0
ARC
  5
21F
100
AcDbEntity
  8
0
100
AcDbCircle
 62
7
  6
CONTINUOUS
 10
4.2274172294
 20
4.320522475
 40
0.0295275591
100
AcDbArc
 50
180.0
 51
270.0
  0
ARC
  5
220
100
AcDbEntity
  8
0
100
AcDbCircle
 62
7
  6
CONTINUOUS
 10
2.8239911345
 20
4.7030094614
 40
1.4772525091
100
AcDbArc
 50
2.5354162136
 51
17.5030337264
  0
ARC
  5
221
100
AcDbEntity
  8
0
100
AcDbCircle
 62
7
  6
CONTINUOUS
 10
2.8246454659
 20
4.7031089367
 40
1.4765927752
100
AcDbArc
 50
1.1951868186
 51
18.9246867774
  0
ARC
  5
222
100
AcDbEntity
  8
0
100
AcDbCircle
 62
7
  6
CONTINUOUS
 10
2.8273957
 20
4.7036141296
 40
1.4738185354
100
AcDbArc
 50
17.5204217467
 51
18.9407846236
  0
ARC
  5
223
100
AcDbEntity
  8
0
100
AcDbCircle
 62
7
  6
CONTINUOUS
 10
2.8804065036
 20
4.7028733733
 40
1.4503618556
100
AcDbArc
 50
1.2261123056
 51
19.2900770638
  0
ARC
  5
224
100
AcDbEntity
  8
0
100
AcDbCircle
 62
7
  6
CONTINUOUS
 10
4.2274172294
 20
4.7043807427
 40
0.0295275591
100
AcDbArc
 50
90.0
 51
180.0
  0
ARC
  5
225
100
AcDbEntity
  8
0
100
AcDbCircle
 62
7
  6
CONTINUOUS
 10
4.2493427641
 20
5.1915854672
 40
0.0295275591
100
AcDbArc
 50
90.0
 51
198.93883531
  0
ARC
  5
226
100
AcDbEntity
  8
0
100
AcDbCircle
 62
7
  6
CONTINUOUS
 10
4.6408016091
 20
0.524009532
 40
3.7669855339
100
AcDbArc
 50
72.199577331
 51
88.5144087915
  0
ARC
  5
227
100
AcDbEntity
  8
0
100
AcDbCircle
 62
7
  6
CONTINUOUS
 10
4.6405774264
 20
0.5801078471
 40
3.740419285
100
AcDbArc
 50
72.0652637616
 51
88.5004201022
  0
ARC
  5
228
100
AcDbEntity
  8
0
100
AcDbCircle
 62
7
  6
CONTINUOUS
 10
5.9498581743
 20
4.1463098766
 40
0.1338582677
100
AcDbArc
 50
211.3545444224
 51
270.0000000002
  0
ARC
  5
229
100
AcDbEntity
  8
0
100
AcDbCircle
 62
7
  6
CONTINUOUS
 10
5.7683068001
 20
4.0356880482
 40
0.0787401575
100
AcDbArc
 50
31.3545444355
 51
72.199569882
  0
ARC
  5
22A
100
AcDbEntity
  8
0
100
AcDbCircle
 62
7
  6
CONTINUOUS
 10
4.6112754971
 20
4.320522475
 40
0.0295275591
100
AcDbArc
 50
270.0
 51
360.0
  0
ARC
  5
22B
100
AcDbEntity
  8
0
100
AcDbCircle
 62
7
  6
CONTINUOUS
 10
4.739228253
 20
4.3192465287
 40
0.0295275591
100
AcDbArc
 50
180.0000023419
 51
268.5145189959
  0
ARC
  5
22C
100
AcDbEntity
  8
0
100
AcDbCircle
 62
7
  6
CONTINUOUS
 10
4.6408016091
 20
8.5008936858
 40
3.7669855339
100
AcDbArc
 50
271.4855912097
 51
287.800422669
  0
ARC
  5
22D
100
AcDbEntity
  8
0
100
AcDbCircle
 62
7
  6
CONTINUOUS
 10
4.6405774264
 20
8.4447953706
 40
3.7404192849
100
AcDbArc
 50
271.4995798978
 51
287.9347362385
  0
ARC
  5
22E
100
AcDbEntity
  8
0
100
AcDbCircle
 62
7
  6
CONTINUOUS
 10
6.0140472619
 20
4.7031089365
 40
1.4765927752
100
AcDbArc
 50
161.0753132292
 51
178.8048131729
  0
ARC
  5
22F
100
AcDbEntity
  8
0
100
AcDbCircle
 62
7
  6
CONTINUOUS
 10
5.9498581743
 20
4.8785933412
 40
0.1338582677
100
AcDbArc
 50
89.9999999998
 51
148.6454555824
  0
ARC
  5
230
100
AcDbEntity
  8
0
100
AcDbCircle
 62
7
  6
CONTINUOUS
 10
5.7683068001
 20
4.9892151696
 40
0.0787401575
100
AcDbArc
 50
287.8004301179
 51
328.6454555559
  0
ARC
  5
231
100
AcDbEntity
  8
0
100
AcDbCircle
 62
7
  6
CONTINUOUS
 10
4.6112754971
 20
4.7043807427
 40
0.0295275591
100
AcDbArc
 50
0.0
 51
90.0
  0
ARC
  5
232
100
AcDbEntity
  8
0
100
AcDbCircle
 62
7
  6
CONTINUOUS
 10
4.5893499624
 20
5.1915854672
 40
0.0295275591
100
AcDbArc
 50
341.06116469
 51
90.0
  0
ARC
  5
233
100
AcDbEntity
  8
0
100
AcDbCircle
 62
7
  6
CONTINUOUS
 10
4.739228253
 20
4.7056566891
 40
0.0295275591
100
AcDbArc
 50
91.4854808523
 51
179.9999967157
  0
SPLINE
  5
234
100
AcDbEntity
  8
0
100
AcDbSpline
 62
7
  6
CONTINUOUS
 70
0
 71
3
 72
15
 73
11
 74
0
 42
0.0000001
 43
0.0000001
 44
0.0000000001
 40
0.0
 40
0.0
 40
0.0
 40
0.0
 40
0.1217427433
 40
0.2446744025
 40
0.3686798843
 40
0.49364435
 40
0.6194162219
 40
0.7458489768
 40
0.8727874665
 40
1.0
 40
1.0
 40
1.0
 40
1.0
 10
4.5893883513
 20
5.1820020438
 30
0.0
 10
4.5833704709
 20
5.1644495386
 30
0.0
 10
4.5716944642
 20
5.1290259464
 30
0.0
 10
4.556032862
 20
5.0750435261
 30
0.0
 10
4.5426170011
 20
5.0199535159
 30
0.0
 10
4.5312426415
 20
4.9639674639
 30
0.0
 10
4.5219974217
 20
4.9072137069
 30
0.0
 10
4.5150164031
 20
4.849834313
 30
0.0
 10
4.5102311642
 20
4.792011685
 30
0.0
 10
4.5086136806
 20
4.7532941628
 30
0.0
 10
4.5082567628
 20
4.7339083019
 30
0.0
  0
SPLINE
  5
235
100
AcDbEntity
  8
0
100
AcDbSpline
 62
7
  6
CONTINUOUS
 70
0
 71
3
 72
14
 73
10
 74
0
 42
0.0000001
 43
0.0000001
 44
0.0000000001
 40
0.0
 40
0.0
 40
0.0
 40
0.0
 40
0.0542986647
 40
0.1248441385
 40
0.2204518552
 40
0.3427312994
 40
0.4894619522
 40
0.6536147735
 40
1.0
 40
1.0
 40
1.0
 40
1.0
 10
4.6172797998
 20
5.1820017898
 30
0.0
 10
4.6171074375
 20
5.1814993386
 30
0.0
 10
4.6163462946
 20
5.1804651063
 30
0.0
 10
4.614397868
 20
5.1794457523
 30
0.0
 10
4.6116276979
 20
5.1788258244
 30
0.0
 10
4.6080558084
 20
5.1786158819
 30
0.0
 10
4.6038187591
 20
5.1788686804
 30
0.0
 10
4.5974492334
 20
5.1797823313
 30
0.0
 10
4.5925900002
 20
5.1810071534
 30
0.0
 10
4.5893505997
 20
5.1820016448
 30
0.0
  0
SPLINE
  5
236
100
AcDbEntity
  8
0
100
AcDbSpline
 62
7
  6
CONTINUOUS
 70
0
 71
3
 72
14
 73
10
 74
0
 42
0.0000001
 43
0.0000001
 44
0.0000000001
 40
0.0
 40
0.0
 40
0.0
 40
0.0
 40
0.3362087773
 40
0.4987908608
 40
0.6463232188
 40
0.7712516177
 40
0.8701543614
 40
0.94355561
 40
1.0
 40
1.0
 40
1.0
 40
1.0
 10
4.2493427688
 20
5.1820017898
 30
0.0
 10
4.246198686
 20
5.181036577
 30
0.0
 10
4.2414541894
 20
5.1798341536
 30
0.0
 10
4.2351959601
 20
5.1789039843
 30
0.0
 10
4.2309430507
 20
5.1786190174
 30
0.0
 10
4.227303834
 20
5.1787950342
 30
0.0
 10
4.2244410293
 20
5.179392006
 30
0.0
 10
4.2224010072
 20
5.180411701
 30
0.0
 10
4.2215921577
 20
5.1814793574
 30
0.0
 10
4.2214130102
 20
5.1820016448
 30
0.0
  0
SPLINE
  5
237
100
AcDbEntity
  8
0
100
AcDbSpline
 62
7
  6
CONTINUOUS
 70
0
 71
3
 72
19
 73
15
 74
0
 42
0.0000001
 43
0.0000001
 44
0.0000000001
 40
0.0
 40
0.0
 40
0.0
 40
0.0
 40
0.1819449445
 40
0.3676834682
 40
0.5465193979
 40
0.7062823884
 40
0.7752564177
 40
0.8357337519
 40
0.8871203525
 40
0.928823948
 40
0.960451434
 40
0.98239892
 40
0.9952893417
 40
1.0
 40
1.0
 40
1.0
 40
1.0
 10
4.7384627206
 20
4.7056566877
 30
0.0
 10
4.7384162988
 20
4.707448017
 30
0.0
 10
4.7383310915
 20
4.7110682474
 30
0.0
 10
4.7382306367
 20
4.7164498954
 30
0.0
 10
4.7381652317
 20
4.7216134988
 30
0.0
 10
4.7381419928
 20
4.7256277943
 30
0.0
 10
4.7381493686
 20
4.7284758293
 30
0.0
 10
4.7381656434
 20
4.7302576913
 30
0.0
 10
4.7381925673
 20
4.7317673057
 30
0.0
 10
4.738227198
 20
4.7330023044
 30
0.0
 10
4.7382736049
 20
4.7339219249
 30
0.0
 10
4.7383182777
 20
4.7346135905
 30
0.0
 10
4.738378975
 20
4.7349329633
 30
0.0
 10
4.7384163498
 20
4.7351731213
 30
0.0
 10
4.7384627283
 20
4.735174324
 30
0.0
  0
SPLINE
  5
238
100
AcDbEntity
  8
0
100
AcDbSpline
 62
7
  6
CONTINUOUS
 70
0
 71
3
 72
10
 73
6
 74
0
 42
0.0000001
 43
0.0000001
 44
0.0000000001
 40
0.0
 40
0.0
 40
0.0
 40
0.0
 40
0.5159948953
 40
0.7615813051
 40
1.0
 40
1.0
 40
1.0
 40
1.0
 10
5.8355480332
 20
4.0920232388
 30
0.0
 10
5.8344372855
 20
4.0895235023
 30
0.0
 10
5.8333355319
 20
4.0854810763
 30
0.0
 10
5.8339022075
 20
4.0801565485
 30
0.0
 10
5.834890382
 20
4.0777384209
 30
0.0
 10
5.8355480369
 20
4.0766590869
 30
0.0
  0
SPLINE
  5
239
100
AcDbEntity
  8
0
100
AcDbSpline
 62
7
  6
CONTINUOUS
 70
0
 71
3
 72
10
 73
6
 74
0
 42
0.0000001
 43
0.0000001
 44
0.0000000001
 40
0.0
 40
0.0
 40
0.0
 40
0.0
 40
0.238418695
 40
0.4840051048
 40
1.0
 40
1.0
 40
1.0
 40
1.0
 10
5.8355480369
 20
4.9482441309
 30
0.0
 10
5.834890382
 20
4.9471647969
 30
0.0
 10
5.8339022075
 20
4.9447466693
 30
0.0
 10
5.8333355319
 20
4.9394221415
 30
0.0
 10
5.8344372854
 20
4.9353797155
 30
0.0
 10
5.8355480332
 20
4.932879979
 30
0.0
  0
SPLINE
  5
23A
100
AcDbEntity
  8
0
100
AcDbSpline
 62
7
  6
CONTINUOUS
 70
0
 71
3
 72
11
 73
7
 74
0
 42
0.0000001
 43
0.0000001
 44
0.0000000001
 40
0.0
 40
0.0
 40
0.0
 40
0.0
 40
0.2834750445
 40
0.5486590366
 40
0.7871799186
 40
1.0
 40
1.0
 40
1.0
 40
1.0
 10
5.9498581743
 20
4.0419790584
 30
0.0
 10
5.9376937102
 20
4.0420035881
 30
0.0
 10
5.9140644498
 20
4.0444496891
 30
0.0
 10
5.8817561276
 20
4.0551766766
 30
0.0
 10
5.8551645532
 20
4.071112099
 30
0.0
 10
5.8411869478
 20
4.0848392607
 30
0.0
 10
5.8355483514
 20
4.0920232386
 30
0.0
  0
SPLINE
  5
23B
100
AcDbEntity
  8
0
100
AcDbSpline
 62
7
  6
CONTINUOUS
 70
0
 71
3
 72
10
 73
6
 74
0
 42
0.0000001
 43
0.0000001
 44
0.0000000001
 40
0.0
 40
0.0
 40
0.0
 40
0.0
 40
0.4880917657
 40
0.7405093433
 40
1.0
 40
1.0
 40
1.0
 40
1.0
 10
5.8355485075
 20
4.0920240142
 30
0.0
 10
5.8312734909
 20
4.101678188
 30
0.0
 10
5.822787111
 20
4.1156471319
 30
0.0
 10
5.8070858751
 20
4.130679023
 30
0.0
 10
5.7975146862
 20
4.1365097879
 30
0.0
 10
5.7923782708
 20
4.1387738801
 30
0.0
  0
SPLINE
  5
23C
100
AcDbEntity
  8
0
100
AcDbSpline
 62
7
  6
CONTINUOUS
 70
0
 71
3
 72
14
 73
10
 74
0
 42
0.0000001
 43
0.0000001
 44
0.0000000001
 40
0.0
 40
0.0
 40
0.0
 40
0.0
 40
0.3388153467
 40
0.5027320241
 40
0.6512179242
 40
0.7763817322
 40
0.8745962274
 40
0.9462118858
 40
1.0
 40
1.0
 40
1.0
 40
1.0
 10
5.7923777414
 20
4.1387722682
 30
0.0
 10
5.7914481282
 20
4.135578412
 30
0.0
 10
5.79029146
 20
4.1307659134
 30
0.0
 10
5.7893974442
 20
4.1244311184
 30
0.0
 10
5.7891243626
 20
4.1201378863
 30
0.0
 10
5.7892942321
 20
4.1164807596
 30
0.0
 10
5.7898676429
 20
4.1136268448
 30
0.0
 10
5.7908370955
 20
4.1116106475
 30
0.0
 10
5.7918750637
 20
4.1108201216
 30
0.0
 10
5.7923778598
 20
4.1106586872
 30
0.0
  0
SPLINE
  5
23D
100
AcDbEntity
  8
0
100
AcDbSpline
 62
7
  6
CONTINUOUS
 70
0
 71
3
 72
19
 73
15
 74
0
 42
0.0000001
 43
0.0000001
 44
0.0000000001
 40
0.0
 40
0.0
 40
0.0
 40
0.0
 40
0.0047106566
 40
0.0176010764
 40
0.0395485606
 40
0.0711760447
 40
0.1128796386
 40
0.164266238
 40
0.2247435713
 40
0.2937176
 40
0.4534805909
 40
0.6323165229
 40
0.8180550505
 40
1.0
 40
1.0
 40
1.0
 40
1.0
 10
4.7384627284
 20
4.2897288938
 30
0.0
 10
4.7384163499
 20
4.2897300965
 30
0.0
 10
4.738378975
 20
4.2899702544
 30
0.0
 10
4.7383182777
 20
4.2902896271
 30
0.0
 10
4.738273605
 20
4.2909812927
 30
0.0
 10
4.738227198
 20
4.2919009131
 30
0.0
 10
4.7381925673
 20
4.2931359117
 30
0.0
 10
4.7381656434
 20
4.294645526
 30
0.0
 10
4.7381493687
 20
4.296427388
 30
0.0
 10
4.7381419929
 20
4.2992754229
 30
0.0
 10
4.7381652317
 20
4.3032897184
 30
0.0
 10
4.7382306367
 20
4.3084533217
 30
0.0
 10
4.7383310916
 20
4.3138349697
 30
0.0
 10
4.7384162988
 20
4.3174552001
 30
0.0
 10
4.7384627206
 20
4.3192465294
 30
0.0
  0
SPLINE
  5
23E
100
AcDbEntity
  8
0
100
AcDbSpline
 62
7
  6
CONTINUOUS
 70
0
 71
3
 72
12
 73
8
 74
0
 42
0.0000001
 43
0.0000001
 44
0.0000000001
 40
0.0
 40
0.0
 40
0.0
 40
0.0
 40
0.2833637836
 40
0.4191844782
 40
0.5488381336
 40
0.7872633639
 40
1.0
 40
1.0
 40
1.0
 40
1.0
 10
5.9498581743
 20
4.9829241593
 30
0.0
 10
5.9376935912
 20
4.9828965554
 30
0.0
 10
5.9196104608
 20
4.9810385124
 30
0.0
 10
5.896870926
 20
4.9747287429
 30
0.0
 10
5.8767345993
 20
4.9667270957
 30
0.0
 10
5.8551625321
 20
4.9537875015
 30
0.0
 10
5.8411854599
 20
4.940065249
 30
0.0
 10
5.8355483514
 20
4.9328799792
 30
0.0
  0
SPLINE
  5
23F
100
AcDbEntity
  8
0
100
AcDbSpline
 62
7
  6
CONTINUOUS
 70
0
 71
3
 72
10
 73
6
 74
0
 42
0.0000001
 43
0.0000001
 44
0.0000000001
 40
0.0
 40
0.0
 40
0.0
 40
0.0
 40
0.2594906997
 40
0.5119083553
 40
1.0
 40
1.0
 40
1.0
 40
1.0
 10
5.7923783376
 20
4.8861291707
 30
0.0
 10
5.7975147578
 20
4.8883932638
 30
0.0
 10
5.8070859551
 20
4.894224036
 30
0.0
 10
5.8227871932
 20
4.9092559464
 30
0.0
 10
5.8312735703
 20
4.9232249049
 30
0.0
 10
5.8355485785
 20
4.9328790873
 30
0.0
  0
SPLINE
  5
240
100
AcDbEntity
  8
0
100
AcDbSpline
 62
7
  6
CONTINUOUS
 70
0
 71
3
 72
14
 73
10
 74
0
 42
0.0000001
 43
0.0000001
 44
0.0000000001
 40
0.0
 40
0.0
 40
0.0
 40
0.0
 40
0.0537881142
 40
0.1254037726
 40
0.2236182678
 40
0.3487820758
 40
0.4972679759
 40
0.6611846533
 40
1.0
 40
1.0
 40
1.0
 40
1.0
 10
5.7923778598
 20
4.9142445305
 30
0.0
 10
5.7918750637
 20
4.9140830961
 30
0.0
 10
5.7908370955
 20
4.9132925703
 30
0.0
 10
5.7898676429
 20
4.911276373
 30
0.0
 10
5.7892942321
 20
4.9084224582
 30
0.0
 10
5.7891243626
 20
4.9047653315
 30
0.0
 10
5.7893974442
 20
4.9004720994
 30
0.0
 10
5.79029146
 20
4.8941373044
 30
0.0
 10
5.7914481282
 20
4.8893248057
 30
0.0
 10
5.7923777414
 20
4.8861309496
 30
0.0
  0
ENDSEC
  0
SECTION
  2
OBJECTS
  0
DICTIONARY
  5
C
100
AcDbDictionary
280
0
281
1
  3
ACAD_GROUP
350
D
  3
ACAD_MLINESTYLE
350
17
  3
ACAD_LAYOUT
350
1A
  3
ACAD_PLOTSETTINGS
350
19
  3
ACAD_PLOTSTYLENAME
350
E
  0
DICTIONARY
  5
D
102
{ACAD_REACTORS
330
C
102
}
100
AcDbDictionary
280
0
281
1
  0
ACDBDICTIONARYWDFLT
  5
E
102
{ACAD_REACTORS
330
C
102
}
100
AcDbDictionary
281
1
  3
Normal
350
F
100
AcDbDictionaryWithDefault
340
F
  0
DICTIONARY
  5
17
102
{ACAD_REACTORS
330
C
102
}
100
AcDbDictionary
280
0
281
1
  3
Standard
350
18
  0
DICTIONARY
  5
19
102
{ACAD_REACTORS
330
C
102
}
100
AcDbDictionary
281
1
  0
DICTIONARY
  5
1A
102
{ACAD_REACTORS
330
C
102
}
100
AcDbDictionary
281
1
  3
Model
350
241
  3
Layout1
350
242
  0
ACDBPLACEHOLDER
  5
F
102
{ACAD_REACTORS
330
E
102
}
  0
MLINESTYLE
  5
18
102
{ACAD_REACTORS
330
17
102
}
100
AcDbMlineStyle
  2
STANDARD
 70
0
  3

 62
256
 51
90.0
 52
90.0
 71
2
 49
0.5
 62
256
  6
BYLAYER
 49
-0.5
 62
256
  6
BYLAYER
  0
LAYOUT
  5
241
102
{ACAD_REACTORS
330
1A
102
}
100
AcDbPlotSettings
  1

  2
none_device
  4
ANSI_A_(11.00_x_8.50_Inches)
  6

 40
0.0
 41
0.0
 42
0.0
 43
0.0
 44
279.4
 45
215.9
 46
0.0
 47
0.0
 48
0.0
 49
0.0
140
0.0
141
0.0
142
1.0
143
1.0
 70
1024
 72
0
 73
0
 74
0
  7

 75
0
147
1.0
148
0.0
149
0.0
100
AcDbLayout
  1
Model
 70
0
 71
0
 10
0.0
 20
0.0
 11
11.0
 21
8.5
 12
0.0
 22
0.0
 32
0.0
 14
0.0
 24
0.0
 34
0.0
 15
0.0
 25
0.0
 35
0.0
146
0.0
 13
0.0
 23
0.0
 33
0.0
 16
1.0
 26
0.0
 36
0.0
 17
0.0
 27
1.0
 37
0.0
 76
0
330
201
345
0
346
0
  0
LAYOUT
  5
242
102
{ACAD_REACTORS
330
1A
102
}
100
AcDbPlotSettings
  1

  2
none_device
  4
ANSI_A_(11.00_x_8.50_Inches)
  6

 40
0.0
 41
0.0
 42
0.0
 43
0.0
 44
279.4
 45
215.9
 46
0.0
 47
0.0
 48
0.0
 49
0.0
140
0.0
141
0.0
142
1.0
143
1.0
 70
0
 72
0
 73
0
 74
0
  7

 75
0
147
1.0
148
0.0
149
0.0
100
AcDbLayout
  1
Layout1
 70
0
 71
1
 10
0.0
 20
0.0
 11
11.0
 21
8.5
 12
0.0
 22
0.0
 32
0.0
 14
0.0
 24
0.0
 34
0.0
 15
0.0
 25
0.0
 35
0.0
146
0.0
 13
0.0
 23
0.0
 33
0.0
 16
1.0
 26
0.0
 36
0.0
 17
0.0
 27
1.0
 37
0.0
 76
0
330
202
345
0
346
0
  0
ENDSEC
  0
EOF
