999
DXF file: 81-12_top.dxf
999
Pro/ENGINEER 2013150 by Parametric Technology Corporation
  0
SECTION
  2
HEADER
  9
$ACADVER
  1
AC1021
  9
$DWGCODEPAGE
  3
ANSI_1252
  9
$EXTMAX
 10
11.0
 20
8.5
 30
0.0
  9
$EXTMIN
 10
0.0
 20
0.0
 30
0.0
  9
$LIMMIN
 10
0.0
 20
0.0
  9
$LIMMAX
 10
11.0
 20
8.5
  9
$VIEWCTR
 10
5.5
 20
4.25
  9
$VIEWSIZE
 40
8.5
  9
$CLAYER
  8
0
  9
$LTSCALE
 40
0.605
  9
$CELTYPE
  6
BYLAYER
  9
$DIMSCALE
 40
1.0
  9
$DIMASZ
 40
0.1
  9
$DIMEXO
 40
0.0625
  9
$DIMDLI
 40
0.418
  9
$DIMEXE
 40
0.125
  9
$DIMCEN
 40
0.099
  9
$DIMLFAC
 40
1.0
  9
$DIMBLK
  1
_FILLED
  9
$DIMTXT
 40
0.08
  9
$DIMTOL
 70
1
  9
$DIMLIM
 70
0
  9
$DIMTFAC
 40
1.0
  9
$DIMTP
 40
0.001
  9
$DIMTM
 40
0.001
  9
$DIMGAP
 40
0.09
  9
$DIMDSEP
 70
46
  9
$PDMODE
 70
3
  9
$PDSIZE
 40
0.06
  9
$HANDSEED
  5
245
  9
$TILEMODE
 70
1
  9
$MEASUREMENT
 70
0
  9
$INSUNITS
 70
1
  0
ENDSEC
  0
SECTION
  2
CLASSES
  0
CLASS
  1
ACDBDICTIONARYWDFLT
  2
AcDbDictionaryWithDefault
  3
AutoCAD 2000
 90
0
 91
1
280
0
281
0
  0
CLASS
  1
ACDBPLACEHOLDER
  2
AcDbPlaceHolder
  3
AutoCAD 2000
 90
0
 91
1
280
0
281
0
  0
CLASS
  1
LAYOUT
  2
AcDbLayout
  3
AutoCAD 2000
 90
0
 91
0
280
0
281
0
  0
ENDSEC
  0
SECTION
  2
TABLES
  0
TABLE
  2
VPORT
  5
8
100
AcDbSymbolTable
 70
2
  0
VPORT
  5
1F4
100
AcDbSymbolTableRecord
100
AcDbViewportTableRecord
  2
*ACTIVE
 70
0
 10
0.0
 20
0.0
 11
1.0
 21
1.0
 12
5.5
 22
4.25
 13
0.0
 23
0.0
 14
1.0
 24
1.0
 15
0.0
 25
0.0
 16
0.0
 26
0.0
 36
1.0
 17
0.0
 27
0.0
 37
0.0
 40
8.5
 41
1.2941176471
 42
50.0
 43
0.0
 44
0.0
 50
0.0
 51
0.0
 71
0
 72
100
 73
1
 74
1
 75
0
 76
0
 77
0
 78
0
  0
ENDTAB
  0
TABLE
  2
LTYPE
  5
5
100
AcDbSymbolTable
 70
6
  0
LTYPE
  5
14
100
AcDbSymbolTableRecord
100
AcDbLinetypeTableRecord
  2
BYBLOCK
 70
0
  3

 72
65
 73
0
 40
0.0
  0
LTYPE
  5
15
100
AcDbSymbolTableRecord
100
AcDbLinetypeTableRecord
  2
BYLAYER
 70
0
  3

 72
65
 73
0
 40
0.0
  0
LTYPE
  5
16
100
AcDbSymbolTableRecord
100
AcDbLinetypeTableRecord
  2
CONTINUOUS
 70
64
  3
Solid line
 72
65
 73
0
 40
0.0
  0
LTYPE
  5
1F5
100
AcDbSymbolTableRecord
100
AcDbLinetypeTableRecord
  2
CENTER
 70
64
  3
____ _ ____ _ ____ _ ____ _ ____ _ ____ _ ____
 72
65
 73
4
 40
0.6
 49
0.375
 74
0
 49
-0.075
 74
0
 49
0.075
 74
0
 49
-0.075
 74
0
  0
LTYPE
  5
1F6
100
AcDbSymbolTableRecord
100
AcDbLinetypeTableRecord
  2
HIDDEN
 70
64
  3
- - - - - - - - - - - - - - - - - - - -
 72
65
 73
2
 40
0.2
 49
0.1
 74
0
 49
-0.1
 74
0
  0
LTYPE
  5
1F7
100
AcDbSymbolTableRecord
100
AcDbLinetypeTableRecord
  2
PHANTOM
 70
64
  3
_____ _ _ _____ _ _ _____ _ _ _____
 72
65
 73
6
 40
0.8
 49
0.45
 74
0
 49
-0.05
 74
0
 49
0.1
 74
0
 49
-0.05
 74
0
 49
0.1
 74
0
 49
-0.05
 74
0
  0
LTYPE
  5
1F8
100
AcDbSymbolTableRecord
100
AcDbLinetypeTableRecord
  2
DOT
 70
64
  3
. . . . . . . . . . . . . . . . . . . .
 72
65
 73
2
 40
0.2
 49
0.1
 74
0
 49
-0.1
 74
0
  0
LTYPE
  5
1F9
100
AcDbSymbolTableRecord
100
AcDbLinetypeTableRecord
  2
DASHED
 70
64
  3
- - - - - - - - - - - - - - - - - - - -
 72
65
 73
2
 40
0.2
 49
0.1
 74
0
 49
-0.1
 74
0
  0
ENDTAB
  0
TABLE
  2
LAYER
  5
2
100
AcDbSymbolTable
 70
36
  0
LAYER
  5
10
100
AcDbSymbolTableRecord
100
AcDbLayerTableRecord
  2
0
 70
0
 62
7
  6
CONTINUOUS
370
-3
390
F
  0
LAYER
  5
1FA
100
AcDbSymbolTableRecord
100
AcDbLayerTableRecord
  2
DEFAULT_1
 70
0
 62
7
  6
CENTER
370
-3
390
F
  0
LAYER
  5
1FB
100
AcDbSymbolTableRecord
100
AcDbLayerTableRecord
  2
DEFAULT_2
 70
0
 62
8
  6
HIDDEN
370
-3
390
F
  0
LAYER
  5
1FC
100
AcDbSymbolTableRecord
100
AcDbLayerTableRecord
  2
DEFAULT_3
 70
0
 62
7
  6
PHANTOM
370
-3
390
F
  0
LAYER
  5
1FD
100
AcDbSymbolTableRecord
100
AcDbLayerTableRecord
  2
DEFAULT_DATUM_CURVES
 70
0
 62
7
  6
CONTINUOUS
370
-3
390
F
  0
LAYER
  5
1FE
100
AcDbSymbolTableRecord
100
AcDbLayerTableRecord
  2
LAY0001
 70
0
 62
7
  6
CONTINUOUS
370
-3
390
F
  0
ENDTAB
  0
TABLE
  2
STYLE
  5
3
100
AcDbSymbolTable
 70
1
  0
STYLE
  5
11
100
AcDbSymbolTableRecord
100
AcDbTextStyleTableRecord
  2
STANDARD
 70
0
 40
0.0
 41
0.8
 50
0.0
 71
0
 42
0.2
  3
txt
  4

  0
STYLE
  5
1FF
100
AcDbSymbolTableRecord
100
AcDbTextStyleTableRecord
  2
TEXTSTYLE_1
 70
0
 40
0.0
 41
0.8
 50
0.0
 71
0
 42
0.2
  3
gdt
  4

  0
ENDTAB
  0
TABLE
  2
VIEW
  5
6
100
AcDbSymbolTable
 70
0
  0
ENDTAB
  0
TABLE
  2
UCS
  5
7
100
AcDbSymbolTable
 70
0
  0
ENDTAB
  0
TABLE
  2
APPID
  5
9
100
AcDbSymbolTable
 70
1
  0
APPID
  5
200
100
AcDbSymbolTableRecord
100
AcDbRegAppTableRecord
  2
ACAD
 70
0
  0
ENDTAB
  0
TABLE
  2
BLOCK_RECORD
  5
1
100
AcDbSymbolTable
 70
0
  0
BLOCK_RECORD
  5
201
100
AcDbSymbolTableRecord
100
AcDbBlockTableRecord
  2
*Model_Space
  0
BLOCK_RECORD
  5
202
100
AcDbSymbolTableRecord
100
AcDbBlockTableRecord
  2
*Paper_Space
  0
ENDTAB
  0
TABLE
  2
DIMSTYLE
  5
A
100
AcDbSymbolTable
 70
1
100
AcDbDimStyleTable
 71
0
  0
DIMSTYLE
105
203
100
AcDbSymbolTableRecord
100
AcDbDimStyleTableRecord
  2
STANDARD
 70
0
  3

  4

 40
1.0
 41
0.1
 42
0.0625
 43
0.38
 44
0.125
 45
0.0
 46
0.0
 47
0.001
 48
0.001
140
0.08
141
0.09
142
0.0
143
25.4
144
1.0
145
0.0
146
1.0
147
0.09
 71
1.0
 72
0.0
 73
1
 74
1
 75
0
 76
0
 77
0
 78
4
170
0
171
2
172
0
173
0
174
0
175
0
176
0
177
0
178
0
270
2
271
3
272
3
273
2
274
2
275
0
280
0
281
0
282
0
283
1
284
4
285
0
286
0
287
3
288
0
340
11
278
46
  0
ENDTAB
  0
ENDSEC
  0
SECTION
  2
BLOCKS
  0
BLOCK
  5
20
100
AcDbEntity
  8
0
100
AcDbBlockBegin
  2
*Model_Space
 70
0
 10
0.0
 20
0.0
 30
0.0
  3
*Model_Space
  1

  0
ENDBLK
  5
21
100
AcDbEntity
  8
0
100
AcDbBlockEnd
  0
BLOCK
  5
1C
100
AcDbEntity
  8
0
100
AcDbBlockBegin
  2
*Paper_Space
 70
0
 10
0.0
 20
0.0
 30
0.0
  3
*Paper_Space
  1

  0
ENDBLK
  5
1D
100
AcDbEntity
  8
0
100
AcDbBlockEnd
  0
ENDSEC
  0
SECTION
  2
ENTITIES
  0
LINE
  5
204
100
AcDbEntity
  8
0
100
AcDbLine
 62
7
  6
CONTINUOUS
 10
0.0
 20
0.0
 11
0.0
 21
8.5
  0
LINE
  5
205
100
AcDbEntity
  8
0
100
AcDbLine
 62
7
  6
CONTINUOUS
 10
0.0
 20
0.0
 11
11.0
 21
0.0
  0
LINE
  5
206
100
AcDbEntity
  8
0
100
AcDbLine
 62
7
  6
CONTINUOUS
 10
0.0
 20
8.5
 11
11.0
 21
8.5
  0
LINE
  5
207
100
AcDbEntity
  8
0
100
AcDbLine
 62
7
  6
CONTINUOUS
 10
11.0
 20
0.0
 11
11.0
 21
8.5
  0
LINE
  5
208
100
AcDbEntity
  8
0
100
AcDbLine
 62
7
  6
CONTINUOUS
 10
5.6407982382
 20
3.881058828
 11
5.2569399705
 21
3.881058828
  0
LINE
  5
209
100
AcDbEntity
  8
0
100
AcDbLine
 62
7
  6
CONTINUOUS
 10
5.2788655053
 20
3.9029843627
 11
5.6188727035
 21
3.9029843627
  0
LINE
  5
20A
100
AcDbEntity
  8
0
100
AcDbLine
 62
7
  6
CONTINUOUS
 10
5.2274124115
 20
3.910586387
 11
5.2590899938
 21
3.910586387
  0
LINE
  5
20B
100
AcDbEntity
  8
0
100
AcDbLine
 62
7
  6
CONTINUOUS
 10
5.638648215
 20
3.910586387
 11
5.6703257973
 21
3.910586387
  0
LINE
  5
20C
100
AcDbEntity
  8
0
100
AcDbLine
 62
7
  6
CONTINUOUS
 10
5.2493379462
 20
3.9325119217
 11
5.6484002626
 21
3.9325119217
  0
LINE
  5
20D
100
AcDbEntity
  8
0
100
AcDbLine
 62
7
  6
CONTINUOUS
 10
5.2493379462
 20
4.27251912
 11
5.6484002626
 21
4.27251912
  0
LINE
  5
20E
100
AcDbEntity
  8
0
100
AcDbLine
 62
7
  6
CONTINUOUS
 10
5.6703257973
 20
4.2944446547
 11
5.638648215
 21
4.2944446547
  0
LINE
  5
20F
100
AcDbEntity
  8
0
100
AcDbLine
 62
7
  6
CONTINUOUS
 10
5.2591086921
 20
4.2944446547
 11
5.2274124115
 21
4.2944446547
  0
LINE
  5
210
100
AcDbEntity
  8
0
100
AcDbLine
 62
7
  6
CONTINUOUS
 10
5.6188727035
 20
4.302046679
 11
5.2788655053
 21
4.302046679
  0
LINE
  5
211
100
AcDbEntity
  8
0
100
AcDbLine
 62
7
  6
CONTINUOUS
 10
5.2569399705
 20
4.3239722138
 11
5.6407982382
 21
4.3239722138
  0
LINE
  5
212
100
AcDbEntity
  8
0
100
AcDbLine
 62
7
  6
CONTINUOUS
 10
5.6420741982
 20
4.3928698516
 11
5.2556640103
 21
4.3928698516
  0
LINE
  5
213
100
AcDbEntity
  8
0
100
AcDbLine
 62
7
  6
CONTINUOUS
 10
5.6420741991
 20
4.4216319492
 11
5.2556640096
 21
4.4216319492
  0
LINE
  5
214
100
AcDbEntity
  8
0
100
AcDbLine
 62
7
  6
CONTINUOUS
 10
5.2274124115
 20
3.910586387
 11
5.2274124115
 21
4.2944446547
  0
LINE
  5
215
100
AcDbEntity
  8
0
100
AcDbLine
 62
7
  6
CONTINUOUS
 10
5.2493379462
 20
4.27251912
 11
5.2493379462
 21
3.9325119217
  0
LINE
  5
216
100
AcDbEntity
  8
0
100
AcDbLine
 62
7
  6
CONTINUOUS
 10
5.2556640103
 20
4.3928698516
 11
5.2556640096
 21
4.4216319492
  0
LINE
  5
217
100
AcDbEntity
  8
0
100
AcDbLine
 62
7
  6
CONTINUOUS
 10
5.2569399705
 20
4.3239722138
 11
5.2569399705
 21
4.2922778209
  0
LINE
  5
218
100
AcDbEntity
  8
0
100
AcDbLine
 62
7
  6
CONTINUOUS
 10
5.2569399705
 20
3.9127364103
 11
5.2569399705
 21
3.881058828
  0
LINE
  5
219
100
AcDbEntity
  8
0
100
AcDbLine
 62
7
  6
CONTINUOUS
 10
5.2788655053
 20
4.3020466781
 11
5.2788655053
 21
3.9029843627
  0
LINE
  5
21A
100
AcDbEntity
  8
0
100
AcDbLine
 62
7
  6
CONTINUOUS
 10
5.2815462697
 20
4.3239722138
 11
5.2815462697
 21
4.3928698516
  0
LINE
  5
21B
100
AcDbEntity
  8
0
100
AcDbLine
 62
7
  6
CONTINUOUS
 10
5.3110738288
 20
4.3928698516
 11
5.3110738288
 21
4.3239722138
  0
LINE
  5
21C
100
AcDbEntity
  8
0
100
AcDbLine
 62
7
  6
CONTINUOUS
 10
5.58666438
 20
4.3239722138
 11
5.58666438
 21
4.3928698516
  0
LINE
  5
21D
100
AcDbEntity
  8
0
100
AcDbLine
 62
7
  6
CONTINUOUS
 10
5.616191939
 20
4.3928698516
 11
5.616191939
 21
4.3239722138
  0
LINE
  5
21E
100
AcDbEntity
  8
0
100
AcDbLine
 62
7
  6
CONTINUOUS
 10
5.6188727035
 20
3.9029843627
 11
5.6188727035
 21
4.302046679
  0
LINE
  5
21F
100
AcDbEntity
  8
0
100
AcDbLine
 62
7
  6
CONTINUOUS
 10
5.6407982382
 20
3.881058828
 11
5.6407982382
 21
3.9127364103
  0
LINE
  5
220
100
AcDbEntity
  8
0
100
AcDbLine
 62
7
  6
CONTINUOUS
 10
5.6407982382
 20
4.2922946315
 11
5.6407982382
 21
4.3239722138
  0
LINE
  5
221
100
AcDbEntity
  8
0
100
AcDbLine
 62
7
  6
CONTINUOUS
 10
5.6420741991
 20
4.3928698516
 11
5.6420741991
 21
4.4216319492
  0
LINE
  5
222
100
AcDbEntity
  8
0
100
AcDbLine
 62
7
  6
CONTINUOUS
 10
5.6484002626
 20
3.9325119217
 11
5.6484002626
 21
4.27251912
  0
LINE
  5
223
100
AcDbEntity
  8
0
100
AcDbLine
 62
7
  6
CONTINUOUS
 10
5.6703257973
 20
4.2944446547
 11
5.6703257973
 21
3.910586387
  0
LINE
  5
224
100
AcDbEntity
  8
0
100
AcDbLine
 62
7
  6
CONTINUOUS
 10
5.8225480383
 20
5.4755470169
 11
5.0751901704
 21
5.4755470169
  0
LINE
  5
225
100
AcDbEntity
  8
0
100
AcDbLine
 62
7
  6
CONTINUOUS
 10
5.8692974747
 20
5.5187172074
 11
5.0284407341
 21
5.5187172074
  0
LINE
  5
226
100
AcDbEntity
  8
0
100
AcDbLine
 62
7
  6
CONTINUOUS
 10
4.9488691793
 20
5.6330273319
 11
5.9488690332
 21
5.6330273319
  0
ARC
  5
227
100
AcDbEntity
  8
0
100
AcDbCircle
 62
7
  6
CONTINUOUS
 10
1.4604134142
 20
4.3239685044
 40
3.7669991871
100
AcDbArc
 50
1.4856201258
 51
17.8003921332
  0
ARC
  5
228
100
AcDbEntity
  8
0
100
AcDbCircle
 62
7
  6
CONTINUOUS
 10
9.4373247945
 20
4.3239685044
 40
3.7669991871
100
AcDbArc
 50
162.1996078668
 51
178.5143798731
  0
ARC
  5
229
100
AcDbEntity
  8
0
100
AcDbCircle
 62
7
  6
CONTINUOUS
 10
5.8150063706
 20
5.6330299355
 40
0.1338624618
100
AcDbArc
 50
301.355596974
 51
359.9988855907
  0
ARC
  5
22A
100
AcDbEntity
  8
0
100
AcDbCircle
 62
7
  6
CONTINUOUS
 10
5.0827318382
 20
5.6330299355
 40
0.1338624618
100
AcDbArc
 50
180.0011144091
 51
238.6444030317
  0
ARC
  5
22B
100
AcDbEntity
  8
0
100
AcDbCircle
 62
7
  6
CONTINUOUS
 10
5.925640861
 20
5.4514696776
 40
0.0787498794
100
AcDbArc
 50
121.3572592148
 51
162.1970423662
  0
ARC
  5
22C
100
AcDbEntity
  8
0
100
AcDbCircle
 62
7
  6
CONTINUOUS
 10
4.9720973478
 20
5.4514696776
 40
0.0787498794
100
AcDbArc
 50
17.8029576336
 51
58.6427407806
  0
ARC
  5
22D
100
AcDbEntity
  8
0
100
AcDbCircle
 62
7
  6
CONTINUOUS
 10
5.2788663833
 20
4.2725181553
 40
0.0295285587
100
AcDbArc
 50
90.0017185463
 51
179.9978289466
  0
ARC
  5
22E
100
AcDbEntity
  8
0
100
AcDbCircle
 62
7
  6
CONTINUOUS
 10
5.6188727035
 20
4.27251912
 40
0.0295275591
100
AcDbArc
 50
0.0
 51
90.0
  0
ARC
  5
22F
100
AcDbEntity
  8
0
100
AcDbCircle
 62
7
  6
CONTINUOUS
 10
5.2788655053
 20
3.9325119217
 40
0.0295275591
100
AcDbArc
 50
180.0
 51
270.0
  0
ARC
  5
230
100
AcDbEntity
  8
0
100
AcDbCircle
 62
7
  6
CONTINUOUS
 10
5.6188727035
 20
3.9325119217
 40
0.0295275591
100
AcDbArc
 50
270.0
 51
360.0
  0
ARC
  5
231
100
AcDbEntity
  8
0
100
AcDbCircle
 62
7
  6
CONTINUOUS
 10
5.6407982382
 20
4.2944446547
 40
0.0295275591
100
AcDbArc
 50
0.0
 51
90.0
  0
ARC
  5
232
100
AcDbEntity
  8
0
100
AcDbCircle
 62
7
  6
CONTINUOUS
 10
5.2569399705
 20
3.910586387
 40
0.0295275591
100
AcDbArc
 50
180.0
 51
270.0
  0
ARC
  5
233
100
AcDbEntity
  8
0
100
AcDbCircle
 62
7
  6
CONTINUOUS
 10
5.6407982382
 20
3.910586387
 40
0.0295275591
100
AcDbArc
 50
270.0
 51
360.0
  0
ARC
  5
234
100
AcDbEntity
  8
0
100
AcDbCircle
 62
7
  6
CONTINUOUS
 10
5.2569399705
 20
4.2944446547
 40
0.0295275591
100
AcDbArc
 50
90.0
 51
180.0
  0
ARC
  5
235
100
AcDbEntity
  8
0
100
AcDbCircle
 62
7
  6
CONTINUOUS
 10
5.25566401
 20
4.4223974106
 40
0.0295275591
100
AcDbArc
 50
181.485496083
 51
270.00000064
  0
ARC
  5
236
100
AcDbEntity
  8
0
100
AcDbCircle
 62
7
  6
CONTINUOUS
 10
5.6420741988
 20
4.4223974106
 40
0.0295275591
100
AcDbArc
 50
269.9999988027
 51
358.5145040663
  0
SPLINE
  5
237
100
AcDbEntity
  8
0
100
AcDbSpline
 62
7
  6
CONTINUOUS
 70
0
 71
3
 72
11
 73
7
 74
0
 42
0.0000001
 43
0.0000001
 44
0.0000000001
 40
0.0
 40
0.0
 40
0.0
 40
0.0
 40
0.2139018202
 40
0.448279042
 40
0.7099953811
 40
1.0
 40
1.0
 40
1.0
 40
1.0
 10
5.0130765814
 20
5.5187171908
 30
0.0
 10
5.0140475057
 20
5.5181255921
 30
0.0
 10
5.0162670414
 20
5.5171691383
 30
0.0
 10
5.0200477245
 20
5.5166457013
 30
0.0
 10
5.0242345433
 20
5.5171417674
 30
0.0
 10
5.0270320641
 20
5.5180912577
 30
0.0
 10
5.028440733
 20
5.5187171945
 30
0.0
  0
SPLINE
  5
238
100
AcDbEntity
  8
0
100
AcDbSpline
 62
7
  6
CONTINUOUS
 70
0
 71
3
 72
13
 73
9
 74
0
 42
0.0000001
 43
0.0000001
 44
0.0000000001
 40
0.0
 40
0.0
 40
0.0
 40
0.0
 40
0.2858450957
 40
0.5514767264
 40
0.6739195358
 40
0.7890743751
 40
0.8975386745
 40
1.0
 40
1.0
 40
1.0
 40
1.0
 10
5.9193416095
 20
5.6330273319
 30
0.0
 10
5.9193413179
 20
5.6207517835
 30
0.0
 10
5.9168321472
 20
5.5969843217
 30
0.0
 10
5.9075564933
 20
5.5693124216
 30
0.0
 10
5.8973444311
 20
5.5502202579
 30
0.0
 10
5.8888300986
 20
5.5379951486
 30
0.0
 10
5.8795349803
 20
5.5274858407
 30
0.0
 10
5.8727747714
 20
5.5214132031
 30
0.0
 10
5.8692968993
 20
5.5187176583
 30
0.0
  0
SPLINE
  5
239
100
AcDbEntity
  8
0
100
AcDbSpline
 62
7
  6
CONTINUOUS
 70
0
 71
3
 72
13
 73
9
 74
0
 42
0.0000001
 43
0.0000001
 44
0.0000000001
 40
0.0
 40
0.0
 40
0.0
 40
0.0
 40
0.102461492
 40
0.2109259365
 40
0.3260808675
 40
0.4485237155
 40
0.7141552355
 40
1.0
 40
1.0
 40
1.0
 40
1.0
 10
5.0284416233
 20
5.5187177675
 30
0.0
 10
5.0249637529
 20
5.5214133182
 30
0.0
 10
5.0182035412
 20
5.5274859588
 30
0.0
 10
5.0089084528
 20
5.5379952955
 30
0.0
 10
5.0003941134
 20
5.5502203929
 30
0.0
 10
4.9901820673
 20
5.5693125405
 30
0.0
 10
4.9809064323
 20
5.596984394
 30
0.0
 10
4.9783972713
 20
5.6207518112
 30
0.0
 10
4.9783969799
 20
5.6330273319
 30
0.0
  0
SPLINE
  5
23A
100
AcDbEntity
  8
0
100
AcDbSpline
 62
7
  6
CONTINUOUS
 70
0
 71
3
 72
14
 73
10
 74
0
 42
0.0000001
 43
0.0000001
 44
0.0000000001
 40
0.0
 40
0.0
 40
0.0
 40
0.0
 40
0.3479511365
 40
0.5132775425
 40
0.6610211393
 40
0.7837699672
 40
0.8789930274
 40
0.9480549904
 40
1.0
 40
1.0
 40
1.0
 40
1.0
 10
5.8225480383
 20
5.4755470174
 30
0.0
 10
5.8258282429
 20
5.4745922563
 30
0.0
 10
5.8307442737
 20
5.4734163451
 30
0.0
 10
5.837178949
 20
5.4725363703
 30
0.0
 10
5.8414572278
 20
5.4722907639
 30
0.0
 10
5.8450530174
 20
5.4724897052
 30
0.0
 10
5.8478235521
 20
5.4730824127
 30
0.0
 10
5.8497584466
 20
5.4740525916
 30
0.0
 10
5.8505060503
 20
5.4750613049
 30
0.0
 10
5.850661988
 20
5.475546899
 30
0.0
  0
SPLINE
  5
23B
100
AcDbEntity
  8
0
100
AcDbSpline
 62
7
  6
CONTINUOUS
 70
0
 71
3
 72
19
 73
15
 74
0
 42
0.0000001
 43
0.0000001
 44
0.0000000001
 40
0.0
 40
0.0
 40
0.0
 40
0.0
 40
0.0047106417
 40
0.017601085
 40
0.0395485908
 40
0.0711760573
 40
0.11287965
 40
0.1642663061
 40
0.2247436966
 40
0.2937177254
 40
0.4534806887
 40
0.6323166483
 40
0.8180551092
 40
1.0
 40
1.0
 40
1.0
 40
1.0
 10
5.6715918332
 20
4.4216318782
 30
0.0
 10
5.6715906311
 20
4.4215854998
 30
0.0
 10
5.671350471
 20
4.421548126
 30
0.0
 10
5.6710310999
 20
4.4214874291
 30
0.0
 10
5.6703394329
 20
4.4214427574
 30
0.0
 10
5.669419813
 20
4.4213963512
 30
0.0
 10
5.6681848138
 20
4.4213617216
 30
0.0
 10
5.6666751985
 20
4.4213347988
 30
0.0
 10
5.6648933354
 20
4.4213185252
 30
0.0
 10
5.6620453003
 20
4.4213111509
 30
0.0
 10
5.658031005
 20
4.4213343917
 30
0.0
 10
5.6528674025
 20
4.4213997988
 30
0.0
 10
5.6474857557
 20
4.4215002554
 30
0.0
 10
5.6438655267
 20
4.4215854637
 30
0.0
 10
5.642074198
 20
4.421631886
 30
0.0
  0
SPLINE
  5
23C
100
AcDbEntity
  8
0
100
AcDbSpline
 62
7
  6
CONTINUOUS
 70
0
 71
3
 72
21
 73
17
 74
0
 42
0.0000001
 43
0.0000001
 44
0.0000000001
 40
0.0
 40
0.0
 40
0.0
 40
0.0
 40
0.0304282644
 40
0.0609250818
 40
0.1221199811
 40
0.1835756172
 40
0.2452812103
 40
0.3693894599
 40
0.4943436489
 40
0.6200225116
 40
0.683094266
 40
0.746294952
 40
0.8096068044
 40
0.8730074129
 40
0.9364789563
 40
1.0
 40
1.0
 40
1.0
 40
1.0
 10
5.8225480383
 20
5.4755470169
 30
0.0
 10
5.819163362
 20
5.4652046104
 30
0.0
 10
5.8125882655
 20
5.4444307643
 30
0.0
 10
5.7996736371
 20
5.4027096256
 30
0.0
 10
5.7841949669
 20
5.3501683207
 30
0.0
 10
5.7666552002
 20
5.2866088349
 30
0.0
 10
5.7446439882
 20
5.2009561881
 30
0.0
 10
5.7198598586
 20
5.0925875185
 30
0.0
 10
5.6946449783
 20
4.9609331417
 30
0.0
 10
5.6775210668
 20
4.8500293281
 30
0.0
 10
5.6661825533
 20
4.7606353123
 30
0.0
 10
5.6588847376
 20
4.6932236027
 30
0.0
 10
5.6527670121
 20
4.6255772238
 30
0.0
 10
5.6478986789
 20
4.5577299401
 30
0.0
 10
5.6443799685
 20
4.4897303246
 30
0.0
 10
5.6424713708
 20
4.4443457161
 30
0.0
 10
5.6420741991
 20
4.4216319492
 30
0.0
  0
SPLINE
  5
23D
100
AcDbEntity
  8
0
100
AcDbSpline
 62
7
  6
CONTINUOUS
 70
0
 71
3
 72
9
 73
5
 74
0
 42
0.0000001
 43
0.0000001
 44
0.0000000001
 40
0.0
 40
0.0
 40
0.0
 40
0.0
 40
0.2404867909
 40
1.0
 40
1.0
 40
1.0
 40
1.0
 10
5.8692974747
 20
5.5187172074
 30
0.0
 10
5.8645707087
 20
5.5166562543
 30
0.0
 10
5.8456623497
 20
5.5067465643
 30
0.0
 10
5.8289126616
 20
5.4905373534
 30
0.0
 10
5.8225480383
 20
5.4755470169
 30
0.0
  0
SPLINE
  5
23E
100
AcDbEntity
  8
0
100
AcDbSpline
 62
7
  6
CONTINUOUS
 70
0
 71
3
 72
11
 73
7
 74
0
 42
0.0000001
 43
0.0000001
 44
0.0000000001
 40
0.0
 40
0.0
 40
0.0
 40
0.0
 40
0.2900046186
 40
0.5517209576
 40
0.7860981795
 40
1.0
 40
1.0
 40
1.0
 40
1.0
 10
5.8692974757
 20
5.5187171945
 30
0.0
 10
5.8707061446
 20
5.5180912576
 30
0.0
 10
5.8735036655
 20
5.5171417674
 30
0.0
 10
5.8776904843
 20
5.5166457013
 30
0.0
 10
5.8814711674
 20
5.5171691382
 30
0.0
 10
5.883690703
 20
5.5181255921
 30
0.0
 10
5.8846616274
 20
5.5187171908
 30
0.0
  0
SPLINE
  5
23F
100
AcDbEntity
  8
0
100
AcDbSpline
 62
7
  6
CONTINUOUS
 70
0
 71
3
 72
19
 73
15
 74
0
 42
0.0000001
 43
0.0000001
 44
0.0000000001
 40
0.0
 40
0.0
 40
0.0
 40
0.0
 40
0.1819448857
 40
0.3676833428
 40
0.5465193001
 40
0.7062822631
 40
0.7752562924
 40
0.8357336838
 40
0.8871203411
 40
0.9288239354
 40
0.9604514038
 40
0.9823989114
 40
0.9952893566
 40
1.0
 40
1.0
 40
1.0
 40
1.0
 10
5.2556640114
 20
4.421631886
 30
0.0
 10
5.2538726827
 20
4.4215854638
 30
0.0
 10
5.2502524537
 20
4.4215002555
 30
0.0
 10
5.2448708069
 20
4.4213997989
 30
0.0
 10
5.2397072044
 20
4.4213343917
 30
0.0
 10
5.235692909
 20
4.421311151
 30
0.0
 10
5.2328448738
 20
4.4213185253
 30
0.0
 10
5.2310630107
 20
4.4213347988
 30
0.0
 10
5.2295533953
 20
4.4213617216
 30
0.0
 10
5.2283183961
 20
4.4213963512
 30
0.0
 10
5.227398776
 20
4.4214427574
 30
0.0
 10
5.226707109
 20
4.4214874291
 30
0.0
 10
5.2263877378
 20
4.4215481261
 30
0.0
 10
5.2261475777
 20
4.4215854998
 30
0.0
 10
5.2261463756
 20
4.4216318782
 30
0.0
  0
SPLINE
  5
240
100
AcDbEntity
  8
0
100
AcDbSpline
 62
7
  6
CONTINUOUS
 70
0
 71
3
 72
14
 73
10
 74
0
 42
0.0000001
 43
0.0000001
 44
0.0000000001
 40
0.0
 40
0.0
 40
0.0
 40
0.0
 40
0.0519450096
 40
0.1210069726
 40
0.2162300328
 40
0.3389788606
 40
0.4867224575
 40
0.6520488635
 40
1.0
 40
1.0
 40
1.0
 40
1.0
 10
5.0470762208
 20
5.475546899
 30
0.0
 10
5.0472321585
 20
5.4750613049
 30
0.0
 10
5.0479797621
 20
5.4740525916
 30
0.0
 10
5.0499146566
 20
5.4730824127
 30
0.0
 10
5.0526851914
 20
5.4724897052
 30
0.0
 10
5.0562809809
 20
5.4722907639
 30
0.0
 10
5.0605592598
 20
5.4725363703
 30
0.0
 10
5.0669939351
 20
5.4734163451
 30
0.0
 10
5.0719099659
 20
5.4745922563
 30
0.0
 10
5.0751901704
 20
5.4755470174
 30
0.0
  0
SPLINE
  5
241
100
AcDbEntity
  8
0
100
AcDbSpline
 62
7
  6
CONTINUOUS
 70
0
 71
3
 72
21
 73
17
 74
0
 42
0.0000001
 43
0.0000001
 44
0.0000000001
 40
0.0
 40
0.0
 40
0.0
 40
0.0
 40
0.0304282748
 40
0.0609250955
 40
0.1221199997
 40
0.183575643
 40
0.2452812428
 40
0.3693895084
 40
0.4943437332
 40
0.6200226277
 40
0.6830944189
 40
0.746295068
 40
0.80960687
 40
0.8730075822
 40
0.9364789598
 40
1.0
 40
1.0
 40
1.0
 40
1.0
 10
5.0751901704
 20
5.4755470169
 30
0.0
 10
5.0785755784
 20
5.4652048461
 30
0.0
 10
5.085150021
 20
5.4444307779
 30
0.0
 10
5.0980650103
 20
5.4027097509
 30
0.0
 10
5.1135429823
 20
5.3501682292
 30
0.0
 10
5.1310829206
 20
5.2866087905
 30
0.0
 10
5.1530940424
 20
5.2009561083
 30
0.0
 10
5.1778784786
 20
5.0925874923
 30
0.0
 10
5.2030933328
 20
4.9609330752
 30
0.0
 10
5.2202170032
 20
4.8500291856
 30
0.0
 10
5.2315555816
 20
4.7606351787
 30
0.0
 10
5.2388538427
 20
4.6932235129
 30
0.0
 10
5.2449693102
 20
4.6255769691
 30
0.0
 10
5.2498440367
 20
4.5577301429
 30
0.0
 10
5.2533535702
 20
4.489730058
 30
0.0
 10
5.2552667055
 20
4.4443457123
 30
0.0
 10
5.2556640096
 20
4.4216319492
 30
0.0
  0
SPLINE
  5
242
100
AcDbEntity
  8
0
100
AcDbSpline
 62
7
  6
CONTINUOUS
 70
0
 71
3
 72
12
 73
8
 74
0
 42
0.0000001
 43
0.0000001
 44
0.0000000001
 40
0.0
 40
0.0
 40
0.0
 40
0.0
 40
0.2379929405
 40
0.4821758111
 40
0.6073651298
 40
0.7352226795
 40
1.0
 40
1.0
 40
1.0
 40
1.0
 10
5.0284407341
 20
5.5187172074
 30
0.0
 10
5.0331670567
 20
5.5166549896
 30
0.0
 10
5.0424400304
 20
5.5117626174
 30
0.0
 10
5.0531710591
 20
5.5040492687
 30
0.0
 10
5.0610046336
 20
5.4966228147
 30
0.0
 10
5.0683292436
 20
5.4881230921
 30
0.0
 10
5.0729622084
 20
5.4808337047
 30
0.0
 10
5.0751901704
 20
5.4755470169
 30
0.0
  0
ENDSEC
  0
SECTION
  2
OBJECTS
  0
DICTIONARY
  5
C
100
AcDbDictionary
280
0
281
1
  3
ACAD_GROUP
350
D
  3
ACAD_MLINESTYLE
350
17
  3
ACAD_LAYOUT
350
1A
  3
ACAD_PLOTSETTINGS
350
19
  3
ACAD_PLOTSTYLENAME
350
E
  0
DICTIONARY
  5
D
102
{ACAD_REACTORS
330
C
102
}
100
AcDbDictionary
280
0
281
1
  0
ACDBDICTIONARYWDFLT
  5
E
102
{ACAD_REACTORS
330
C
102
}
100
AcDbDictionary
281
1
  3
Normal
350
F
100
AcDbDictionaryWithDefault
340
F
  0
DICTIONARY
  5
17
102
{ACAD_REACTORS
330
C
102
}
100
AcDbDictionary
280
0
281
1
  3
Standard
350
18
  0
DICTIONARY
  5
19
102
{ACAD_REACTORS
330
C
102
}
100
AcDbDictionary
281
1
  0
DICTIONARY
  5
1A
102
{ACAD_REACTORS
330
C
102
}
100
AcDbDictionary
281
1
  3
Model
350
243
  3
Layout1
350
244
  0
ACDBPLACEHOLDER
  5
F
102
{ACAD_REACTORS
330
E
102
}
  0
MLINESTYLE
  5
18
102
{ACAD_REACTORS
330
17
102
}
100
AcDbMlineStyle
  2
STANDARD
 70
0
  3

 62
256
 51
90.0
 52
90.0
 71
2
 49
0.5
 62
256
  6
BYLAYER
 49
-0.5
 62
256
  6
BYLAYER
  0
LAYOUT
  5
243
102
{ACAD_REACTORS
330
1A
102
}
100
AcDbPlotSettings
  1

  2
none_device
  4
ANSI_A_(11.00_x_8.50_Inches)
  6

 40
0.0
 41
0.0
 42
0.0
 43
0.0
 44
279.4
 45
215.9
 46
0.0
 47
0.0
 48
0.0
 49
0.0
140
0.0
141
0.0
142
1.0
143
1.0
 70
1024
 72
0
 73
0
 74
0
  7

 75
0
147
1.0
148
0.0
149
0.0
100
AcDbLayout
  1
Model
 70
0
 71
0
 10
0.0
 20
0.0
 11
11.0
 21
8.5
 12
0.0
 22
0.0
 32
0.0
 14
0.0
 24
0.0
 34
0.0
 15
0.0
 25
0.0
 35
0.0
146
0.0
 13
0.0
 23
0.0
 33
0.0
 16
1.0
 26
0.0
 36
0.0
 17
0.0
 27
1.0
 37
0.0
 76
0
330
201
345
0
346
0
  0
LAYOUT
  5
244
102
{ACAD_REACTORS
330
1A
102
}
100
AcDbPlotSettings
  1

  2
none_device
  4
ANSI_A_(11.00_x_8.50_Inches)
  6

 40
0.0
 41
0.0
 42
0.0
 43
0.0
 44
279.4
 45
215.9
 46
0.0
 47
0.0
 48
0.0
 49
0.0
140
0.0
141
0.0
142
1.0
143
1.0
 70
0
 72
0
 73
0
 74
0
  7

 75
0
147
1.0
148
0.0
149
0.0
100
AcDbLayout
  1
Layout1
 70
0
 71
1
 10
0.0
 20
0.0
 11
11.0
 21
8.5
 12
0.0
 22
0.0
 32
0.0
 14
0.0
 24
0.0
 34
0.0
 15
0.0
 25
0.0
 35
0.0
146
0.0
 13
0.0
 23
0.0
 33
0.0
 16
1.0
 26
0.0
 36
0.0
 17
0.0
 27
1.0
 37
0.0
 76
0
330
202
345
0
346
0
  0
ENDSEC
  0
EOF
