999
DXF file: 81-27_top.dxf
999
Pro/ENGINEER 2013150 by Parametric Technology Corporation
  0
SECTION
  2
HEADER
  9
$ACADVER
  1
AC1021
  9
$DWGCODEPAGE
  3
ANSI_1252
  9
$EXTMAX
 10
11.0
 20
8.5
 30
0.0
  9
$EXTMIN
 10
0.0
 20
0.0
 30
0.0
  9
$LIMMIN
 10
0.0
 20
0.0
  9
$LIMMAX
 10
11.0
 20
8.5
  9
$VIEWCTR
 10
5.5
 20
4.25
  9
$VIEWSIZE
 40
8.5
  9
$CLAYER
  8
0
  9
$LTSCALE
 40
0.605
  9
$CELTYPE
  6
BYLAYER
  9
$DIMSCALE
 40
1.0
  9
$DIMASZ
 40
0.1
  9
$DIMEXO
 40
0.0625
  9
$DIMDLI
 40
0.418
  9
$DIMEXE
 40
0.125
  9
$DIMCEN
 40
0.099
  9
$DIMLFAC
 40
1.0
  9
$DIMBLK
  1
_FILLED
  9
$DIMTXT
 40
0.08
  9
$DIMTOL
 70
1
  9
$DIMLIM
 70
0
  9
$DIMTFAC
 40
1.0
  9
$DIMTP
 40
0.001
  9
$DIMTM
 40
0.001
  9
$DIMGAP
 40
0.09
  9
$DIMDSEP
 70
46
  9
$PDMODE
 70
3
  9
$PDSIZE
 40
0.06
  9
$HANDSEED
  5
248
  9
$TILEMODE
 70
1
  9
$MEASUREMENT
 70
0
  9
$INSUNITS
 70
1
  0
ENDSEC
  0
SECTION
  2
CLASSES
  0
CLASS
  1
ACDBDICTIONARYWDFLT
  2
AcDbDictionaryWithDefault
  3
AutoCAD 2000
 90
0
 91
1
280
0
281
0
  0
CLASS
  1
ACDBPLACEHOLDER
  2
AcDbPlaceHolder
  3
AutoCAD 2000
 90
0
 91
1
280
0
281
0
  0
CLASS
  1
LAYOUT
  2
AcDbLayout
  3
AutoCAD 2000
 90
0
 91
0
280
0
281
0
  0
ENDSEC
  0
SECTION
  2
TABLES
  0
TABLE
  2
VPORT
  5
8
100
AcDbSymbolTable
 70
2
  0
VPORT
  5
1F4
100
AcDbSymbolTableRecord
100
AcDbViewportTableRecord
  2
*ACTIVE
 70
0
 10
0.0
 20
0.0
 11
1.0
 21
1.0
 12
5.5
 22
4.25
 13
0.0
 23
0.0
 14
1.0
 24
1.0
 15
0.0
 25
0.0
 16
0.0
 26
0.0
 36
1.0
 17
0.0
 27
0.0
 37
0.0
 40
8.5
 41
1.2941176471
 42
50.0
 43
0.0
 44
0.0
 50
0.0
 51
0.0
 71
0
 72
100
 73
1
 74
1
 75
0
 76
0
 77
0
 78
0
  0
ENDTAB
  0
TABLE
  2
LTYPE
  5
5
100
AcDbSymbolTable
 70
6
  0
LTYPE
  5
14
100
AcDbSymbolTableRecord
100
AcDbLinetypeTableRecord
  2
BYBLOCK
 70
0
  3

 72
65
 73
0
 40
0.0
  0
LTYPE
  5
15
100
AcDbSymbolTableRecord
100
AcDbLinetypeTableRecord
  2
BYLAYER
 70
0
  3

 72
65
 73
0
 40
0.0
  0
LTYPE
  5
16
100
AcDbSymbolTableRecord
100
AcDbLinetypeTableRecord
  2
CONTINUOUS
 70
64
  3
Solid line
 72
65
 73
0
 40
0.0
  0
LTYPE
  5
1F5
100
AcDbSymbolTableRecord
100
AcDbLinetypeTableRecord
  2
CENTER
 70
64
  3
____ _ ____ _ ____ _ ____ _ ____ _ ____ _ ____
 72
65
 73
4
 40
0.6
 49
0.375
 74
0
 49
-0.075
 74
0
 49
0.075
 74
0
 49
-0.075
 74
0
  0
LTYPE
  5
1F6
100
AcDbSymbolTableRecord
100
AcDbLinetypeTableRecord
  2
HIDDEN
 70
64
  3
- - - - - - - - - - - - - - - - - - - -
 72
65
 73
2
 40
0.2
 49
0.1
 74
0
 49
-0.1
 74
0
  0
LTYPE
  5
1F7
100
AcDbSymbolTableRecord
100
AcDbLinetypeTableRecord
  2
PHANTOM
 70
64
  3
_____ _ _ _____ _ _ _____ _ _ _____
 72
65
 73
6
 40
0.8
 49
0.45
 74
0
 49
-0.05
 74
0
 49
0.1
 74
0
 49
-0.05
 74
0
 49
0.1
 74
0
 49
-0.05
 74
0
  0
LTYPE
  5
1F8
100
AcDbSymbolTableRecord
100
AcDbLinetypeTableRecord
  2
DOT
 70
64
  3
. . . . . . . . . . . . . . . . . . . .
 72
65
 73
2
 40
0.2
 49
0.1
 74
0
 49
-0.1
 74
0
  0
LTYPE
  5
1F9
100
AcDbSymbolTableRecord
100
AcDbLinetypeTableRecord
  2
DASHED
 70
64
  3
- - - - - - - - - - - - - - - - - - - -
 72
65
 73
2
 40
0.2
 49
0.1
 74
0
 49
-0.1
 74
0
  0
ENDTAB
  0
TABLE
  2
LAYER
  5
2
100
AcDbSymbolTable
 70
36
  0
LAYER
  5
10
100
AcDbSymbolTableRecord
100
AcDbLayerTableRecord
  2
0
 70
0
 62
7
  6
CONTINUOUS
370
-3
390
F
  0
LAYER
  5
1FA
100
AcDbSymbolTableRecord
100
AcDbLayerTableRecord
  2
DEFAULT_1
 70
0
 62
7
  6
CENTER
370
-3
390
F
  0
LAYER
  5
1FB
100
AcDbSymbolTableRecord
100
AcDbLayerTableRecord
  2
DEFAULT_2
 70
0
 62
8
  6
HIDDEN
370
-3
390
F
  0
LAYER
  5
1FC
100
AcDbSymbolTableRecord
100
AcDbLayerTableRecord
  2
DEFAULT_3
 70
0
 62
7
  6
PHANTOM
370
-3
390
F
  0
LAYER
  5
1FD
100
AcDbSymbolTableRecord
100
AcDbLayerTableRecord
  2
DEFAULT_DATUM_CURVES
 70
0
 62
7
  6
CONTINUOUS
370
-3
390
F
  0
ENDTAB
  0
TABLE
  2
STYLE
  5
3
100
AcDbSymbolTable
 70
1
  0
STYLE
  5
11
100
AcDbSymbolTableRecord
100
AcDbTextStyleTableRecord
  2
STANDARD
 70
0
 40
0.0
 41
0.8
 50
0.0
 71
0
 42
0.2
  3
txt
  4

  0
STYLE
  5
1FE
100
AcDbSymbolTableRecord
100
AcDbTextStyleTableRecord
  2
TEXTSTYLE_1
 70
0
 40
0.0
 41
0.8
 50
0.0
 71
0
 42
0.2
  3
gdt
  4

  0
ENDTAB
  0
TABLE
  2
VIEW
  5
6
100
AcDbSymbolTable
 70
0
  0
ENDTAB
  0
TABLE
  2
UCS
  5
7
100
AcDbSymbolTable
 70
0
  0
ENDTAB
  0
TABLE
  2
APPID
  5
9
100
AcDbSymbolTable
 70
1
  0
APPID
  5
1FF
100
AcDbSymbolTableRecord
100
AcDbRegAppTableRecord
  2
ACAD
 70
0
  0
ENDTAB
  0
TABLE
  2
BLOCK_RECORD
  5
1
100
AcDbSymbolTable
 70
0
  0
BLOCK_RECORD
  5
200
100
AcDbSymbolTableRecord
100
AcDbBlockTableRecord
  2
*Model_Space
  0
BLOCK_RECORD
  5
201
100
AcDbSymbolTableRecord
100
AcDbBlockTableRecord
  2
*Paper_Space
  0
ENDTAB
  0
TABLE
  2
DIMSTYLE
  5
A
100
AcDbSymbolTable
 70
1
100
AcDbDimStyleTable
 71
0
  0
DIMSTYLE
105
202
100
AcDbSymbolTableRecord
100
AcDbDimStyleTableRecord
  2
STANDARD
 70
0
  3

  4

 40
1.0
 41
0.1
 42
0.0625
 43
0.38
 44
0.125
 45
0.0
 46
0.0
 47
0.001
 48
0.001
140
0.08
141
0.09
142
0.0
143
25.4
144
1.0
145
0.0
146
1.0
147
0.09
 71
1.0
 72
0.0
 73
1
 74
1
 75
0
 76
0
 77
0
 78
4
170
0
171
2
172
0
173
0
174
0
175
0
176
0
177
0
178
0
270
2
271
3
272
3
273
2
274
2
275
0
280
0
281
0
282
0
283
1
284
4
285
0
286
0
287
3
288
0
340
11
278
46
  0
ENDTAB
  0
ENDSEC
  0
SECTION
  2
BLOCKS
  0
BLOCK
  5
20
100
AcDbEntity
  8
0
100
AcDbBlockBegin
  2
*Model_Space
 70
0
 10
0.0
 20
0.0
 30
0.0
  3
*Model_Space
  1

  0
ENDBLK
  5
21
100
AcDbEntity
  8
0
100
AcDbBlockEnd
  0
BLOCK
  5
1C
100
AcDbEntity
  8
0
100
AcDbBlockBegin
  2
*Paper_Space
 70
0
 10
0.0
 20
0.0
 30
0.0
  3
*Paper_Space
  1

  0
ENDBLK
  5
1D
100
AcDbEntity
  8
0
100
AcDbBlockEnd
  0
ENDSEC
  0
SECTION
  2
ENTITIES
  0
LINE
  5
203
100
AcDbEntity
  8
0
100
AcDbLine
 62
7
  6
CONTINUOUS
 10
0.0
 20
0.0
 11
0.0
 21
8.5
  0
LINE
  5
204
100
AcDbEntity
  8
0
100
AcDbLine
 62
7
  6
CONTINUOUS
 10
0.0
 20
0.0
 11
11.0
 21
0.0
  0
LINE
  5
205
100
AcDbEntity
  8
0
100
AcDbLine
 62
7
  6
CONTINUOUS
 10
0.0
 20
8.5
 11
11.0
 21
8.5
  0
LINE
  5
206
100
AcDbEntity
  8
0
100
AcDbLine
 62
7
  6
CONTINUOUS
 10
11.0
 20
0.0
 11
11.0
 21
8.5
  0
LINE
  5
207
100
AcDbEntity
  8
0
100
AcDbLine
 62
7
  6
CONTINUOUS
 10
2.2326303507
 20
2.2231458103
 11
2.2326303507
 21
2.9908623458
  0
LINE
  5
208
100
AcDbEntity
  8
0
100
AcDbLine
 62
9
  6
CONTINUOUS
 10
2.2891335483
 20
3.1877127395
 11
2.2891335469
 21
3.2452369347
  0
LINE
  5
209
100
AcDbEntity
  8
0
100
AcDbLine
 62
9
  6
CONTINUOUS
 10
2.2916854688
 20
3.0499174639
 11
2.2916854688
 21
2.1640906922
  0
LINE
  5
20A
100
AcDbEntity
  8
0
100
AcDbLine
 62
7
  6
CONTINUOUS
 10
2.3408980672
 20
3.0499174639
 11
2.3408980672
 21
3.1877127395
  0
LINE
  5
20B
100
AcDbEntity
  8
0
100
AcDbLine
 62
9
  6
CONTINUOUS
 10
2.3999531853
 20
3.1877127395
 11
2.3999531853
 21
3.0499174639
  0
LINE
  5
20C
100
AcDbEntity
  8
0
100
AcDbLine
 62
9
  6
CONTINUOUS
 10
2.9511342877
 20
3.0499174639
 11
2.9511342877
 21
3.1877127395
  0
LINE
  5
20D
100
AcDbEntity
  8
0
100
AcDbLine
 62
7
  6
CONTINUOUS
 10
3.0101894058
 20
3.1877127395
 11
3.0101894058
 21
3.0499174639
  0
LINE
  5
20E
100
AcDbEntity
  8
0
100
AcDbLine
 62
9
  6
CONTINUOUS
 10
3.0594020042
 20
2.1640906922
 11
3.0594020042
 21
3.0499174639
  0
LINE
  5
20F
100
AcDbEntity
  8
0
100
AcDbLine
 62
9
  6
CONTINUOUS
 10
3.0619539259
 20
3.1877127395
 11
3.0619539259
 21
3.2452369347
  0
LINE
  5
210
100
AcDbEntity
  8
0
100
AcDbLine
 62
7
  6
CONTINUOUS
 10
3.1184571223
 20
2.9908623458
 11
3.1184571223
 21
2.2231458103
  0
LINE
  5
211
100
AcDbEntity
  8
0
100
AcDbLine
 62
7
  6
CONTINUOUS
 10
3.0594020042
 20
2.1640906922
 11
2.2916854688
 21
2.1640906922
  0
LINE
  5
212
100
AcDbEntity
  8
0
100
AcDbLine
 62
9
  6
CONTINUOUS
 10
2.2326303507
 20
2.2231458103
 11
3.1184571223
 21
2.2231458103
  0
LINE
  5
213
100
AcDbEntity
  8
0
100
AcDbLine
 62
7
  6
CONTINUOUS
 10
9.1578272011
 20
2.3255080151
 11
3.1184571223
 21
2.3255080151
  0
LINE
  5
214
100
AcDbEntity
  8
0
100
AcDbLine
 62
9
  6
CONTINUOUS
 10
3.1184571223
 20
2.3885001411
 11
9.220819327
 21
2.3885001411
  0
LINE
  5
215
100
AcDbEntity
  8
0
100
AcDbLine
 62
7
  6
CONTINUOUS
 10
9.0239689333
 20
2.390468645
 11
8.6696382247
 21
2.390468645
  0
LINE
  5
216
100
AcDbEntity
  8
0
100
AcDbLine
 62
9
  6
CONTINUOUS
 10
8.6302681459
 20
2.4298387237
 11
9.0633390121
 21
2.4298387237
  0
LINE
  5
217
100
AcDbEntity
  8
0
100
AcDbLine
 62
9
  6
CONTINUOUS
 10
9.0633390121
 20
2.7841694324
 11
8.6302681459
 21
2.7841694324
  0
LINE
  5
218
100
AcDbEntity
  8
0
100
AcDbLine
 62
7
  6
CONTINUOUS
 10
8.6696382247
 20
2.8235395111
 11
9.0239689333
 21
2.8235395111
  0
LINE
  5
219
100
AcDbEntity
  8
0
100
AcDbLine
 62
9
  6
CONTINUOUS
 10
9.220819327
 20
2.8255080151
 11
3.1184571223
 21
2.8255080151
  0
LINE
  5
21A
100
AcDbEntity
  8
0
100
AcDbLine
 62
7
  6
CONTINUOUS
 10
9.1578272011
 20
2.8885001411
 11
3.1184571223
 21
2.8885001411
  0
LINE
  5
21B
100
AcDbEntity
  8
0
100
AcDbLine
 62
9
  6
CONTINUOUS
 10
3.1184571223
 20
2.9908623458
 11
2.2326303507
 21
2.9908623458
  0
LINE
  5
21C
100
AcDbEntity
  8
0
100
AcDbLine
 62
7
  6
CONTINUOUS
 10
2.2916854688
 20
3.0499174639
 11
3.0594020042
 21
3.0499174639
  0
LINE
  5
21D
100
AcDbEntity
  8
0
100
AcDbLine
 62
7
  6
CONTINUOUS
 10
3.0619539241
 20
3.1877127395
 11
2.2891335484
 21
3.1877127395
  0
LINE
  5
21E
100
AcDbEntity
  8
0
100
AcDbLine
 62
9
  6
CONTINUOUS
 10
3.0619539259
 20
3.2452369347
 11
2.2891335469
 21
3.2452369347
  0
LINE
  5
21F
100
AcDbEntity
  8
0
100
AcDbLine
 62
9
  6
CONTINUOUS
 10
3.4229016044
 20
5.3530670702
 11
1.9281858686
 21
5.3530670702
  0
LINE
  5
220
100
AcDbEntity
  8
0
100
AcDbLine
 62
9
  6
CONTINUOUS
 10
3.516400477
 20
5.4394074511
 11
1.834686996
 21
5.4394074511
  0
LINE
  5
221
100
AcDbEntity
  8
0
100
AcDbLine
 62
7
  6
CONTINUOUS
 10
1.6755438864
 20
5.6680277001
 11
3.6755435942
 21
5.6680277001
  0
LINE
  5
222
100
AcDbEntity
  8
0
100
AcDbLine
 62
7
  6
CONTINUOUS
 10
8.6302681459
 20
2.4298387237
 11
8.6302681459
 21
2.7841694324
  0
LINE
  5
223
100
AcDbEntity
  8
0
100
AcDbLine
 62
9
  6
CONTINUOUS
 10
8.6696382247
 20
2.8235395111
 11
8.6696382247
 21
2.390468645
  0
LINE
  5
224
100
AcDbEntity
  8
0
100
AcDbLine
 62
9
  6
CONTINUOUS
 10
9.0239689333
 20
2.390468645
 11
9.0239689333
 21
2.8235395111
  0
LINE
  5
225
100
AcDbEntity
  8
0
100
AcDbLine
 62
7
  6
CONTINUOUS
 10
9.0633390121
 20
2.7841694324
 11
9.0633390121
 21
2.4298387237
  0
LINE
  5
226
100
AcDbEntity
  8
0
100
AcDbLine
 62
9
  6
CONTINUOUS
 10
9.1578272011
 20
2.3255080151
 11
9.1578272011
 21
2.8885001411
  0
LINE
  5
227
100
AcDbEntity
  8
0
100
AcDbLine
 62
7
  6
CONTINUOUS
 10
9.220819327
 20
2.8255080151
 11
9.220819327
 21
2.3885001411
  0
ARC
  5
228
100
AcDbEntity
  8
0
100
AcDbCircle
 62
7
  6
CONTINUOUS
 10
-5.3013676438
 20
3.0499100452
 40
7.5339983741
100
AcDbArc
 50
1.4856201258
 51
17.8003921332
  0
ARC
  5
229
100
AcDbEntity
  8
0
100
AcDbCircle
 62
7
  6
CONTINUOUS
 10
2.2916854688
 20
2.2231458103
 40
0.0590551181
100
AcDbArc
 50
180.0
 51
270.0
  0
ARC
  5
22A
100
AcDbEntity
  8
0
100
AcDbCircle
 62
7
  6
CONTINUOUS
 10
2.2916854688
 20
2.9908623458
 40
0.0590551181
100
AcDbArc
 50
90.0
 51
180.0
  0
ARC
  5
22B
100
AcDbEntity
  8
0
100
AcDbCircle
 62
7
  6
CONTINUOUS
 10
2.2891335477
 20
3.2467678576
 40
0.0590551181
100
AcDbArc
 50
181.485496083
 51
270.00000064
  0
ARC
  5
22C
100
AcDbEntity
  8
0
100
AcDbCircle
 62
7
  6
CONTINUOUS
 10
1.9432692042
 20
5.6680329074
 40
0.2677249237
100
AcDbArc
 50
180.0011144091
 51
238.6444030317
  0
ARC
  5
22D
100
AcDbEntity
  8
0
100
AcDbCircle
 62
7
  6
CONTINUOUS
 10
1.7220002233
 20
5.3049123915
 40
0.1574997588
100
AcDbArc
 50
17.8029576336
 51
58.6427407806
  0
ARC
  5
22E
100
AcDbEntity
  8
0
100
AcDbCircle
 62
7
  6
CONTINUOUS
 10
3.0594020042
 20
2.2231458103
 40
0.0590551181
100
AcDbArc
 50
270.0
 51
360.0
  0
ARC
  5
22F
100
AcDbEntity
  8
0
100
AcDbCircle
 62
7
  6
CONTINUOUS
 10
3.0594020042
 20
2.9908623458
 40
0.0590551181
100
AcDbArc
 50
0.0
 51
90.0
  0
ARC
  5
230
100
AcDbEntity
  8
0
100
AcDbCircle
 62
7
  6
CONTINUOUS
 10
3.0619539253
 20
3.2467678576
 40
0.0590551181
100
AcDbArc
 50
269.9999988027
 51
358.5145040663
  0
ARC
  5
231
100
AcDbEntity
  8
0
100
AcDbCircle
 62
7
  6
CONTINUOUS
 10
9.1578272011
 20
2.3885001411
 40
0.062992126
100
AcDbArc
 50
270.0
 51
360.0
  0
ARC
  5
232
100
AcDbEntity
  8
0
100
AcDbCircle
 62
7
  6
CONTINUOUS
 10
9.0239689333
 20
2.4298387237
 40
0.0393700787
100
AcDbArc
 50
270.0
 51
360.0
  0
ARC
  5
233
100
AcDbEntity
  8
0
100
AcDbCircle
 62
7
  6
CONTINUOUS
 10
8.6696382247
 20
2.4298387237
 40
0.0393700787
100
AcDbArc
 50
180.0
 51
270.0
  0
ARC
  5
234
100
AcDbEntity
  8
0
100
AcDbCircle
 62
7
  6
CONTINUOUS
 10
10.6524551168
 20
3.0499100452
 40
7.5339983742
100
AcDbArc
 50
162.1996078668
 51
178.5143798731
  0
ARC
  5
235
100
AcDbEntity
  8
0
100
AcDbCircle
 62
7
  6
CONTINUOUS
 10
9.1578272011
 20
2.8255080151
 40
0.062992126
100
AcDbArc
 50
0.0
 51
90.0
  0
ARC
  5
236
100
AcDbEntity
  8
0
100
AcDbCircle
 62
7
  6
CONTINUOUS
 10
8.6696382247
 20
2.7841694324
 40
0.0393700787
100
AcDbArc
 50
90.0
 51
180.0
  0
ARC
  5
237
100
AcDbEntity
  8
0
100
AcDbCircle
 62
7
  6
CONTINUOUS
 10
9.0239689333
 20
2.7841694324
 40
0.0393700787
100
AcDbArc
 50
0.0
 51
90.0
  0
ARC
  5
238
100
AcDbEntity
  8
0
100
AcDbCircle
 62
7
  6
CONTINUOUS
 10
3.4078182688
 20
5.6680329074
 40
0.2677249237
100
AcDbArc
 50
301.355596974
 51
359.9988855907
  0
ARC
  5
239
100
AcDbEntity
  8
0
100
AcDbCircle
 62
7
  6
CONTINUOUS
 10
3.6290872497
 20
5.3049123915
 40
0.1574997588
100
AcDbArc
 50
121.3572592148
 51
162.1970423663
  0
SPLINE
  5
23A
100
AcDbEntity
  8
0
100
AcDbSpline
 62
9
  6
CONTINUOUS
 70
0
 71
3
 72
14
 73
10
 74
0
 42
0.0000001
 43
0.0000001
 44
0.0000000001
 40
0.0
 40
0.0
 40
0.0
 40
0.0
 40
0.1445616082
 40
0.2861434959
 40
0.551664136
 40
0.6740557842
 40
0.7891625076
 40
0.8975814866
 40
1.0
 40
1.0
 40
1.0
 40
1.0
 10
3.6164887467
 20
5.6680277001
 30
0.0
 10
3.6164884516
 20
5.6556061834
 30
0.0
 10
3.6151394394
 20
5.6309952858
 30
0.0
 10
3.6075231621
 20
5.584146507
 30
0.0
 10
3.5929152067
 20
5.5405910677
 30
0.0
 10
3.572494944
 20
5.5024146934
 30
0.0
 10
3.5554655888
 20
5.4779630529
 30
0.0
 10
3.5368755239
 20
5.4569447912
 30
0.0
 10
3.5233550705
 20
5.4447994425
 30
0.0
 10
3.5163993262
 20
5.439408353
 30
0.0
  0
SPLINE
  5
23B
100
AcDbEntity
  8
0
100
AcDbSpline
 62
9
  6
CONTINUOUS
 70
0
 71
3
 72
14
 73
10
 74
0
 42
0.0000001
 43
0.0000001
 44
0.0000000001
 40
0.0
 40
0.0
 40
0.0
 40
0.0
 40
0.10241868
 40
0.2108378041
 40
0.3259446193
 40
0.4483363063
 40
0.713856836
 40
0.8554385809
 40
1.0
 40
1.0
 40
1.0
 40
1.0
 10
1.8346887744
 20
5.4394085714
 30
0.0
 10
1.8277330334
 20
5.4447996728
 30
0.0
 10
1.8142125745
 20
5.4569450274
 30
0.0
 10
1.7956225696
 20
5.4779633468
 30
0.0
 10
1.7785932004
 20
5.5024149634
 30
0.0
 10
1.75817297
 20
5.5405913055
 30
0.0
 10
1.7435650415
 20
5.5841466796
 30
0.0
 10
1.7359487885
 20
5.6309953714
 30
0.0
 10
1.7345997824
 20
5.6556062133
 30
0.0
 10
1.7345994875
 20
5.6680277001
 30
0.0
  0
SPLINE
  5
23C
100
AcDbEntity
  8
0
100
AcDbSpline
 62
9
  6
CONTINUOUS
 70
0
 71
3
 72
15
 73
11
 74
0
 42
0.0000001
 43
0.0000001
 44
0.0000000001
 40
0.0
 40
0.0
 40
0.0
 40
0.0
 40
0.1740129933
 40
0.3480416112
 40
0.5133450774
 40
0.6610681741
 40
0.7837999701
 40
0.8790098177
 40
0.948062198
 40
1.0
 40
1.0
 40
1.0
 40
1.0
 10
3.4229016044
 20
5.3530670711
 30
0.0
 10
3.4261829698
 20
5.3521119721
 30
0.0
 10
3.4327967888
 20
5.3503717955
 30
0.0
 10
3.4426780709
 20
5.348340059
 30
0.0
 10
3.4521638014
 20
5.3470463983
 30
0.0
 10
3.4607199047
 20
5.3465544339
 30
0.0
 10
3.4679115773
 20
5.3469524712
 30
0.0
 10
3.4734526295
 20
5.3481378576
 30
0.0
 10
3.4773224215
 20
5.3500782204
 30
0.0
 10
3.4788176283
 20
5.3520956461
 30
0.0
 10
3.4791295037
 20
5.3530668343
 30
0.0
  0
SPLINE
  5
23D
100
AcDbEntity
  8
0
100
AcDbSpline
 62
9
  6
CONTINUOUS
 70
0
 71
3
 72
20
 73
16
 74
0
 42
0.0000001
 43
0.0000001
 44
0.0000000001
 40
0.0
 40
0.0
 40
0.0
 40
0.0
 40
0.0015352169
 40
0.0048337596
 40
0.0177226083
 40
0.0396673992
 40
0.0712909533
 40
0.1129893873
 40
0.1643696868
 40
0.2248395963
 40
0.2938050929
 40
0.4535482935
 40
0.6323621309
 40
0.8180776159
 40
1.0
 40
1.0
 40
1.0
 40
1.0
 10
3.1209891941
 20
3.2452367927
 30
0.0
 10
3.1209884105
 20
3.2452065592
 30
0.0
 10
3.1208910858
 20
3.2451426758
 30
0.0
 10
3.1205731235
 20
3.2450588562
 30
0.0
 10
3.119806681
 20
3.2449520567
 30
0.0
 10
3.1185136762
 20
3.2448565546
 30
0.0
 10
3.1166330221
 20
3.2447665659
 30
0.0
 10
3.1141796879
 20
3.2446961704
 30
0.0
 10
3.111154354
 20
3.244642741
 30
0.0
 10
3.1075927055
 20
3.2446100522
 30
0.0
 10
3.101895768
 20
3.2445953628
 30
0.0
 10
3.0938676812
 20
3.2446418099
 30
0.0
 10
3.0835402906
 20
3.2447726368
 30
0.0
 10
3.0727770512
 20
3.2449735463
 30
0.0
 10
3.0655365811
 20
3.2451439638
 30
0.0
 10
3.0619539238
 20
3.2452368082
 30
0.0
  0
SPLINE
  5
23E
100
AcDbEntity
  8
0
100
AcDbSpline
 62
9
  6
CONTINUOUS
 70
0
 71
3
 72
27
 73
23
 74
0
 42
0.0000001
 43
0.0000001
 44
0.0000000001
 40
0.0
 40
0.0
 40
0.0
 40
0.0
 40
0.0152055169
 40
0.0304280005
 40
0.0456677602
 40
0.0609245251
 40
0.0914885421
 40
0.1221192059
 40
0.1835740866
 40
0.2452789212
 40
0.3072218945
 40
0.3693904711
 40
0.4317707424
 40
0.4943482279
 40
0.6200255459
 40
0.683096525
 40
0.7462964342
 40
0.8096075084
 40
0.8730073376
 40
0.9364781007
 40
0.9682355002
 40
1.0
 40
1.0
 40
1.0
 40
1.0
 10
3.4229016044
 20
5.3530670702
 30
0.0
 10
3.4195188031
 20
5.3427303932
 30
0.0
 10
3.4128796311
 20
5.3220030256
 30
0.0
 10
3.4030395481
 20
5.290855397
 30
0.0
 10
3.3933053864
 20
5.2596359343
 30
0.0
 10
3.3805101208
 20
5.2178770108
 30
0.0
 10
3.3648344739
 20
5.1654873833
 30
0.0
 10
3.3403654357
 20
5.0812397915
 30
0.0
 10
3.3111219588
 20
4.9751890685
 30
0.0
 10
3.2781552034
 20
4.8469526781
 30
0.0
 10
3.247387206
 20
4.7176458136
 30
0.0
 10
3.2187828908
 20
4.5873489983
 30
0.0
 10
3.1924124347
 20
4.4561176319
 30
0.0
 10
3.1602962794
 20
4.2797373727
 30
0.0
 10
3.1328460137
 20
4.1020314664
 30
0.0
 10
3.1101708782
 20
3.9232436839
 30
0.0
 10
3.0955752084
 20
3.7884203145
 30
0.0
 10
3.0833384828
 20
3.6531271688
 30
0.0
 10
3.0736069637
 20
3.5174341062
 30
0.0
 10
3.0677274784
 20
3.4041188972
 30
0.0
 10
3.0637238386
 20
3.3133724848
 30
0.0
 10
3.0623511523
 20
3.2679538258
 30
0.0
 10
3.0619539259
 20
3.2452369347
 30
0.0
  0
SPLINE
  5
23F
100
AcDbEntity
  8
0
100
AcDbSpline
 62
9
  6
CONTINUOUS
 70
0
 71
3
 72
12
 73
8
 74
0
 42
0.0000001
 43
0.0000001
 44
0.0000000001
 40
0.0
 40
0.0
 40
0.0
 40
0.0
 40
0.2379174895
 40
0.4203830478
 40
0.6072254116
 40
0.8000915644
 40
1.0
 40
1.0
 40
1.0
 40
1.0
 10
3.516400477
 20
5.4394074511
 30
0.0
 10
3.5069469451
 20
5.4352855449
 30
0.0
 10
3.4907666978
 20
5.4267432168
 30
0.0
 10
3.469087938
 20
5.4117339388
 30
0.0
 10
3.4509290953
 20
5.3953502939
 30
0.0
 10
3.4349348679
 20
5.3758769982
 30
0.0
 10
3.4262882
 20
5.3610433802
 30
0.0
 10
3.4229016044
 20
5.3530670702
 30
0.0
  0
SPLINE
  5
240
100
AcDbEntity
  8
0
100
AcDbSpline
 62
9
  6
CONTINUOUS
 70
0
 71
3
 72
11
 73
7
 74
0
 42
0.0000001
 43
0.0000001
 44
0.0000000001
 40
0.0
 40
0.0
 40
0.0
 40
0.0
 40
0.2900046186
 40
0.5517209576
 40
0.7860981795
 40
1.0
 40
1.0
 40
1.0
 40
1.0
 10
3.5164004792
 20
5.4394074254
 30
0.0
 10
3.519217817
 20
5.4381555516
 30
0.0
 10
3.5248128587
 20
5.4362565712
 30
0.0
 10
3.5331864963
 20
5.4352644388
 30
0.0
 10
3.5407478625
 20
5.4363113128
 30
0.0
 10
3.5451869338
 20
5.4382242206
 30
0.0
 10
3.5471287826
 20
5.4394074179
 30
0.0
  0
SPLINE
  5
241
100
AcDbEntity
  8
0
100
AcDbSpline
 62
9
  6
CONTINUOUS
 70
0
 71
3
 72
20
 73
16
 74
0
 42
0.0000001
 43
0.0000001
 44
0.0000000001
 40
0.0
 40
0.0
 40
0.0
 40
0.0
 40
0.181922379
 40
0.3676378602
 40
0.5464516954
 40
0.7061948956
 40
0.7751603929
 40
0.8356303032
 40
0.887010604
 40
0.9287090395
 40
0.9603325955
 40
0.9822773882
 40
0.9951662389
 40
0.9984647825
 40
1.0
 40
1.0
 40
1.0
 40
1.0
 10
2.2891335505
 20
3.2452368084
 30
0.0
 10
2.2855508932
 20
3.2451439639
 30
0.0
 10
2.2783104231
 20
3.2449735464
 30
0.0
 10
2.2675471837
 20
3.2447726369
 30
0.0
 10
2.2572197931
 20
3.24464181
 30
0.0
 10
2.2491917061
 20
3.2445953628
 30
0.0
 10
2.2434947684
 20
3.2446100523
 30
0.0
 10
2.2399331198
 20
3.2446427411
 30
0.0
 10
2.2369077858
 20
3.2446961705
 30
0.0
 10
2.2344544514
 20
3.2447665659
 30
0.0
 10
2.2325737972
 20
3.2448565547
 30
0.0
 10
2.2312807922
 20
3.2449520567
 30
0.0
 10
2.2305143496
 20
3.2450588563
 30
0.0
 10
2.2301963873
 20
3.2451426758
 30
0.0
 10
2.2300990625
 20
3.2452065592
 30
0.0
 10
2.2300982789
 20
3.2452367927
 30
0.0
  0
SPLINE
  5
242
100
AcDbEntity
  8
0
100
AcDbSpline
 62
9
  6
CONTINUOUS
 70
0
 71
3
 72
15
 73
11
 74
0
 42
0.0000001
 43
0.0000001
 44
0.0000000001
 40
0.0
 40
0.0
 40
0.0
 40
0.0
 40
0.051937802
 40
0.1209901823
 40
0.2162000299
 40
0.3389318258
 40
0.4866549226
 40
0.6519583888
 40
0.8259870067
 40
1.0
 40
1.0
 40
1.0
 40
1.0
 10
1.8719579693
 20
5.3530668343
 30
0.0
 10
1.8722698447
 20
5.3520956461
 30
0.0
 10
1.8737650515
 20
5.3500782204
 30
0.0
 10
1.8776348435
 20
5.3481378576
 30
0.0
 10
1.8831758957
 20
5.3469524712
 30
0.0
 10
1.8903675683
 20
5.3465544339
 30
0.0
 10
1.8989236716
 20
5.3470463983
 30
0.0
 10
1.9084094021
 20
5.348340059
 30
0.0
 10
1.9182906842
 20
5.3503717955
 30
0.0
 10
1.9249045032
 20
5.3521119721
 30
0.0
 10
1.9281858686
 20
5.3530670711
 30
0.0
  0
SPLINE
  5
243
100
AcDbEntity
  8
0
100
AcDbSpline
 62
9
  6
CONTINUOUS
 70
0
 71
3
 72
27
 73
23
 74
0
 42
0.0000001
 43
0.0000001
 44
0.0000000001
 40
0.0
 40
0.0
 40
0.0
 40
0.0
 40
0.0152055276
 40
0.0304280127
 40
0.0456677744
 40
0.0609245414
 40
0.091488555
 40
0.1221192265
 40
0.1835741161
 40
0.245278959
 40
0.3072219381
 40
0.369390526
 40
0.4317708115
 40
0.4943483192
 40
0.6200256721
 40
0.6830966897
 40
0.7462965635
 40
0.809607589
 40
0.8730075235
 40
0.9364781226
 40
0.9682354895
 40
1.0
 40
1.0
 40
1.0
 40
1.0
 10
1.9281858686
 20
5.3530670702
 30
0.0
 10
1.9315694022
 20
5.3427306254
 30
0.0
 10
1.9382085241
 20
5.3220032272
 30
0.0
 10
1.9480484636
 20
5.2908555464
 30
0.0
 10
1.9577826962
 20
5.2596361028
 30
0.0
 10
1.9705780038
 20
5.2178771918
 30
0.0
 10
1.9862522266
 20
5.1654871368
 30
0.0
 10
2.0107222108
 20
5.0812398174
 30
0.0
 10
2.0399650927
 20
4.9751889086
 30
0.0
 10
2.072932124
 20
4.8469525805
 30
0.0
 10
2.1036997324
 20
4.7176456129
 30
0.0
 10
2.1323050194
 20
4.5873489904
 30
0.0
 10
2.1586745579
 20
4.4561174089
 30
0.0
 10
2.190791721
 20
4.2797372934
 30
0.0
 10
2.2182411046
 20
4.1020311685
 30
0.0
 10
2.2409164771
 20
3.9232434196
 30
0.0
 10
2.2555129385
 20
3.7884201324
 30
0.0
 10
2.2677454644
 20
3.6531266669
 30
0.0
 10
2.2774886016
 20
3.5174344845
 30
0.0
 10
2.2833564298
 20
3.4041186302
 30
0.0
 10
2.2873563906
 20
3.3133722721
 30
0.0
 10
2.2887361881
 20
3.2679538302
 30
0.0
 10
2.2891335469
 20
3.2452369347
 30
0.0
  0
SPLINE
  5
244
100
AcDbEntity
  8
0
100
AcDbSpline
 62
9
  6
CONTINUOUS
 70
0
 71
3
 72
14
 73
10
 74
0
 42
0.0000001
 43
0.0000001
 44
0.0000000001
 40
0.0
 40
0.0
 40
0.0
 40
0.0
 40
0.2378137915
 40
0.358987814
 40
0.4820028866
 40
0.6070979693
 40
0.7348592743
 40
0.8659665951
 40
1.0
 40
1.0
 40
1.0
 40
1.0
 10
1.834686996
 20
5.4394074511
 30
0.0
 10
1.8441396411
 20
5.4352830154
 30
0.0
 10
1.8579714471
 20
5.4279895137
 30
0.0
 10
1.8753639895
 20
5.4163740745
 30
0.0
 10
1.8879645355
 20
5.406456533
 30
0.0
 10
1.8998102243
 20
5.3952216366
 30
0.0
 10
1.9107021312
 20
5.3825901419
 30
0.0
 10
1.9205269187
 20
5.3686350388
 30
0.0
 10
1.925928528
 20
5.3584234697
 30
0.0
 10
1.9281858686
 20
5.3530670702
 30
0.0
  0
SPLINE
  5
245
100
AcDbEntity
  8
0
100
AcDbSpline
 62
9
  6
CONTINUOUS
 70
0
 71
3
 72
11
 73
7
 74
0
 42
0.0000001
 43
0.0000001
 44
0.0000000001
 40
0.0
 40
0.0
 40
0.0
 40
0.0
 40
0.2139018202
 40
0.448279042
 40
0.7099953811
 40
1.0
 40
1.0
 40
1.0
 40
1.0
 10
1.8039586904
 20
5.4394074179
 30
0.0
 10
1.8059005392
 20
5.4382242206
 30
0.0
 10
1.8103396105
 20
5.4363113128
 30
0.0
 10
1.8179009767
 20
5.4352644388
 30
0.0
 10
1.8262746143
 20
5.4362565712
 30
0.0
 10
1.831869656
 20
5.4381555516
 30
0.0
 10
1.8346869938
 20
5.4394074254
 30
0.0
  0
ENDSEC
  0
SECTION
  2
OBJECTS
  0
DICTIONARY
  5
C
100
AcDbDictionary
280
0
281
1
  3
ACAD_GROUP
350
D
  3
ACAD_MLINESTYLE
350
17
  3
ACAD_LAYOUT
350
1A
  3
ACAD_PLOTSETTINGS
350
19
  3
ACAD_PLOTSTYLENAME
350
E
  0
DICTIONARY
  5
D
102
{ACAD_REACTORS
330
C
102
}
100
AcDbDictionary
280
0
281
1
  0
ACDBDICTIONARYWDFLT
  5
E
102
{ACAD_REACTORS
330
C
102
}
100
AcDbDictionary
281
1
  3
Normal
350
F
100
AcDbDictionaryWithDefault
340
F
  0
DICTIONARY
  5
17
102
{ACAD_REACTORS
330
C
102
}
100
AcDbDictionary
280
0
281
1
  3
Standard
350
18
  0
DICTIONARY
  5
19
102
{ACAD_REACTORS
330
C
102
}
100
AcDbDictionary
281
1
  0
DICTIONARY
  5
1A
102
{ACAD_REACTORS
330
C
102
}
100
AcDbDictionary
281
1
  3
Model
350
246
  3
Layout1
350
247
  0
ACDBPLACEHOLDER
  5
F
102
{ACAD_REACTORS
330
E
102
}
  0
MLINESTYLE
  5
18
102
{ACAD_REACTORS
330
17
102
}
100
AcDbMlineStyle
  2
STANDARD
 70
0
  3

 62
256
 51
90.0
 52
90.0
 71
2
 49
0.5
 62
256
  6
BYLAYER
 49
-0.5
 62
256
  6
BYLAYER
  0
LAYOUT
  5
246
102
{ACAD_REACTORS
330
1A
102
}
100
AcDbPlotSettings
  1

  2
none_device
  4
ANSI_A_(11.00_x_8.50_Inches)
  6

 40
0.0
 41
0.0
 42
0.0
 43
0.0
 44
279.4
 45
215.9
 46
0.0
 47
0.0
 48
0.0
 49
0.0
140
0.0
141
0.0
142
1.0
143
1.0
 70
1024
 72
0
 73
0
 74
0
  7

 75
0
147
1.0
148
0.0
149
0.0
100
AcDbLayout
  1
Model
 70
0
 71
0
 10
0.0
 20
0.0
 11
11.0
 21
8.5
 12
0.0
 22
0.0
 32
0.0
 14
0.0
 24
0.0
 34
0.0
 15
0.0
 25
0.0
 35
0.0
146
0.0
 13
0.0
 23
0.0
 33
0.0
 16
1.0
 26
0.0
 36
0.0
 17
0.0
 27
1.0
 37
0.0
 76
0
330
200
345
0
346
0
  0
LAYOUT
  5
247
102
{ACAD_REACTORS
330
1A
102
}
100
AcDbPlotSettings
  1

  2
none_device
  4
ANSI_A_(11.00_x_8.50_Inches)
  6

 40
0.0
 41
0.0
 42
0.0
 43
0.0
 44
279.4
 45
215.9
 46
0.0
 47
0.0
 48
0.0
 49
0.0
140
0.0
141
0.0
142
1.0
143
1.0
 70
0
 72
0
 73
0
 74
0
  7

 75
0
147
1.0
148
0.0
149
0.0
100
AcDbLayout
  1
Layout1
 70
0
 71
1
 10
0.0
 20
0.0
 11
11.0
 21
8.5
 12
0.0
 22
0.0
 32
0.0
 14
0.0
 24
0.0
 34
0.0
 15
0.0
 25
0.0
 35
0.0
146
0.0
 13
0.0
 23
0.0
 33
0.0
 16
1.0
 26
0.0
 36
0.0
 17
0.0
 27
1.0
 37
0.0
 76
0
330
201
345
0
346
0
  0
ENDSEC
  0
EOF
