999
DXF file: E:\BT Custom\CADOUTPUT\_TOP.dxf
999
Pro/ENGINEER 2018400 by Parametric Technology Corporation
  0
SECTION
  2
HEADER
  9
$ACADVER
  1
AC1018
  9
$DWGCODEPAGE
  3
ANSI_1252
  9
$EXTMAX
 10
22.0
 20
17.0
 30
0.0
  9
$EXTMIN
 10
0.0
 20
0.0
 30
0.0
  9
$LIMMIN
 10
0.0
 20
0.0
  9
$LIMMAX
 10
22.0
 20
17.0
  9
$VIEWCTR
 10
11.0
 20
8.5
  9
$VIEWSIZE
 40
17.0
  9
$CLAYER
  8
0
  9
$LTSCALE
 40
1.21
  9
$CELTYPE
  6
BYLAYER
  9
$DIMSCALE
 40
1.0
  9
$DIMASZ
 40
0.1
  9
$DIMEXO
 40
0.0625
  9
$DIMDLI
 40
0.836
  9
$DIMEXE
 40
0.125
  9
$DIMCEN
 40
0.198
  9
$DIMLFAC
 40
1.0
  9
$DIMBLK
  1
_FILLED
  9
$DIMALT
 70
1
  9
$DIMALTD
 70
2
  9
$DIMALTTD
 70
2
  9
$DIMALTF
 40
25.4
  9
$DIMTXT
 40
0.08
  9
$DIMTOL
 70
1
  9
$DIMLIM
 70
0
  9
$DIMTFAC
 40
1.0
  9
$DIMTP
 40
0.001
  9
$DIMTM
 40
0.001
  9
$DIMGAP
 40
0.09
  9
$DIMDSEP
 70
46
  9
$AUNITS
 70
0
  9
$PDMODE
 70
3
  9
$PDSIZE
 40
0.06
  9
$HANDSEED
  5
4B4
  9
$TILEMODE
 70
1
  9
$MEASUREMENT
 70
0
  9
$INSUNITS
 70
1
  0
ENDSEC
  0
SECTION
  2
CLASSES
  0
CLASS
  1
ACDBDICTIONARYWDFLT
  2
AcDbDictionaryWithDefault
  3
AutoCAD 2000
 90
0
 91
1
280
0
281
0
  0
CLASS
  1
ACDBPLACEHOLDER
  2
AcDbPlaceHolder
  3
AutoCAD 2000
 90
0
 91
1
280
0
281
0
  0
CLASS
  1
LAYOUT
  2
AcDbLayout
  3
AutoCAD 2000
 90
0
 91
0
280
0
281
0
  0
ENDSEC
  0
SECTION
  2
TABLES
  0
TABLE
  2
VPORT
  5
8
100
AcDbSymbolTable
 70
2
  0
VPORT
  5
1F4
100
AcDbSymbolTableRecord
100
AcDbViewportTableRecord
  2
*ACTIVE
 70
0
 10
0.0
 20
0.0
 11
1.0
 21
1.0
 12
11.0
 22
8.5
 13
0.0
 23
0.0
 14
1.0
 24
1.0
 15
0.0
 25
0.0
 16
0.0
 26
0.0
 36
1.0
 17
0.0
 27
0.0
 37
0.0
 40
17.0
 41
1.2941176471
 42
50.0
 43
0.0
 44
0.0
 50
0.0
 51
0.0
 71
0
 72
100
 73
1
 74
1
 75
0
 76
0
 77
0
 78
0
  0
ENDTAB
  0
TABLE
  2
LTYPE
  5
5
100
AcDbSymbolTable
 70
6
  0
LTYPE
  5
14
100
AcDbSymbolTableRecord
100
AcDbLinetypeTableRecord
  2
BYBLOCK
 70
0
  3

 72
65
 73
0
 40
0.0
  0
LTYPE
  5
15
100
AcDbSymbolTableRecord
100
AcDbLinetypeTableRecord
  2
BYLAYER
 70
0
  3

 72
65
 73
0
 40
0.0
  0
LTYPE
  5
16
100
AcDbSymbolTableRecord
100
AcDbLinetypeTableRecord
  2
CONTINUOUS
 70
64
  3
Solid line
 72
65
 73
0
 40
0.0
  0
LTYPE
  5
1F5
100
AcDbSymbolTableRecord
100
AcDbLinetypeTableRecord
  2
CENTER
 70
64
  3
____ _ ____ _ ____ _ ____ _ ____ _ ____ _ ____
 72
65
 73
4
 40
0.6
 49
0.375
 74
0
 49
-0.075
 74
0
 49
0.075
 74
0
 49
-0.075
 74
0
  0
LTYPE
  5
1F6
100
AcDbSymbolTableRecord
100
AcDbLinetypeTableRecord
  2
HIDDEN
 70
64
  3
- - - - - - - - - - - - - - - - - - - -
 72
65
 73
2
 40
0.2
 49
0.1
 74
0
 49
-0.1
 74
0
  0
LTYPE
  5
1F7
100
AcDbSymbolTableRecord
100
AcDbLinetypeTableRecord
  2
PHANTOM
 70
64
  3
_____ _ _ _____ _ _ _____ _ _ _____
 72
65
 73
6
 40
0.8
 49
0.45
 74
0
 49
-0.05
 74
0
 49
0.1
 74
0
 49
-0.05
 74
0
 49
0.1
 74
0
 49
-0.05
 74
0
  0
LTYPE
  5
1F8
100
AcDbSymbolTableRecord
100
AcDbLinetypeTableRecord
  2
DOT
 70
64
  3
. . . . . . . . . . . . . . . . . . . .
 72
65
 73
2
 40
0.2
 49
0.1
 74
0
 49
-0.1
 74
0
  0
LTYPE
  5
1F9
100
AcDbSymbolTableRecord
100
AcDbLinetypeTableRecord
  2
DASHED
 70
64
  3
- - - - - - - - - - - - - - - - - - - -
 72
65
 73
2
 40
0.2
 49
0.1
 74
0
 49
-0.1
 74
0
  0
ENDTAB
  0
TABLE
  2
LAYER
  5
2
100
AcDbSymbolTable
 70
36
  0
LAYER
  5
10
100
AcDbSymbolTableRecord
100
AcDbLayerTableRecord
  2
0
 70
0
 62
7
  6
CONTINUOUS
370
-3
390
F
  0
LAYER
  5
1FA
100
AcDbSymbolTableRecord
100
AcDbLayerTableRecord
  2
DEFAULT_1
 70
0
 62
7
  6
CENTER
370
-3
390
F
  0
LAYER
  5
1FB
100
AcDbSymbolTableRecord
100
AcDbLayerTableRecord
  2
DEFAULT_2
 70
0
 62
8
  6
HIDDEN
370
-3
390
F
  0
LAYER
  5
1FC
100
AcDbSymbolTableRecord
100
AcDbLayerTableRecord
  2
DEFAULT_3
 70
0
 62
7
  6
PHANTOM
370
-3
390
F
  0
LAYER
  5
1FD
100
AcDbSymbolTableRecord
100
AcDbLayerTableRecord
  2
ALL_FEATURES
 70
0
 62
7
  6
CONTINUOUS
370
-3
390
F
  0
LAYER
  5
1FE
100
AcDbSymbolTableRecord
100
AcDbLayerTableRecord
  2
AXES_FEATURES
 70
0
 62
7
  6
CONTINUOUS
370
-3
390
F
  0
LAYER
  5
1FF
100
AcDbSymbolTableRecord
100
AcDbLayerTableRecord
  2
DIMENSIONS
 70
0
 62
7
  6
CONTINUOUS
370
-3
390
F
  0
ENDTAB
  0
TABLE
  2
STYLE
  5
3
100
AcDbSymbolTable
 70
1
  0
STYLE
  5
11
100
AcDbSymbolTableRecord
100
AcDbTextStyleTableRecord
  2
STANDARD
 70
0
 40
0.0
 41
0.8
 50
0.0
 71
0
 42
0.2
  3
txt
  4

  0
STYLE
  5
200
100
AcDbSymbolTableRecord
100
AcDbTextStyleTableRecord
  2
TEXTSTYLE_1
 70
0
 40
0.0
 41
0.8
 50
0.0
 71
0
 42
0.2
  3
gdt
  4

  0
ENDTAB
  0
TABLE
  2
VIEW
  5
6
100
AcDbSymbolTable
 70
0
  0
ENDTAB
  0
TABLE
  2
UCS
  5
7
100
AcDbSymbolTable
 70
0
  0
ENDTAB
  0
TABLE
  2
APPID
  5
9
100
AcDbSymbolTable
 70
1
  0
APPID
  5
201
100
AcDbSymbolTableRecord
100
AcDbRegAppTableRecord
  2
ACAD
 70
0
  0
ENDTAB
  0
TABLE
  2
BLOCK_RECORD
  5
1
100
AcDbSymbolTable
 70
0
  0
BLOCK_RECORD
  5
202
100
AcDbSymbolTableRecord
100
AcDbBlockTableRecord
  2
*Model_Space
  0
BLOCK_RECORD
  5
203
100
AcDbSymbolTableRecord
100
AcDbBlockTableRecord
  2
*Paper_Space
  0
BLOCK_RECORD
  5
204
100
AcDbSymbolTableRecord
100
AcDbBlockTableRecord
  2
_FILLED
  0
ENDTAB
  0
TABLE
  2
DIMSTYLE
  5
A
100
AcDbSymbolTable
 70
1
100
AcDbDimStyleTable
 71
0
  0
DIMSTYLE
105
205
100
AcDbSymbolTableRecord
100
AcDbDimStyleTableRecord
  2
STANDARD
 70
0
  3

  4

 40
1.0
 41
0.1
 42
0.0625
 43
0.38
 44
0.125
 45
0.0
 46
0.0
 47
0.001
 48
0.001
140
0.08
141
0.09
142
0.0
143
25.4
144
1.0
145
0.0
146
1.0
147
0.09
 71
1.0
 72
0.0
 73
1
 74
1
 75
0
 76
0
 77
0
 78
4
 79
1
170
1
171
2
172
0
173
0
174
0
175
0
176
0
177
0
178
0
270
2
179
3
271
3
272
3
273
2
274
2
275
0
280
0
281
0
282
0
283
1
284
4
285
0
286
0
287
3
288
0
340
11
278
46
341
204
342
204
343
204
344
204
  0
ENDTAB
  0
ENDSEC
  0
SECTION
  2
BLOCKS
  0
BLOCK
  5
20
100
AcDbEntity
  8
0
100
AcDbBlockBegin
  2
*Model_Space
 70
0
 10
0.0
 20
0.0
 30
0.0
  3
*Model_Space
  1

  0
ENDBLK
  5
21
100
AcDbEntity
  8
0
100
AcDbBlockEnd
  0
BLOCK
  5
1C
100
AcDbEntity
  8
0
100
AcDbBlockBegin
  2
*Paper_Space
 70
0
 10
0.0
 20
0.0
 30
0.0
  3
*Paper_Space
  1

  0
ENDBLK
  5
1D
100
AcDbEntity
  8
0
100
AcDbBlockEnd
  0
BLOCK
  5
206
100
AcDbEntity
  8
0
100
AcDbBlockBegin
  2
_FILLED
 70
64
 10
0.0
 20
0.0
  3
_FILLED
  1

  0
SOLID
  5
207
100
AcDbEntity
  8
0
  6
BYBLOCK
 62
0
100
AcDbTrace
 10
0.0
 20
0.0
 11
-1.0
 21
0.2
 12
-1.0
 22
-0.2
 13
-1.0
 23
-0.2
  0
ENDBLK
  5
208
100
AcDbEntity
  8
0
  6
BYBLOCK
 62
0
100
AcDbBlockEnd
  0
ENDSEC
  0
SECTION
  2
ENTITIES
  0
LINE
  5
209
100
AcDbEntity
  8
0
100
AcDbLine
 62
7
  6
CONTINUOUS
 10
3.8012124889
 20
10.3554382713
 11
3.7979957551
 21
10.1250716572
  0
LINE
  5
20A
100
AcDbEntity
  8
0
100
AcDbLine
 62
9
  6
CONTINUOUS
 10
3.8307914525
 20
10.1246145985
 11
3.8340081663
 21
10.3549797863
  0
LINE
  5
20B
100
AcDbEntity
  8
0
100
AcDbLine
 62
7
  6
CONTINUOUS
 10
3.8293259628
 20
10.0858946523
 11
3.8294235778
 21
10.0859606005
  0
LINE
  5
20C
100
AcDbEntity
  8
0
100
AcDbLine
 62
7
  6
CONTINUOUS
 10
6.0433411527
 20
11.159472957
 11
6.0433411527
 21
10.4994565972
  0
LINE
  5
20D
100
AcDbEntity
  8
0
100
AcDbLine
 62
7
  6
CONTINUOUS
 10
6.0433411527
 20
9.9190156681
 11
6.0433411527
 21
9.2302499882
  0
LINE
  5
20E
100
AcDbEntity
  8
0
100
AcDbLine
 62
9
  6
CONTINUOUS
 10
6.1526462597
 20
9.3176940233
 11
6.1526462597
 21
9.9259791727
  0
LINE
  5
20F
100
AcDbEntity
  8
0
100
AcDbLine
 62
9
  6
CONTINUOUS
 10
6.1526462597
 20
10.4895769529
 11
6.1526462597
 21
11.0720200678
  0
LWPOLYLINE
  5
210
100
AcDbEntity
  8
0
100
AcDbPolyline
 62
7
  6
CONTINUOUS
 90
5
 70
0
 10
6.737659208
 20
10.3922082186
 10
6.7379585869
 20
10.3930737861
 10
6.7376001095
 20
10.3923526907
 10
6.7354838454
 20
10.389057724
 10
6.7308698949
 20
10.3841313651
  0
LWPOLYLINE
  5
211
100
AcDbEntity
  8
0
100
AcDbPolyline
 62
7
  6
CONTINUOUS
 90
7
 70
0
 10
6.0433417044
 20
9.2302572337
 10
6.0438895029
 20
9.2236983443
 10
6.0476702438
 20
9.2122968497
 10
6.0547199577
 20
9.2025605539
 10
6.0643797321
 20
9.1954064053
 10
6.0757404613
 20
9.1915027324
 10
6.0827297515
 20
9.1908820113
  0
LINE
  5
212
100
AcDbEntity
  8
0
100
AcDbLine
 62
7
  6
CONTINUOUS
 10
6.043341339
 20
11.1594695901
 11
6.0433411527
 21
11.159472957
  0
LINE
  5
213
100
AcDbEntity
  8
0
100
AcDbLine
 62
9
  6
CONTINUOUS
 10
6.2344495648
 20
9.4199478622
 11
6.2344495648
 21
9.9317717526
  0
LINE
  5
214
100
AcDbEntity
  8
0
100
AcDbLine
 62
9
  6
CONTINUOUS
 10
6.2344495648
 20
10.4814136835
 11
6.2344495648
 21
10.9697659447
  0
LINE
  5
215
100
AcDbEntity
  8
0
100
AcDbLine
 62
7
  6
CONTINUOUS
 10
6.5650348737
 20
9.7519436598
 11
6.5650348737
 21
10.0058203876
  0
LINE
  5
216
100
AcDbEntity
  8
0
100
AcDbLine
 62
7
  6
CONTINUOUS
 10
6.5650348737
 20
10.398500532
 11
6.5650348737
 21
10.6377704315
  0
LINE
  5
217
100
AcDbEntity
  8
0
100
AcDbLine
 62
9
  6
CONTINUOUS
 10
6.6044049525
 20
10.6771405102
 11
6.6044049525
 21
10.3898213169
  0
LINE
  5
218
100
AcDbEntity
  8
0
100
AcDbLine
 62
9
  6
CONTINUOUS
 10
6.6044049525
 20
10.0134557668
 11
6.6044049525
 21
9.7125735811
  0
LINE
  5
219
100
AcDbEntity
  8
0
100
AcDbLine
 62
9
  6
CONTINUOUS
 10
6.4067618606
 20
9.9869934954
 11
6.4128155152
 21
10.4205263968
  0
LINE
  5
21A
100
AcDbEntity
  8
0
100
AcDbLine
 62
9
  6
CONTINUOUS
 10
6.4209752212
 20
9.986793163
 11
6.4270289203
 21
10.4203292453
  0
LINE
  5
21B
100
AcDbEntity
  8
0
100
AcDbLine
 62
7
  6
CONTINUOUS
 10
6.6974344946
 20
10.5157942335
 11
6.695486887
 21
10.3763161881
  0
LINE
  5
21C
100
AcDbEntity
  8
0
100
AcDbLine
 62
7
  6
CONTINUOUS
 10
6.6905574173
 20
10.0232918836
 11
6.6886098164
 21
9.8838143158
  0
LINE
  5
21D
100
AcDbEntity
  8
0
100
AcDbLine
 62
9
  6
CONTINUOUS
 10
6.724707688
 20
10.0780817508
 11
6.7280944751
 21
10.3205949394
  0
LINE
  5
21E
100
AcDbEntity
  8
0
100
AcDbLine
 62
9
  6
CONTINUOUS
 10
6.7339003579
 20
10.3202688956
 11
6.7305212103
 21
10.0782550403
  0
LINE
  5
21F
100
AcDbEntity
  8
0
100
AcDbLine
 62
9
  6
CONTINUOUS
 10
6.7732537191
 20
10.319719382
 11
6.7698743476
 21
10.0777054593
  0
LINE
  5
220
100
AcDbEntity
  8
0
100
AcDbLine
 62
7
  6
CONTINUOUS
 10
6.7757916036
 20
10.4341428576
 11
6.7692162155
 21
9.9632459731
  0
LINE
  5
221
100
AcDbEntity
  8
0
100
AcDbLine
 62
9
  6
CONTINUOUS
 10
7.3682553095
 20
10.5447408814
 11
7.286604024
 21
10.466383782
  0
LINE
  5
222
100
AcDbEntity
  8
0
100
AcDbLine
 62
9
  6
CONTINUOUS
 10
6.7263813673
 20
9.8449732099
 11
6.8080326528
 21
9.9233303093
  0
LINE
  5
223
100
AcDbEntity
  8
0
100
AcDbLine
 62
7
  6
CONTINUOUS
 10
6.7308698949
 20
10.3841313651
 11
6.7230756729
 21
10.3789877665
  0
LINE
  5
224
100
AcDbEntity
  8
0
100
AcDbLine
 62
9
  6
CONTINUOUS
 10
6.8539738498
 20
10.3936775462
 11
6.8484978377
 21
10.0015125572
  0
LINE
  5
225
100
AcDbEntity
  8
0
100
AcDbLine
 62
9
  6
CONTINUOUS
 10
7.2406628268
 20
9.9960365451
 11
7.2461388388
 21
10.3882015341
  0
LINE
  5
226
100
AcDbEntity
  8
0
100
AcDbLine
 62
7
  6
CONTINUOUS
 10
7.3188450729
 20
9.9555712331
 11
7.3254204611
 21
10.4264681181
  0
LWPOLYLINE
  5
227
100
AcDbEntity
  8
0
100
AcDbPolyline
 62
7
  6
CONTINUOUS
 90
3
 70
0
 10
6.7230756729
 20
10.3789877665
 10
6.7125007932
 20
10.3756895331
 10
6.7049630029
 20
10.3753022995
  0
LINE
  5
228
100
AcDbEntity
  8
0
100
AcDbLine
 62
9
  6
CONTINUOUS
 10
7.4902317241
 20
9.7125735811
 11
7.4902317241
 21
10.6771405102
  0
LINE
  5
229
100
AcDbEntity
  8
0
100
AcDbLine
 62
7
  6
CONTINUOUS
 10
7.5296018028
 20
10.6377704315
 11
7.5296018028
 21
9.7519436598
  0
LINE
  5
22A
100
AcDbEntity
  8
0
100
AcDbLine
 62
7
  6
CONTINUOUS
 10
7.3972021834
 20
9.8739198559
 11
7.4060268597
 21
10.5058997736
  0
LWPOLYLINE
  5
22B
100
AcDbEntity
  8
0
100
AcDbPolyline
 62
7
  6
CONTINUOUS
 90
9
 70
0
 10
10.6064196585
 20
3.7934059721
 10
10.6877078851
 20
3.7363905837
 10
10.7975821502
 20
3.6845910195
 10
10.9195607614
 20
3.6519277787
 10
11.0478146777
 20
3.6408779051
 10
11.1760724185
 20
3.6521027018
 10
11.298071408
 20
3.6849634422
 10
11.4079717888
 20
3.7370067575
 10
11.4882124232
 20
3.7934009056
  0
LWPOLYLINE
  5
22C
100
AcDbEntity
  8
0
100
AcDbPolyline
 62
7
  6
CONTINUOUS
 90
7
 70
0
 10
8.0512949722
 20
11.159456867
 10
8.0507471737
 20
11.166015747
 10
8.0469664367
 20
11.1774172339
 10
8.0399167311
 20
11.187153525
 10
8.0302569676
 20
11.1943076738
 10
8.0188962496
 20
11.1982113528
 10
8.0119069642
 20
11.19883208
  0
LINE
  5
22D
100
AcDbEntity
  8
0
100
AcDbLine
 62
9
  6
CONTINUOUS
 10
7.8601870938
 20
10.9697662126
 11
7.8601870938
 21
9.4199478728
  0
LINE
  5
22E
100
AcDbEntity
  8
0
100
AcDbLine
 62
9
  6
CONTINUOUS
 10
7.9419904136
 20
11.072020064
 11
7.9419904136
 21
9.3176940259
  0
LINE
  5
22F
100
AcDbEntity
  8
0
100
AcDbLine
 62
7
  6
CONTINUOUS
 10
8.0512955239
 20
9.2302637886
 11
8.0512955239
 21
11.15946408
  0
LINE
  5
230
100
AcDbEntity
  8
0
100
AcDbLine
 62
9
  6
CONTINUOUS
 10
10.6654922916
 20
9.7932216578
 11
10.8077817321
 21
9.946505205
  0
LINE
  5
231
100
AcDbEntity
  8
0
100
AcDbLine
 62
9
  6
CONTINUOUS
 10
11.429144385
 20
10.5964924335
 11
11.2868549444
 21
10.4432088863
  0
LINE
  5
232
100
AcDbEntity
  8
0
100
AcDbLine
 62
9
  6
CONTINUOUS
 10
10.3780269997
 20
9.5255714102
 11
10.3103928761
 21
9.4579776782
  0
LINE
  5
233
100
AcDbEntity
  8
0
100
AcDbLine
 62
7
  6
CONTINUOUS
 10
9.9180301408
 20
9.1442974115
 11
9.9180301408
 21
11.2453456778
  0
LWPOLYLINE
  5
234
100
AcDbEntity
  8
0
100
AcDbPolyline
 62
7
  6
CONTINUOUS
 90
3
 70
0
 10
15.3715610037
 20
10.0107263248
 10
15.3821358834
 20
10.0140245582
 10
15.3896736737
 20
10.0144117918
  0
LINE
  5
235
100
AcDbEntity
  8
0
100
AcDbLine
 62
9
  6
CONTINUOUS
 10
10.4781434923
 20
5.4412000734
 11
10.4780436736
 21
5.4414788882
  0
LWPOLYLINE
  5
236
100
AcDbEntity
  8
0
100
AcDbPolyline
 62
7
  6
CONTINUOUS
 90
7
 70
0
 10
9.9180300003
 20
9.1443082874
 10
9.9188973415
 20
9.1326540469
 10
9.9263389927
 20
9.1091029439
 10
9.9407264583
 20
9.0889996674
 10
9.9606375771
 20
9.0743485821
 10
9.9840886313
 20
9.0665966583
 10
9.9966672191
 20
9.0655687878
  0
LINE
  5
237
100
AcDbEntity
  8
0
100
AcDbLine
 62
7
  6
CONTINUOUS
 10
10.4479002257
 20
8.1292387113
 11
10.4615623617
 21
7.8039595415
  0
LWPOLYLINE
  5
238
100
AcDbEntity
  8
0
100
AcDbPolyline
 62
7
  6
CONTINUOUS
 90
3
 70
0
 10
10.4615624728
 20
7.8039580872
 10
10.4714585159
 20
7.4903496245
 10
10.48021633
 20
7.1357493952
  0
LINE
  5
239
100
AcDbEntity
  8
0
100
AcDbLine
 62
7
  6
CONTINUOUS
 10
10.48021633
 20
7.1357493952
 11
10.4835221822
 21
6.7698010266
  0
LWPOLYLINE
  5
23A
100
AcDbEntity
  8
0
100
AcDbPolyline
 62
7
  6
CONTINUOUS
 90
4
 70
0
 10
10.4549291834
 20
4.8040271047
 10
10.4567221859
 20
4.5508896206
 10
10.4597148154
 20
4.3033530298
 10
10.4634142168
 20
4.0919981296
  0
LINE
  5
23B
100
AcDbEntity
  8
0
100
AcDbLine
 62
9
  6
CONTINUOUS
 10
10.4567671137
 20
9.5111739461
 11
10.4568192834
 21
9.4739941426
  0
LINE
  5
23C
100
AcDbEntity
  8
0
100
AcDbLine
 62
9
  6
CONTINUOUS
 10
10.0298587057
 20
9.2188613693
 11
10.0298587057
 21
11.1708527108
  0
LINE
  5
23D
100
AcDbEntity
  8
0
100
AcDbLine
 62
9
  6
CONTINUOUS
 10
10.1031700688
 20
9.3288288489
 11
10.1031700688
 21
11.0609346168
  0
LINE
  5
23E
100
AcDbEntity
  8
0
100
AcDbLine
 62
7
  6
CONTINUOUS
 10
10.3780269997
 20
9.5255640149
 11
10.3780269997
 21
10.7854082272
  0
LINE
  5
23F
100
AcDbEntity
  8
0
100
AcDbLine
 62
9
  6
CONTINUOUS
 10
10.4567671572
 20
10.8641483842
 11
10.4567671137
 21
9.5111739461
  0
LINE
  5
240
100
AcDbEntity
  8
0
100
AcDbLine
 62
7
  6
CONTINUOUS
 10
10.4835221447
 20
6.7698012336
 11
10.4824994206
 21
6.1757468541
  0
LWPOLYLINE
  5
241
100
AcDbEntity
  8
0
100
AcDbPolyline
 62
7
  6
CONTINUOUS
 90
4
 70
0
 10
10.482499376
 20
6.175745399
 10
10.4816607494
 20
5.9266433209
 10
10.4800771459
 20
5.6704871766
 10
10.4780436736
 20
5.4414788882
  0
LWPOLYLINE
  5
242
100
AcDbEntity
  8
0
100
AcDbPolyline
 62
7
  6
CONTINUOUS
 90
7
 70
0
 10
10.4780439316
 20
5.4414774275
 10
10.4764549792
 20
5.3225363638
 10
10.4737129267
 20
5.1915814184
 10
10.470029715
 20
5.0703851089
 10
10.4654979682
 20
4.9632549451
 10
10.4602648473
 20
4.8737686198
 10
10.4553015325
 20
4.812288701
  0
LINE
  5
243
100
AcDbEntity
  8
0
100
AcDbLine
 62
9
  6
CONTINUOUS
 10
10.4615916294
 20
7.8055976437
 11
10.4615623617
 21
7.8039595415
  0
LINE
  5
244
100
AcDbEntity
  8
0
100
AcDbLine
 62
9
  6
CONTINUOUS
 10
10.4550067629
 20
4.8042971851
 11
10.4552826676
 21
4.8120886228
  0
LINE
  5
245
100
AcDbEntity
  8
0
100
AcDbLine
 62
9
  6
CONTINUOUS
 10
10.4836187817
 20
6.7710527012
 11
10.4835221826
 21
6.7698012403
  0
LINE
  5
246
100
AcDbEntity
  8
0
100
AcDbLine
 62
9
  6
CONTINUOUS
 10
10.4858071976
 20
7.9367450276
 11
10.4751715698
 21
7.8779915001
  0
LINE
  5
247
100
AcDbEntity
  8
0
100
AcDbLine
 62
9
  6
CONTINUOUS
 10
7.2789292466
 20
9.9167549251
 11
7.3583608535
 21
9.8361485382
  0
LINE
  5
248
100
AcDbEntity
  8
0
100
AcDbLine
 62
9
  6
CONTINUOUS
 10
6.8157074292
 20
10.4729591661
 11
6.7362758252
 21
10.5535655531
  0
LINE
  5
249
100
AcDbEntity
  8
0
100
AcDbLine
 62
9
  6
CONTINUOUS
 10
11.4882120782
 20
3.793400653
 11
11.4875956125
 21
3.7954706105
  0
LWPOLYLINE
  5
24A
100
AcDbEntity
  8
0
100
AcDbPolyline
 62
7
  6
CONTINUOUS
 90
5
 70
0
 10
10.4634151339
 20
4.0919979108
 10
10.4727465204
 20
4.0134288554
 10
10.5033197406
 20
3.9251337715
 10
10.5531952447
 20
3.8469707007
 10
10.6064183176
 20
3.793407019
  0
LINE
  5
24B
100
AcDbEntity
  8
0
100
AcDbLine
 62
7
  6
CONTINUOUS
 10
10.6458041299
 20
9.8129035728
 11
10.6456829504
 21
10.5766830923
  0
LINE
  5
24C
100
AcDbEntity
  8
0
100
AcDbLine
 62
9
  6
CONTINUOUS
 10
10.7990425189
 20
9.9552416459
 11
10.7989664977
 21
10.4343936512
  0
LINE
  5
24D
100
AcDbEntity
  8
0
100
AcDbLine
 62
9
  6
CONTINUOUS
 10
10.8077817327
 20
9.9465052051
 11
10.8077029385
 21
10.443132865
  0
LINE
  5
24E
100
AcDbEntity
  8
0
100
AcDbLine
 62
7
  6
CONTINUOUS
 10
10.4552903301
 20
4.8121678744
 11
10.4549291834
 21
4.8040271047
  0
LINE
  5
24F
100
AcDbEntity
  8
0
100
AcDbLine
 62
7
  6
CONTINUOUS
 10
10.4552826676
 20
4.8120886228
 11
10.4553015325
 21
4.812288701
  0
LINE
  5
250
100
AcDbEntity
  8
0
100
AcDbLine
 62
9
  6
CONTINUOUS
 10
10.4825984543
 20
6.1766597786
 11
10.4824994225
 21
6.1757478331
  0
LINE
  5
251
100
AcDbEntity
  8
0
100
AcDbLine
 62
9
  6
CONTINUOUS
 10
10.5120739212
 20
6.9128972648
 11
10.4959975531
 21
6.8325719899
  0
LINE
  5
252
100
AcDbEntity
  8
0
100
AcDbLine
 62
7
  6
CONTINUOUS
 10
11.7808282112
 20
9.4324731966
 11
11.7843323024
 21
9.4425179774
  0
LWPOLYLINE
  5
253
100
AcDbEntity
  8
0
100
AcDbPolyline
 62
7
  6
CONTINUOUS
 90
5
 70
0
 10
6.7178898481
 20
10.0199402296
 10
6.7257096389
 20
10.0144912107
 10
6.7302595533
 20
10.0093307126
 10
6.7322237955
 20
10.0060508636
 10
6.7325666044
 20
10.0052907327
  0
LINE
  5
254
100
AcDbEntity
  8
0
100
AcDbLine
 62
7
  6
CONTINUOUS
 10
10.3098172809
 20
9.4436108227
 11
10.3134264867
 21
9.4335388008
  0
LINE
  5
255
100
AcDbEntity
  8
0
100
AcDbLine
 62
9
  6
CONTINUOUS
 10
11.6312204301
 20
4.0920036897
 11
11.6311255696
 21
4.0923051081
  0
LINE
  5
256
100
AcDbEntity
  8
0
100
AcDbLine
 62
9
  6
CONTINUOUS
 10
11.6396980524
 20
4.8040260359
 11
11.6396177971
 21
4.8042989796
  0
LWPOLYLINE
  5
257
100
AcDbEntity
  8
0
100
AcDbPolyline
 62
7
  6
CONTINUOUS
 90
8
 70
0
 10
10.3132567293
 20
9.4344166219
 10
10.3244935838
 20
9.376310447
 10
10.3392177562
 20
9.2677422129
 10
10.3575048258
 20
9.1172653118
 10
10.3797011884
 20
8.927722985
 10
10.4038016501
 20
8.6992047877
 10
10.4277822226
 20
8.4323898328
 10
10.4479002257
 20
8.1292387113
  0
LINE
  5
258
100
AcDbEntity
  8
0
100
AcDbLine
 62
9
  6
CONTINUOUS
 10
11.6121186017
 20
6.1757469295
 11
11.6120196617
 21
6.1766584518
  0
LINE
  5
259
100
AcDbEntity
  8
0
100
AcDbLine
 62
7
  6
CONTINUOUS
 10
11.6393240221
 20
4.8122875729
 11
11.6393432625
 21
4.8120834326
  0
LWPOLYLINE
  5
25A
100
AcDbEntity
  8
0
100
AcDbPolyline
 62
7
  6
CONTINUOUS
 90
7
 70
0
 10
11.6393240221
 20
4.8122875729
 10
11.6343607542
 20
4.873770804
 10
11.6291264053
 20
4.9632863641
 10
11.6245935059
 20
5.070461641
 10
11.6209100821
 20
5.1916905461
 10
11.6181688277
 20
5.3226319871
 10
11.6165810226
 20
5.4414806703
  0
LINE
  5
25B
100
AcDbEntity
  8
0
100
AcDbLine
 62
9
  6
CONTINUOUS
 10
11.6110823552
 20
6.7707751807
 11
11.6109859074
 21
6.7720258451
  0
LINE
  5
25C
100
AcDbEntity
  8
0
100
AcDbLine
 62
7
  6
CONTINUOUS
 10
11.6396980524
 20
4.8040260359
 11
11.6393383029
 21
4.8121642827
  0
LINE
  5
25D
100
AcDbEntity
  8
0
100
AcDbLine
 62
9
  6
CONTINUOUS
 10
11.6393432625
 20
4.8120834326
 11
11.6396186559
 21
4.8042989805
  0
LINE
  5
25E
100
AcDbEntity
  8
0
100
AcDbLine
 62
9
  6
CONTINUOUS
 10
11.6328113668
 20
7.7994514302
 11
11.632781596
 21
7.8010830932
  0
LWPOLYLINE
  5
25F
100
AcDbEntity
  8
0
100
AcDbPolyline
 62
7
  6
CONTINUOUS
 90
4
 70
0
 10
11.6165811199
 20
5.4414823082
 10
11.6145473986
 20
5.6703254338
 10
11.6129610752
 20
5.9264822982
 10
11.612118651
 20
6.1757444987
  0
LINE
  5
260
100
AcDbEntity
  8
0
100
AcDbLine
 62
7
  6
CONTINUOUS
 10
11.6121186036
 20
6.1757459474
 11
11.6110823998
 21
6.7707751742
  0
LINE
  5
261
100
AcDbEntity
  8
0
100
AcDbLine
 62
9
  6
CONTINUOUS
 10
11.2868549439
 20
10.4432088862
 11
11.286933738
 21
9.9465812263
  0
LINE
  5
262
100
AcDbEntity
  8
0
100
AcDbLine
 62
9
  6
CONTINUOUS
 10
11.2955941577
 20
10.4344724454
 11
11.2956701788
 21
9.95532044
  0
LINE
  5
263
100
AcDbEntity
  8
0
100
AcDbLine
 62
7
  6
CONTINUOUS
 10
11.4488325466
 20
10.5768105185
 11
11.4489537261
 21
9.813030999
  0
LINE
  5
264
100
AcDbEntity
  8
0
100
AcDbLine
 62
9
  6
CONTINUOUS
 10
11.637866584
 20
9.5115863137
 11
11.6378695194
 21
10.8641483842
  0
LINE
  5
265
100
AcDbEntity
  8
0
100
AcDbLine
 62
9
  6
CONTINUOUS
 10
11.6378109534
 20
9.4739941426
 11
11.637866584
 21
9.5115863137
  0
LWPOLYLINE
  5
266
100
AcDbEntity
  8
0
100
AcDbPolyline
 62
7
  6
CONTINUOUS
 90
4
 70
0
 10
11.6110823554
 20
6.7707750677
 10
11.6143172966
 20
7.1330169215
 10
11.6229838273
 20
7.4858050086
 10
11.6328110508
 20
7.7994499378
  0
LWPOLYLINE
  5
267
100
AcDbEntity
  8
0
100
AcDbPolyline
 62
7
  6
CONTINUOUS
 90
8
 70
0
 10
11.6328113668
 20
7.7994514302
 10
11.6463320222
 20
8.1255740923
 10
11.6664221433
 20
8.429520993
 10
11.6904656259
 20
8.697052838
 10
11.7146746263
 20
8.9262288423
 10
11.7369602976
 20
9.116338652
 10
11.7553222982
 20
9.2672646749
 10
11.7701003975
 20
9.3761491419
  0
LINE
  5
268
100
AcDbEntity
  8
0
100
AcDbLine
 62
7
  6
CONTINUOUS
 10
11.7701003975
 20
9.3761491419
 11
11.7813715099
 21
9.434386447
  0
LINE
  5
269
100
AcDbEntity
  8
0
100
AcDbLine
 62
9
  6
CONTINUOUS
 10
10.455009416
 20
4.804297186
 11
10.4549291834
 21
4.8040271047
  0
LINE
  5
26A
100
AcDbEntity
  8
0
100
AcDbLine
 62
9
  6
CONTINUOUS
 10
10.4634151303
 20
4.0919980858
 11
10.463511889
 21
4.0923042405
  0
LINE
  5
26B
100
AcDbEntity
  8
0
100
AcDbLine
 62
7
  6
CONTINUOUS
 10
15.3637667817
 20
10.0055827261
 11
15.3715610037
 21
10.0107263248
  0
LINE
  5
26C
100
AcDbEntity
  8
0
100
AcDbLine
 62
7
  6
CONTINUOUS
 10
10.3104600493
 20
9.4426831985
 11
10.3098172809
 21
9.4436108227
  0
LINE
  5
26D
100
AcDbEntity
  8
0
100
AcDbLine
 62
9
  6
CONTINUOUS
 10
11.5825589544
 20
6.9130100945
 11
11.5986098311
 21
6.8332151804
  0
LINE
  5
26E
100
AcDbEntity
  8
0
100
AcDbLine
 62
7
  6
CONTINUOUS
 10
11.7166096769
 20
9.5255667078
 11
11.7166096769
 21
10.7854082273
  0
LINE
  5
26F
100
AcDbEntity
  8
0
100
AcDbLine
 62
9
  6
CONTINUOUS
 10
11.9914666252
 20
11.0608893061
 11
11.9914666252
 21
9.3288231968
  0
LINE
  5
270
100
AcDbEntity
  8
0
100
AcDbLine
 62
9
  6
CONTINUOUS
 10
12.0647779707
 20
11.170852831
 11
12.0647779707
 21
9.2188612712
  0
LINE
  5
271
100
AcDbEntity
  8
0
100
AcDbLine
 62
7
  6
CONTINUOUS
 10
12.1766065358
 20
11.2454366116
 11
12.1766065358
 21
9.1443092472
  0
LWPOLYLINE
  5
272
100
AcDbEntity
  8
0
100
AcDbPolyline
 62
7
  6
CONTINUOUS
 90
4
 70
0
 10
11.6312204301
 20
4.0920036897
 10
11.6349356561
 20
4.3046403788
 10
11.6379183626
 20
4.5521919355
 10
11.6396993255
 20
4.8040258056
  0
LINE
  5
273
100
AcDbEntity
  8
0
100
AcDbLine
 62
7
  6
CONTINUOUS
 10
11.6312203763
 20
4.0920013344
 11
11.6312204301
 21
4.0920036897
  0
LINE
  5
274
100
AcDbEntity
  8
0
100
AcDbLine
 62
9
  6
CONTINUOUS
 10
10.6064195727
 20
3.7934060433
 11
10.6070367347
 21
3.7954753592
  0
LINE
  5
275
100
AcDbEntity
  8
0
100
AcDbLine
 62
9
  6
CONTINUOUS
 10
15.3682553093
 20
10.5447408814
 11
15.2866040238
 21
10.466383782
  0
LINE
  5
276
100
AcDbEntity
  8
0
100
AcDbLine
 62
9
  6
CONTINUOUS
 10
14.7263813671
 20
9.8449732099
 11
14.8080326526
 21
9.9233303093
  0
LINE
  5
277
100
AcDbEntity
  8
0
100
AcDbLine
 62
7
  6
CONTINUOUS
 10
6.7074034662
 20
10.0234758844
 11
6.7178898481
 21
10.0199402296
  0
LINE
  5
278
100
AcDbEntity
  8
0
100
AcDbLine
 62
7
  6
CONTINUOUS
 10
6.406083374
 20
9.9469952719
 11
6.4060350512
 21
9.9470127841
  0
LINE
  5
279
100
AcDbEntity
  8
0
100
AcDbLine
 62
9
  6
CONTINUOUS
 10
11.6085930586
 20
7.931222846
 11
11.6192333341
 21
7.8728347911
  0
LWPOLYLINE
  5
27A
100
AcDbEntity
  8
0
100
AcDbPolyline
 62
7
  6
CONTINUOUS
 90
7
 70
0
 10
12.1766062671
 20
11.2453667613
 10
12.1755931983
 20
11.2579947267
 10
12.1678604102
 20
11.2814713077
 10
12.1532148588
 20
11.3014093533
 10
12.133105184
 20
11.3158193792
 10
12.1095393562
 20
11.3232749398
 10
12.0978658192
 20
11.3241450766
  0
LINE
  5
27B
100
AcDbEntity
  8
0
100
AcDbLine
 62
9
  6
CONTINUOUS
 10
11.6165811199
 20
5.4414823082
 11
11.6164813799
 21
5.4412036239
  0
LINE
  5
27C
100
AcDbEntity
  8
0
100
AcDbLine
 62
7
  6
CONTINUOUS
 10
18.2653107138
 20
10.303819439
 11
18.2652130988
 21
10.3037534908
  0
LWPOLYLINE
  5
27D
100
AcDbEntity
  8
0
100
AcDbPolyline
 62
7
  6
CONTINUOUS
 90
7
 70
0
 10
16.0119181502
 20
9.1908804117
 10
16.0184770324
 20
9.191428209
 10
16.0298785213
 20
9.1952089445
 10
16.0396148145
 20
9.2022586497
 10
16.0467689651
 20
9.2119184137
 10
16.0506726451
 20
9.2232791329
 10
16.0512933726
 20
9.2302684197
  0
LWPOLYLINE
  5
27E
100
AcDbEntity
  8
0
100
AcDbPolyline
 62
7
  6
CONTINUOUS
 90
7
 70
0
 10
12.0978284541
 20
9.0655689163
 10
12.1104564296
 20
9.0665819983
 10
12.1339329915
 20
9.0743148128
 10
12.1538709831
 20
9.0889603845
 10
12.1682809392
 20
9.1090700776
 10
12.175736426
 20
9.1326359391
 10
12.1766065253
 20
9.1443092396
  0
LINE
  5
27F
100
AcDbEntity
  8
0
100
AcDbLine
 62
7
  6
CONTINUOUS
 10
14.0827057939
 20
9.1908800463
 11
14.0827024269
 21
9.19087986
  0
LINE
  5
280
100
AcDbEntity
  8
0
100
AcDbLine
 62
7
  6
CONTINUOUS
 10
12.0978999459
 20
9.0655688481
 11
11.7310087943
 21
9.0655688481
  0
LINE
  5
281
100
AcDbEntity
  8
0
100
AcDbLine
 62
7
  6
CONTINUOUS
 10
10.3635587424
 20
9.0655688481
 11
9.9968293629
 21
9.0655688481
  0
LINE
  5
282
100
AcDbEntity
  8
0
100
AcDbLine
 62
9
  6
CONTINUOUS
 10
12.0233141237
 20
9.1773974131
 11
11.7443888443
 21
9.1773974131
  0
LINE
  5
283
100
AcDbEntity
  8
0
100
AcDbLine
 62
9
  6
CONTINUOUS
 10
10.3501971266
 20
9.1773974131
 11
10.0713226731
 21
9.1773974131
  0
LINE
  5
284
100
AcDbEntity
  8
0
100
AcDbLine
 62
7
  6
CONTINUOUS
 10
6.0827024622
 20
9.19087986
 11
8.0119133096
 21
9.19087986
  0
LINE
  5
285
100
AcDbEntity
  8
0
100
AcDbLine
 62
7
  6
CONTINUOUS
 10
14.0827024269
 20
9.19087986
 11
16.0119253957
 21
9.19087986
  0
LWPOLYLINE
  5
286
100
AcDbEntity
  8
0
100
AcDbPolyline
 62
7
  6
CONTINUOUS
 90
7
 70
0
 10
8.0118991041
 20
9.1908953726
 10
8.0188855398
 20
9.1915178775
 10
8.0302432879
 20
9.1954232671
 10
8.0399014469
 20
9.2025777491
 10
8.0469507586
 20
9.2123130089
 10
8.0507323844
 20
9.2237119134
 10
8.0512813579
 20
9.2302634556
  0
LINE
  5
287
100
AcDbEntity
  8
0
100
AcDbLine
 62
7
  6
CONTINUOUS
 10
6.0827058279
 20
9.1908800463
 11
6.0827024622
 21
9.19087986
  0
LINE
  5
288
100
AcDbEntity
  8
0
100
AcDbLine
 62
9
  6
CONTINUOUS
 10
11.9133441997
 20
9.2507087581
 11
11.753308068
 21
9.2507087581
  0
LINE
  5
289
100
AcDbEntity
  8
0
100
AcDbLine
 62
9
  6
CONTINUOUS
 10
10.3412877881
 20
9.2507087581
 11
10.181284944
 21
9.2507087581
  0
LINE
  5
28A
100
AcDbEntity
  8
0
100
AcDbLine
 62
9
  6
CONTINUOUS
 10
15.9244813572
 20
9.3001849699
 11
15.1207129024
 21
9.3001849699
  0
LINE
  5
28B
100
AcDbEntity
  8
0
100
AcDbLine
 62
9
  6
CONTINUOUS
 10
14.9739237738
 20
9.3001849706
 11
14.1701553204
 21
9.3001849706
  0
LINE
  5
28C
100
AcDbEntity
  8
0
100
AcDbLine
 62
9
  6
CONTINUOUS
 10
7.9244813563
 20
9.3001849717
 11
6.1701553217
 21
9.3001849717
  0
LINE
  5
28D
100
AcDbEntity
  8
0
100
AcDbLine
 62
9
  6
CONTINUOUS
 10
14.9408552065
 20
9.381988257
 11
14.2724094242
 21
9.381988257
  0
LINE
  5
28E
100
AcDbEntity
  8
0
100
AcDbLine
 62
9
  6
CONTINUOUS
 10
7.8222272625
 20
9.3819882488
 11
6.2724094159
 21
9.3819882488
  0
LINE
  5
28F
100
AcDbEntity
  8
0
100
AcDbLine
 62
9
  6
CONTINUOUS
 10
15.8222275173
 20
9.381988277
 11
15.1537814552
 21
9.381988277
  0
LINE
  5
290
100
AcDbEntity
  8
0
100
AcDbLine
 62
7
  6
CONTINUOUS
 10
15.1507021718
 20
9.3854082267
 11
14.9439345047
 21
9.3854082267
  0
LINE
  5
291
100
AcDbEntity
  8
0
100
AcDbLine
 62
9
  6
CONTINUOUS
 10
10.4568192834
 20
9.4739941426
 11
11.6378109534
 21
9.4739941426
  0
LINE
  5
292
100
AcDbEntity
  8
0
100
AcDbLine
 62
9
  6
CONTINUOUS
 10
10.3780269997
 20
9.5824440026
 11
11.7166096769
 21
9.5824440026
  0
LINE
  5
293
100
AcDbEntity
  8
0
100
AcDbLine
 62
7
  6
CONTINUOUS
 10
15.4902317241
 20
9.7125735811
 11
14.6044049525
 21
9.7125735811
  0
LINE
  5
294
100
AcDbEntity
  8
0
100
AcDbLine
 62
7
  6
CONTINUOUS
 10
7.4902317241
 20
9.7125735811
 11
6.6044049525
 21
9.7125735811
  0
LINE
  5
295
100
AcDbEntity
  8
0
100
AcDbLine
 62
7
  6
CONTINUOUS
 10
6.6999836756
 20
10.0240395637
 11
6.7074034662
 21
10.0234758844
  0
LINE
  5
296
100
AcDbEntity
  8
0
100
AcDbLine
 62
9
  6
CONTINUOUS
 10
11.4489537261
 20
9.813030999
 11
11.2956701789
 21
9.9553204395
  0
LINE
  5
297
100
AcDbEntity
  8
0
100
AcDbLine
 62
9
  6
CONTINUOUS
 10
10.6456829504
 20
10.5766830923
 11
10.7989664977
 21
10.4343936518
  0
LINE
  5
298
100
AcDbEntity
  8
0
100
AcDbLine
 62
9
  6
CONTINUOUS
 10
11.7842489133
 20
9.4579824087
 11
11.7166096769
 21
9.5255727161
  0
LINE
  5
299
100
AcDbEntity
  8
0
100
AcDbLine
 62
9
  6
CONTINUOUS
 10
15.3641154663
 20
10.311459051
 11
15.3699289886
 21
10.3116323405
  0
LINE
  5
29A
100
AcDbEntity
  8
0
100
AcDbLine
 62
9
  6
CONTINUOUS
 10
6.7305212103
 20
10.0782550403
 11
6.724707688
 21
10.0780817508
  0
LINE
  5
29B
100
AcDbEntity
  8
0
100
AcDbLine
 62
9
  6
CONTINUOUS
 10
6.762679635
 20
9.9842436147
 11
6.7398436599
 21
9.9841833774
  0
LINE
  5
29C
100
AcDbEntity
  8
0
100
AcDbLine
 62
7
  6
CONTINUOUS
 10
11.4292718111
 20
9.7933428373
 11
10.6654922916
 21
9.7932216578
  0
LINE
  5
29D
100
AcDbEntity
  8
0
100
AcDbLine
 62
9
  6
CONTINUOUS
 10
11.286933738
 20
9.9465812263
 11
10.8077817327
 21
9.9465052051
  0
LINE
  5
29E
100
AcDbEntity
  8
0
100
AcDbLine
 62
9
  6
CONTINUOUS
 10
10.7990425189
 20
9.9552416459
 11
11.2956701788
 21
9.95532044
  0
LINE
  5
29F
100
AcDbEntity
  8
0
100
AcDbLine
 62
9
  6
CONTINUOUS
 10
6.5650348737
 20
9.7519436598
 11
7.5296018028
 21
9.7519436598
  0
LINE
  5
2A0
100
AcDbEntity
  8
0
100
AcDbLine
 62
9
  6
CONTINUOUS
 10
14.5650348737
 20
9.7519436598
 11
15.5296018029
 21
9.7519436598
  0
LINE
  5
2A1
100
AcDbEntity
  8
0
100
AcDbLine
 62
7
  6
CONTINUOUS
 10
6.7263813671
 20
9.8449731968
 11
7.3583608533
 21
9.8361485241
  0
LINE
  5
2A2
100
AcDbEntity
  8
0
100
AcDbLine
 62
7
  6
CONTINUOUS
 10
6.8080326528
 20
9.9233303093
 11
7.2789292466
 21
9.9167549251
  0
LINE
  5
2A3
100
AcDbEntity
  8
0
100
AcDbLine
 62
7
  6
CONTINUOUS
 10
14.7263813669
 20
9.8449731976
 11
15.3583608512
 21
9.8361485257
  0
LINE
  5
2A4
100
AcDbEntity
  8
0
100
AcDbLine
 62
9
  6
CONTINUOUS
 10
6.4067618606
 20
9.9869934954
 11
6.4209752472
 21
9.9867950262
  0
LINE
  5
2A5
100
AcDbEntity
  8
0
100
AcDbLine
 62
9
  6
CONTINUOUS
 10
6.7646335358
 20
9.9842164803
 11
6.762679635
 21
9.9842436147
  0
LINE
  5
2A6
100
AcDbEntity
  8
0
100
AcDbLine
 62
9
  6
CONTINUOUS
 10
6.8484978377
 20
10.0015125572
 11
7.2406628268
 21
9.9960365451
  0
LINE
  5
2A7
100
AcDbEntity
  8
0
100
AcDbLine
 62
7
  6
CONTINUOUS
 10
6.7258824536
 20
10.0241314994
 11
6.723954279
 21
10.0241584235
  0
LINE
  5
2A8
100
AcDbEntity
  8
0
100
AcDbLine
 62
7
  6
CONTINUOUS
 10
14.8080326526
 20
9.9233303093
 11
15.2789292474
 21
9.9167549251
  0
LINE
  5
2A9
100
AcDbEntity
  8
0
100
AcDbLine
 62
9
  6
CONTINUOUS
 10
6.7305209261
 20
10.0782549724
 11
6.7698743476
 21
10.0777054593
  0
LINE
  5
2AA
100
AcDbEntity
  8
0
100
AcDbLine
 62
9
  6
CONTINUOUS
 10
3.7979957561
 20
10.1250717278
 11
3.8307914411
 21
10.1246137839
  0
LINE
  5
2AB
100
AcDbEntity
  8
0
100
AcDbLine
 62
9
  6
CONTINUOUS
 10
15.6818211614
 20
9.9691876945
 11
15.6676077747
 21
9.9693861637
  0
LINE
  5
2AC
100
AcDbEntity
  8
0
100
AcDbLine
 62
9
  6
CONTINUOUS
 10
14.8484978377
 20
10.0015125572
 11
15.2406628268
 21
9.9960365451
  0
LINE
  5
2AD
100
AcDbEntity
  8
0
100
AcDbLine
 62
7
  6
CONTINUOUS
 10
15.3657902257
 20
10.0151961207
 11
15.363861695
 21
10.0152230498
  0
LINE
  5
2AE
100
AcDbEntity
  8
0
100
AcDbLine
 62
9
  6
CONTINUOUS
 10
15.3213829575
 20
10.0699947093
 11
15.3607363791
 21
10.0694451961
  0
LINE
  5
2AF
100
AcDbEntity
  8
0
100
AcDbLine
 62
9
  6
CONTINUOUS
 10
18.2606285027
 20
10.034733764
 11
18.2934241877
 21
10.0342758201
  0
LINE
  5
2B0
100
AcDbEntity
  8
0
100
AcDbLine
 62
9
  6
CONTINUOUS
 10
3.8340081739
 20
10.3549803273
 11
3.8012124889
 21
10.3554382712
  0
LINE
  5
2B1
100
AcDbEntity
  8
0
100
AcDbLine
 62
9
  6
CONTINUOUS
 10
6.7732537191
 20
10.319719382
 11
6.7339002975
 21
10.3202688952
  0
LINE
  5
2B2
100
AcDbEntity
  8
0
100
AcDbLine
 62
9
  6
CONTINUOUS
 10
15.3259653076
 20
9.9763546275
 11
15.3240109878
 21
9.9764055901
  0
LINE
  5
2B3
100
AcDbEntity
  8
0
100
AcDbLine
 62
9
  6
CONTINUOUS
 10
15.3487402161
 20
9.9756338904
 11
15.3259653076
 21
9.9763546275
  0
LINE
  5
2B4
100
AcDbEntity
  8
0
100
AcDbLine
 62
9
  6
CONTINUOUS
 10
6.7458964604
 20
10.4140802009
 11
6.768671369
 21
10.4133594638
  0
LINE
  5
2B5
100
AcDbEntity
  8
0
100
AcDbLine
 62
9
  6
CONTINUOUS
 10
6.7280944751
 20
10.3205949394
 11
6.7339003579
 21
10.3202688956
  0
LWPOLYLINE
  5
2B6
100
AcDbEntity
  8
0
100
AcDbPolyline
 62
7
  6
CONTINUOUS
 90
7
 70
0
 10
14.0433417044
 20
9.2302572243
 10
14.0438895029
 20
9.2236983443
 10
14.0476702398
 20
9.2122968574
 10
14.0547199455
 20
9.2025605663
 10
14.0643797089
 20
9.1954064175
 10
14.075740427
 20
9.1915027385
 10
14.0827297124
 20
9.1908820113
  0
LINE
  5
2B7
100
AcDbEntity
  8
0
100
AcDbLine
 62
7
  6
CONTINUOUS
 10
14.0433411527
 20
11.1594503027
 11
14.0433411527
 21
9.2302500113
  0
LINE
  5
2B8
100
AcDbEntity
  8
0
100
AcDbLine
 62
9
  6
CONTINUOUS
 10
14.152646263
 20
9.3176940273
 11
14.152646263
 21
11.0720200654
  0
LINE
  5
2B9
100
AcDbEntity
  8
0
100
AcDbLine
 62
9
  6
CONTINUOUS
 10
14.2344495828
 20
9.4199478787
 11
14.2344495828
 21
10.9697662185
  0
LWPOLYLINE
  5
2BA
100
AcDbEntity
  8
0
100
AcDbPolyline
 62
7
  6
CONTINUOUS
 90
5
 70
0
 10
15.3569774685
 20
9.9975058727
 10
15.3566780897
 20
9.9966403052
 10
15.3570365671
 20
9.9973614006
 10
15.3591528312
 20
10.0006563673
 10
15.3637667817
 20
10.0055827261
  0
LWPOLYLINE
  5
2BB
100
AcDbEntity
  8
0
100
AcDbPolyline
 62
7
  6
CONTINUOUS
 90
5
 70
0
 10
11.4882120782
 20
3.793400653
 10
11.5422544284
 20
3.8479673671
 10
11.5918571993
 20
3.926256759
 10
11.6221549518
 20
4.0146490435
 10
11.6312191897
 20
4.0920034706
  0
LINE
  5
2BC
100
AcDbEntity
  8
0
100
AcDbLine
 62
9
  6
CONTINUOUS
 10
15.3319570415
 20
10.4054704766
 11
15.3547930167
 21
10.4055307139
  0
LINE
  5
2BD
100
AcDbEntity
  8
0
100
AcDbLine
 62
9
  6
CONTINUOUS
 10
10.7989664977
 20
10.4343936512
 11
11.2955941577
 21
10.4344724454
  0
LINE
  5
2BE
100
AcDbEntity
  8
0
100
AcDbLine
 62
9
  6
CONTINUOUS
 10
10.8077029385
 20
10.443132865
 11
11.2868549439
 21
10.4432088862
  0
LINE
  5
2BF
100
AcDbEntity
  8
0
100
AcDbLine
 62
7
  6
CONTINUOUS
 10
10.6653648654
 20
10.596371254
 11
11.429144385
 21
10.5964924335
  0
LINE
  5
2C0
100
AcDbEntity
  8
0
100
AcDbLine
 62
9
  6
CONTINUOUS
 10
15.5296018029
 20
10.6377704315
 11
14.5650348737
 21
10.6377704315
  0
LINE
  5
2C1
100
AcDbEntity
  8
0
100
AcDbLine
 62
9
  6
CONTINUOUS
 10
7.5296018028
 20
10.6377704315
 11
6.5650348737
 21
10.6377704315
  0
LINE
  5
2C2
100
AcDbEntity
  8
0
100
AcDbLine
 62
7
  6
CONTINUOUS
 10
6.6044049525
 20
10.6771405102
 11
7.4902317241
 21
10.6771405102
  0
LINE
  5
2C3
100
AcDbEntity
  8
0
100
AcDbLine
 62
7
  6
CONTINUOUS
 10
14.6044049525
 20
10.6771405102
 11
15.4902317241
 21
10.6771405102
  0
LINE
  5
2C4
100
AcDbEntity
  8
0
100
AcDbLine
 62
9
  6
CONTINUOUS
 10
11.7166096769
 20
10.7854082267
 11
10.3780269997
 21
10.7854082267
  0
LINE
  5
2C5
100
AcDbEntity
  8
0
100
AcDbLine
 62
7
  6
CONTINUOUS
 10
6.7288464508
 20
10.3745179706
 11
6.7307749816
 21
10.3744910415
  0
LINE
  5
2C6
100
AcDbEntity
  8
0
100
AcDbLine
 62
9
  6
CONTINUOUS
 10
7.2461388388
 20
10.3882015341
 11
6.8539738498
 21
10.3936775462
  0
LINE
  5
2C7
100
AcDbEntity
  8
0
100
AcDbLine
 62
9
  6
CONTINUOUS
 10
6.4128155152
 20
10.4205263968
 11
6.4270289019
 21
10.4203279276
  0
LINE
  5
2C8
100
AcDbEntity
  8
0
100
AcDbLine
 62
9
  6
CONTINUOUS
 10
18.2966409205
 20
10.2646423634
 11
18.2638452355
 21
10.2651003074
  0
LINE
  5
2C9
100
AcDbEntity
  8
0
100
AcDbLine
 62
9
  6
CONTINUOUS
 10
15.3641157505
 20
10.3114591189
 11
15.3247623289
 21
10.312008632
  0
LINE
  5
2CA
100
AcDbEntity
  8
0
100
AcDbLine
 62
7
  6
CONTINUOUS
 10
7.286604024
 20
10.466383782
 11
6.8157074292
 21
10.4729591661
  0
LINE
  5
2CB
100
AcDbEntity
  8
0
100
AcDbLine
 62
7
  6
CONTINUOUS
 10
15.368754223
 20
10.3655825919
 11
15.3706823975
 21
10.3655556677
  0
LINE
  5
2CC
100
AcDbEntity
  8
0
100
AcDbLine
 62
9
  6
CONTINUOUS
 10
15.2461388388
 20
10.3882015341
 11
14.8539738498
 21
10.3936775462
  0
LINE
  5
2CD
100
AcDbEntity
  8
0
100
AcDbLine
 62
9
  6
CONTINUOUS
 10
15.3300031407
 20
10.405497611
 11
15.3319570415
 21
10.4054704766
  0
LINE
  5
2CE
100
AcDbEntity
  8
0
100
AcDbLine
 62
9
  6
CONTINUOUS
 10
15.687874816
 20
10.4027205959
 11
15.6736614294
 21
10.4029190651
  0
LINE
  5
2CF
100
AcDbEntity
  8
0
100
AcDbLine
 62
7
  6
CONTINUOUS
 10
7.3682553096
 20
10.5447408937
 11
6.7362758254
 21
10.5535655655
  0
LINE
  5
2D0
100
AcDbEntity
  8
0
100
AcDbLine
 62
7
  6
CONTINUOUS
 10
15.2866040238
 20
10.466383782
 11
14.8157074299
 21
10.4729591661
  0
LINE
  5
2D1
100
AcDbEntity
  8
0
100
AcDbLine
 62
7
  6
CONTINUOUS
 10
15.3682553094
 20
10.5447408945
 11
14.7362758233
 21
10.5535655672
  0
LINE
  5
2D2
100
AcDbEntity
  8
0
100
AcDbLine
 62
9
  6
CONTINUOUS
 10
6.768671369
 20
10.4133594638
 11
6.7706256887
 21
10.4133085012
  0
LINE
  5
2D3
100
AcDbEntity
  8
0
100
AcDbLine
 62
9
  6
CONTINUOUS
 10
15.3665422015
 20
10.0691191519
 11
15.3607363187
 21
10.0694451957
  0
LINE
  5
2D4
100
AcDbEntity
  8
0
100
AcDbLine
 62
7
  6
CONTINUOUS
 10
15.394653001
 20
10.3656745276
 11
15.3872332104
 21
10.3662382069
  0
LINE
  5
2D5
100
AcDbEntity
  8
0
100
AcDbLine
 62
7
  6
CONTINUOUS
 10
14.5650348737
 20
9.7519436598
 11
14.5650348737
 21
10.6377704315
  0
LINE
  5
2D6
100
AcDbEntity
  8
0
100
AcDbLine
 62
9
  6
CONTINUOUS
 10
14.6044049525
 20
10.6771405102
 11
14.6044049525
 21
9.7125735811
  0
LINE
  5
2D7
100
AcDbEntity
  8
0
100
AcDbLine
 62
7
  6
CONTINUOUS
 10
14.6974344932
 20
10.5157942354
 11
14.6886098169
 21
9.8838143177
  0
LINE
  5
2D8
100
AcDbEntity
  8
0
100
AcDbLine
 62
7
  6
CONTINUOUS
 10
14.7757916036
 20
10.4341428582
 11
14.7692162155
 21
9.9632459732
  0
LINE
  5
2D9
100
AcDbEntity
  8
0
100
AcDbLine
 62
9
  6
CONTINUOUS
 10
14.8539738498
 20
10.3936775462
 11
14.8484978377
 21
10.0015125572
  0
LWPOLYLINE
  5
2DA
100
AcDbEntity
  8
0
100
AcDbPolyline
 62
7
  6
CONTINUOUS
 90
7
 70
0
 10
14.0827375724
 20
11.1988187187
 10
14.0757511368
 20
11.1981962138
 10
14.0643933887
 20
11.1942908242
 10
14.0547352297
 20
11.1871363422
 10
14.0476859179
 20
11.1774010824
 10
14.0439042922
 20
11.1660021779
 10
14.0433553187
 20
11.1594506357
  0
LINE
  5
2DB
100
AcDbEntity
  8
0
100
AcDbLine
 62
7
  6
CONTINUOUS
 10
16.0119308487
 20
11.198834045
 11
16.0119342144
 21
11.1988342313
  0
LINE
  5
2DC
100
AcDbEntity
  8
0
100
AcDbLine
 62
7
  6
CONTINUOUS
 10
8.0119308827
 20
11.198834045
 11
8.0119342497
 21
11.1988342313
  0
LINE
  5
2DD
100
AcDbEntity
  8
0
100
AcDbLine
 62
7
  6
CONTINUOUS
 10
10.4567671569
 20
10.8641483842
 11
11.6378695196
 21
10.8641483842
  0
LINE
  5
2DE
100
AcDbEntity
  8
0
100
AcDbLine
 62
7
  6
CONTINUOUS
 10
6.9439345047
 20
11.0043058645
 11
7.1507021718
 21
11.0043058645
  0
LINE
  5
2DF
100
AcDbEntity
  8
0
100
AcDbLine
 62
9
  6
CONTINUOUS
 10
6.2724091593
 20
11.0077258143
 11
6.9408552214
 21
11.0077258143
  0
LINE
  5
2E0
100
AcDbEntity
  8
0
100
AcDbLine
 62
9
  6
CONTINUOUS
 10
7.15378147
 20
11.0077258343
 11
7.8222272524
 21
11.0077258343
  0
LINE
  5
2E1
100
AcDbEntity
  8
0
100
AcDbLine
 62
9
  6
CONTINUOUS
 10
14.272409414
 20
11.0077258425
 11
15.8222272606
 21
11.0077258425
  0
LINE
  5
2E2
100
AcDbEntity
  8
0
100
AcDbLine
 62
9
  6
CONTINUOUS
 10
6.1701553194
 20
11.0895291214
 11
6.9739237742
 21
11.0895291214
  0
LINE
  5
2E3
100
AcDbEntity
  8
0
100
AcDbLine
 62
9
  6
CONTINUOUS
 10
7.1207129028
 20
11.0895291207
 11
7.9244813562
 21
11.0895291207
  0
LINE
  5
2E4
100
AcDbEntity
  8
0
100
AcDbLine
 62
9
  6
CONTINUOUS
 10
14.1701553202
 20
11.0895291196
 11
15.9244813549
 21
11.0895291196
  0
LINE
  5
2E5
100
AcDbEntity
  8
0
100
AcDbLine
 62
9
  6
CONTINUOUS
 10
11.9133506878
 20
11.1390051401
 11
10.1812713382
 21
11.1390051401
  0
LINE
  5
2E6
100
AcDbEntity
  8
0
100
AcDbLine
 62
7
  6
CONTINUOUS
 10
16.0119342144
 20
11.1988342313
 11
14.082723367
 21
11.1988342313
  0
LINE
  5
2E7
100
AcDbEntity
  8
0
100
AcDbLine
 62
7
  6
CONTINUOUS
 10
8.0119342497
 20
11.1988342313
 11
6.0827112808
 21
11.1988342313
  0
LINE
  5
2E8
100
AcDbEntity
  8
0
100
AcDbLine
 62
9
  6
CONTINUOUS
 10
12.0233140728
 20
11.2123167189
 11
10.0713226573
 21
11.2123167189
  0
LINE
  5
2E9
100
AcDbEntity
  8
0
100
AcDbLine
 62
7
  6
CONTINUOUS
 10
9.9967589097
 20
11.3241452432
 11
12.0978658096
 21
11.3241452432
  0
LINE
  5
2EA
100
AcDbEntity
  8
0
100
AcDbLine
 62
9
  6
CONTINUOUS
 10
15.4902317241
 20
9.7125735811
 11
15.4902317241
 21
9.9998927744
  0
LINE
  5
2EB
100
AcDbEntity
  8
0
100
AcDbLine
 62
9
  6
CONTINUOUS
 10
15.4902317241
 20
10.3762583244
 11
15.4902317241
 21
10.6771405102
  0
LINE
  5
2EC
100
AcDbEntity
  8
0
100
AcDbLine
 62
9
  6
CONTINUOUS
 10
15.2406628268
 20
9.9960365451
 11
15.2461388388
 21
10.3882015341
  0
LINE
  5
2ED
100
AcDbEntity
  8
0
100
AcDbLine
 62
7
  6
CONTINUOUS
 10
15.3188450729
 20
9.9555712337
 11
15.3254204611
 21
10.4264681182
  0
LINE
  5
2EE
100
AcDbEntity
  8
0
100
AcDbLine
 62
9
  6
CONTINUOUS
 10
15.3213829575
 20
10.0699947093
 11
15.3247623289
 21
10.312008632
  0
LINE
  5
2EF
100
AcDbEntity
  8
0
100
AcDbLine
 62
9
  6
CONTINUOUS
 10
15.3607363187
 20
10.0694451957
 11
15.3641154663
 21
10.311459051
  0
LINE
  5
2F0
100
AcDbEntity
  8
0
100
AcDbLine
 62
9
  6
CONTINUOUS
 10
15.3699289886
 20
10.3116323405
 11
15.3665422015
 21
10.0691191519
  0
LINE
  5
2F1
100
AcDbEntity
  8
0
100
AcDbLine
 62
7
  6
CONTINUOUS
 10
15.397202182
 20
9.8739198578
 11
15.3991497895
 21
10.0133979032
  0
LINE
  5
2F2
100
AcDbEntity
  8
0
100
AcDbLine
 62
7
  6
CONTINUOUS
 10
15.4040792593
 20
10.3664222077
 11
15.4060268602
 21
10.5058997755
  0
LWPOLYLINE
  5
2F3
100
AcDbEntity
  8
0
100
AcDbPolyline
 62
7
  6
CONTINUOUS
 90
7
 70
0
 10
6.0827185264
 20
11.1988336796
 10
6.0761596442
 20
11.1982858823
 10
6.0647581553
 20
11.1945051468
 10
6.055021862
 20
11.1874554416
 10
6.0478677115
 20
11.1777956776
 10
6.0439640314
 20
11.1664349584
 10
6.0433433039
 20
11.1594456715
  0
LWPOLYLINE
  5
2F4
100
AcDbEntity
  8
0
100
AcDbPolyline
 62
7
  6
CONTINUOUS
 90
7
 70
0
 10
9.9967697545
 20
11.3241452041
 10
9.9851155199
 20
11.3232778352
 10
9.9615643974
 20
11.3158361063
 10
9.941461099
 20
11.3014485377
 10
9.926810018
 20
11.2815373104
 10
9.9190581382
 20
11.2580861773
 10
9.9180303032
 20
11.2455075621
  0
LINE
  5
2F5
100
AcDbEntity
  8
0
100
AcDbLine
 62
7
  6
CONTINUOUS
 10
15.3872332104
 20
10.3662382069
 11
15.3767468285
 21
10.3697738617
  0
LINE
  5
2F6
100
AcDbEntity
  8
0
100
AcDbLine
 62
7
  6
CONTINUOUS
 10
15.6885533026
 20
10.4427188194
 11
15.6886016254
 21
10.4427013072
  0
LINE
  5
2F7
100
AcDbEntity
  8
0
100
AcDbLine
 62
7
  6
CONTINUOUS
 10
15.5296018029
 20
10.6377704315
 11
15.5296018029
 21
10.3838937036
  0
LINE
  5
2F8
100
AcDbEntity
  8
0
100
AcDbLine
 62
7
  6
CONTINUOUS
 10
15.5296018029
 20
9.9912135593
 11
15.5296018029
 21
9.7519436598
  0
LINE
  5
2F9
100
AcDbEntity
  8
0
100
AcDbLine
 62
9
  6
CONTINUOUS
 10
15.8601871117
 20
10.9697662291
 11
15.8601871117
 21
10.4579423386
  0
LINE
  5
2FA
100
AcDbEntity
  8
0
100
AcDbLine
 62
9
  6
CONTINUOUS
 10
15.8601871117
 20
9.9083004078
 11
15.8601871117
 21
9.4199481466
  0
LINE
  5
2FB
100
AcDbEntity
  8
0
100
AcDbLine
 62
9
  6
CONTINUOUS
 10
15.9419904169
 20
11.072020068
 11
15.9419904169
 21
10.4637349186
  0
LINE
  5
2FC
100
AcDbEntity
  8
0
100
AcDbLine
 62
9
  6
CONTINUOUS
 10
15.9419904169
 20
9.9001371384
 11
15.9419904169
 21
9.3176940235
  0
LINE
  5
2FD
100
AcDbEntity
  8
0
100
AcDbLine
 62
9
  6
CONTINUOUS
 10
15.6736614554
 20
10.4029209283
 11
15.6676077563
 21
9.969384846
  0
LINE
  5
2FE
100
AcDbEntity
  8
0
100
AcDbLine
 62
9
  6
CONTINUOUS
 10
15.687874816
 20
10.4027205959
 11
15.6818211614
 21
9.9691876945
  0
LWPOLYLINE
  5
2FF
100
AcDbEntity
  8
0
100
AcDbPolyline
 62
7
  6
CONTINUOUS
 90
5
 70
0
 10
15.3767468285
 20
10.3697738617
 10
15.3689270377
 20
10.3752228806
 10
15.3643771233
 20
10.3803833787
 10
15.3624128811
 20
10.3836632277
 10
15.3620700722
 20
10.3844233586
  0
LINE
  5
300
100
AcDbEntity
  8
0
100
AcDbLine
 62
9
  6
CONTINUOUS
 10
15.2789292474
 20
9.9167549251
 11
15.3583608514
 21
9.8361485382
  0
LINE
  5
301
100
AcDbEntity
  8
0
100
AcDbLine
 62
9
  6
CONTINUOUS
 10
14.8157074299
 20
10.4729591661
 11
14.7362758231
 21
10.5535655531
  0
LWPOLYLINE
  5
302
100
AcDbEntity
  8
0
100
AcDbPolyline
 62
7
  6
CONTINUOUS
 90
7
 70
0
 10
16.0512949722
 20
11.1594568576
 10
16.0507471737
 20
11.166015747
 10
16.0469664328
 20
11.1774172416
 10
16.0399167188
 20
11.1871535374
 10
16.0302569445
 20
11.194307686
 10
16.0188962153
 20
11.1982113589
 10
16.011906925
 20
11.19883208
  0
LINE
  5
303
100
AcDbEntity
  8
0
100
AcDbLine
 62
7
  6
CONTINUOUS
 10
16.0512953376
 20
9.2302445012
 11
16.0512955239
 21
9.2302411343
  0
LINE
  5
304
100
AcDbEntity
  8
0
100
AcDbLine
 62
7
  6
CONTINUOUS
 10
16.0512955239
 20
9.2302411343
 11
16.0512955239
 21
9.8902574941
  0
LINE
  5
305
100
AcDbEntity
  8
0
100
AcDbLine
 62
7
  6
CONTINUOUS
 10
16.0512955239
 20
10.4706984232
 11
16.0512955239
 21
11.1594641031
  0
LINE
  5
306
100
AcDbEntity
  8
0
100
AcDbLine
 62
9
  6
CONTINUOUS
 10
18.2638452241
 20
10.2650994927
 11
18.2606285102
 21
10.034734305
  0
LINE
  5
307
100
AcDbEntity
  8
0
100
AcDbLine
 62
7
  6
CONTINUOUS
 10
18.2934241877
 20
10.03427582
 11
18.2966409215
 21
10.2646424341
  0
ARC
  5
308
100
AcDbEntity
  8
0
100
AcDbCircle
 62
9
  6
CONTINUOUS
 10
-36.725668292
 20
5.0241915009
 40
48.3657817203
100
AcDbArc
 50
358.8959607119
 51
359.7395190729
  0
ARC
  5
309
100
AcDbEntity
  8
0
100
AcDbCircle
 62
9
  6
CONTINUOUS
 10
-79.3188916766
 20
6.3529691728
 40
89.801663957
100
AcDbArc
 50
359.4182589876
 51
359.8875122039
  0
ARC
  5
30A
100
AcDbEntity
  8
0
100
AcDbCircle
 62
7
  6
CONTINUOUS
 10
5.3398026571
 20
2.0828463588
 40
8.4461741262
100
AcDbArc
 50
82.6982426125
 51
100.272414093
  0
ARC
  5
30B
100
AcDbEntity
  8
0
100
AcDbCircle
 62
9
  6
CONTINUOUS
 10
7.636407978
 20
2.0990211723
 40
4.2095560876
100
AcDbArc
 50
26.11211461
 51
26.6027920057
  0
ARC
  5
30C
100
AcDbEntity
  8
0
100
AcDbCircle
 62
9
  6
CONTINUOUS
 10
8.4898817953
 20
2.5163779678
 40
3.259502377
100
AcDbArc
 50
25.0065759895
 51
26.1275760869
  0
ARC
  5
30D
100
AcDbEntity
  8
0
100
AcDbCircle
 62
9
  6
CONTINUOUS
 10
8.9653865481
 20
2.7371049774
 40
2.7352690382
100
AcDbArc
 50
22.7638460482
 51
25.0269172168
  0
ARC
  5
30E
100
AcDbEntity
  8
0
100
AcDbCircle
 62
9
  6
CONTINUOUS
 10
8.8484617418
 20
4.9592787634
 40
1.6140026103
100
AcDbArc
 50
354.4905557755
 51
354.7346394532
  0
ARC
  5
30F
100
AcDbEntity
  8
0
100
AcDbCircle
 62
9
  6
CONTINUOUS
 10
10.8625704502
 20
4.1010541433
 40
0.3991553356
100
AcDbArc
 50
181.2561112922
 51
193.2116917345
  0
ARC
  5
310
100
AcDbEntity
  8
0
100
AcDbCircle
 62
9
  6
CONTINUOUS
 10
10.8602796383
 20
4.1005683897
 40
0.3968141408
100
AcDbArc
 50
193.2190075442
 51
194.0638357898
  0
ARC
  5
311
100
AcDbEntity
  8
0
100
AcDbCircle
 62
9
  6
CONTINUOUS
 10
-6.2110811842
 20
7.2665978622
 40
16.6813830215
100
AcDbArc
 50
1.8516323747
 51
2.9426592321
  0
ARC
  5
312
100
AcDbEntity
  8
0
100
AcDbCircle
 62
9
  6
CONTINUOUS
 10
-19.1640562981
 20
9.4430410143
 40
30.1068391687
100
AcDbArc
 50
349.9572629844
 51
350.0855536632
  0
ARC
  5
313
100
AcDbEntity
  8
0
100
AcDbCircle
 62
9
  6
CONTINUOUS
 10
-15.1764735634
 20
8.7480354202
 40
26.0591429013
100
AcDbArc
 50
350.0812790407
 51
350.3094759521
  0
ARC
  5
314
100
AcDbEntity
  8
0
100
AcDbCircle
 62
9
  6
CONTINUOUS
 10
4.7249616631
 20
8.9191674549
 40
5.8437112596
100
AcDbArc
 50
349.0146103148
 51
349.7367955019
  0
ARC
  5
315
100
AcDbEntity
  8
0
100
AcDbCircle
 62
7
  6
CONTINUOUS
 10
6.7151333764
 20
9.3924566749
 40
0.6317633319
100
AcDbArc
 50
89.1999595323
 51
117.7872424579
  0
ARC
  5
316
100
AcDbEntity
  8
0
100
AcDbCircle
 62
9
  6
CONTINUOUS
 10
6.7443056822
 20
9.4619473405
 40
0.6164460434
100
AcDbArc
 50
91.8219008005
 51
121.6350820705
  0
ARC
  5
317
100
AcDbEntity
  8
0
100
AcDbCircle
 62
7
  6
CONTINUOUS
 10
6.4022650079
 20
9.9862019391
 40
0.0393700787
100
AcDbArc
 50
275.4950122803
 51
297.788292072
  0
ARC
  5
318
100
AcDbEntity
  8
0
100
AcDbCircle
 62
7
  6
CONTINUOUS
 10
6.4022132664
 20
9.9861746716
 40
0.0393700787
100
AcDbArc
 50
275.6413275241
 51
297.788292072
  0
ARC
  5
319
100
AcDbEntity
  8
0
100
AcDbCircle
 62
7
  6
CONTINUOUS
 10
3.8373607974
 20
10.1244361159
 40
0.0393700787
100
AcDbArc
 50
179.2000544125
 51
258.2240701705
  0
ARC
  5
31A
100
AcDbEntity
  8
0
100
AcDbCircle
 62
7
  6
CONTINUOUS
 10
3.8373619972
 20
10.1245220382
 40
0.0393700787
100
AcDbArc
 50
179.2000544125
 51
258.3673638751
  0
ARC
  5
31B
100
AcDbEntity
  8
0
100
AcDbCircle
 62
7
  6
CONTINUOUS
 10
6.6044049525
 20
9.7519436598
 40
0.0393700787
100
AcDbArc
 50
180.0
 51
270.000000013
  0
ARC
  5
31C
100
AcDbEntity
  8
0
100
AcDbCircle
 62
9
  6
CONTINUOUS
 10
6.8085905042
 20
9.9626979424
 40
0.0393692921
100
AcDbArc
 50
179.2025737479
 51
269.188166996
  0
ARC
  5
31D
100
AcDbEntity
  8
0
100
AcDbCircle
 62
9
  6
CONTINUOUS
 10
6.7252979384
 20
9.9848051818
 40
0.0393363201
100
AcDbArc
 50
359.1425665329
 51
89.1484671587
  0
ARC
  5
31E
100
AcDbEntity
  8
0
100
AcDbCircle
 62
9
  6
CONTINUOUS
 10
6.7233507981
 20
9.9848363895
 40
0.039330576
100
AcDbArc
 50
359.1367046082
 51
86.3610823844
  0
ARC
  5
31F
100
AcDbEntity
  8
0
100
AcDbCircle
 62
9
  6
CONTINUOUS
 10
6.7008427871
 20
9.9852373158
 40
0.0388208594
100
AcDbArc
 50
54.2032751824
 51
58.5634191078
  0
ARC
  5
320
100
AcDbEntity
  8
0
100
AcDbCircle
 62
9
  6
CONTINUOUS
 10
6.7234103811
 20
9.9854559103
 40
0.0387063504
100
AcDbArc
 50
86.3908992353
 51
89.1950198477
  0
ARC
  5
321
100
AcDbEntity
  8
0
100
AcDbCircle
 62
9
  6
CONTINUOUS
 10
6.7008874922
 20
9.9854959849
 40
0.0385541692
100
AcDbArc
 50
83.4508297204
 51
91.3537754903
  0
ARC
  5
322
100
AcDbEntity
  8
0
100
AcDbCircle
 62
9
  6
CONTINUOUS
 10
6.4036595888
 20
9.9647358646
 40
0.0178690252
100
AcDbArc
 50
275.5021462648
 51
277.6630224669
  0
ARC
  5
323
100
AcDbEntity
  8
0
100
AcDbCircle
 62
7
  6
CONTINUOUS
 10
7.9250422364
 20
9.5178858961
 40
3.791575218
100
AcDbArc
 50
359.6571532193
 51
0.1161125806
  0
ARC
  5
324
100
AcDbEntity
  8
0
100
AcDbCircle
 62
9
  6
CONTINUOUS
 10
7.9737077365
 20
9.4894786602
 40
3.7430759023
100
AcDbArc
 50
0.092598159
 51
0.5524225687
  0
ARC
  5
325
100
AcDbEntity
  8
0
100
AcDbCircle
 62
9
  6
CONTINUOUS
 10
9.6449043576
 20
9.30018164
 40
0.6841840755
100
AcDbArc
 50
10.3874346085
 51
11.2730395806
  0
ARC
  5
326
100
AcDbEntity
  8
0
100
AcDbCircle
 62
9
  6
CONTINUOUS
 10
10.3427526229
 20
9.4907938945
 40
0.0808924451
100
AcDbArc
 50
237.7748054786
 51
243.3200811562
  0
ARC
  5
327
100
AcDbEntity
  8
0
100
AcDbCircle
 62
9
  6
CONTINUOUS
 10
10.3413824061
 20
9.4880511806
 40
0.0778265161
100
AcDbArc
 50
243.3148052218
 51
251.0767403418
  0
ARC
  5
328
100
AcDbEntity
  8
0
100
AcDbCircle
 62
9
  6
CONTINUOUS
 10
10.3864980506
 20
9.4540940158
 40
0.0758365999
100
AcDbArc
 50
188.5688555361
 51
195.0382079648
  0
ARC
  5
329
100
AcDbEntity
  8
0
100
AcDbCircle
 62
9
  6
CONTINUOUS
 10
10.3862893402
 20
9.4540730117
 40
0.0756270904
100
AcDbArc
 50
179.294354995
 51
188.5766799607
  0
ARC
  5
32A
100
AcDbEntity
  8
0
100
AcDbCircle
 62
9
  6
CONTINUOUS
 10
7.2794784833
 20
9.9561215298
 40
0.0393704679
100
AcDbArc
 50
269.2001393093
 51
359.1991154988
  0
ARC
  5
32B
100
AcDbEntity
  8
0
100
AcDbCircle
 62
7
  6
CONTINUOUS
 10
7.4902317241
 20
9.7519436598
 40
0.0393700787
100
AcDbArc
 50
269.9999999841
 51
360.0
  0
ARC
  5
32C
100
AcDbEntity
  8
0
100
AcDbCircle
 62
7
  6
CONTINUOUS
 10
10.6654891691
 20
9.8129066969
 40
0.0196850394
100
AcDbArc
 50
180.0091010301
 51
270.0090904179
  0
ARC
  5
32D
100
AcDbEntity
  8
0
100
AcDbCircle
 62
9
  6
CONTINUOUS
 10
-23.3806213845
 20
10.1893925999
 40
34.3889486307
100
AcDbArc
 50
349.7875887988
 51
349.9578964089
  0
ARC
  5
32E
100
AcDbEntity
  8
0
100
AcDbCircle
 62
9
  6
CONTINUOUS
 10
6.90954426
 20
10.35554358
 40
0.1773039266
100
AcDbArc
 50
167.9103039848
 51
168.9174073158
  0
ARC
  5
32F
100
AcDbEntity
  8
0
100
AcDbCircle
 62
9
  6
CONTINUOUS
 10
6.8895367176
 20
10.3598061074
 40
0.1568473794
100
AcDbArc
 50
167.3053840662
 51
167.9021046669
  0
ARC
  5
330
100
AcDbEntity
  8
0
100
AcDbCircle
 62
9
  6
CONTINUOUS
 10
6.7062353527
 20
10.4150835214
 40
0.0399827784
100
AcDbArc
 50
299.921069448
 51
303.3427623029
  0
ARC
  5
331
100
AcDbEntity
  8
0
100
AcDbCircle
 62
9
  6
CONTINUOUS
 10
6.815158189
 20
10.433592566
 40
0.039370468
100
AcDbArc
 50
89.2001390116
 51
179.199123091
  0
ARC
  5
332
100
AcDbEntity
  8
0
100
AcDbCircle
 62
7
  6
CONTINUOUS
 10
6.4082868246
 20
10.4214731027
 40
0.0393700787
100
AcDbArc
 50
60.6086951541
 51
82.7292547047
  0
ARC
  5
333
100
AcDbEntity
  8
0
100
AcDbCircle
 62
7
  6
CONTINUOUS
 10
3.84057873
 20
10.3548885789
 40
0.0393700787
100
AcDbArc
 50
100.1965938836
 51
179.1999455474
  0
ARC
  5
334
100
AcDbEntity
  8
0
100
AcDbCircle
 62
9
  6
CONTINUOUS
 10
7.2860461908
 20
10.4270161668
 40
0.0393692921
100
AcDbArc
 50
359.2025471647
 51
89.1881930623
  0
ARC
  5
335
100
AcDbEntity
  8
0
100
AcDbCircle
 62
9
  6
CONTINUOUS
 10
6.7312887611
 20
10.4138202773
 40
0.0393362468
100
AcDbArc
 50
269.2516052515
 51
359.2546222124
  0
ARC
  5
336
100
AcDbEntity
  8
0
100
AcDbCircle
 62
9
  6
CONTINUOUS
 10
6.7293408373
 20
10.413841897
 40
0.0393310546
100
AcDbArc
 50
272.0352752871
 51
359.2627572885
  0
ARC
  5
337
100
AcDbEntity
  8
0
100
AcDbCircle
 62
9
  6
CONTINUOUS
 10
6.7293834943
 20
10.4132180867
 40
0.0387038439
100
AcDbArc
 50
269.204923828
 51
272.0049638994
  0
ARC
  5
338
100
AcDbEntity
  8
0
100
AcDbCircle
 62
9
  6
CONTINUOUS
 10
6.7068680502
 20
10.4137566772
 40
0.03850034
100
AcDbArc
 50
267.164763793
 51
275.0511596334
  0
ARC
  5
339
100
AcDbEntity
  8
0
100
AcDbCircle
 62
7
  6
CONTINUOUS
 10
10.6653679895
 20
10.5766862149
 40
0.0196850394
100
AcDbArc
 50
90.0091010301
 51
180.0090904179
  0
ARC
  5
33A
100
AcDbEntity
  8
0
100
AcDbCircle
 62
7
  6
CONTINUOUS
 10
6.7376672236
 20
11.0062197211
 40
0.6317633319
100
AcDbArc
 50
240.607943012
 51
269.2000075538
  0
ARC
  5
33B
100
AcDbEntity
  8
0
100
AcDbCircle
 62
7
  6
CONTINUOUS
 10
10.4567671572
 20
10.7854082267
 40
0.0787401575
100
AcDbArc
 50
90.0
 51
180.0042842825
  0
ARC
  5
33C
100
AcDbEntity
  8
0
100
AcDbCircle
 62
7
  6
CONTINUOUS
 10
7.4902317241
 20
10.6377704315
 40
0.0393700787
100
AcDbArc
 50
0.0
 51
90.000000013
  0
ARC
  5
33D
100
AcDbEntity
  8
0
100
AcDbCircle
 62
7
  6
CONTINUOUS
 10
6.6044049525
 20
10.6377704315
 40
0.0393700787
100
AcDbArc
 50
90.0
 51
180.000000013
  0
ARC
  5
33E
100
AcDbEntity
  8
0
100
AcDbCircle
 62
9
  6
CONTINUOUS
 10
55.0507791566
 20
4.9798765236
 40
44.5961106171
100
AcDbArc
 50
180.2255397378
 51
181.1404209268
  0
ARC
  5
33F
100
AcDbEntity
  8
0
100
AcDbCircle
 62
9
  6
CONTINUOUS
 10
14.5369611838
 20
2.0599102442
 40
4.2974720179
100
AcDbArc
 50
153.4010141478
 51
153.8816193558
  0
ARC
  5
340
100
AcDbEntity
  8
0
100
AcDbCircle
 62
9
  6
CONTINUOUS
 10
13.5979028029
 20
2.5195500224
 40
3.2519583975
100
AcDbArc
 50
153.8693782601
 51
154.9930009967
  0
ARC
  5
341
100
AcDbEntity
  8
0
100
AcDbCircle
 62
9
  6
CONTINUOUS
 10
13.1308653521
 20
2.7364034713
 40
2.737036176
100
AcDbArc
 50
154.9740266071
 51
157.2356415006
  0
ARC
  5
342
100
AcDbEntity
  8
0
100
AcDbCircle
 62
9
  6
CONTINUOUS
 10
13.3865742279
 20
4.9716700631
 40
1.7549547146
100
AcDbArc
 50
185.2412936511
 51
185.4725988749
  0
ARC
  5
343
100
AcDbEntity
  8
0
100
AcDbCircle
 62
9
  6
CONTINUOUS
 10
11.231930748
 20
4.1010690699
 40
0.3992889119
100
AcDbArc
 50
346.9364431626
 51
358.7427540039
  0
ARC
  5
344
100
AcDbEntity
  8
0
100
AcDbCircle
 62
9
  6
CONTINUOUS
 10
11.2337631415
 20
4.1006980731
 40
0.3974200874
100
AcDbArc
 50
342.8084492321
 51
346.9288333684
  0
ARC
  5
345
100
AcDbEntity
  8
0
100
AcDbCircle
 62
9
  6
CONTINUOUS
 10
22.1680139271
 20
7.5830448049
 40
10.535727675
100
AcDbArc
 50
175.42308708
 51
177.0197064502
  0
ARC
  5
346
100
AcDbEntity
  8
0
100
AcDbCircle
 62
9
  6
CONTINUOUS
 10
12.4570844223
 20
9.2985972403
 40
0.6917347161
100
AcDbArc
 50
168.7168837645
 51
169.5671626473
  0
ARC
  5
347
100
AcDbEntity
  8
0
100
AcDbCircle
 62
9
  6
CONTINUOUS
 10
11.7081533888
 20
9.4540792083
 40
0.0758182229
100
AcDbArc
 50
344.9462318806
 51
351.3304308594
  0
ARC
  5
348
100
AcDbEntity
  8
0
100
AcDbCircle
 62
9
  6
CONTINUOUS
 10
11.7083385703
 20
9.4540615128
 40
0.0756324906
100
AcDbArc
 50
351.3225369552
 51
0.7059501125
  0
ARC
  5
349
100
AcDbEntity
  8
0
100
AcDbCircle
 62
7
  6
CONTINUOUS
 10
14.1321219505
 20
9.5177585523
 40
3.7541030651
100
AcDbArc
 50
179.8807850915
 51
180.3450269049
  0
ARC
  5
34A
100
AcDbEntity
  8
0
100
AcDbCircle
 62
9
  6
CONTINUOUS
 10
14.0974921274
 20
9.4892787352
 40
3.7196421307
100
AcDbArc
 50
179.4411006175
 51
179.9045032239
  0
ARC
  5
34B
100
AcDbEntity
  8
0
100
AcDbCircle
 62
9
  6
CONTINUOUS
 10
11.7518787408
 20
9.4908107716
 40
0.0809104611
100
AcDbArc
 50
296.6789037392
 51
302.2646878534
  0
ARC
  5
34C
100
AcDbEntity
  8
0
100
AcDbCircle
 62
9
  6
CONTINUOUS
 10
11.753228282
 20
9.4881078232
 40
0.0778893471
100
AcDbArc
 50
288.9252910674
 51
296.6845915672
  0
ARC
  5
34D
100
AcDbEntity
  8
0
100
AcDbCircle
 62
7
  6
CONTINUOUS
 10
14.6044049525
 20
9.7519436598
 40
0.0393700787
100
AcDbArc
 50
180.0
 51
270.000000013
  0
ARC
  5
34E
100
AcDbEntity
  8
0
100
AcDbCircle
 62
9
  6
CONTINUOUS
 10
14.8085905042
 20
9.9626979424
 40
0.0393692921
100
AcDbArc
 50
179.2025735202
 51
269.1881666999
  0
ARC
  5
34F
100
AcDbEntity
  8
0
100
AcDbCircle
 62
7
  6
CONTINUOUS
 10
11.429268687
 20
9.8130278764
 40
0.0196850394
100
AcDbArc
 50
270.0091010301
 51
0.0090904179
  0
ARC
  5
350
100
AcDbEntity
  8
0
100
AcDbCircle
 62
9
  6
CONTINUOUS
 10
17.2995160213
 20
8.9082394313
 40
5.7738786061
100
AcDbArc
 50
190.3304842922
 51
191.0550824002
  0
ARC
  5
351
100
AcDbEntity
  8
0
100
AcDbCircle
 62
7
  6
CONTINUOUS
 10
15.356969453
 20
9.3834943702
 40
0.6317633319
100
AcDbArc
 50
60.607943012
 51
89.2000075538
  0
ARC
  5
352
100
AcDbEntity
  8
0
100
AcDbCircle
 62
9
  6
CONTINUOUS
 10
15.1850924166
 20
10.0341705112
 40
0.1773039266
100
AcDbArc
 50
347.9103039848
 51
348.9174073159
  0
ARC
  5
353
100
AcDbEntity
  8
0
100
AcDbCircle
 62
9
  6
CONTINUOUS
 10
15.2050999587
 20
10.029907984
 40
0.1568473796
100
AcDbArc
 50
347.3053840667
 51
347.9021046663
  0
ARC
  5
354
100
AcDbEntity
  8
0
100
AcDbCircle
 62
9
  6
CONTINUOUS
 10
15.3884013239
 20
9.9746305699
 40
0.0399827784
100
AcDbArc
 50
119.9210694479
 51
123.3427623029
  0
ARC
  5
355
100
AcDbEntity
  8
0
100
AcDbCircle
 62
9
  6
CONTINUOUS
 10
15.2794784876
 20
9.9561215253
 40
0.039370468
100
AcDbArc
 50
269.2001390116
 51
359.199123091
  0
ARC
  5
356
100
AcDbEntity
  8
0
100
AcDbCircle
 62
7
  6
CONTINUOUS
 10
15.6863498519
 20
9.9682409886
 40
0.0393700787
100
AcDbArc
 50
240.6086951541
 51
262.7292547047
  0
ARC
  5
357
100
AcDbEntity
  8
0
100
AcDbCircle
 62
7
  6
CONTINUOUS
 10
18.2540579466
 20
10.0348255124
 40
0.0393700787
100
AcDbArc
 50
280.1965938836
 51
359.1999455474
  0
ARC
  5
358
100
AcDbEntity
  8
0
100
AcDbCircle
 62
7
  6
CONTINUOUS
 10
15.4902317241
 20
9.7519436598
 40
0.0393700787
100
AcDbArc
 50
270.0
 51
360.0
  0
ARC
  5
359
100
AcDbEntity
  8
0
100
AcDbCircle
 62
9
  6
CONTINUOUS
 10
15.3633479154
 20
9.975893814
 40
0.0393362468
100
AcDbArc
 50
89.2516052515
 51
179.2546222124
  0
ARC
  5
35A
100
AcDbEntity
  8
0
100
AcDbCircle
 62
9
  6
CONTINUOUS
 10
15.3652953487
 20
9.9758726742
 40
0.0393304504
100
AcDbArc
 50
92.034585876
 51
179.2634471194
  0
ARC
  5
35B
100
AcDbEntity
  8
0
100
AcDbCircle
 62
9
  6
CONTINUOUS
 10
15.3652531823
 20
9.9764960046
 40
0.0387038439
100
AcDbArc
 50
89.204923828
 51
92.0049638994
  0
ARC
  5
35C
100
AcDbEntity
  8
0
100
AcDbCircle
 62
9
  6
CONTINUOUS
 10
15.3877686264
 20
9.9759574141
 40
0.03850034
100
AcDbArc
 50
87.164763793
 51
95.0511596334
  0
ARC
  5
35D
100
AcDbEntity
  8
0
100
AcDbCircle
 62
9
  6
CONTINUOUS
 10
28.5617055422
 20
7.2608962822
 40
16.9375401923
100
AcDbArc
 50
177.083645572
 51
178.172363084
  0
ARC
  5
35E
100
AcDbEntity
  8
0
100
AcDbCircle
 62
9
  6
CONTINUOUS
 10
28.0492722005
 20
7.092107446
 40
16.4374441921
100
AcDbArc
 50
174.3975211805
 51
175.2866397019
  0
ARC
  5
35F
100
AcDbEntity
  8
0
100
AcDbCircle
 62
9
  6
CONTINUOUS
 10
41.8468062772
 20
9.5463563226
 40
30.7039589913
100
AcDbArc
 50
189.9154053322
 51
190.0411969822
  0
ARC
  5
360
100
AcDbEntity
  8
0
100
AcDbCircle
 62
9
  6
CONTINUOUS
 10
37.9630808119
 20
8.867445364
 40
26.7613398046
100
AcDbArc
 50
189.6931514756
 51
189.9153663099
  0
ARC
  5
361
100
AcDbEntity
  8
0
100
AcDbCircle
 62
9
  6
CONTINUOUS
 10
101.5045880651
 20
6.3543526767
 40
89.8927447962
100
AcDbArc
 50
180.113255188
 51
180.5820308957
  0
ARC
  5
362
100
AcDbEntity
  8
0
100
AcDbCircle
 62
9
  6
CONTINUOUS
 10
14.8151581933
 20
10.4335925615
 40
0.0393704679
100
AcDbArc
 50
89.2001393093
 51
179.1991154988
  0
ARC
  5
363
100
AcDbEntity
  8
0
100
AcDbCircle
 62
7
  6
CONTINUOUS
 10
11.4291475075
 20
10.5768073944
 40
0.0196850394
100
AcDbArc
 50
0.0091010301
 51
90.0090904179
  0
ARC
  5
364
100
AcDbEntity
  8
0
100
AcDbCircle
 62
7
  6
CONTINUOUS
 10
11.6378695194
 20
10.7854082267
 40
0.0787401575
100
AcDbArc
 50
359.992208865
 51
90.0
  0
ARC
  5
365
100
AcDbEntity
  8
0
100
AcDbCircle
 62
7
  6
CONTINUOUS
 10
14.6044049525
 20
10.6377704315
 40
0.0393700787
100
AcDbArc
 50
89.9999999841
 51
180.0
  0
ARC
  5
366
100
AcDbEntity
  8
0
100
AcDbCircle
 62
7
  6
CONTINUOUS
 10
15.6923716687
 20
10.4035121522
 40
0.0393700787
100
AcDbArc
 50
95.4950122803
 51
117.788292072
  0
ARC
  5
367
100
AcDbEntity
  8
0
100
AcDbCircle
 62
7
  6
CONTINUOUS
 10
15.6924234102
 20
10.4035394197
 40
0.0393700787
100
AcDbArc
 50
95.6413275241
 51
117.788292072
  0
ARC
  5
368
100
AcDbEntity
  8
0
100
AcDbCircle
 62
7
  6
CONTINUOUS
 10
18.2572758791
 20
10.2652779754
 40
0.0393700787
100
AcDbArc
 50
359.2000544125
 51
78.2240701705
  0
ARC
  5
369
100
AcDbEntity
  8
0
100
AcDbCircle
 62
7
  6
CONTINUOUS
 10
18.2572746793
 20
10.265192053
 40
0.0393700787
100
AcDbArc
 50
359.2000544125
 51
78.3673638751
  0
ARC
  5
36A
100
AcDbEntity
  8
0
100
AcDbCircle
 62
9
  6
CONTINUOUS
 10
15.2860461908
 20
10.4270161667
 40
0.0393692921
100
AcDbArc
 50
359.2025473924
 51
89.1881933583
  0
ARC
  5
36B
100
AcDbEntity
  8
0
100
AcDbCircle
 62
9
  6
CONTINUOUS
 10
15.3693387382
 20
10.4049089095
 40
0.0393363201
100
AcDbArc
 50
179.1425665329
 51
269.1484671587
  0
ARC
  5
36C
100
AcDbEntity
  8
0
100
AcDbCircle
 62
9
  6
CONTINUOUS
 10
15.3712858595
 20
10.4048776846
 40
0.0393305549
100
AcDbArc
 50
179.1366792021
 51
266.3611082944
  0
ARC
  5
36D
100
AcDbEntity
  8
0
100
AcDbCircle
 62
9
  6
CONTINUOUS
 10
15.3937938895
 20
10.4044767754
 40
0.0388208594
100
AcDbArc
 50
234.2032751824
 51
238.5634191078
  0
ARC
  5
36E
100
AcDbEntity
  8
0
100
AcDbCircle
 62
9
  6
CONTINUOUS
 10
15.3712262954
 20
10.404258181
 40
0.0387063504
100
AcDbArc
 50
266.3908992355
 51
269.1950198476
  0
ARC
  5
36F
100
AcDbEntity
  8
0
100
AcDbCircle
 62
9
  6
CONTINUOUS
 10
15.3937491844
 20
10.4042181064
 40
0.0385541692
100
AcDbArc
 50
263.4508297205
 51
271.3537754903
  0
ARC
  5
370
100
AcDbEntity
  8
0
100
AcDbCircle
 62
9
  6
CONTINUOUS
 10
15.6909770877
 20
10.4249782267
 40
0.0178690252
100
AcDbArc
 50
95.5021462645
 51
97.6630224669
  0
ARC
  5
371
100
AcDbEntity
  8
0
100
AcDbCircle
 62
7
  6
CONTINUOUS
 10
15.3795033001
 20
10.9972574164
 40
0.6317633319
100
AcDbArc
 50
269.1999595323
 51
297.7872424579
  0
ARC
  5
372
100
AcDbEntity
  8
0
100
AcDbCircle
 62
9
  6
CONTINUOUS
 10
15.3503309944
 20
10.9277667508
 40
0.6164460434
100
AcDbArc
 50
271.8219008005
 51
301.6350820705
  0
ARC
  5
373
100
AcDbEntity
  8
0
100
AcDbCircle
 62
7
  6
CONTINUOUS
 10
15.4902317241
 20
10.6377704315
 40
0.0393700787
100
AcDbArc
 50
0.0
 51
90.000000013
  0
ARC
  5
374
100
AcDbEntity
  8
0
100
AcDbCircle
 62
7
  6
CONTINUOUS
 10
16.7548340195
 20
18.3068677325
 40
8.4461741262
100
AcDbArc
 50
262.6982426125
 51
280.272414093
  0
ARC
  5
375
100
AcDbEntity
  8
0
100
AcDbCircle
 62
9
  6
CONTINUOUS
 10
46.5942806744
 20
10.3891328615
 40
35.5256577516
100
AcDbArc
 50
190.0446070864
 51
190.2094771782
  0
LINE
  5
376
100
AcDbEntity
  8
0
100
AcDbLine
 62
9
  6
CONTINUOUS
 10
10.6653648654
 20
10.596371254
 11
10.8077029381
 21
10.4431328651
  0
SPLINE
  5
377
100
AcDbEntity
  8
0
100
AcDbSpline
 62
9
  6
CONTINUOUS
 70
0
 71
3
 72
9
 73
5
 74
0
 42
0.0000001
 43
0.0000001
 44
0.0000000001
 40
0.0
 40
0.0
 40
0.0
 40
0.0
 40
0.2603923847
 40
1.0
 40
1.0
 40
1.0
 40
1.0
 10
10.8077029386
 20
10.443132864
 30
0.0
 10
10.8068658062
 20
10.4424604541
 30
0.0
 10
10.8037335235
 20
10.4397771983
 30
0.0
 10
10.8008756291
 20
10.4367720131
 30
0.0
 10
10.7989664987
 20
10.4343936515
 30
0.0
  0
LINE
  5
378
100
AcDbEntity
  8
0
100
AcDbLine
 62
9
  6
CONTINUOUS
 10
10.6458041299
 20
9.8129035728
 11
10.7990425188
 21
9.9552416454
  0
SPLINE
  5
379
100
AcDbEntity
  8
0
100
AcDbSpline
 62
9
  6
CONTINUOUS
 70
0
 71
3
 72
9
 73
5
 74
0
 42
0.0000001
 43
0.0000001
 44
0.0000000001
 40
0.0
 40
0.0
 40
0.0
 40
0.0
 40
0.2603923872
 40
1.0
 40
1.0
 40
1.0
 40
1.0
 10
10.7990425202
 20
9.9552416455
 30
0.0
 10
10.7997149302
 20
9.9544045131
 30
0.0
 10
10.802398186
 20
9.9512722305
 30
0.0
 10
10.8054033713
 20
9.9484143361
 30
0.0
 10
10.8077817329
 20
9.9465052057
 30
0.0
  0
LINE
  5
37A
100
AcDbEntity
  8
0
100
AcDbLine
 62
9
  6
CONTINUOUS
 10
11.4292718111
 20
9.7933428373
 11
11.2869337385
 21
9.9465812262
  0
SPLINE
  5
37B
100
AcDbEntity
  8
0
100
AcDbSpline
 62
9
  6
CONTINUOUS
 70
0
 71
3
 72
9
 73
5
 74
0
 42
0.0000001
 43
0.0000001
 44
0.0000000001
 40
0.0
 40
0.0
 40
0.0
 40
0.0
 40
0.2603923872
 40
1.0
 40
1.0
 40
1.0
 40
1.0
 10
11.2869337384
 20
9.9465812276
 30
0.0
 10
11.2877708708
 20
9.9472536376
 30
0.0
 10
11.2909031534
 20
9.9499368934
 30
0.0
 10
11.2937610479
 20
9.9529420786
 30
0.0
 10
11.2956701782
 20
9.9553204403
 30
0.0
  0
LINE
  5
37C
100
AcDbEntity
  8
0
100
AcDbLine
 62
9
  6
CONTINUOUS
 10
11.4488325466
 20
10.5768105185
 11
11.2955941577
 21
10.4344724458
  0
SPLINE
  5
37D
100
AcDbEntity
  8
0
100
AcDbSpline
 62
9
  6
CONTINUOUS
 70
0
 71
3
 72
9
 73
5
 74
0
 42
0.0000001
 43
0.0000001
 44
0.0000000001
 40
0.0
 40
0.0
 40
0.0
 40
0.0
 40
0.2603923872
 40
1.0
 40
1.0
 40
1.0
 40
1.0
 10
11.2955941563
 20
10.4344724458
 30
0.0
 10
11.2949217464
 20
10.4353095782
 30
0.0
 10
11.2922384905
 20
10.4384418608
 30
0.0
 10
11.2892333053
 20
10.4412997552
 30
0.0
 10
11.2868549437
 20
10.4432088856
 30
0.0
  0
SPLINE
  5
37E
100
AcDbEntity
  8
0
100
AcDbSpline
 62
7
  6
CONTINUOUS
 70
0
 71
3
 72
11
 73
7
 74
0
 42
0.0000001
 43
0.0000001
 44
0.0000000001
 40
0.0
 40
0.0
 40
0.0
 40
0.0
 40
0.2487299472
 40
0.4991286821
 40
0.749976142
 40
1.0
 40
1.0
 40
1.0
 40
1.0
 10
3.8294235773
 20
10.0859605981
 30
0.0
 10
4.0396539049
 20
10.0426917077
 30
0.0
 10
4.464842057
 20
9.9711308471
 30
0.0
 10
5.1098631446
 20
9.9114913928
 30
0.0
 10
5.758671508
 20
9.9008213809
 30
0.0
 10
6.190608964
 20
9.9263067105
 30
0.0
 10
6.4053726308
 20
9.9469491404
 30
0.0
  0
SPLINE
  5
37F
100
AcDbEntity
  8
0
100
AcDbSpline
 62
7
  6
CONTINUOUS
 70
0
 71
3
 72
11
 73
7
 74
0
 42
0.0000001
 43
0.0000001
 44
0.0000000001
 40
0.0
 40
0.0
 40
0.0
 40
0.0
 40
0.250026029
 40
0.5008699064
 40
0.7512621629
 40
1.0
 40
1.0
 40
1.0
 40
1.0
 10
6.4054586751
 20
9.9469333695
 30
0.0
 10
6.1907078205
 20
9.9256789148
 30
0.0
 10
5.7587243014
 20
9.899203531
 30
0.0
 10
5.1097547468
 20
9.9093770939
 30
0.0
 10
4.4646233125
 20
9.9695393785
 30
0.0
 10
4.0394937177
 20
10.0420704941
 30
0.0
 10
3.8293259623
 20
10.0858946499
 30
0.0
  0
LINE
  5
380
100
AcDbEntity
  8
0
100
AcDbLine
 62
7
  6
CONTINUOUS
 10
6.4060350509
 20
9.9470127839
 11
6.4053706487
 21
9.94694895
  0
LINE
  5
381
100
AcDbEntity
  8
0
100
AcDbLine
 62
7
  6
CONTINUOUS
 10
6.4054586751
 20
9.9469333696
 11
6.406083874
 21
9.9469953196
  0
SPLINE
  5
382
100
AcDbEntity
  8
0
100
AcDbSpline
 62
7
  6
CONTINUOUS
 70
0
 71
3
 72
11
 73
7
 74
0
 42
0.0000001
 43
0.0000001
 44
0.0000000001
 40
0.0
 40
0.0
 40
0.0
 40
0.0
 40
0.2500878123
 40
0.5000160157
 40
0.7499428718
 40
1.0
 40
1.0
 40
1.0
 40
1.0
 10
6.6974344946
 20
10.5157942335
 30
0.0
 10
6.6975042561
 20
10.5207898757
 30
0.0
 10
6.6995433935
 20
10.5308670443
 30
0.0
 10
6.7081973091
 20
10.5435844095
 30
0.0
 10
6.7211513376
 20
10.5518785688
 30
0.0
 10
6.731280797
 20
10.5536353776
 30
0.0
 10
6.7362758254
 20
10.5535655655
 30
0.0
  0
SPLINE
  5
383
100
AcDbEntity
  8
0
100
AcDbSpline
 62
7
  6
CONTINUOUS
 70
0
 71
3
 72
11
 73
7
 74
0
 42
0.0000001
 43
0.0000001
 44
0.0000000001
 40
0.0
 40
0.0
 40
0.0
 40
0.0
 40
0.2500878109
 40
0.5000160159
 40
0.7499428738
 40
1.0
 40
1.0
 40
1.0
 40
1.0
 10
7.3972021834
 20
9.8739198559
 30
0.0
 10
7.3971324216
 20
9.8689242136
 30
0.0
 10
7.3950932878
 20
9.8588470438
 30
0.0
 10
7.3864393692
 20
9.8461296802
 30
0.0
 10
7.3734853421
 20
9.8378355176
 30
0.0
 10
7.3633558818
 20
9.8360787126
 30
0.0
 10
7.3583608533
 20
9.8361485241
 30
0.0
  0
SPLINE
  5
384
100
AcDbEntity
  8
0
100
AcDbSpline
 62
7
  6
CONTINUOUS
 70
0
 71
3
 72
11
 73
7
 74
0
 42
0.0000001
 43
0.0000001
 44
0.0000000001
 40
0.0
 40
0.0
 40
0.0
 40
0.0
 40
0.2500855028
 40
0.5000227091
 40
0.7499394857
 40
1.0
 40
1.0
 40
1.0
 40
1.0
 10
6.7263813671
 20
9.8449731968
 30
0.0
 10
6.7213857695
 20
9.8450428893
 30
0.0
 10
6.7113085006
 20
9.8470822195
 30
0.0
 10
6.6985910879
 20
9.8557358835
 30
0.0
 10
6.6902966955
 20
9.8686898622
 30
0.0
 10
6.6885400719
 20
9.8788192181
 30
0.0
 10
6.6886098164
 20
9.8838143158
 30
0.0
  0
SPLINE
  5
385
100
AcDbEntity
  8
0
100
AcDbSpline
 62
7
  6
CONTINUOUS
 70
0
 71
3
 72
11
 73
7
 74
0
 42
0.0000001
 43
0.0000001
 44
0.0000000001
 40
0.0
 40
0.0
 40
0.0
 40
0.0
 40
0.2500855037
 40
0.5000227095
 40
0.749939485
 40
1.0
 40
1.0
 40
1.0
 40
1.0
 10
7.3682553096
 20
10.5447408937
 30
0.0
 10
7.3732509073
 20
10.5446712014
 30
0.0
 10
7.3833281757
 20
10.5426318693
 30
0.0
 10
7.3960455888
 20
10.5339782063
 30
0.0
 10
7.4043399793
 20
10.5210242267
 30
0.0
 10
7.4060966045
 20
10.5108948713
 30
0.0
 10
7.4060268597
 20
10.5058997736
 30
0.0
  0
SPLINE
  5
386
100
AcDbEntity
  8
0
100
AcDbSpline
 62
9
  6
CONTINUOUS
 70
0
 71
3
 72
12
 73
8
 74
0
 42
0.0000001
 43
0.0000001
 44
0.0000000001
 40
0.0
 40
0.0
 40
0.0
 40
0.0
 40
0.1087787281
 40
0.1944939394
 40
0.3050549249
 40
0.6027933541
 40
1.0
 40
1.0
 40
1.0
 40
1.0
 10
6.7398436599
 20
9.9841833774
 30
0.0
 10
6.7388444404
 20
9.9841620693
 30
0.0
 10
6.7372573546
 20
9.9855556851
 30
0.0
 10
6.7358713683
 20
9.9879038555
 30
0.0
 10
6.734017156
 20
9.9920964883
 30
0.0
 10
6.7320173385
 20
9.9992225578
 30
0.0
 10
6.7307901238
 20
10.0054984969
 30
0.0
 10
6.7301926423
 20
10.0090987455
 30
0.0
  0
SPLINE
  5
387
100
AcDbEntity
  8
0
100
AcDbSpline
 62
9
  6
CONTINUOUS
 70
0
 71
3
 72
9
 73
5
 74
0
 42
0.0000001
 43
0.0000001
 44
0.0000000001
 40
0.0
 40
0.0
 40
0.0
 40
0.0
 40
0.2596333741
 40
1.0
 40
1.0
 40
1.0
 40
1.0
 10
6.4324227592
 20
10.4422421596
 30
0.0
 10
6.4321095342
 20
10.4430847453
 30
0.0
 10
6.4307967496
 20
10.4462882612
 30
0.0
 10
6.4290503576
 20
10.4493236386
 30
0.0
 10
6.4275025918
 20
10.4513669678
 30
0.0
  0
SPLINE
  5
388
100
AcDbEntity
  8
0
100
AcDbSpline
 62
9
  6
CONTINUOUS
 70
0
 71
3
 72
9
 73
5
 74
0
 42
0.0000001
 43
0.0000001
 44
0.0000000001
 40
0.0
 40
0.0
 40
0.0
 40
0.0
 40
0.2609262283
 40
1.0
 40
1.0
 40
1.0
 40
1.0
 10
6.4275025918
 20
10.4513669678
 30
0.0
 10
6.4270126026
 20
10.4520138416
 30
0.0
 10
6.4250366285
 20
10.454415235
 30
0.0
 10
6.422642255
 20
10.456487102
 30
0.0
 10
6.4206894638
 20
10.4576995682
 30
0.0
  0
SPLINE
  5
389
100
AcDbEntity
  8
0
100
AcDbSpline
 62
9
  6
CONTINUOUS
 70
0
 71
3
 72
9
 73
5
 74
0
 42
0.0000001
 43
0.0000001
 44
0.0000000001
 40
0.0
 40
0.0
 40
0.0
 40
0.0
 40
0.256173571
 40
1.0
 40
1.0
 40
1.0
 40
1.0
 10
6.4206894638
 20
10.4576995682
 30
0.0
 10
6.4200659071
 20
10.4580867275
 30
0.0
 10
6.4175586181
 20
10.4594756441
 30
0.0
 10
6.4147537946
 20
10.4603374561
 30
0.0
 10
6.4126397358
 20
10.4606069321
 30
0.0
  0
SPLINE
  5
38A
100
AcDbEntity
  8
0
100
AcDbSpline
 62
9
  6
CONTINUOUS
 70
0
 71
3
 72
11
 73
7
 74
0
 42
0.0000001
 43
0.0000001
 44
0.0000000001
 40
0.0
 40
0.0
 40
0.0
 40
0.0
 40
0.2487085526
 40
0.4991060426
 40
0.7499662456
 40
1.0
 40
1.0
 40
1.0
 40
1.0
 10
3.8340080557
 20
10.3549804249
 30
0.0
 10
4.0452457651
 20
10.3928012517
 30
0.0
 10
4.472114589
 20
10.4531806631
 30
0.0
 10
5.1184768707
 20
10.4950894674
 30
0.0
 10
5.7672979389
 20
10.4871090381
 30
0.0
 10
6.198266944
 20
10.4486752407
 30
0.0
 10
6.4122873703
 20
10.421488703
 30
0.0
  0
LINE
  5
38B
100
AcDbEntity
  8
0
100
AcDbLine
 62
9
  6
CONTINUOUS
 10
6.4122872452
 20
10.4214873524
 11
6.4128155744
 21
10.4205264262
  0
LINE
  5
38C
100
AcDbEntity
  8
0
100
AcDbLine
 62
9
  6
CONTINUOUS
 10
6.40676192
 20
9.9869935404
 11
6.4062344277
 21
9.9860750289
  0
SPLINE
  5
38D
100
AcDbEntity
  8
0
100
AcDbSpline
 62
9
  6
CONTINUOUS
 70
0
 71
3
 72
9
 73
5
 74
0
 42
0.0000001
 43
0.0000001
 44
0.0000000001
 40
0.0
 40
0.0
 40
0.0
 40
0.0
 40
0.5605246799
 40
1.0
 40
1.0
 40
1.0
 40
1.0
 10
6.4062333873
 20
9.9860740118
 30
0.0
 10
6.4100293752
 20
9.9823374796
 30
0.0
 10
6.4166896308
 20
9.9755591661
 30
0.0
 10
6.4230989699
 20
9.9685322403
 30
0.0
 10
6.4257551543
 20
9.965309646
 30
0.0
  0
SPLINE
  5
38E
100
AcDbEntity
  8
0
100
AcDbSpline
 62
9
  6
CONTINUOUS
 70
0
 71
3
 72
9
 73
5
 74
0
 42
0.0000001
 43
0.0000001
 44
0.0000000001
 40
0.0
 40
0.0
 40
0.0
 40
0.0
 40
0.2561831393
 40
1.0
 40
1.0
 40
1.0
 40
1.0
 10
6.4257548129
 20
9.9653096546
 30
0.0
 10
6.4254289417
 20
9.9644612252
 30
0.0
 10
6.4240440784
 20
9.9611949495
 30
0.0
 10
6.4222118131
 20
9.9581098619
 30
0.0
 10
6.4205941104
 20
9.956025041
 30
0.0
  0
LINE
  5
38F
100
AcDbEntity
  8
0
100
AcDbLine
 62
9
  6
CONTINUOUS
 10
6.4205941104
 20
9.956025041
 11
6.4184512352
 21
9.953557177
  0
SPLINE
  5
390
100
AcDbEntity
  8
0
100
AcDbSpline
 62
9
  6
CONTINUOUS
 70
0
 71
3
 72
9
 73
5
 74
0
 42
0.0000001
 43
0.0000001
 44
0.0000000001
 40
0.0
 40
0.0
 40
0.0
 40
0.0
 40
0.2582942197
 40
1.0
 40
1.0
 40
1.0
 40
1.0
 10
6.4184512352
 20
9.953557177
 30
0.0
 10
6.4180765139
 20
9.9531731695
 30
0.0
 10
6.4165815956
 20
9.9517304511
 30
0.0
 10
6.4148986881
 20
9.9504806518
 30
0.0
 10
6.4135726226
 20
9.9496962159
 30
0.0
  0
SPLINE
  5
391
100
AcDbEntity
  8
0
100
AcDbSpline
 62
9
  6
CONTINUOUS
 70
0
 71
3
 72
9
 73
5
 74
0
 42
0.0000001
 43
0.0000001
 44
0.0000000001
 40
0.0
 40
0.0
 40
0.0
 40
0.0
 40
0.2602815318
 40
1.0
 40
1.0
 40
1.0
 40
1.0
 10
6.4135726226
 20
9.9496962159
 30
0.0
 10
6.4129737916
 20
9.9493419766
 30
0.0
 10
6.4106114
 20
9.9480897577
 30
0.0
 10
6.4080020701
 20
9.9472899677
 30
0.0
 10
6.4060423625
 20
9.9470264193
 30
0.0
  0
SPLINE
  5
392
100
AcDbEntity
  8
0
100
AcDbSpline
 62
9
  6
CONTINUOUS
 70
0
 71
3
 72
9
 73
5
 74
0
 42
0.0000001
 43
0.0000001
 44
0.0000000001
 40
0.0
 40
0.0
 40
0.0
 40
0.0
 40
0.1666682592
 40
1.0
 40
1.0
 40
1.0
 40
1.0
 10
6.4053719697
 20
9.9469490924
 30
0.0
 10
6.4054675283
 20
9.9469583612
 30
0.0
 10
6.4060197389
 20
9.9471975016
 30
0.0
 10
6.4062313693
 20
9.9478268364
 30
0.0
 10
6.4063888047
 20
9.9482803146
 30
0.0
  0
LINE
  5
393
100
AcDbEntity
  8
0
100
AcDbLine
 62
9
  6
CONTINUOUS
 10
6.4063888047
 20
9.9482803146
 11
6.4070505389
 21
9.9515128338
  0
SPLINE
  5
394
100
AcDbEntity
  8
0
100
AcDbSpline
 62
9
  6
CONTINUOUS
 70
0
 71
3
 72
10
 73
6
 74
0
 42
0.0000001
 43
0.0000001
 44
0.0000000001
 40
0.0
 40
0.0
 40
0.0
 40
0.0
 40
0.1853130082
 40
0.4344186942
 40
1.0
 40
1.0
 40
1.0
 40
1.0
 10
6.4070505389
 20
9.9515128338
 30
0.0
 10
6.4073196101
 20
9.9536340302
 30
0.0
 10
6.4075804356
 20
9.9586496301
 30
0.0
 10
6.4074879972
 20
9.9701877814
 30
0.0
 10
6.4068481904
 20
9.9795771971
 30
0.0
 10
6.4062336061
 20
9.9860740299
 30
0.0
  0
SPLINE
  5
395
100
AcDbEntity
  8
0
100
AcDbSpline
 62
9
  6
CONTINUOUS
 70
0
 71
3
 72
11
 73
7
 74
0
 42
0.0000001
 43
0.0000001
 44
0.0000000001
 40
0.0
 40
0.0
 40
0.0
 40
0.0
 40
0.2078078753
 40
0.4333078614
 40
0.6947046071
 40
1.0
 40
1.0
 40
1.0
 40
1.0
 10
6.4206121884
 20
9.9513684351
 30
0.0
 10
6.4215736521
 20
9.9518750818
 30
0.0
 10
6.4233753732
 20
9.9533662044
 30
0.0
 10
6.4251162611
 20
9.9566334225
 30
0.0
 10
6.4259308646
 20
9.9607374171
 30
0.0
 10
6.425892514
 20
9.9637189002
 30
0.0
 10
6.4257549882
 20
9.9653095884
 30
0.0
  0
SPLINE
  5
396
100
AcDbEntity
  8
0
100
AcDbSpline
 62
9
  6
CONTINUOUS
 70
0
 71
3
 72
9
 73
5
 74
0
 42
0.0000001
 43
0.0000001
 44
0.0000000001
 40
0.0
 40
0.0
 40
0.0
 40
0.0
 40
0.467253052
 40
1.0
 40
1.0
 40
1.0
 40
1.0
 10
6.4257549882
 20
9.9653095884
 30
0.0
 10
6.4258411395
 20
9.9687551843
 30
0.0
 10
6.4248968979
 20
9.9761577116
 30
0.0
 10
6.4225219428
 20
9.9831805933
 30
0.0
 10
6.4209752889
 20
9.9867932208
 30
0.0
  0
SPLINE
  5
397
100
AcDbEntity
  8
0
100
AcDbSpline
 62
9
  6
CONTINUOUS
 70
0
 71
3
 72
17
 73
13
 74
0
 42
0.0000001
 43
0.0000001
 44
0.0000000001
 40
0.0
 40
0.0
 40
0.0
 40
0.0
 40
0.1952922144
 40
0.3830072831
 40
0.5554275294
 40
0.7060865038
 40
0.8294330335
 40
0.9208957907
 40
0.9537124458
 40
0.9776432514
 40
0.9927305889
 40
1.0
 40
1.0
 40
1.0
 40
1.0
 10
6.7698743442
 20
10.0777054458
 30
0.0
 10
6.7697888705
 20
10.0715872567
 30
0.0
 10
6.7695914349
 20
10.0595887264
 30
0.0
 10
6.7692096322
 20
10.0421901416
 30
0.0
 10
6.7687418389
 20
10.0261939032
 30
0.0
 10
6.7681802078
 20
10.0122144408
 30
0.0
 10
6.7675285535
 20
10.0007902845
 30
0.0
 10
6.766847173
 20
9.9930404971
 30
0.0
 10
6.7662227415
 20
9.9884630455
 30
0.0
 10
6.7657351962
 20
9.9862169707
 30
0.0
 10
6.7653671522
 20
9.9849052543
 30
0.0
 10
6.7648612813
 20
9.9842138147
 30
0.0
 10
6.7646335358
 20
9.9842164803
 30
0.0
  0
SPLINE
  5
398
100
AcDbEntity
  8
0
100
AcDbSpline
 62
9
  6
CONTINUOUS
 70
0
 71
3
 72
16
 73
12
 74
0
 42
0.0000001
 43
0.0000001
 44
0.0000000001
 40
0.0
 40
0.0
 40
0.0
 40
0.0
 40
0.1944441674
 40
0.3812569668
 40
0.5531498689
 40
0.7037157141
 40
0.8271490484
 40
0.9191398653
 40
0.9764309963
 40
0.9919553785
 40
1.0
 40
1.0
 40
1.0
 40
1.0
 10
6.7305215988
 20
10.0782538448
 30
0.0
 10
6.7303611833
 20
10.0747206599
 30
0.0
 10
6.7300394018
 20
10.0677931731
 30
0.0
 10
6.7295393074
 20
10.0577445718
 30
0.0
 10
6.7290301949
 20
10.0484936788
 30
0.0
 10
6.7285100025
 20
10.0404041659
 30
0.0
 10
6.7279553406
 20
10.0337569759
 30
0.0
 10
6.7274079179
 20
10.0288561006
 30
0.0
 10
6.7268324969
 20
10.0258520932
 30
0.0
 10
6.7263725218
 20
10.0245087561
 30
0.0
 10
6.7260293861
 20
10.0241330422
 30
0.0
 10
6.7258830697
 20
10.0241348014
 30
0.0
  0
SPLINE
  5
399
100
AcDbEntity
  8
0
100
AcDbSpline
 62
9
  6
CONTINUOUS
 70
0
 71
3
 72
10
 73
6
 74
0
 42
0.0000001
 43
0.0000001
 44
0.0000000001
 40
0.0
 40
0.0
 40
0.0
 40
0.0
 40
0.09058282
 40
0.2754210815
 40
1.0
 40
1.0
 40
1.0
 40
1.0
 10
6.7239541194
 20
10.0241584259
 30
0.0
 10
6.7240130404
 20
10.0241575269
 30
0.0
 10
6.7241516667
 20
10.0243220976
 30
0.0
 10
6.7243313253
 20
10.024919306
 30
0.0
 10
6.7244297222
 20
10.0255222307
 30
0.0
 10
6.7244903463
 20
10.0259896844
 30
0.0
  0
SPLINE
  5
39A
100
AcDbEntity
  8
0
100
AcDbSpline
 62
9
  6
CONTINUOUS
 70
0
 71
3
 72
11
 73
7
 74
0
 42
0.0000001
 43
0.0000001
 44
0.0000000001
 40
0.0
 40
0.0
 40
0.0
 40
0.0
 40
0.1408654161
 40
0.3823567352
 40
0.6867503381
 40
1.0
 40
1.0
 40
1.0
 40
1.0
 10
6.7244903463
 20
10.0259896844
 30
0.0
 10
6.7248050661
 20
10.0284163893
 30
0.0
 10
6.7250428657
 20
10.035068157
 30
0.0
 10
6.7252259661
 20
10.0469891639
 30
0.0
 10
6.7250916788
 20
10.0619172779
 30
0.0
 10
6.7248603576
 20
10.0726434851
 30
0.0
 10
6.7247071445
 20
10.0780829094
 30
0.0
  0
LINE
  5
39B
100
AcDbEntity
  8
0
100
AcDbLine
 62
9
  6
CONTINUOUS
 10
6.697434507
 20
10.5157942334
 11
6.7757916036
 21
10.4341428576
  0
SPLINE
  5
39C
100
AcDbEntity
  8
0
100
AcDbSpline
 62
9
  6
CONTINUOUS
 70
0
 71
3
 72
11
 73
7
 74
0
 42
0.0000001
 43
0.0000001
 44
0.0000000001
 40
0.0
 40
0.0
 40
0.0
 40
0.0
 40
0.2395158235
 40
0.4870901951
 40
0.7415398936
 40
1.0
 40
1.0
 40
1.0
 40
1.0
 10
6.4270289203
 20
10.4203292453
 30
0.0
 10
6.4484456503
 20
10.4063218927
 30
0.0
 10
6.4937913743
 20
10.3804652752
 30
0.0
 10
6.5672534894
 20
10.3502292549
 30
0.0
 10
6.6459690023
 20
10.3291848906
 30
0.0
 10
6.7005277655
 20
10.322239781
 30
0.0
 10
6.7280934737
 20
10.3205949533
 30
0.0
  0
LINE
  5
39D
100
AcDbEntity
  8
0
100
AcDbLine
 62
9
  6
CONTINUOUS
 10
6.7692162155
 20
9.9632459731
 11
6.6886098292
 21
9.8838143156
  0
SPLINE
  5
39E
100
AcDbEntity
  8
0
100
AcDbSpline
 62
9
  6
CONTINUOUS
 70
0
 71
3
 72
17
 73
13
 74
0
 42
0.0000001
 43
0.0000001
 44
0.0000000001
 40
0.0
 40
0.0
 40
0.0
 40
0.0
 40
0.00726652
 40
0.0223492902
 40
0.0462785489
 40
0.0790983313
 40
0.1705660231
 40
0.2939173668
 40
0.4445896145
 40
0.6170098195
 40
0.8047114526
 40
1.0
 40
1.0
 40
1.0
 40
1.0
 10
6.7706256887
 20
10.4133085012
 30
0.0
 10
6.7708533086
 20
10.4133049655
 30
0.0
 10
6.7713399217
 20
10.4126002057
 30
0.0
 10
6.7716709378
 20
10.4112790086
 30
0.0
 10
6.7720956157
 20
10.4090205731
 30
0.0
 10
6.7725917939
 20
10.4044276948
 30
0.0
 10
6.7730565872
 20
10.3966623193
 30
0.0
 10
6.7733889285
 20
10.3852248521
 30
0.0
 10
6.7735599071
 20
10.3712360216
 30
0.0
 10
6.7735809575
 20
10.3552345938
 30
0.0
 10
6.7734767878
 20
10.3378344418
 30
0.0
 10
6.7733390413
 20
10.3258368364
 30
0.0
 10
6.7732537223
 20
10.3197193834
 30
0.0
  0
LINE
  5
39F
100
AcDbEntity
  8
0
100
AcDbLine
 62
9
  6
CONTINUOUS
 10
7.2406631006
 20
9.9960366772
 11
7.2789285181
 21
9.9167574447
  0
LINE
  5
3A0
100
AcDbEntity
  8
0
100
AcDbLine
 62
9
  6
CONTINUOUS
 10
6.8080333278
 20
9.9233328078
 11
6.8484974542
 21
10.0015127557
  0
LINE
  5
3A1
100
AcDbEntity
  8
0
100
AcDbLine
 62
9
  6
CONTINUOUS
 10
7.318845073
 20
9.9555712364
 11
7.2406628268
 21
9.9960365451
  0
LINE
  5
3A2
100
AcDbEntity
  8
0
100
AcDbLine
 62
9
  6
CONTINUOUS
 10
7.2461388388
 20
10.3882015341
 11
7.3254204611
 21
10.426468121
  0
LINE
  5
3A3
100
AcDbEntity
  8
0
100
AcDbLine
 62
9
  6
CONTINUOUS
 10
6.7757916036
 20
10.4341428544
 11
6.8539738498
 21
10.3936775462
  0
LINE
  5
3A4
100
AcDbEntity
  8
0
100
AcDbLine
 62
9
  6
CONTINUOUS
 10
6.8484978377
 20
10.0015125572
 11
6.7692162154
 21
9.9632459701
  0
LINE
  5
3A5
100
AcDbEntity
  8
0
100
AcDbLine
 62
9
  6
CONTINUOUS
 10
7.2866033488
 20
10.4663812834
 11
7.2461392223
 21
10.3882013356
  0
LINE
  5
3A6
100
AcDbEntity
  8
0
100
AcDbLine
 62
9
  6
CONTINUOUS
 10
6.853973576
 20
10.3936774141
 11
6.8157081585
 21
10.4729566466
  0
LINE
  5
3A7
100
AcDbEntity
  8
0
100
AcDbLine
 62
9
  6
CONTINUOUS
 10
7.3972021696
 20
9.8739198561
 11
7.3188450729
 21
9.9555712331
  0
SPLINE
  5
3A8
100
AcDbEntity
  8
0
100
AcDbSpline
 62
9
  6
CONTINUOUS
 70
0
 71
3
 72
9
 73
5
 74
0
 42
0.0000001
 43
0.0000001
 44
0.0000000001
 40
0.0
 40
0.0
 40
0.0
 40
0.0
 40
0.3140812085
 40
1.0
 40
1.0
 40
1.0
 40
1.0
 10
6.7307748463
 20
10.374489739
 30
0.0
 10
6.7309961945
 20
10.3744863757
 30
0.0
 10
6.7314367392
 20
10.3737152663
 30
0.0
 10
6.7315637769
 20
10.3731033527
 30
0.0
 10
6.7316675584
 20
10.3726311675
 30
0.0
  0
SPLINE
  5
3A9
100
AcDbEntity
  8
0
100
AcDbSpline
 62
9
  6
CONTINUOUS
 70
0
 71
3
 72
12
 73
8
 74
0
 42
0.0000001
 43
0.0000001
 44
0.0000000001
 40
0.0
 40
0.0
 40
0.0
 40
0.0
 40
0.0574347872
 40
0.1396769433
 40
0.3697341003
 40
0.6669063389
 40
1.0
 40
1.0
 40
1.0
 40
1.0
 10
6.7316675584
 20
10.3726311675
 30
0.0
 10
6.7318830787
 20
10.3716505921
 30
0.0
 10
6.7322140642
 20
10.3692265098
 30
0.0
 10
6.7327675533
 20
10.3627883214
 30
0.0
 10
6.7332121027
 20
10.3521389422
 30
0.0
 10
6.7336012195
 20
10.3371067602
 30
0.0
 10
6.7338032665
 20
10.3260908197
 30
0.0
 10
6.7339003702
 20
10.3202690333
 30
0.0
  0
LINE
  5
3AA
100
AcDbEntity
  8
0
100
AcDbLine
 62
9
  6
CONTINUOUS
 10
7.3254204611
 20
10.4264681181
 11
7.4060268473
 21
10.5058997738
  0
SPLINE
  5
3AB
100
AcDbEntity
  8
0
100
AcDbSpline
 62
9
  6
CONTINUOUS
 70
0
 71
3
 72
9
 73
5
 74
0
 42
0.0000001
 43
0.0000001
 44
0.0000000001
 40
0.0
 40
0.0
 40
0.0
 40
0.0
 40
0.5631898462
 40
1.0
 40
1.0
 40
1.0
 40
1.0
 10
6.4122761059
 20
10.421477074
 30
0.0
 10
6.4162145352
 20
10.4252196774
 30
0.0
 10
6.4230750335
 20
10.4319998052
 30
0.0
 10
6.4297238011
 20
10.4390060309
 30
0.0
 10
6.4324227592
 20
10.4422421596
 30
0.0
  0
SPLINE
  5
3AC
100
AcDbEntity
  8
0
100
AcDbSpline
 62
9
  6
CONTINUOUS
 70
0
 71
3
 72
15
 73
11
 74
0
 42
0.0000001
 43
0.0000001
 44
0.0000000001
 40
0.0
 40
0.0
 40
0.0
 40
0.0
 40
0.0336513706
 40
0.0596277678
 40
0.0936501035
 40
0.1879743286
 40
0.3152933589
 40
0.4704584391
 40
0.6434449343
 40
1.0
 40
1.0
 40
1.0
 40
1.0
 10
3.8336091906
 20
10.3936368499
 30
0.0
 10
3.8331731025
 20
10.3935584124
 30
0.0
 10
3.8325594457
 20
10.3928961012
 30
0.0
 10
3.8320865285
 20
10.3917806695
 30
0.0
 10
3.8315483554
 20
10.3898040477
 30
0.0
 10
3.8311950326
 20
10.3864496708
 30
0.0
 10
3.8310960603
 20
10.3814850612
 30
0.0
 10
3.8313789616
 20
10.3754912818
 30
0.0
 10
3.8321917792
 20
10.3665108981
 30
0.0
 10
3.8332012191
 20
10.3596052053
 30
0.0
 10
3.8340081728
 20
10.3549803315
 30
0.0
  0
SPLINE
  5
3AD
100
AcDbEntity
  8
0
100
AcDbSpline
 62
9
  6
CONTINUOUS
 70
0
 71
3
 72
11
 73
7
 74
0
 42
0.0000001
 43
0.0000001
 44
0.0000000001
 40
0.0
 40
0.0
 40
0.0
 40
0.0
 40
0.3037148281
 40
0.5646191519
 40
0.7908419006
 40
1.0
 40
1.0
 40
1.0
 40
1.0
 10
6.4324045642
 20
10.44221105
 30
0.0
 10
6.4325555589
 20
10.4437395609
 30
0.0
 10
6.4326272443
 20
10.446611623
 30
0.0
 10
6.4318861329
 20
10.4505821107
 30
0.0
 10
6.4302447126
 20
10.4537701936
 30
0.0
 10
6.4285301797
 20
10.4552564842
 30
0.0
 10
6.4276085731
 20
10.4557756099
 30
0.0
  0
SPLINE
  5
3AE
100
AcDbEntity
  8
0
100
AcDbSpline
 62
9
  6
CONTINUOUS
 70
0
 71
3
 72
9
 73
5
 74
0
 42
0.0000001
 43
0.0000001
 44
0.0000000001
 40
0.0
 40
0.0
 40
0.0
 40
0.0
 40
0.5609341818
 40
1.0
 40
1.0
 40
1.0
 40
1.0
 10
6.4122761059
 20
10.421477074
 30
0.0
 10
6.4130131466
 20
10.4273286021
 30
0.0
 10
6.4140560604
 20
10.4377912341
 30
0.0
 10
6.4145197029
 20
10.4483167831
 30
0.0
 10
6.4143641931
 20
10.4529305803
 30
0.0
  0
SPLINE
  5
3AF
100
AcDbEntity
  8
0
100
AcDbSpline
 62
9
  6
CONTINUOUS
 70
0
 71
3
 72
11
 73
7
 74
0
 42
0.0000001
 43
0.0000001
 44
0.0000000001
 40
0.0
 40
0.0
 40
0.0
 40
0.0
 40
0.3816317104
 40
0.6759680462
 40
0.8799288436
 40
1.0
 40
1.0
 40
1.0
 40
1.0
 10
6.4143641931
 20
10.4529305803
 30
0.0
 10
6.4143304455
 20
10.4539318311
 30
0.0
 10
6.4142363574
 20
10.4557003515
 30
0.0
 10
6.4139470339
 20
10.4580100554
 30
0.0
 10
6.4135663138
 20
10.4595608765
 30
0.0
 10
6.4131298598
 20
10.4603699382
 30
0.0
 10
6.4128582967
 20
10.4605299486
 30
0.0
  0
LINE
  5
3B0
100
AcDbEntity
  8
0
100
AcDbLine
 62
9
  6
CONTINUOUS
 10
6.4128582967
 20
10.4605299486
 11
6.4126397358
 21
10.4606069321
  0
SPLINE
  5
3B1
100
AcDbEntity
  8
0
100
AcDbSpline
 62
9
  6
CONTINUOUS
 70
0
 71
3
 72
10
 73
6
 74
0
 42
0.0000001
 43
0.0000001
 44
0.0000000001
 40
0.0
 40
0.0
 40
0.0
 40
0.0
 40
0.0904707605
 40
0.275309676
 40
1.0
 40
1.0
 40
1.0
 40
1.0
 10
6.7288464057
 20
10.3745179712
 30
0.0
 10
6.7289053887
 20
10.3745171557
 30
0.0
 10
6.7290392017
 20
10.3743480517
 30
0.0
 10
6.7292019349
 20
10.3737448014
 30
0.0
 10
6.729283349
 20
10.3731377366
 30
0.0
 10
6.7293308213
 20
10.3726676156
 30
0.0
  0
SPLINE
  5
3B2
100
AcDbEntity
  8
0
100
AcDbSpline
 62
9
  6
CONTINUOUS
 70
0
 71
3
 72
11
 73
7
 74
0
 42
0.0000001
 43
0.0000001
 44
0.0000000001
 40
0.0
 40
0.0
 40
0.0
 40
0.0
 40
0.1409439434
 40
0.3824505682
 40
0.6868047807
 40
1.0
 40
1.0
 40
1.0
 40
1.0
 10
6.7293308213
 20
10.3726676156
 30
0.0
 10
6.729576776
 20
10.3702319071
 30
0.0
 10
6.7296285219
 20
10.3635753696
 30
0.0
 10
6.7294783314
 20
10.3516543394
 30
0.0
 10
6.7289279673
 20
10.3367389799
 30
0.0
 10
6.7283979988
 20
10.326026304
 30
0.0
 10
6.7280934463
 20
10.3205948596
 30
0.0
  0
SPLINE
  5
3B3
100
AcDbEntity
  8
0
100
AcDbSpline
 62
9
  6
CONTINUOUS
 70
0
 71
3
 72
15
 73
11
 74
0
 42
0.0000001
 43
0.0000001
 44
0.0000000001
 40
0.0
 40
0.0
 40
0.0
 40
0.0
 40
0.3566486435
 40
0.5296462624
 40
0.6847952265
 40
0.8120779
 40
0.906366074
 40
0.9403771268
 40
0.96634828
 40
1.0
 40
1.0
 40
1.0
 40
1.0
 10
3.8307916535
 20
10.1246145574
 30
0.0
 10
3.8298682054
 20
10.1200079435
 30
0.0
 10
3.8286852114
 20
10.1131249987
 30
0.0
 10
3.8276474035
 20
10.1041622366
 30
0.0
 10
3.827214691
 20
10.0981750268
 30
0.0
 10
3.8271897154
 20
10.0932082415
 30
0.0
 10
3.827459436
 20
10.0898455674
 30
0.0
 10
3.8279480937
 20
10.0878558487
 30
0.0
 10
3.8283931672
 20
10.0867285473
 30
0.0
 10
3.8289895837
 20
10.086050686
 30
0.0
 10
3.8294236371
 20
10.0859605857
 30
0.0
  0
SPLINE
  5
3B4
100
AcDbEntity
  8
0
100
AcDbSpline
 62
9
  6
CONTINUOUS
 70
0
 71
3
 72
9
 73
5
 74
0
 42
0.0000001
 43
0.0000001
 44
0.0000000001
 40
0.0
 40
0.0
 40
0.0
 40
0.0
 40
0.5342232069
 40
1.0
 40
1.0
 40
1.0
 40
1.0
 10
6.4270287561
 20
10.4203293028
 30
0.0
 10
6.4287167698
 20
10.4239953654
 30
0.0
 10
6.4313368717
 20
10.4311226888
 30
0.0
 10
6.4324547968
 20
10.4386925022
 30
0.0
 10
6.4324045642
 20
10.44221105
 30
0.0
  0
SPLINE
  5
3B5
100
AcDbEntity
  8
0
100
AcDbSpline
 62
9
  6
CONTINUOUS
 70
0
 71
3
 72
11
 73
7
 74
0
 42
0.0000001
 43
0.0000001
 44
0.0000000001
 40
0.0
 40
0.0
 40
0.0
 40
0.0
 40
0.2500329497
 40
0.5008942658
 40
0.7512927905
 40
1.0
 40
1.0
 40
1.0
 40
1.0
 10
6.4062344856
 20
9.9860739672
 30
0.0
 10
6.1915040466
 20
9.9655355994
 30
0.0
 10
5.7596444271
 20
9.9401925777
 30
0.0
 10
5.1109745636
 20
9.9508566835
 30
0.0
 10
4.4660982766
 20
10.0102617052
 30
0.0
 10
4.0409867894
 20
10.0815242589
 30
0.0
 10
3.8307912965
 20
10.1246138164
 30
0.0
  0
SPLINE
  5
3B6
100
AcDbEntity
  8
0
100
AcDbSpline
 62
9
  6
CONTINUOUS
 70
0
 71
3
 72
9
 73
5
 74
0
 42
0.0000001
 43
0.0000001
 44
0.0000000001
 40
0.0
 40
0.0
 40
0.0
 40
0.0
 40
0.2406869221
 40
1.0
 40
1.0
 40
1.0
 40
1.0
 10
6.7102578209
 20
10.3754058541
 30
0.0
 10
6.7115979642
 20
10.3755235799
 30
0.0
 10
6.7171382516
 20
10.3762932309
 30
0.0
 10
6.7225006002
 20
10.3783128696
 30
0.0
 10
6.7261790221
 20
10.3804299124
 30
0.0
  0
SPLINE
  5
3B7
100
AcDbEntity
  8
0
100
AcDbSpline
 62
9
  6
CONTINUOUS
 70
0
 71
3
 72
9
 73
5
 74
0
 42
0.0000001
 43
0.0000001
 44
0.0000000001
 40
0.0
 40
0.0
 40
0.0
 40
0.0
 40
0.5187777491
 40
1.0
 40
1.0
 40
1.0
 40
1.0
 10
6.7282117455
 20
10.3816820135
 30
0.0
 10
6.7337048761
 20
10.3852963925
 30
0.0
 10
6.7426230684
 20
10.3951850237
 30
0.0
 10
6.7458069945
 20
10.4079812898
 30
0.0
 10
6.7458968231
 20
10.4140801849
 30
0.0
  0
SPLINE
  5
3B8
100
AcDbEntity
  8
0
100
AcDbSpline
 62
9
  6
CONTINUOUS
 70
0
 71
3
 72
8
 73
4
 74
0
 42
0.0000001
 43
0.0000001
 44
0.0000000001
 40
0.0
 40
0.0
 40
0.0
 40
0.0
 40
1.0
 40
1.0
 40
1.0
 40
1.0
 10
6.7052848203
 20
10.0237985627
 30
0.0
 10
6.7108201664
 20
10.0231642776
 30
0.0
 10
6.71633627
 20
10.0212659326
 30
0.0
 10
6.7210899803
 20
10.0183599711
 30
0.0
  0
SPLINE
  5
3B9
100
AcDbEntity
  8
0
100
AcDbSpline
 62
9
  6
CONTINUOUS
 70
0
 71
3
 72
9
 73
5
 74
0
 42
0.0000001
 43
0.0000001
 44
0.0000000001
 40
0.0
 40
0.0
 40
0.0
 40
0.0
 40
0.4990350034
 40
1.0
 40
1.0
 40
1.0
 40
1.0
 10
6.7235495469
 20
10.0167248083
 30
0.0
 10
6.728611939
 20
10.0130737861
 30
0.0
 10
6.7370979493
 20
10.0031427678
 30
0.0
 10
6.7399710935
 20
9.9904077858
 30
0.0
 10
6.7398880247
 20
9.9841425807
 30
0.0
  0
SPLINE
  5
3BA
100
AcDbEntity
  8
0
100
AcDbSpline
 62
9
  6
CONTINUOUS
 70
0
 71
3
 72
12
 73
8
 74
0
 42
0.0000001
 43
0.0000001
 44
0.0000000001
 40
0.0
 40
0.0
 40
0.0
 40
0.0
 40
0.3937255745
 40
0.6885436575
 40
0.7986651924
 40
0.8850099116
 40
1.0
 40
1.0
 40
1.0
 40
1.0
 10
6.7365234412
 20
10.3942740299
 30
0.0
 10
6.7371778088
 20
10.3971778841
 30
0.0
 10
6.738475328
 20
10.4022254728
 30
0.0
 10
6.7404830688
 20
10.4079296902
 30
0.0
 10
6.7422480181
 20
10.4112320519
 30
0.0
 10
6.7435850891
 20
10.4131159259
 30
0.0
 10
6.745028241
 20
10.4141246343
 30
0.0
 10
6.7458964604
 20
10.4140802009
 30
0.0
  0
SPLINE
  5
3BB
100
AcDbEntity
  8
0
100
AcDbSpline
 62
7
  6
CONTINUOUS
 70
0
 71
3
 72
11
 73
7
 74
0
 42
0.0000001
 43
0.0000001
 44
0.0000000001
 40
0.0
 40
0.0
 40
0.0
 40
0.0
 40
0.2487299472
 40
0.4991286821
 40
0.749976142
 40
1.0
 40
1.0
 40
1.0
 40
1.0
 10
18.2652130993
 20
10.3037534932
 30
0.0
 10
18.0549827717
 20
10.3470223836
 30
0.0
 10
17.6297946195
 20
10.4185832442
 30
0.0
 10
16.984773532
 20
10.4782226985
 30
0.0
 10
16.3359651685
 20
10.4888927104
 30
0.0
 10
15.9040277125
 20
10.4634073808
 30
0.0
 10
15.6892640458
 20
10.4427649509
 30
0.0
  0
SPLINE
  5
3BC
100
AcDbEntity
  8
0
100
AcDbSpline
 62
7
  6
CONTINUOUS
 70
0
 71
3
 72
11
 73
7
 74
0
 42
0.0000001
 43
0.0000001
 44
0.0000000001
 40
0.0
 40
0.0
 40
0.0
 40
0.0
 40
0.250026029
 40
0.5008699064
 40
0.7512621629
 40
1.0
 40
1.0
 40
1.0
 40
1.0
 10
15.6891780015
 20
10.4427807218
 30
0.0
 10
15.9039288561
 20
10.4640351765
 30
0.0
 10
16.3359123752
 20
10.4905105603
 30
0.0
 10
16.9848819298
 20
10.4803369974
 30
0.0
 10
17.6300133641
 20
10.4201747128
 30
0.0
 10
18.0551429588
 20
10.3476435972
 30
0.0
 10
18.2653107143
 20
10.3038194414
 30
0.0
  0
LINE
  5
3BD
100
AcDbEntity
  8
0
100
AcDbLine
 62
7
  6
CONTINUOUS
 10
15.6886016256
 20
10.4427013074
 11
15.6892660279
 21
10.4427651413
  0
LINE
  5
3BE
100
AcDbEntity
  8
0
100
AcDbLine
 62
7
  6
CONTINUOUS
 10
15.6891780015
 20
10.4427807217
 11
15.6885528025
 21
10.4427187717
  0
SPLINE
  5
3BF
100
AcDbEntity
  8
0
100
AcDbSpline
 62
7
  6
CONTINUOUS
 70
0
 71
3
 72
11
 73
7
 74
0
 42
0.0000001
 43
0.0000001
 44
0.0000000001
 40
0.0
 40
0.0
 40
0.0
 40
0.0
 40
0.2500878123
 40
0.5000160157
 40
0.7499428718
 40
1.0
 40
1.0
 40
1.0
 40
1.0
 10
15.397202182
 20
9.8739198578
 30
0.0
 10
15.3971324205
 20
9.8689242156
 30
0.0
 10
15.395093283
 20
9.858847047
 30
0.0
 10
15.3864393675
 20
9.8461296818
 30
0.0
 10
15.3734853389
 20
9.8378355225
 30
0.0
 10
15.3633558796
 20
9.8360787137
 30
0.0
 10
15.3583608512
 20
9.8361485257
 30
0.0
  0
SPLINE
  5
3C0
100
AcDbEntity
  8
0
100
AcDbSpline
 62
7
  6
CONTINUOUS
 70
0
 71
3
 72
11
 73
7
 74
0
 42
0.0000001
 43
0.0000001
 44
0.0000000001
 40
0.0
 40
0.0
 40
0.0
 40
0.0
 40
0.2500878109
 40
0.5000160159
 40
0.7499428738
 40
1.0
 40
1.0
 40
1.0
 40
1.0
 10
14.6974344932
 20
10.5157942354
 30
0.0
 10
14.6975042549
 20
10.5207898777
 30
0.0
 10
14.6995433888
 20
10.5308670475
 30
0.0
 10
14.7081973074
 20
10.543584411
 30
0.0
 10
14.7211513344
 20
10.5518785737
 30
0.0
 10
14.7312807948
 20
10.5536353787
 30
0.0
 10
14.7362758233
 20
10.5535655672
 30
0.0
  0
SPLINE
  5
3C1
100
AcDbEntity
  8
0
100
AcDbSpline
 62
7
  6
CONTINUOUS
 70
0
 71
3
 72
11
 73
7
 74
0
 42
0.0000001
 43
0.0000001
 44
0.0000000001
 40
0.0
 40
0.0
 40
0.0
 40
0.0
 40
0.2500855028
 40
0.5000227091
 40
0.7499394857
 40
1.0
 40
1.0
 40
1.0
 40
1.0
 10
15.3682553094
 20
10.5447408945
 30
0.0
 10
15.3732509071
 20
10.544671202
 30
0.0
 10
15.383328176
 20
10.5426318718
 30
0.0
 10
15.3960455886
 20
10.5339782078
 30
0.0
 10
15.4043399811
 20
10.5210242291
 30
0.0
 10
15.4060966047
 20
10.5108948732
 30
0.0
 10
15.4060268602
 20
10.5058997755
 30
0.0
  0
SPLINE
  5
3C2
100
AcDbEntity
  8
0
100
AcDbSpline
 62
7
  6
CONTINUOUS
 70
0
 71
3
 72
11
 73
7
 74
0
 42
0.0000001
 43
0.0000001
 44
0.0000000001
 40
0.0
 40
0.0
 40
0.0
 40
0.0
 40
0.2500855037
 40
0.5000227095
 40
0.749939485
 40
1.0
 40
1.0
 40
1.0
 40
1.0
 10
14.7263813669
 20
9.8449731976
 30
0.0
 10
14.7213857693
 20
9.8450428899
 30
0.0
 10
14.7113085009
 20
9.847082222
 30
0.0
 10
14.6985910878
 20
9.8557358849
 30
0.0
 10
14.6902966972
 20
9.8686898646
 30
0.0
 10
14.6885400721
 20
9.87881922
 30
0.0
 10
14.6886098169
 20
9.8838143177
 30
0.0
  0
SPLINE
  5
3C3
100
AcDbEntity
  8
0
100
AcDbSpline
 62
9
  6
CONTINUOUS
 70
0
 71
3
 72
12
 73
8
 74
0
 42
0.0000001
 43
0.0000001
 44
0.0000000001
 40
0.0
 40
0.0
 40
0.0
 40
0.0
 40
0.1087787281
 40
0.1944939394
 40
0.3050549249
 40
0.6027933541
 40
1.0
 40
1.0
 40
1.0
 40
1.0
 10
15.3547930167
 20
10.4055307139
 30
0.0
 10
15.3557922361
 20
10.405552022
 30
0.0
 10
15.357379322
 20
10.4041584062
 30
0.0
 10
15.3587653082
 20
10.4018102358
 30
0.0
 10
15.3606195206
 20
10.397617603
 30
0.0
 10
15.3626193381
 20
10.3904915335
 30
0.0
 10
15.3638465527
 20
10.3842155943
 30
0.0
 10
15.3644440343
 20
10.3806153458
 30
0.0
  0
SPLINE
  5
3C4
100
AcDbEntity
  8
0
100
AcDbSpline
 62
9
  6
CONTINUOUS
 70
0
 71
3
 72
9
 73
5
 74
0
 42
0.0000001
 43
0.0000001
 44
0.0000000001
 40
0.0
 40
0.0
 40
0.0
 40
0.0
 40
0.2596333741
 40
1.0
 40
1.0
 40
1.0
 40
1.0
 10
15.6622139174
 20
9.9474719317
 30
0.0
 10
15.6625271423
 20
9.946629346
 30
0.0
 10
15.663839927
 20
9.94342583
 30
0.0
 10
15.665586319
 20
9.9403904527
 30
0.0
 10
15.6671340848
 20
9.9383471235
 30
0.0
  0
SPLINE
  5
3C5
100
AcDbEntity
  8
0
100
AcDbSpline
 62
9
  6
CONTINUOUS
 70
0
 71
3
 72
9
 73
5
 74
0
 42
0.0000001
 43
0.0000001
 44
0.0000000001
 40
0.0
 40
0.0
 40
0.0
 40
0.0
 40
0.2609262283
 40
1.0
 40
1.0
 40
1.0
 40
1.0
 10
15.6671340848
 20
9.9383471235
 30
0.0
 10
15.6676240739
 20
9.9377002497
 30
0.0
 10
15.6696000481
 20
9.9352988563
 30
0.0
 10
15.6719944216
 20
9.9332269893
 30
0.0
 10
15.6739472127
 20
9.9320145231
 30
0.0
  0
SPLINE
  5
3C6
100
AcDbEntity
  8
0
100
AcDbSpline
 62
9
  6
CONTINUOUS
 70
0
 71
3
 72
9
 73
5
 74
0
 42
0.0000001
 43
0.0000001
 44
0.0000000001
 40
0.0
 40
0.0
 40
0.0
 40
0.0
 40
0.256173571
 40
1.0
 40
1.0
 40
1.0
 40
1.0
 10
15.6739472127
 20
9.9320145231
 30
0.0
 10
15.6745707695
 20
9.9316273637
 30
0.0
 10
15.6770780585
 20
9.9302384472
 30
0.0
 10
15.679882882
 20
9.9293766351
 30
0.0
 10
15.6819969408
 20
9.9291071592
 30
0.0
  0
SPLINE
  5
3C7
100
AcDbEntity
  8
0
100
AcDbSpline
 62
9
  6
CONTINUOUS
 70
0
 71
3
 72
11
 73
7
 74
0
 42
0.0000001
 43
0.0000001
 44
0.0000000001
 40
0.0
 40
0.0
 40
0.0
 40
0.0
 40
0.2487085526
 40
0.4991060426
 40
0.7499662456
 40
1.0
 40
1.0
 40
1.0
 40
1.0
 10
18.2606286209
 20
10.0347336664
 30
0.0
 10
18.0493909115
 20
9.9969128396
 30
0.0
 10
17.6225220876
 20
9.9365334282
 30
0.0
 10
16.9761598058
 20
9.8946246239
 30
0.0
 10
16.3273387377
 20
9.9026050532
 30
0.0
 10
15.8963697326
 20
9.9410388506
 30
0.0
 10
15.6823493063
 20
9.9682253883
 30
0.0
  0
LINE
  5
3C8
100
AcDbEntity
  8
0
100
AcDbLine
 62
9
  6
CONTINUOUS
 10
15.6823494314
 20
9.9682267389
 11
15.6818211022
 21
9.9691876651
  0
LINE
  5
3C9
100
AcDbEntity
  8
0
100
AcDbLine
 62
9
  6
CONTINUOUS
 10
15.6878747566
 20
10.4027205509
 11
15.6884022489
 21
10.4036390624
  0
SPLINE
  5
3CA
100
AcDbEntity
  8
0
100
AcDbSpline
 62
9
  6
CONTINUOUS
 70
0
 71
3
 72
9
 73
5
 74
0
 42
0.0000001
 43
0.0000001
 44
0.0000000001
 40
0.0
 40
0.0
 40
0.0
 40
0.0
 40
0.5605246799
 40
1.0
 40
1.0
 40
1.0
 40
1.0
 10
15.6884032893
 20
10.4036400795
 30
0.0
 10
15.6846073014
 20
10.4073766117
 30
0.0
 10
15.6779470458
 20
10.4141549252
 30
0.0
 10
15.6715377067
 20
10.421181851
 30
0.0
 10
15.6688815223
 20
10.4244044453
 30
0.0
  0
SPLINE
  5
3CB
100
AcDbEntity
  8
0
100
AcDbSpline
 62
9
  6
CONTINUOUS
 70
0
 71
3
 72
9
 73
5
 74
0
 42
0.0000001
 43
0.0000001
 44
0.0000000001
 40
0.0
 40
0.0
 40
0.0
 40
0.0
 40
0.2561831393
 40
1.0
 40
1.0
 40
1.0
 40
1.0
 10
15.6688818636
 20
10.4244044367
 30
0.0
 10
15.6692077349
 20
10.4252528661
 30
0.0
 10
15.6705925982
 20
10.4285191418
 30
0.0
 10
15.6724248635
 20
10.4316042294
 30
0.0
 10
15.6740425662
 20
10.4336890503
 30
0.0
  0
LINE
  5
3CC
100
AcDbEntity
  8
0
100
AcDbLine
 62
9
  6
CONTINUOUS
 10
15.6740425662
 20
10.4336890503
 11
15.6761854413
 21
10.4361569143
  0
SPLINE
  5
3CD
100
AcDbEntity
  8
0
100
AcDbSpline
 62
9
  6
CONTINUOUS
 70
0
 71
3
 72
9
 73
5
 74
0
 42
0.0000001
 43
0.0000001
 44
0.0000000001
 40
0.0
 40
0.0
 40
0.0
 40
0.0
 40
0.2582942197
 40
1.0
 40
1.0
 40
1.0
 40
1.0
 10
15.6761854413
 20
10.4361569143
 30
0.0
 10
15.6765601627
 20
10.4365409218
 30
0.0
 10
15.678055081
 20
10.4379836401
 30
0.0
 10
15.6797379885
 20
10.4392334395
 30
0.0
 10
15.681064054
 20
10.4400178754
 30
0.0
  0
SPLINE
  5
3CE
100
AcDbEntity
  8
0
100
AcDbSpline
 62
9
  6
CONTINUOUS
 70
0
 71
3
 72
9
 73
5
 74
0
 42
0.0000001
 43
0.0000001
 44
0.0000000001
 40
0.0
 40
0.0
 40
0.0
 40
0.0
 40
0.2602815318
 40
1.0
 40
1.0
 40
1.0
 40
1.0
 10
15.681064054
 20
10.4400178754
 30
0.0
 10
15.6816628849
 20
10.4403721147
 30
0.0
 10
15.6840252766
 20
10.4416243336
 30
0.0
 10
15.6866346065
 20
10.4424241235
 30
0.0
 10
15.688594314
 20
10.442687672
 30
0.0
  0
SPLINE
  5
3CF
100
AcDbEntity
  8
0
100
AcDbSpline
 62
9
  6
CONTINUOUS
 70
0
 71
3
 72
9
 73
5
 74
0
 42
0.0000001
 43
0.0000001
 44
0.0000000001
 40
0.0
 40
0.0
 40
0.0
 40
0.0
 40
0.1666682592
 40
1.0
 40
1.0
 40
1.0
 40
1.0
 10
15.6892647068
 20
10.4427649989
 30
0.0
 10
15.6891691483
 20
10.44275573
 30
0.0
 10
15.6886169377
 20
10.4425165897
 30
0.0
 10
15.6884053072
 20
10.4418872549
 30
0.0
 10
15.6882478718
 20
10.4414337767
 30
0.0
  0
LINE
  5
3D0
100
AcDbEntity
  8
0
100
AcDbLine
 62
9
  6
CONTINUOUS
 10
15.6882478718
 20
10.4414337767
 11
15.6875861377
 21
10.4382012575
  0
SPLINE
  5
3D1
100
AcDbEntity
  8
0
100
AcDbSpline
 62
9
  6
CONTINUOUS
 70
0
 71
3
 72
10
 73
6
 74
0
 42
0.0000001
 43
0.0000001
 44
0.0000000001
 40
0.0
 40
0.0
 40
0.0
 40
0.0
 40
0.1853130082
 40
0.4344186942
 40
1.0
 40
1.0
 40
1.0
 40
1.0
 10
15.6875861377
 20
10.4382012575
 30
0.0
 10
15.6873170665
 20
10.4360800611
 30
0.0
 10
15.687056241
 20
10.4310644611
 30
0.0
 10
15.6871486793
 20
10.4195263099
 30
0.0
 10
15.6877884861
 20
10.4101368942
 30
0.0
 10
15.6884030704
 20
10.4036400614
 30
0.0
  0
SPLINE
  5
3D2
100
AcDbEntity
  8
0
100
AcDbSpline
 62
9
  6
CONTINUOUS
 70
0
 71
3
 72
11
 73
7
 74
0
 42
0.0000001
 43
0.0000001
 44
0.0000000001
 40
0.0
 40
0.0
 40
0.0
 40
0.0
 40
0.2078078753
 40
0.4333078614
 40
0.6947046071
 40
1.0
 40
1.0
 40
1.0
 40
1.0
 10
15.6740244881
 20
10.4383456562
 30
0.0
 10
15.6730630245
 20
10.4378390095
 30
0.0
 10
15.6712613034
 20
10.4363478868
 30
0.0
 10
15.6695204155
 20
10.4330806688
 30
0.0
 10
15.6687058119
 20
10.4289766742
 30
0.0
 10
15.6687441626
 20
10.4259951911
 30
0.0
 10
15.6688816884
 20
10.4244045029
 30
0.0
  0
SPLINE
  5
3D3
100
AcDbEntity
  8
0
100
AcDbSpline
 62
9
  6
CONTINUOUS
 70
0
 71
3
 72
9
 73
5
 74
0
 42
0.0000001
 43
0.0000001
 44
0.0000000001
 40
0.0
 40
0.0
 40
0.0
 40
0.0
 40
0.467253052
 40
1.0
 40
1.0
 40
1.0
 40
1.0
 10
15.6688816884
 20
10.4244045029
 30
0.0
 10
15.668795537
 20
10.4209589069
 30
0.0
 10
15.6697397786
 20
10.4135563797
 30
0.0
 10
15.6721147338
 20
10.406533498
 30
0.0
 10
15.6736613877
 20
10.4029208705
 30
0.0
  0
SPLINE
  5
3D4
100
AcDbEntity
  8
0
100
AcDbSpline
 62
9
  6
CONTINUOUS
 70
0
 71
3
 72
17
 73
13
 74
0
 42
0.0000001
 43
0.0000001
 44
0.0000000001
 40
0.0
 40
0.0
 40
0.0
 40
0.0
 40
0.1952922144
 40
0.3830072831
 40
0.5554275294
 40
0.7060865038
 40
0.8294330335
 40
0.9208957907
 40
0.9537124458
 40
0.9776432514
 40
0.9927305889
 40
1.0
 40
1.0
 40
1.0
 40
1.0
 10
15.3247623324
 20
10.3120086455
 30
0.0
 10
15.3248478061
 20
10.3181268346
 30
0.0
 10
15.3250452416
 20
10.3301253648
 30
0.0
 10
15.3254270443
 20
10.3475239497
 30
0.0
 10
15.3258948376
 20
10.3635201881
 30
0.0
 10
15.3264564688
 20
10.3774996505
 30
0.0
 10
15.3271081231
 20
10.3889238068
 30
0.0
 10
15.3277895036
 20
10.3966735942
 30
0.0
 10
15.3284139351
 20
10.4012510458
 30
0.0
 10
15.3289014803
 20
10.4034971206
 30
0.0
 10
15.3292695244
 20
10.404808837
 30
0.0
 10
15.3297753952
 20
10.4055002766
 30
0.0
 10
15.3300031407
 20
10.405497611
 30
0.0
  0
SPLINE
  5
3D5
100
AcDbEntity
  8
0
100
AcDbSpline
 62
9
  6
CONTINUOUS
 70
0
 71
3
 72
16
 73
12
 74
0
 42
0.0000001
 43
0.0000001
 44
0.0000000001
 40
0.0
 40
0.0
 40
0.0
 40
0.0
 40
0.1944441674
 40
0.3812569668
 40
0.5531498689
 40
0.7037157141
 40
0.8271490484
 40
0.9191398653
 40
0.9764309963
 40
0.9919553785
 40
1.0
 40
1.0
 40
1.0
 40
1.0
 10
15.3641150777
 20
10.3114602465
 30
0.0
 10
15.3642754933
 20
10.3149934313
 30
0.0
 10
15.3645972748
 20
10.3219209182
 30
0.0
 10
15.3650973692
 20
10.3319695195
 30
0.0
 10
15.3656064816
 20
10.3412204125
 30
0.0
 10
15.366126674
 20
10.3493099254
 30
0.0
 10
15.3666813359
 20
10.3559571154
 30
0.0
 10
15.3672287587
 20
10.3608579907
 30
0.0
 10
15.3678041797
 20
10.3638619981
 30
0.0
 10
15.3682641547
 20
10.3652053352
 30
0.0
 10
15.3686072905
 20
10.3655810491
 30
0.0
 10
15.3687536068
 20
10.3655792899
 30
0.0
  0
SPLINE
  5
3D6
100
AcDbEntity
  8
0
100
AcDbSpline
 62
9
  6
CONTINUOUS
 70
0
 71
3
 72
10
 73
6
 74
0
 42
0.0000001
 43
0.0000001
 44
0.0000000001
 40
0.0
 40
0.0
 40
0.0
 40
0.0
 40
0.09058282
 40
0.2754210815
 40
1.0
 40
1.0
 40
1.0
 40
1.0
 10
15.3706825571
 20
10.3655556654
 30
0.0
 10
15.3706236361
 20
10.3655565644
 30
0.0
 10
15.3704850099
 20
10.3653919937
 30
0.0
 10
15.3703053513
 20
10.3647947853
 30
0.0
 10
15.3702069544
 20
10.3641918606
 30
0.0
 10
15.3701463303
 20
10.3637244069
 30
0.0
  0
SPLINE
  5
3D7
100
AcDbEntity
  8
0
100
AcDbSpline
 62
9
  6
CONTINUOUS
 70
0
 71
3
 72
11
 73
7
 74
0
 42
0.0000001
 43
0.0000001
 44
0.0000000001
 40
0.0
 40
0.0
 40
0.0
 40
0.0
 40
0.1408654161
 40
0.3823567352
 40
0.6867503381
 40
1.0
 40
1.0
 40
1.0
 40
1.0
 10
15.3701463303
 20
10.3637244069
 30
0.0
 10
15.3698316105
 20
10.361297702
 30
0.0
 10
15.3695938109
 20
10.3546459343
 30
0.0
 10
15.3694107105
 20
10.3427249274
 30
0.0
 10
15.3695449978
 20
10.3277968134
 30
0.0
 10
15.369776319
 20
10.3170706062
 30
0.0
 10
15.369929532
 20
10.3116311819
 30
0.0
  0
LINE
  5
3D8
100
AcDbEntity
  8
0
100
AcDbLine
 62
9
  6
CONTINUOUS
 10
15.3972021696
 20
9.8739198579
 11
15.3188450729
 21
9.9555712337
  0
SPLINE
  5
3D9
100
AcDbEntity
  8
0
100
AcDbSpline
 62
9
  6
CONTINUOUS
 70
0
 71
3
 72
11
 73
7
 74
0
 42
0.0000001
 43
0.0000001
 44
0.0000000001
 40
0.0
 40
0.0
 40
0.0
 40
0.0
 40
0.2395158235
 40
0.4870901951
 40
0.7415398936
 40
1.0
 40
1.0
 40
1.0
 40
1.0
 10
15.6676077563
 20
9.969384846
 30
0.0
 10
15.6461910263
 20
9.9833921986
 30
0.0
 10
15.6008453023
 20
10.0092488161
 30
0.0
 10
15.5273831872
 20
10.0394848364
 30
0.0
 10
15.4486676743
 20
10.0605292007
 30
0.0
 10
15.394108911
 20
10.0674743102
 30
0.0
 10
15.3665432028
 20
10.069119138
 30
0.0
  0
LINE
  5
3DA
100
AcDbEntity
  8
0
100
AcDbLine
 62
9
  6
CONTINUOUS
 10
15.3254204611
 20
10.4264681182
 11
15.4060268474
 21
10.5058997757
  0
SPLINE
  5
3DB
100
AcDbEntity
  8
0
100
AcDbSpline
 62
9
  6
CONTINUOUS
 70
0
 71
3
 72
17
 73
13
 74
0
 42
0.0000001
 43
0.0000001
 44
0.0000000001
 40
0.0
 40
0.0
 40
0.0
 40
0.0
 40
0.00726652
 40
0.0223492902
 40
0.0462785489
 40
0.0790983313
 40
0.1705660231
 40
0.2939173668
 40
0.4445896145
 40
0.6170098195
 40
0.8047114526
 40
1.0
 40
1.0
 40
1.0
 40
1.0
 10
15.3240109878
 20
9.9764055901
 30
0.0
 10
15.323783368
 20
9.9764091258
 30
0.0
 10
15.3232967548
 20
9.9771138856
 30
0.0
 10
15.3229657388
 20
9.9784350827
 30
0.0
 10
15.3225410608
 20
9.9806935182
 30
0.0
 10
15.3220448826
 20
9.9852863965
 30
0.0
 10
15.3215800894
 20
9.993051772
 30
0.0
 10
15.321247748
 20
10.0044892392
 30
0.0
 10
15.3210767695
 20
10.0184780697
 30
0.0
 10
15.321055719
 20
10.0344794975
 30
0.0
 10
15.3211598888
 20
10.0518796495
 30
0.0
 10
15.3212976353
 20
10.0638772549
 30
0.0
 10
15.3213829543
 20
10.0699947079
 30
0.0
  0
LINE
  5
3DC
100
AcDbEntity
  8
0
100
AcDbLine
 62
9
  6
CONTINUOUS
 10
14.853973576
 20
10.3936774141
 11
14.8157081585
 21
10.4729566466
  0
LINE
  5
3DD
100
AcDbEntity
  8
0
100
AcDbLine
 62
9
  6
CONTINUOUS
 10
15.2866033488
 20
10.4663812834
 11
15.2461392224
 21
10.3882013356
  0
LINE
  5
3DE
100
AcDbEntity
  8
0
100
AcDbLine
 62
9
  6
CONTINUOUS
 10
14.7757916036
 20
10.4341428549
 11
14.8539738498
 21
10.3936775462
  0
LINE
  5
3DF
100
AcDbEntity
  8
0
100
AcDbLine
 62
9
  6
CONTINUOUS
 10
14.8484978377
 20
10.0015125572
 11
14.7692162154
 21
9.9632459703
  0
LINE
  5
3E0
100
AcDbEntity
  8
0
100
AcDbLine
 62
9
  6
CONTINUOUS
 10
15.318845073
 20
9.9555712369
 11
15.2406628268
 21
9.9960365451
  0
LINE
  5
3E1
100
AcDbEntity
  8
0
100
AcDbLine
 62
9
  6
CONTINUOUS
 10
15.2461388388
 20
10.3882015341
 11
15.3254204611
 21
10.4264681212
  0
LINE
  5
3E2
100
AcDbEntity
  8
0
100
AcDbLine
 62
9
  6
CONTINUOUS
 10
14.8080333278
 20
9.9233328079
 11
14.8484974542
 21
10.0015127557
  0
LINE
  5
3E3
100
AcDbEntity
  8
0
100
AcDbLine
 62
9
  6
CONTINUOUS
 10
15.2406631005
 20
9.9960366772
 11
15.2789285181
 21
9.9167574447
  0
LINE
  5
3E4
100
AcDbEntity
  8
0
100
AcDbLine
 62
9
  6
CONTINUOUS
 10
14.697434507
 20
10.5157942352
 11
14.7757916036
 21
10.4341428582
  0
SPLINE
  5
3E5
100
AcDbEntity
  8
0
100
AcDbSpline
 62
9
  6
CONTINUOUS
 70
0
 71
3
 72
9
 73
5
 74
0
 42
0.0000001
 43
0.0000001
 44
0.0000000001
 40
0.0
 40
0.0
 40
0.0
 40
0.0
 40
0.3140812085
 40
1.0
 40
1.0
 40
1.0
 40
1.0
 10
15.3638618302
 20
10.0152243523
 30
0.0
 10
15.3636404821
 20
10.0152277156
 30
0.0
 10
15.3631999374
 20
10.015998825
 30
0.0
 10
15.3630728997
 20
10.0166107386
 30
0.0
 10
15.3629691182
 20
10.0170829238
 30
0.0
  0
SPLINE
  5
3E6
100
AcDbEntity
  8
0
100
AcDbSpline
 62
9
  6
CONTINUOUS
 70
0
 71
3
 72
12
 73
8
 74
0
 42
0.0000001
 43
0.0000001
 44
0.0000000001
 40
0.0
 40
0.0
 40
0.0
 40
0.0
 40
0.0574347872
 40
0.1396769433
 40
0.3697341003
 40
0.6669063389
 40
1.0
 40
1.0
 40
1.0
 40
1.0
 10
15.3629691182
 20
10.0170829238
 30
0.0
 10
15.3627535978
 20
10.0180634991
 30
0.0
 10
15.3624226123
 20
10.0204875815
 30
0.0
 10
15.3618691232
 20
10.0269257699
 30
0.0
 10
15.3614245738
 20
10.0375751491
 30
0.0
 10
15.3610354571
 20
10.0526073311
 30
0.0
 10
15.36083341
 20
10.0636232716
 30
0.0
 10
15.3607363064
 20
10.069445058
 30
0.0
  0
LINE
  5
3E7
100
AcDbEntity
  8
0
100
AcDbLine
 62
9
  6
CONTINUOUS
 10
14.7692162155
 20
9.9632459732
 11
14.6886098292
 21
9.8838143175
  0
SPLINE
  5
3E8
100
AcDbEntity
  8
0
100
AcDbSpline
 62
9
  6
CONTINUOUS
 70
0
 71
3
 72
9
 73
5
 74
0
 42
0.0000001
 43
0.0000001
 44
0.0000000001
 40
0.0
 40
0.0
 40
0.0
 40
0.0
 40
0.5631898462
 40
1.0
 40
1.0
 40
1.0
 40
1.0
 10
15.6823605707
 20
9.9682370173
 30
0.0
 10
15.6784221414
 20
9.9644944139
 30
0.0
 10
15.671561643
 20
9.9577142861
 30
0.0
 10
15.6649128755
 20
9.9507080604
 30
0.0
 10
15.6622139174
 20
9.9474719317
 30
0.0
  0
SPLINE
  5
3E9
100
AcDbEntity
  8
0
100
AcDbSpline
 62
9
  6
CONTINUOUS
 70
0
 71
3
 72
15
 73
11
 74
0
 42
0.0000001
 43
0.0000001
 44
0.0000000001
 40
0.0
 40
0.0
 40
0.0
 40
0.0
 40
0.0336513706
 40
0.0596277678
 40
0.0936501035
 40
0.1879743286
 40
0.3152933589
 40
0.4704584391
 40
0.6434449343
 40
1.0
 40
1.0
 40
1.0
 40
1.0
 10
18.2610274859
 20
9.9960772414
 30
0.0
 10
18.2614635741
 20
9.9961556789
 30
0.0
 10
18.2620772309
 20
9.9968179901
 30
0.0
 10
18.262550148
 20
9.9979334218
 30
0.0
 10
18.2630883212
 20
9.9999100436
 30
0.0
 10
18.263441644
 20
10.0032644205
 30
0.0
 10
18.2635406163
 20
10.0082290301
 30
0.0
 10
18.263257715
 20
10.0142228095
 30
0.0
 10
18.2624448974
 20
10.0232031932
 30
0.0
 10
18.2614354575
 20
10.030108886
 30
0.0
 10
18.2606285037
 20
10.0347337598
 30
0.0
  0
SPLINE
  5
3EA
100
AcDbEntity
  8
0
100
AcDbSpline
 62
9
  6
CONTINUOUS
 70
0
 71
3
 72
11
 73
7
 74
0
 42
0.0000001
 43
0.0000001
 44
0.0000000001
 40
0.0
 40
0.0
 40
0.0
 40
0.0
 40
0.3037148281
 40
0.5646191519
 40
0.7908419006
 40
1.0
 40
1.0
 40
1.0
 40
1.0
 10
15.6622321124
 20
9.9475030413
 30
0.0
 10
15.6620811177
 20
9.9459745304
 30
0.0
 10
15.6620094323
 20
9.9431024683
 30
0.0
 10
15.6627505436
 20
9.9391319806
 30
0.0
 10
15.664391964
 20
9.9359438977
 30
0.0
 10
15.6661064969
 20
9.9344576071
 30
0.0
 10
15.6670281035
 20
9.9339384814
 30
0.0
  0
SPLINE
  5
3EB
100
AcDbEntity
  8
0
100
AcDbSpline
 62
9
  6
CONTINUOUS
 70
0
 71
3
 72
9
 73
5
 74
0
 42
0.0000001
 43
0.0000001
 44
0.0000000001
 40
0.0
 40
0.0
 40
0.0
 40
0.0
 40
0.5609341818
 40
1.0
 40
1.0
 40
1.0
 40
1.0
 10
15.6823605707
 20
9.9682370173
 30
0.0
 10
15.6816235299
 20
9.9623854892
 30
0.0
 10
15.6805806162
 20
9.9519228572
 30
0.0
 10
15.6801169736
 20
9.9413973082
 30
0.0
 10
15.6802724835
 20
9.936783511
 30
0.0
  0
SPLINE
  5
3EC
100
AcDbEntity
  8
0
100
AcDbSpline
 62
9
  6
CONTINUOUS
 70
0
 71
3
 72
11
 73
7
 74
0
 42
0.0000001
 43
0.0000001
 44
0.0000000001
 40
0.0
 40
0.0
 40
0.0
 40
0.0
 40
0.3816317104
 40
0.6759680462
 40
0.8799288436
 40
1.0
 40
1.0
 40
1.0
 40
1.0
 10
15.6802724835
 20
9.936783511
 30
0.0
 10
15.680306231
 20
9.9357822602
 30
0.0
 10
15.6804003192
 20
9.9340137398
 30
0.0
 10
15.6806896427
 20
9.9317040359
 30
0.0
 10
15.6810703627
 20
9.9301532148
 30
0.0
 10
15.6815068167
 20
9.9293441531
 30
0.0
 10
15.6817783799
 20
9.9291841427
 30
0.0
  0
LINE
  5
3ED
100
AcDbEntity
  8
0
100
AcDbLine
 62
9
  6
CONTINUOUS
 10
15.6817783799
 20
9.9291841427
 11
15.6819969408
 21
9.9291071592
  0
SPLINE
  5
3EE
100
AcDbEntity
  8
0
100
AcDbSpline
 62
9
  6
CONTINUOUS
 70
0
 71
3
 72
10
 73
6
 74
0
 42
0.0000001
 43
0.0000001
 44
0.0000000001
 40
0.0
 40
0.0
 40
0.0
 40
0.0
 40
0.0904707605
 40
0.275309676
 40
1.0
 40
1.0
 40
1.0
 40
1.0
 10
15.3657902709
 20
10.0151961201
 30
0.0
 10
15.3657312878
 20
10.0151969356
 30
0.0
 10
15.3655974748
 20
10.0153660396
 30
0.0
 10
15.3654347416
 20
10.0159692899
 30
0.0
 10
15.3653533275
 20
10.0165763547
 30
0.0
 10
15.3653058553
 20
10.0170464757
 30
0.0
  0
SPLINE
  5
3EF
100
AcDbEntity
  8
0
100
AcDbSpline
 62
9
  6
CONTINUOUS
 70
0
 71
3
 72
11
 73
7
 74
0
 42
0.0000001
 43
0.0000001
 44
0.0000000001
 40
0.0
 40
0.0
 40
0.0
 40
0.0
 40
0.1409439434
 40
0.3824505682
 40
0.6868047807
 40
1.0
 40
1.0
 40
1.0
 40
1.0
 10
15.3653058553
 20
10.0170464757
 30
0.0
 10
15.3650599005
 20
10.0194821842
 30
0.0
 10
15.3650081546
 20
10.0261387217
 30
0.0
 10
15.3651583452
 20
10.0380597519
 30
0.0
 10
15.3657087093
 20
10.0529751114
 30
0.0
 10
15.3662386777
 20
10.0636877873
 30
0.0
 10
15.3665432302
 20
10.0691192317
 30
0.0
  0
SPLINE
  5
3F0
100
AcDbEntity
  8
0
100
AcDbSpline
 62
9
  6
CONTINUOUS
 70
0
 71
3
 72
15
 73
11
 74
0
 42
0.0000001
 43
0.0000001
 44
0.0000000001
 40
0.0
 40
0.0
 40
0.0
 40
0.0
 40
0.3566486435
 40
0.5296462624
 40
0.6847952265
 40
0.8120779
 40
0.906366074
 40
0.9403771268
 40
0.96634828
 40
1.0
 40
1.0
 40
1.0
 40
1.0
 10
18.2638450231
 20
10.2650995339
 30
0.0
 10
18.2647684712
 20
10.2697061478
 30
0.0
 10
18.2659514652
 20
10.2765890926
 30
0.0
 10
18.2669892731
 20
10.2855518547
 30
0.0
 10
18.2674219856
 20
10.2915390645
 30
0.0
 10
18.2674469611
 20
10.2965058498
 30
0.0
 10
18.2671772405
 20
10.2998685239
 30
0.0
 10
18.2666885829
 20
10.3018582425
 30
0.0
 10
18.2662435094
 20
10.302985544
 30
0.0
 10
18.2656470928
 20
10.3036634053
 30
0.0
 10
18.2652130395
 20
10.3037535056
 30
0.0
  0
SPLINE
  5
3F1
100
AcDbEntity
  8
0
100
AcDbSpline
 62
9
  6
CONTINUOUS
 70
0
 71
3
 72
9
 73
5
 74
0
 42
0.0000001
 43
0.0000001
 44
0.0000000001
 40
0.0
 40
0.0
 40
0.0
 40
0.0
 40
0.5342232069
 40
1.0
 40
1.0
 40
1.0
 40
1.0
 10
15.6676079204
 20
9.9693847885
 30
0.0
 10
15.6659199068
 20
9.9657187259
 30
0.0
 10
15.6632998048
 20
9.9585914025
 30
0.0
 10
15.6621818798
 20
9.9510215891
 30
0.0
 10
15.6622321124
 20
9.9475030413
 30
0.0
  0
SPLINE
  5
3F2
100
AcDbEntity
  8
0
100
AcDbSpline
 62
9
  6
CONTINUOUS
 70
0
 71
3
 72
11
 73
7
 74
0
 42
0.0000001
 43
0.0000001
 44
0.0000000001
 40
0.0
 40
0.0
 40
0.0
 40
0.0
 40
0.2500329497
 40
0.5008942658
 40
0.7512927905
 40
1.0
 40
1.0
 40
1.0
 40
1.0
 10
15.688402191
 20
10.4036401241
 30
0.0
 10
15.9031326299
 20
10.4241784919
 30
0.0
 10
16.3349922495
 20
10.4495215136
 30
0.0
 10
16.983662113
 20
10.4388574078
 30
0.0
 10
17.6285384
 20
10.3794523861
 30
0.0
 10
18.0536498872
 20
10.3081898324
 30
0.0
 10
18.26384538
 20
10.2651002749
 30
0.0
  0
SPLINE
  5
3F3
100
AcDbEntity
  8
0
100
AcDbSpline
 62
9
  6
CONTINUOUS
 70
0
 71
3
 72
9
 73
5
 74
0
 42
0.0000001
 43
0.0000001
 44
0.0000000001
 40
0.0
 40
0.0
 40
0.0
 40
0.0
 40
0.2406869221
 40
1.0
 40
1.0
 40
1.0
 40
1.0
 10
15.3843788557
 20
10.0143082372
 30
0.0
 10
15.3830387123
 20
10.0141905114
 30
0.0
 10
15.377498425
 20
10.0134208604
 30
0.0
 10
15.3721360764
 20
10.0114012217
 30
0.0
 10
15.3684576545
 20
10.0092841789
 30
0.0
  0
SPLINE
  5
3F4
100
AcDbEntity
  8
0
100
AcDbSpline
 62
9
  6
CONTINUOUS
 70
0
 71
3
 72
9
 73
5
 74
0
 42
0.0000001
 43
0.0000001
 44
0.0000000001
 40
0.0
 40
0.0
 40
0.0
 40
0.0
 40
0.5187777491
 40
1.0
 40
1.0
 40
1.0
 40
1.0
 10
15.3664249311
 20
10.0080320778
 30
0.0
 10
15.3609318004
 20
10.0044176988
 30
0.0
 10
15.3520136081
 20
9.9945290676
 30
0.0
 10
15.3488296821
 20
9.9817328015
 30
0.0
 10
15.3487398534
 20
9.9756339064
 30
0.0
  0
SPLINE
  5
3F5
100
AcDbEntity
  8
0
100
AcDbSpline
 62
9
  6
CONTINUOUS
 70
0
 71
3
 72
8
 73
4
 74
0
 42
0.0000001
 43
0.0000001
 44
0.0000000001
 40
0.0
 40
0.0
 40
0.0
 40
0.0
 40
1.0
 40
1.0
 40
1.0
 40
1.0
 10
15.3893518563
 20
10.3659155286
 30
0.0
 10
15.3838165102
 20
10.3665498137
 30
0.0
 10
15.3783004066
 20
10.3684481587
 30
0.0
 10
15.3735466963
 20
10.3713541202
 30
0.0
  0
SPLINE
  5
3F6
100
AcDbEntity
  8
0
100
AcDbSpline
 62
9
  6
CONTINUOUS
 70
0
 71
3
 72
9
 73
5
 74
0
 42
0.0000001
 43
0.0000001
 44
0.0000000001
 40
0.0
 40
0.0
 40
0.0
 40
0.0
 40
0.4990350034
 40
1.0
 40
1.0
 40
1.0
 40
1.0
 10
15.3710871297
 20
10.372989283
 30
0.0
 10
15.3660247375
 20
10.3766403052
 30
0.0
 10
15.3575387273
 20
10.3865713235
 30
0.0
 10
15.354665583
 20
10.3993063055
 30
0.0
 10
15.3547486519
 20
10.4055715106
 30
0.0
  0
SPLINE
  5
3F7
100
AcDbEntity
  8
0
100
AcDbSpline
 62
9
  6
CONTINUOUS
 70
0
 71
3
 72
12
 73
8
 74
0
 42
0.0000001
 43
0.0000001
 44
0.0000000001
 40
0.0
 40
0.0
 40
0.0
 40
0.0
 40
0.3937255745
 40
0.6885436575
 40
0.7986651924
 40
0.8850099116
 40
1.0
 40
1.0
 40
1.0
 40
1.0
 10
15.3581132353
 20
9.9954400614
 30
0.0
 10
15.3574588677
 20
9.9925362072
 30
0.0
 10
15.3561613486
 20
9.9874886185
 30
0.0
 10
15.3541536077
 20
9.9817844011
 30
0.0
 10
15.3523886585
 20
9.9784820394
 30
0.0
 10
15.3510515874
 20
9.9765981654
 30
0.0
 10
15.3496084356
 20
9.975589457
 30
0.0
 10
15.3487402161
 20
9.9756338904
 30
0.0
  0
SPLINE
  5
3F8
100
AcDbEntity
  8
0
100
AcDbSpline
 62
7
  6
CONTINUOUS
 70
0
 71
3
 72
11
 73
7
 74
0
 42
0.0000001
 43
0.0000001
 44
0.0000000001
 40
0.0
 40
0.0
 40
0.0
 40
0.0
 40
0.2964122167
 40
0.5719423808
 40
0.8099074361
 40
1.0
 40
1.0
 40
1.0
 40
1.0
 10
15.0473183383
 20
9.4015896677
 30
0.0
 10
15.0577177546
 20
9.4015896677
 30
0.0
 10
15.077790905
 20
9.4008855904
 30
0.0
 10
15.1060698531
 20
9.3977778648
 30
0.0
 10
15.1302967877
 20
9.3929049898
 30
0.0
 10
15.1446383698
 20
9.3881848045
 30
0.0
 10
15.1507021733
 20
9.3854082262
 30
0.0
  0
SPLINE
  5
3F9
100
AcDbEntity
  8
0
100
AcDbSpline
 62
7
  6
CONTINUOUS
 70
0
 71
3
 72
9
 73
5
 74
0
 42
0.0000001
 43
0.0000001
 44
0.0000000001
 40
0.0
 40
0.0
 40
0.0
 40
0.0
 40
0.2691684671
 40
1.0
 40
1.0
 40
1.0
 40
1.0
 10
15.1507021665
 20
9.3854082267
 30
0.0
 10
15.1510126304
 20
9.3851350929
 30
0.0
 10
15.1521393015
 20
9.3840914701
 30
0.0
 10
15.1531551693
 20
9.3829200838
 30
0.0
 10
15.1537814665
 20
9.3819882618
 30
0.0
  0
SPLINE
  5
3FA
100
AcDbEntity
  8
0
100
AcDbSpline
 62
7
  6
CONTINUOUS
 70
0
 71
3
 72
9
 73
5
 74
0
 42
0.0000001
 43
0.0000001
 44
0.0000000001
 40
0.0
 40
0.0
 40
0.0
 40
0.0
 40
0.2324202451
 40
1.0
 40
1.0
 40
1.0
 40
1.0
 10
15.1537814665
 20
9.3819882618
 30
0.0
 10
15.1540902002
 20
9.3815289195
 30
0.0
 10
15.1552392704
 20
9.3794280547
 30
0.0
 10
15.1555859817
 20
9.3769703435
 30
0.0
 10
15.1555860272
 20
9.3751425318
 30
0.0
  0
SPLINE
  5
3FB
100
AcDbEntity
  8
0
100
AcDbSpline
 62
7
  6
CONTINUOUS
 70
0
 71
3
 72
9
 73
5
 74
0
 42
0.0000001
 43
0.0000001
 44
0.0000000001
 40
0.0
 40
0.0
 40
0.0
 40
0.0
 40
0.2321909043
 40
1.0
 40
1.0
 40
1.0
 40
1.0
 10
14.9408552337
 20
9.3819883025
 30
0.0
 10
14.9410542415
 20
9.3822843898
 30
0.0
 10
14.9419619694
 20
9.3835255749
 30
0.0
 10
14.9430487766
 20
9.3846289985
 30
0.0
 10
14.9439345036
 20
9.3854082267
 30
0.0
  0
SPLINE
  5
3FC
100
AcDbEntity
  8
0
100
AcDbSpline
 62
7
  6
CONTINUOUS
 70
0
 71
3
 72
11
 73
7
 74
0
 42
0.0000001
 43
0.0000001
 44
0.0000000001
 40
0.0
 40
0.0
 40
0.0
 40
0.0
 40
0.190095758
 40
0.4280648267
 40
0.7035913841
 40
1.0
 40
1.0
 40
1.0
 40
1.0
 10
14.9439345034
 20
9.3854082263
 30
0.0
 10
14.9499984085
 20
9.388184851
 30
0.0
 10
14.9643402668
 20
9.3929050141
 30
0.0
 10
14.9885673075
 20
9.3977779659
 30
0.0
 10
15.0168461537
 20
9.4008856201
 30
0.0
 10
15.0369190488
 20
9.4015896677
 30
0.0
 10
15.0473183383
 20
9.4015896677
 30
0.0
  0
SPLINE
  5
3FD
100
AcDbEntity
  8
0
100
AcDbSpline
 62
7
  6
CONTINUOUS
 70
0
 71
3
 72
9
 73
5
 74
0
 42
0.0000001
 43
0.0000001
 44
0.0000000001
 40
0.0
 40
0.0
 40
0.0
 40
0.0
 40
0.2756633615
 40
1.0
 40
1.0
 40
1.0
 40
1.0
 10
14.9390506494
 20
9.3751425317
 30
0.0
 10
14.9390506657
 20
9.3757981397
 30
0.0
 10
14.9391629338
 20
9.3781681396
 30
0.0
 10
14.9398942639
 20
9.3805585553
 30
0.0
 10
14.9408552337
 20
9.3819883025
 30
0.0
  0
LINE
  5
3FE
100
AcDbEntity
  8
0
100
AcDbLine
 62
9
  6
CONTINUOUS
 10
14.1526466982
 20
11.0720204905
 11
14.2344493913
 21
10.969767246
  0
SPLINE
  5
3FF
100
AcDbEntity
  8
0
100
AcDbSpline
 62
9
  6
CONTINUOUS
 70
0
 71
3
 72
11
 73
7
 74
0
 42
0.0000001
 43
0.0000001
 44
0.0000000001
 40
0.0
 40
0.0
 40
0.0
 40
0.0
 40
0.2388728323
 40
0.5000027101
 40
0.7611309812
 40
1.0
 40
1.0
 40
1.0
 40
1.0
 10
14.2344493804
 20
9.4199479202
 30
0.0
 10
14.234774105
 20
9.4153329589
 30
0.0
 10
14.2372324585
 20
9.4057266638
 30
0.0
 10
14.2458144497
 20
9.3933527341
 30
0.0
 10
14.2581882927
 20
9.3847707444
 30
0.0
 10
14.2677944896
 20
9.3823124199
 30
0.0
 10
14.2724093782
 20
9.3819877142
 30
0.0
  0
LINE
  5
400
100
AcDbEntity
  8
0
100
AcDbLine
 62
9
  6
CONTINUOUS
 10
14.1701553204
 20
9.3001849706
 11
14.2724094345
 21
9.3819882618
  0
SPLINE
  5
401
100
AcDbEntity
  8
0
100
AcDbSpline
 62
7
  6
CONTINUOUS
 70
0
 71
3
 72
15
 73
11
 74
0
 42
0.0000001
 43
0.0000001
 44
0.0000000001
 40
0.0
 40
0.0
 40
0.0
 40
0.0
 40
0.1204367113
 40
0.2418848118
 40
0.3684782297
 40
0.4999993297
 40
0.6315173006
 40
0.7581100817
 40
0.879565459
 40
1.0
 40
1.0
 40
1.0
 40
1.0
 10
15.1207129043
 20
9.3001849735
 30
0.0
 10
15.1173189011
 20
9.2938819755
 30
0.0
 10
15.1090583675
 20
9.2818873486
 30
0.0
 10
15.0917488722
 20
9.2679478953
 30
0.0
 10
15.0705455028
 20
9.2593989498
 30
0.0
 10
15.04731856
 20
9.2565785983
 30
0.0
 10
15.0240940911
 20
9.2594010229
 30
0.0
 10
15.002883416
 20
9.267938637
 30
0.0
 10
14.985588831
 20
9.2818961363
 30
0.0
 10
14.9773177143
 20
9.2938820891
 30
0.0
 10
14.9739237723
 20
9.3001849735
 30
0.0
  0
SPLINE
  5
402
100
AcDbEntity
  8
0
100
AcDbSpline
 62
7
  6
CONTINUOUS
 70
0
 71
3
 72
12
 73
8
 74
0
 42
0.0000001
 43
0.0000001
 44
0.0000000001
 40
0.0
 40
0.0
 40
0.0
 40
0.0
 40
0.3130452489
 40
0.5942224808
 40
0.8284868506
 40
0.9227558683
 40
1.0
 40
1.0
 40
1.0
 40
1.0
 10
14.9739237723
 20
9.3001849735
 30
0.0
 10
14.9698097455
 20
9.3078251266
 30
0.0
 10
14.9617101633
 20
9.3221729585
 30
0.0
 10
14.950619444
 20
9.3422673323
 30
0.0
 10
14.9432582595
 20
9.3575409713
 30
0.0
 10
14.9397947394
 20
9.3682563518
 30
0.0
 10
14.9390505961
 20
9.3730013789
 30
0.0
 10
14.9390506494
 20
9.3751425317
 30
0.0
  0
LINE
  5
403
100
AcDbEntity
  8
0
100
AcDbLine
 62
9
  6
CONTINUOUS
 10
15.4902328481
 20
9.7125735812
 11
15.8222283346
 21
9.3819883339
  0
LINE
  5
404
100
AcDbEntity
  8
0
100
AcDbLine
 62
9
  6
CONTINUOUS
 10
15.5296018029
 20
9.7519436598
 11
15.8601871117
 21
9.4199481466
  0
SPLINE
  5
405
100
AcDbEntity
  8
0
100
AcDbSpline
 62
9
  6
CONTINUOUS
 70
0
 71
3
 72
11
 73
7
 74
0
 42
0.0000001
 43
0.0000001
 44
0.0000000001
 40
0.0
 40
0.0
 40
0.0
 40
0.0
 40
0.2388728323
 40
0.5000027101
 40
0.7611309812
 40
1.0
 40
1.0
 40
1.0
 40
1.0
 10
15.8222274637
 20
9.3819880878
 30
0.0
 10
15.826842425
 20
9.3823128123
 30
0.0
 10
15.8364487202
 20
9.3847711658
 30
0.0
 10
15.8488226498
 20
9.393353157
 30
0.0
 10
15.8574046395
 20
9.4057270001
 30
0.0
 10
15.8598629641
 20
9.415333197
 30
0.0
 10
15.8601876697
 20
9.4199480855
 30
0.0
  0
LINE
  5
406
100
AcDbEntity
  8
0
100
AcDbLine
 62
9
  6
CONTINUOUS
 10
15.8222230169
 20
9.381987632
 11
15.9244780031
 21
9.3001816199
  0
LINE
  5
407
100
AcDbEntity
  8
0
100
AcDbLine
 62
9
  6
CONTINUOUS
 10
15.9244815553
 20
9.300185105
 11
16.0119206517
 21
9.190878745
  0
SPLINE
  5
408
100
AcDbEntity
  8
0
100
AcDbSpline
 62
9
  6
CONTINUOUS
 70
0
 71
3
 72
9
 73
5
 74
0
 42
0.0000001
 43
0.0000001
 44
0.0000000001
 40
0.0
 40
0.0
 40
0.0
 40
0.0
 40
0.2316945152
 40
1.0
 40
1.0
 40
1.0
 40
1.0
 10
15.9244815525
 20
9.3001851085
 30
0.0
 10
15.9259747661
 20
9.3013829926
 30
0.0
 10
15.9322724587
 20
9.3067325095
 30
0.0
 10
15.9380182184
 20
9.3127424687
 30
0.0
 10
15.9419904245
 20
9.3176940157
 30
0.0
  0
SPLINE
  5
409
100
AcDbEntity
  8
0
100
AcDbSpline
 62
9
  6
CONTINUOUS
 70
0
 71
3
 72
9
 73
5
 74
0
 42
0.0000001
 43
0.0000001
 44
0.0000000001
 40
0.0
 40
0.0
 40
0.0
 40
0.0
 40
0.2316945152
 40
1.0
 40
1.0
 40
1.0
 40
1.0
 10
15.9419902754
 20
11.0720202598
 30
0.0
 10
15.9407923913
 20
11.0735134735
 30
0.0
 10
15.9354428744
 20
11.0798111661
 30
0.0
 10
15.9294329152
 20
11.0855569258
 30
0.0
 10
15.9244813682
 20
11.0895291319
 30
0.0
  0
LINE
  5
40A
100
AcDbEntity
  8
0
100
AcDbLine
 62
9
  6
CONTINUOUS
 10
15.9419902789
 20
11.0720202627
 11
16.0512966389
 21
11.1594593591
  0
LINE
  5
40B
100
AcDbEntity
  8
0
100
AcDbLine
 62
9
  6
CONTINUOUS
 10
14.1526464026
 20
9.3176938211
 11
14.0433400376
 21
9.2302547228
  0
SPLINE
  5
40C
100
AcDbEntity
  8
0
100
AcDbSpline
 62
9
  6
CONTINUOUS
 70
0
 71
3
 72
9
 73
5
 74
0
 42
0.0000001
 43
0.0000001
 44
0.0000000001
 40
0.0
 40
0.0
 40
0.0
 40
0.0
 40
0.2316945334
 40
1.0
 40
1.0
 40
1.0
 40
1.0
 10
14.1526464068
 20
9.3176938245
 30
0.0
 10
14.1538442906
 20
9.3162006113
 30
0.0
 10
14.1591938061
 20
9.3099029214
 30
0.0
 10
14.1652037632
 20
9.304157164
 30
0.0
 10
14.1701553083
 20
9.3001849594
 30
0.0
  0
LINE
  5
40D
100
AcDbEntity
  8
0
100
AcDbLine
 62
9
  6
CONTINUOUS
 10
14.2344496402
 20
10.9697670487
 11
14.5650348738
 21
10.6377715753
  0
LINE
  5
40E
100
AcDbEntity
  8
0
100
AcDbLine
 62
9
  6
CONTINUOUS
 10
14.6044049525
 20
9.7125735811
 11
14.2724094242
 21
9.381988257
  0
SPLINE
  5
40F
100
AcDbEntity
  8
0
100
AcDbSpline
 62
9
  6
CONTINUOUS
 70
0
 71
3
 72
11
 73
7
 74
0
 42
0.0000001
 43
0.0000001
 44
0.0000000001
 40
0.0
 40
0.0
 40
0.0
 40
0.0
 40
0.2362771561
 40
0.4963587621
 40
0.7585135984
 40
1.0
 40
1.0
 40
1.0
 40
1.0
 10
14.2344496286
 20
10.9697670603
 30
0.0
 10
14.234770911
 20
10.9743317587
 30
0.0
 10
14.2371914732
 20
10.9838675808
 30
0.0
 10
14.2456884426
 20
10.9962343039
 30
0.0
 10
14.2580678741
 20
11.0049010496
 30
0.0
 10
14.2677440786
 20
11.007397601
 30
0.0
 10
14.2724094252
 20
11.0077258327
 30
0.0
  0
LINE
  5
410
100
AcDbEntity
  8
0
100
AcDbLine
 62
9
  6
CONTINUOUS
 10
14.0827104446
 20
9.1908799739
 11
14.1701553213
 21
9.3001849735
  0
LINE
  5
411
100
AcDbEntity
  8
0
100
AcDbLine
 62
9
  6
CONTINUOUS
 10
16.0512954101
 20
9.2302491519
 11
15.9419904105
 21
9.3176940287
  0
LINE
  5
412
100
AcDbEntity
  8
0
100
AcDbLine
 62
9
  6
CONTINUOUS
 10
14.6044049525
 20
10.6771405102
 11
14.272409414
 21
11.0077258425
  0
LINE
  5
413
100
AcDbEntity
  8
0
100
AcDbLine
 62
9
  6
CONTINUOUS
 10
16.0119261984
 20
11.1988341173
 11
15.9244813553
 21
11.0895291178
  0
LINE
  5
414
100
AcDbEntity
  8
0
100
AcDbLine
 62
9
  6
CONTINUOUS
 10
14.0827274475
 20
11.1988343209
 11
14.1701553249
 21
11.0895291178
  0
LINE
  5
415
100
AcDbEntity
  8
0
100
AcDbLine
 62
9
  6
CONTINUOUS
 10
14.5650348738
 20
9.7519425358
 11
14.2344496396
 21
9.4199470625
  0
LINE
  5
416
100
AcDbEntity
  8
0
100
AcDbLine
 62
9
  6
CONTINUOUS
 10
15.4902317241
 20
10.6771405102
 11
15.8222272606
 21
11.0077258425
  0
LINE
  5
417
100
AcDbEntity
  8
0
100
AcDbLine
 62
9
  6
CONTINUOUS
 10
15.5296018027
 20
10.6377715555
 11
15.8601870548
 21
10.9697670467
  0
LINE
  5
418
100
AcDbEntity
  8
0
100
AcDbLine
 62
9
  6
CONTINUOUS
 10
14.0433486402
 20
11.1594534661
 11
14.1526456522
 21
11.0720191082
  0
LINE
  5
419
100
AcDbEntity
  8
0
100
AcDbLine
 62
9
  6
CONTINUOUS
 10
15.860187752
 20
10.9697617243
 11
15.9419937668
 21
11.072016714
  0
LINE
  5
41A
100
AcDbEntity
  8
0
100
AcDbLine
 62
9
  6
CONTINUOUS
 10
15.9419904169
 20
9.3176940235
 11
15.8601871221
 21
9.4199481419
  0
SPLINE
  5
41B
100
AcDbEntity
  8
0
100
AcDbSpline
 62
9
  6
CONTINUOUS
 70
0
 71
3
 72
11
 73
7
 74
0
 42
0.0000001
 43
0.0000001
 44
0.0000000001
 40
0.0
 40
0.0
 40
0.0
 40
0.0
 40
0.2388728323
 40
0.5000027101
 40
0.7611309812
 40
1.0
 40
1.0
 40
1.0
 40
1.0
 10
15.8601872962
 20
10.9697661711
 30
0.0
 10
15.8598625716
 20
10.9743811324
 30
0.0
 10
15.8574042181
 20
10.9839874275
 30
0.0
 10
15.8488222269
 20
10.9963613572
 30
0.0
 10
15.8364483839
 20
11.0049433469
 30
0.0
 10
15.8268421869
 20
11.0074016714
 30
0.0
 10
15.8222272984
 20
11.0077263771
 30
0.0
  0
LINE
  5
41C
100
AcDbEntity
  8
0
100
AcDbLine
 62
9
  6
CONTINUOUS
 10
15.9244813549
 20
11.0895291196
 11
15.8222272421
 21
11.0077258294
  0
LINE
  5
41D
100
AcDbEntity
  8
0
100
AcDbLine
 62
9
  6
CONTINUOUS
 10
14.2724094368
 20
11.0077258294
 11
14.1701553202
 21
11.0895291196
  0
SPLINE
  5
41E
100
AcDbEntity
  8
0
100
AcDbSpline
 62
9
  6
CONTINUOUS
 70
0
 71
3
 72
9
 73
5
 74
0
 42
0.0000001
 43
0.0000001
 44
0.0000000001
 40
0.0
 40
0.0
 40
0.0
 40
0.0
 40
0.2327855086
 40
1.0
 40
1.0
 40
1.0
 40
1.0
 10
14.1526462796
 20
11.0720200567
 30
0.0
 10
14.1538498107
 20
11.073520325
 30
0.0
 10
14.1592003341
 20
11.079817332
 30
0.0
 10
14.1652107432
 20
11.0855624908
 30
0.0
 10
14.1701553344
 20
11.0895290798
 30
0.0
  0
LINE
  5
41F
100
AcDbEntity
  8
0
100
AcDbLine
 62
9
  6
CONTINUOUS
 10
14.2344489246
 20
9.419952367
 11
14.152642913
 21
9.3176973814
  0
SPLINE
  5
420
100
AcDbEntity
  8
0
100
AcDbSpline
 62
7
  6
CONTINUOUS
 70
0
 71
3
 72
12
 73
8
 74
0
 42
0.0000001
 43
0.0000001
 44
0.0000000001
 40
0.0
 40
0.0
 40
0.0
 40
0.0
 40
0.0772441225
 40
0.1715131364
 40
0.4057774646
 40
0.6869547288
 40
1.0
 40
1.0
 40
1.0
 40
1.0
 10
15.1555860272
 20
9.3751425318
 30
0.0
 10
15.1555860804
 20
9.3730013792
 30
0.0
 10
15.1548419374
 20
9.3682563525
 30
0.0
 10
15.1513784177
 20
9.3575409734
 30
0.0
 10
15.1440172337
 20
9.3422673345
 30
0.0
 10
15.1329265143
 20
9.3221729604
 30
0.0
 10
15.1248269313
 20
9.3078251272
 30
0.0
 10
15.1207129043
 20
9.3001849735
 30
0.0
  0
SPLINE
  5
421
100
AcDbEntity
  8
0
100
AcDbSpline
 62
7
  6
CONTINUOUS
 70
0
 71
3
 72
11
 73
7
 74
0
 42
0.0000001
 43
0.0000001
 44
0.0000000001
 40
0.0
 40
0.0
 40
0.0
 40
0.0
 40
0.2964122167
 40
0.5719423808
 40
0.8099074361
 40
1.0
 40
1.0
 40
1.0
 40
1.0
 10
7.0473183383
 20
10.9881244236
 30
0.0
 10
7.036918922
 20
10.9881244236
 30
0.0
 10
7.0168457716
 20
10.9888285009
 30
0.0
 10
6.9885668235
 20
10.9919362265
 30
0.0
 10
6.9643398889
 20
10.9968091015
 30
0.0
 10
6.9499983068
 20
11.0015292868
 30
0.0
 10
6.9439345033
 20
11.0043058651
 30
0.0
  0
SPLINE
  5
422
100
AcDbEntity
  8
0
100
AcDbSpline
 62
7
  6
CONTINUOUS
 70
0
 71
3
 72
9
 73
5
 74
0
 42
0.0000001
 43
0.0000001
 44
0.0000000001
 40
0.0
 40
0.0
 40
0.0
 40
0.0
 40
0.2691684671
 40
1.0
 40
1.0
 40
1.0
 40
1.0
 10
6.94393451
 20
11.0043058645
 30
0.0
 10
6.9436240462
 20
11.0045789984
 30
0.0
 10
6.9424973751
 20
11.0056226212
 30
0.0
 10
6.9414815073
 20
11.0067940075
 30
0.0
 10
6.9408552101
 20
11.0077258294
 30
0.0
  0
SPLINE
  5
423
100
AcDbEntity
  8
0
100
AcDbSpline
 62
7
  6
CONTINUOUS
 70
0
 71
3
 72
9
 73
5
 74
0
 42
0.0000001
 43
0.0000001
 44
0.0000000001
 40
0.0
 40
0.0
 40
0.0
 40
0.0
 40
0.2324202451
 40
1.0
 40
1.0
 40
1.0
 40
1.0
 10
6.9408552101
 20
11.0077258294
 30
0.0
 10
6.9405464764
 20
11.0081851718
 30
0.0
 10
6.9393974061
 20
11.0102860366
 30
0.0
 10
6.9390506949
 20
11.0127437478
 30
0.0
 10
6.9390506494
 20
11.0145715595
 30
0.0
  0
SPLINE
  5
424
100
AcDbEntity
  8
0
100
AcDbSpline
 62
7
  6
CONTINUOUS
 70
0
 71
3
 72
9
 73
5
 74
0
 42
0.0000001
 43
0.0000001
 44
0.0000000001
 40
0.0
 40
0.0
 40
0.0
 40
0.0
 40
0.2321909043
 40
1.0
 40
1.0
 40
1.0
 40
1.0
 10
7.1537814429
 20
11.0077257888
 30
0.0
 10
7.153582435
 20
11.0074297015
 30
0.0
 10
7.1526747072
 20
11.0061885164
 30
0.0
 10
7.1515879
 20
11.0050850928
 30
0.0
 10
7.150702173
 20
11.0043058645
 30
0.0
  0
SPLINE
  5
425
100
AcDbEntity
  8
0
100
AcDbSpline
 62
7
  6
CONTINUOUS
 70
0
 71
3
 72
11
 73
7
 74
0
 42
0.0000001
 43
0.0000001
 44
0.0000000001
 40
0.0
 40
0.0
 40
0.0
 40
0.0
 40
0.190095758
 40
0.4280648267
 40
0.7035913841
 40
1.0
 40
1.0
 40
1.0
 40
1.0
 10
7.1507021732
 20
11.004305865
 30
0.0
 10
7.1446382681
 20
11.0015292403
 30
0.0
 10
7.1302964098
 20
10.9968090772
 30
0.0
 10
7.1060693691
 20
10.9919361254
 30
0.0
 10
7.0777905228
 20
10.9888284712
 30
0.0
 10
7.0577176278
 20
10.9881244236
 30
0.0
 10
7.0473183383
 20
10.9881244236
 30
0.0
  0
SPLINE
  5
426
100
AcDbEntity
  8
0
100
AcDbSpline
 62
7
  6
CONTINUOUS
 70
0
 71
3
 72
9
 73
5
 74
0
 42
0.0000001
 43
0.0000001
 44
0.0000000001
 40
0.0
 40
0.0
 40
0.0
 40
0.0
 40
0.2756633615
 40
1.0
 40
1.0
 40
1.0
 40
1.0
 10
7.1555860272
 20
11.0145715596
 30
0.0
 10
7.1555860109
 20
11.0139159516
 30
0.0
 10
7.1554737428
 20
11.0115459517
 30
0.0
 10
7.1547424127
 20
11.009155536
 30
0.0
 10
7.1537814429
 20
11.0077257888
 30
0.0
  0
LINE
  5
427
100
AcDbEntity
  8
0
100
AcDbLine
 62
9
  6
CONTINUOUS
 10
7.9419899784
 20
9.3176936008
 11
7.8601872853
 21
9.4199468453
  0
SPLINE
  5
428
100
AcDbEntity
  8
0
100
AcDbSpline
 62
9
  6
CONTINUOUS
 70
0
 71
3
 72
11
 73
7
 74
0
 42
0.0000001
 43
0.0000001
 44
0.0000000001
 40
0.0
 40
0.0
 40
0.0
 40
0.0
 40
0.2388728323
 40
0.5000027101
 40
0.7611309812
 40
1.0
 40
1.0
 40
1.0
 40
1.0
 10
7.8601872962
 20
10.9697661711
 30
0.0
 10
7.8598625716
 20
10.9743811324
 30
0.0
 10
7.8574042181
 20
10.9839874275
 30
0.0
 10
7.8488222269
 20
10.9963613572
 30
0.0
 10
7.8364483839
 20
11.0049433469
 30
0.0
 10
7.8268421869
 20
11.0074016714
 30
0.0
 10
7.8222272984
 20
11.0077263771
 30
0.0
  0
LINE
  5
429
100
AcDbEntity
  8
0
100
AcDbLine
 62
9
  6
CONTINUOUS
 10
7.9244813562
 20
11.0895291207
 11
7.8222272421
 21
11.0077258294
  0
SPLINE
  5
42A
100
AcDbEntity
  8
0
100
AcDbSpline
 62
7
  6
CONTINUOUS
 70
0
 71
3
 72
15
 73
11
 74
0
 42
0.0000001
 43
0.0000001
 44
0.0000000001
 40
0.0
 40
0.0
 40
0.0
 40
0.0
 40
0.1204367113
 40
0.2418848118
 40
0.3684782297
 40
0.4999993297
 40
0.6315173006
 40
0.7581100817
 40
0.879565459
 40
1.0
 40
1.0
 40
1.0
 40
1.0
 10
6.9739237723
 20
11.0895291178
 30
0.0
 10
6.9773177754
 20
11.0958321158
 30
0.0
 10
6.9855783091
 20
11.1078267427
 30
0.0
 10
7.0028878044
 20
11.121766196
 30
0.0
 10
7.0240911738
 20
11.1303151415
 30
0.0
 10
7.0473181166
 20
11.133135493
 30
0.0
 10
7.0705425855
 20
11.1303130684
 30
0.0
 10
7.0917532606
 20
11.1217754543
 30
0.0
 10
7.1090478455
 20
11.1078179549
 30
0.0
 10
7.1173189623
 20
11.0958320022
 30
0.0
 10
7.1207129043
 20
11.0895291178
 30
0.0
  0
SPLINE
  5
42B
100
AcDbEntity
  8
0
100
AcDbSpline
 62
7
  6
CONTINUOUS
 70
0
 71
3
 72
12
 73
8
 74
0
 42
0.0000001
 43
0.0000001
 44
0.0000000001
 40
0.0
 40
0.0
 40
0.0
 40
0.0
 40
0.3130452489
 40
0.5942224808
 40
0.8284868506
 40
0.9227558683
 40
1.0
 40
1.0
 40
1.0
 40
1.0
 10
7.1207129043
 20
11.0895291178
 30
0.0
 10
7.1248269311
 20
11.0818889647
 30
0.0
 10
7.1329265133
 20
11.0675411328
 30
0.0
 10
7.1440172325
 20
11.047446759
 30
0.0
 10
7.151378417
 20
11.03217312
 30
0.0
 10
7.1548419372
 20
11.0214577395
 30
0.0
 10
7.1555860805
 20
11.0167127124
 30
0.0
 10
7.1555860272
 20
11.0145715596
 30
0.0
  0
LINE
  5
42C
100
AcDbEntity
  8
0
100
AcDbLine
 62
9
  6
CONTINUOUS
 10
6.6044038285
 20
10.6771405101
 11
6.272408342
 21
11.0077257574
  0
LINE
  5
42D
100
AcDbEntity
  8
0
100
AcDbLine
 62
9
  6
CONTINUOUS
 10
6.5650348737
 20
10.6377704315
 11
6.2344495648
 21
10.9697659447
  0
SPLINE
  5
42E
100
AcDbEntity
  8
0
100
AcDbSpline
 62
9
  6
CONTINUOUS
 70
0
 71
3
 72
11
 73
7
 74
0
 42
0.0000001
 43
0.0000001
 44
0.0000000001
 40
0.0
 40
0.0
 40
0.0
 40
0.0
 40
0.2388728323
 40
0.5000027101
 40
0.7611309812
 40
1.0
 40
1.0
 40
1.0
 40
1.0
 10
6.2724092128
 20
11.0077260035
 30
0.0
 10
6.2677942516
 20
11.007401279
 30
0.0
 10
6.2581879564
 20
11.0049429255
 30
0.0
 10
6.2458140267
 20
10.9963609342
 30
0.0
 10
6.237232037
 20
10.9839870912
 30
0.0
 10
6.2347737125
 20
10.9743808943
 30
0.0
 10
6.2344490069
 20
10.9697660058
 30
0.0
  0
LINE
  5
42F
100
AcDbEntity
  8
0
100
AcDbLine
 62
9
  6
CONTINUOUS
 10
6.2724136597
 20
11.0077264593
 11
6.1701586735
 21
11.0895324714
  0
LINE
  5
430
100
AcDbEntity
  8
0
100
AcDbLine
 62
9
  6
CONTINUOUS
 10
6.1701551213
 20
11.0895289863
 11
6.0827160249
 21
11.1988353463
  0
SPLINE
  5
431
100
AcDbEntity
  8
0
100
AcDbSpline
 62
9
  6
CONTINUOUS
 70
0
 71
3
 72
9
 73
5
 74
0
 42
0.0000001
 43
0.0000001
 44
0.0000000001
 40
0.0
 40
0.0
 40
0.0
 40
0.0
 40
0.2316945152
 40
1.0
 40
1.0
 40
1.0
 40
1.0
 10
6.1701551241
 20
11.0895289828
 30
0.0
 10
6.1686619104
 20
11.0883310987
 30
0.0
 10
6.1623642178
 20
11.0829815818
 30
0.0
 10
6.1566184581
 20
11.0769716226
 30
0.0
 10
6.1526462521
 20
11.0720200756
 30
0.0
  0
SPLINE
  5
432
100
AcDbEntity
  8
0
100
AcDbSpline
 62
9
  6
CONTINUOUS
 70
0
 71
3
 72
9
 73
5
 74
0
 42
0.0000001
 43
0.0000001
 44
0.0000000001
 40
0.0
 40
0.0
 40
0.0
 40
0.0
 40
0.2316945152
 40
1.0
 40
1.0
 40
1.0
 40
1.0
 10
6.1526464012
 20
9.3176938315
 30
0.0
 10
6.1538442852
 20
9.3162006178
 30
0.0
 10
6.1591938022
 20
9.3099029252
 30
0.0
 10
6.1652037613
 20
9.3041571655
 30
0.0
 10
6.1701553083
 20
9.3001849594
 30
0.0
  0
LINE
  5
433
100
AcDbEntity
  8
0
100
AcDbLine
 62
9
  6
CONTINUOUS
 10
6.1526463977
 20
9.3176938286
 11
6.0433400376
 21
9.2302547322
  0
LINE
  5
434
100
AcDbEntity
  8
0
100
AcDbLine
 62
9
  6
CONTINUOUS
 10
7.941990274
 20
11.0720202702
 11
8.0512966389
 21
11.1594593685
  0
SPLINE
  5
435
100
AcDbEntity
  8
0
100
AcDbSpline
 62
9
  6
CONTINUOUS
 70
0
 71
3
 72
9
 73
5
 74
0
 42
0.0000001
 43
0.0000001
 44
0.0000000001
 40
0.0
 40
0.0
 40
0.0
 40
0.0
 40
0.2316945334
 40
1.0
 40
1.0
 40
1.0
 40
1.0
 10
7.9419902698
 20
11.0720202668
 30
0.0
 10
7.9407923859
 20
11.07351348
 30
0.0
 10
7.9354428705
 20
11.0798111699
 30
0.0
 10
7.9294329133
 20
11.0855569273
 30
0.0
 10
7.9244813682
 20
11.0895291319
 30
0.0
  0
LINE
  5
436
100
AcDbEntity
  8
0
100
AcDbLine
 62
9
  6
CONTINUOUS
 10
7.8601870364
 20
9.4199470426
 11
7.5296018028
 21
9.751942516
  0
LINE
  5
437
100
AcDbEntity
  8
0
100
AcDbLine
 62
9
  6
CONTINUOUS
 10
7.4902317241
 20
10.6771405102
 11
7.8222272524
 21
11.0077258343
  0
SPLINE
  5
438
100
AcDbEntity
  8
0
100
AcDbSpline
 62
9
  6
CONTINUOUS
 70
0
 71
3
 72
11
 73
7
 74
0
 42
0.0000001
 43
0.0000001
 44
0.0000000001
 40
0.0
 40
0.0
 40
0.0
 40
0.0
 40
0.2362771561
 40
0.4963587621
 40
0.7585135984
 40
1.0
 40
1.0
 40
1.0
 40
1.0
 10
7.860187048
 20
9.419947031
 30
0.0
 10
7.8598657656
 20
9.4153823326
 30
0.0
 10
7.8574452034
 20
9.4058465105
 30
0.0
 10
7.848948234
 20
9.3934797874
 30
0.0
 10
7.8365688024
 20
9.3848130417
 30
0.0
 10
7.826892598
 20
9.3823164903
 30
0.0
 10
7.8222272514
 20
9.3819882586
 30
0.0
  0
LINE
  5
439
100
AcDbEntity
  8
0
100
AcDbLine
 62
9
  6
CONTINUOUS
 10
8.011926232
 20
11.1988341174
 11
7.9244813553
 21
11.0895291178
  0
LINE
  5
43A
100
AcDbEntity
  8
0
100
AcDbLine
 62
9
  6
CONTINUOUS
 10
6.0433412665
 20
11.1594649394
 11
6.1526462661
 21
11.0720200626
  0
LINE
  5
43B
100
AcDbEntity
  8
0
100
AcDbLine
 62
9
  6
CONTINUOUS
 10
7.4902317241
 20
9.7125735811
 11
7.8222272625
 21
9.3819882488
  0
LINE
  5
43C
100
AcDbEntity
  8
0
100
AcDbLine
 62
9
  6
CONTINUOUS
 10
6.0827104782
 20
9.190879974
 11
6.1701553213
 21
9.3001849735
  0
LINE
  5
43D
100
AcDbEntity
  8
0
100
AcDbLine
 62
9
  6
CONTINUOUS
 10
8.0119092291
 20
9.1908797704
 11
7.9244813516
 21
9.3001849735
  0
LINE
  5
43E
100
AcDbEntity
  8
0
100
AcDbLine
 62
9
  6
CONTINUOUS
 10
7.5296018027
 20
10.6377715555
 11
7.860187037
 21
10.9697670288
  0
LINE
  5
43F
100
AcDbEntity
  8
0
100
AcDbLine
 62
9
  6
CONTINUOUS
 10
6.6044049525
 20
9.7125735811
 11
6.2724094159
 21
9.3819882488
  0
LINE
  5
440
100
AcDbEntity
  8
0
100
AcDbLine
 62
9
  6
CONTINUOUS
 10
6.5650348738
 20
9.7519425358
 11
6.2344496218
 21
9.4199470446
  0
LINE
  5
441
100
AcDbEntity
  8
0
100
AcDbLine
 62
9
  6
CONTINUOUS
 10
8.0512880363
 20
9.2302606252
 11
7.9419910244
 21
9.3176949831
  0
LINE
  5
442
100
AcDbEntity
  8
0
100
AcDbLine
 62
9
  6
CONTINUOUS
 10
6.2344489246
 20
9.419952367
 11
6.1526429097
 21
9.3176973773
  0
LINE
  5
443
100
AcDbEntity
  8
0
100
AcDbLine
 62
9
  6
CONTINUOUS
 10
6.1526462597
 20
11.0720200678
 11
6.2344495545
 21
10.9697659494
  0
SPLINE
  5
444
100
AcDbEntity
  8
0
100
AcDbSpline
 62
9
  6
CONTINUOUS
 70
0
 71
3
 72
11
 73
7
 74
0
 42
0.0000001
 43
0.0000001
 44
0.0000000001
 40
0.0
 40
0.0
 40
0.0
 40
0.0
 40
0.2388728323
 40
0.5000027101
 40
0.7611309812
 40
1.0
 40
1.0
 40
1.0
 40
1.0
 10
6.2344493804
 20
9.4199479202
 30
0.0
 10
6.234774105
 20
9.4153329589
 30
0.0
 10
6.2372324585
 20
9.4057266638
 30
0.0
 10
6.2458144497
 20
9.3933527341
 30
0.0
 10
6.2581882927
 20
9.3847707444
 30
0.0
 10
6.2677944896
 20
9.3823124199
 30
0.0
 10
6.2724093782
 20
9.3819877142
 30
0.0
  0
LINE
  5
445
100
AcDbEntity
  8
0
100
AcDbLine
 62
9
  6
CONTINUOUS
 10
6.1701553217
 20
9.3001849717
 11
6.2724094345
 21
9.3819882618
  0
LINE
  5
446
100
AcDbEntity
  8
0
100
AcDbLine
 62
9
  6
CONTINUOUS
 10
7.8222272398
 20
9.3819882618
 11
7.9244813563
 21
9.3001849717
  0
SPLINE
  5
447
100
AcDbEntity
  8
0
100
AcDbSpline
 62
9
  6
CONTINUOUS
 70
0
 71
3
 72
9
 73
5
 74
0
 42
0.0000001
 43
0.0000001
 44
0.0000000001
 40
0.0
 40
0.0
 40
0.0
 40
0.0
 40
0.2327855086
 40
1.0
 40
1.0
 40
1.0
 40
1.0
 10
7.9419903969
 20
9.3176940345
 30
0.0
 10
7.9407868659
 20
9.3161937663
 30
0.0
 10
7.9354363424
 20
9.3098967593
 30
0.0
 10
7.9294259334
 20
9.3041516005
 30
0.0
 10
7.9244813421
 20
9.3001850115
 30
0.0
  0
LINE
  5
448
100
AcDbEntity
  8
0
100
AcDbLine
 62
9
  6
CONTINUOUS
 10
7.860187752
 20
10.9697617243
 11
7.9419937636
 21
11.0720167099
  0
SPLINE
  5
449
100
AcDbEntity
  8
0
100
AcDbSpline
 62
7
  6
CONTINUOUS
 70
0
 71
3
 72
12
 73
8
 74
0
 42
0.0000001
 43
0.0000001
 44
0.0000000001
 40
0.0
 40
0.0
 40
0.0
 40
0.0
 40
0.0772441225
 40
0.1715131364
 40
0.4057774646
 40
0.6869547288
 40
1.0
 40
1.0
 40
1.0
 40
1.0
 10
6.9390506494
 20
11.0145715595
 30
0.0
 10
6.9390505962
 20
11.0167127121
 30
0.0
 10
6.9397947392
 20
11.0214577388
 30
0.0
 10
6.9432582588
 20
11.0321731179
 30
0.0
 10
6.9506194428
 20
11.0474467568
 30
0.0
 10
6.9617101623
 20
11.0675411309
 30
0.0
 10
6.9698097452
 20
11.0818889641
 30
0.0
 10
6.9739237723
 20
11.0895291178
 30
0.0
  0
SPLINE
  5
44A
100
AcDbEntity
  8
0
100
AcDbSpline
 62
9
  6
CONTINUOUS
 70
0
 71
3
 72
13
 73
9
 74
0
 42
0.0000001
 43
0.0000001
 44
0.0000000001
 40
0.0
 40
0.0
 40
0.0
 40
0.0
 40
0.1258958397
 40
0.2512482468
 40
0.3761545575
 40
0.5008420988
 40
0.7499241037
 40
1.0
 40
1.0
 40
1.0
 40
1.0
 10
10.6943244334
 20
3.984074368
 30
0.0
 10
10.6794187848
 20
3.9946127498
 30
0.0
 10
10.6511866339
 20
4.0178697247
 30
0.0
 10
10.6141269728
 20
4.0580910357
 30
0.0
 10
10.5826335112
 20
4.1025863657
 30
0.0
 10
10.5481766313
 20
4.1663204001
 30
0.0
 10
10.5190795947
 20
4.252784828
 30
0.0
 10
10.5110419128
 20
4.3253343829
 30
0.0
 10
10.5108399605
 20
4.3615945315
 30
0.0
  0
SPLINE
  5
44B
100
AcDbEntity
  8
0
100
AcDbSpline
 62
9
  6
CONTINUOUS
 70
0
 71
3
 72
14
 73
10
 74
0
 42
0.0000001
 43
0.0000001
 44
0.0000000001
 40
0.0
 40
0.0
 40
0.0
 40
0.0
 40
0.317359756
 40
0.4655743793
 40
0.6024946249
 40
0.725387136
 40
0.8330273594
 40
0.9246899409
 40
1.0
 40
1.0
 40
1.0
 40
1.0
 10
11.3606734003
 20
4.0157075106
 30
0.0
 10
11.3642782372
 20
4.0116623884
 30
0.0
 10
11.3697601334
 20
4.0058935793
 30
0.0
 10
11.3772759219
 20
3.9988671496
 30
0.0
 10
11.3825835224
 20
3.9943497994
 30
0.0
 10
11.3875990659
 20
3.9905743125
 30
0.0
 10
11.3922249686
 20
3.987585685
 30
0.0
 10
11.3963821198
 20
3.9854046306
 30
0.0
 10
11.399063765
 20
3.9843951701
 30
0.0
 10
11.4003079834
 20
3.9840709395
 30
0.0
  0
SPLINE
  5
44C
100
AcDbEntity
  8
0
100
AcDbSpline
 62
9
  6
CONTINUOUS
 70
0
 71
3
 72
23
 73
19
 74
0
 42
0.0000001
 43
0.0000001
 44
0.0000000001
 40
0.0
 40
0.0
 40
0.0
 40
0.0
 40
0.1110301075
 40
0.2114330871
 40
0.3015944938
 40
0.381969448
 40
0.4531144344
 40
0.5157532551
 40
0.5708800943
 40
0.6197778658
 40
0.6640675123
 40
0.705698237
 40
0.7467903016
 40
0.7893456025
 40
0.8349860043
 40
0.8848663161
 40
0.9397278431
 40
1.0
 40
1.0
 40
1.0
 40
1.0
 10
10.3106668055
 20
9.455004399
 30
0.0
 10
10.3098540482
 20
9.4577143723
 30
0.0
 10
10.3082199321
 20
9.4628498343
 30
0.0
 10
10.3055842209
 20
9.4700716101
 30
0.0
 10
10.3028905627
 20
9.476432322
 30
0.0
 10
10.3001393695
 20
9.4819474739
 30
0.0
 10
10.2973299054
 20
9.4866337301
 30
0.0
 10
10.2944582358
 20
9.4905089788
 30
0.0
 10
10.2915202886
 20
9.4935940999
 30
0.0
 10
10.2885085001
 20
9.4959076438
 30
0.0
 10
10.2854164681
 20
9.4974595695
 30
0.0
 10
10.282249646
 20
9.498252669
 30
0.0
 10
10.2790303068
 20
9.4982982088
 30
0.0
 10
10.2757813675
 20
9.4976306073
 30
0.0
 10
10.2725092209
 20
9.4962938568
 30
0.0
 10
10.2692085152
 20
9.4943250097
 30
0.0
 10
10.265872398
 20
9.4917532021
 30
0.0
 10
10.2637244499
 20
9.4897490467
 30
0.0
 10
10.2626396092
 20
9.4886618933
 30
0.0
  0
LINE
  5
44D
100
AcDbEntity
  8
0
100
AcDbLine
 62
9
  6
CONTINUOUS
 10
10.2626392315
 20
9.4886576981
 11
10.1031700731
 21
9.3288285336
  0
LINE
  5
44E
100
AcDbEntity
  8
0
100
AcDbLine
 62
9
  6
CONTINUOUS
 10
10.1031700688
 20
11.0609346168
 11
10.3780269997
 21
10.7854083462
  0
SPLINE
  5
44F
100
AcDbEntity
  8
0
100
AcDbSpline
 62
9
  6
CONTINUOUS
 70
0
 71
3
 72
21
 73
17
 74
0
 42
0.0000001
 43
0.0000001
 44
0.0000000001
 40
0.0
 40
0.0
 40
0.0
 40
0.0
 40
0.080656306
 40
0.1187317163
 40
0.1553587644
 40
0.1906201821
 40
0.2246595529
 40
0.2896569061
 40
0.3514952331
 40
0.4112721043
 40
0.5285284637
 40
0.6462250353
 40
0.7047990266
 40
0.763053659
 40
0.8794824944
 40
1.0
 40
1.0
 40
1.0
 40
1.0
 10
10.3778551632
 20
9.4954783832
 30
0.0
 10
10.3777815352
 20
9.4519020002
 30
0.0
 10
10.3787950057
 20
9.3877476286
 30
0.0
 10
10.3819474877
 20
9.303869697
 30
0.0
 10
10.3848695752
 20
9.2445297373
 30
0.0
 10
10.3882302797
 20
9.1873978223
 30
0.0
 10
10.3931023196
 20
9.1150031383
 30
0.0
 10
10.3998130685
 20
9.0283443993
 30
0.0
 10
10.4082806494
 20
8.9278786236
 30
0.0
 10
10.4195964149
 20
8.7993195754
 30
0.0
 10
10.4335518307
 20
8.6406982365
 30
0.0
 10
10.4461525476
 20
8.4826085641
 30
0.0
 10
10.4543909651
 20
8.3561669505
 30
0.0
 10
10.461520048
 20
8.2303447799
 30
0.0
 10
10.4687273685
 20
8.0710133922
 30
0.0
 10
10.4731289297
 20
7.94307186
 30
0.0
 10
10.4751715691
 20
7.8779915223
 30
0.0
  0
SPLINE
  5
450
100
AcDbEntity
  8
0
100
AcDbSpline
 62
9
  6
CONTINUOUS
 70
0
 71
3
 72
9
 73
5
 74
0
 42
0.0000001
 43
0.0000001
 44
0.0000000001
 40
0.0
 40
0.0
 40
0.0
 40
0.0
 40
0.4732682414
 40
1.0
 40
1.0
 40
1.0
 40
1.0
 10
10.3104540604
 20
9.4579771393
 30
0.0
 10
10.3114333235
 20
9.4542126574
 30
0.0
 10
10.3133495267
 20
9.4462184564
 30
0.0
 10
10.3150413145
 20
9.438174673
 30
0.0
 10
10.3158883
 20
9.4339291561
 30
0.0
  0
SPLINE
  5
451
100
AcDbEntity
  8
0
100
AcDbSpline
 62
9
  6
CONTINUOUS
 70
0
 71
3
 72
26
 73
22
 74
0
 42
0.0000001
 43
0.0000001
 44
0.0000000001
 40
0.0
 40
0.0
 40
0.0
 40
0.0
 40
0.0146726972
 40
0.0308845635
 40
0.0486027932
 40
0.0677828666
 40
0.1103155224
 40
0.1579926538
 40
0.2103145735
 40
0.2668507057
 40
0.3272430092
 40
0.3912001899
 40
0.458505337
 40
0.4933381121
 40
0.5289077061
 40
0.6020625552
 40
0.6776582762
 40
0.7554893483
 40
0.8353208655
 40
0.9169025409
 40
1.0
 40
1.0
 40
1.0
 40
1.0
 10
10.3178753651
 20
9.4235423799
 30
0.0
 10
10.3190233829
 20
9.417296029
 30
0.0
 10
10.3212845914
 20
9.4041194567
 30
0.0
 10
10.3245072921
 20
9.3833298463
 30
0.0
 10
10.3277631899
 20
9.3605728238
 30
0.0
 10
10.3323469846
 20
9.3264983731
 30
0.0
 10
10.3382555819
 20
9.279519265
 30
0.0
 10
10.3456745879
 20
9.2182731888
 30
0.0
 10
10.3537188159
 20
9.150997238
 30
0.0
 10
10.3623837659
 20
9.0782526994
 30
0.0
 10
10.3715696161
 20
9.0004982871
 30
0.0
 10
10.3809765939
 20
8.9180767845
 30
0.0
 10
10.3888061094
 20
8.846610974
 30
0.0
 10
10.3950436549
 20
8.7873324373
 30
0.0
 10
10.4013484384
 20
8.7255153173
 30
0.0
 10
10.4090884905
 20
8.6461095141
 30
0.0
 10
10.4180763423
 20
8.5484475955
 30
0.0
 10
10.4267669912
 20
8.447857255
 30
0.0
 10
10.4347520222
 20
8.3446086793
 30
0.0
 10
10.4418450461
 20
8.2390101985
 30
0.0
 10
10.4459259083
 20
8.1678457464
 30
0.0
 10
10.44783305
 20
8.131928203
 30
0.0
  0
LINE
  5
452
100
AcDbEntity
  8
0
100
AcDbLine
 62
9
  6
CONTINUOUS
 10
10.44783305
 20
8.131928203
 11
10.4483059609
 21
8.1229619577
  0
SPLINE
  5
453
100
AcDbEntity
  8
0
100
AcDbSpline
 62
9
  6
CONTINUOUS
 70
0
 71
3
 72
20
 73
16
 74
0
 42
0.0000001
 43
0.0000001
 44
0.0000000001
 40
0.0
 40
0.0
 40
0.0
 40
0.0
 40
0.1620180442
 40
0.3277068646
 40
0.4890984448
 40
0.5654118919
 40
0.6372900805
 40
0.7037654331
 40
0.7643305552
 40
0.818622056
 40
0.8663549861
 40
0.9075232925
 40
0.9428193825
 40
0.9732391813
 40
1.0
 40
1.0
 40
1.0
 40
1.0
 10
11.5052313915
 20
4.3381941778
 30
0.0
 10
11.50984005
 20
4.3382006879
 30
0.0
 10
11.5191634194
 20
4.338475196
 30
0.0
 10
11.5330318087
 20
4.3396812549
 30
0.0
 10
11.5443811861
 20
4.3414513608
 30
0.0
 10
11.5529870796
 20
4.3433297133
 30
0.0
 10
11.5588894826
 20
4.3449048472
 30
0.0
 10
11.5642704234
 20
4.3466652172
 30
0.0
 10
11.5690664045
 20
4.3485742813
 30
0.0
 10
11.5732307072
 20
4.3505975281
 30
0.0
 10
11.5767257007
 20
4.3527034031
 30
0.0
 10
11.5795235259
 20
4.3548771033
 30
0.0
 10
11.5816325658
 20
4.3570864976
 30
0.0
 10
11.5830782771
 20
4.3593046904
 30
0.0
 10
11.5836394711
 20
4.3608527519
 30
0.0
 10
11.5837964336
 20
4.3615976148
 30
0.0
  0
SPLINE
  5
454
100
AcDbEntity
  8
0
100
AcDbSpline
 62
9
  6
CONTINUOUS
 70
0
 71
3
 72
14
 73
10
 74
0
 42
0.0000001
 43
0.0000001
 44
0.0000000001
 40
0.0
 40
0.0
 40
0.0
 40
0.0
 40
0.0367175226
 40
0.0929046805
 40
0.1618559945
 40
0.2465003507
 40
0.3662993508
 40
0.5405913447
 40
1.0
 40
1.0
 40
1.0
 40
1.0
 10
10.3106668055
 20
9.455004399
 30
0.0
 10
10.3106454544
 20
9.455034269
 30
0.0
 10
10.3106153888
 20
9.4551243595
 30
0.0
 10
10.310575077
 20
9.4552800161
 30
0.0
 10
10.3105308671
 20
9.4554855533
 30
0.0
 10
10.3104833463
 20
9.4557547622
 30
0.0
 10
10.3104455479
 20
9.456131981
 30
0.0
 10
10.3104070691
 20
9.4568845164
 30
0.0
 10
10.3103965561
 20
9.4575182991
 30
0.0
 10
10.3103928761
 20
9.4579776782
 30
0.0
  0
SPLINE
  5
455
100
AcDbEntity
  8
0
100
AcDbSpline
 62
9
  6
CONTINUOUS
 70
0
 71
3
 72
13
 73
9
 74
0
 42
0.0000001
 43
0.0000001
 44
0.0000000001
 40
0.0
 40
0.0
 40
0.0
 40
0.0
 40
0.2547234721
 40
0.506878632
 40
0.6317369373
 40
0.7556796671
 40
0.8785028676
 40
1.0
 40
1.0
 40
1.0
 40
1.0
 10
10.4836187289
 20
6.7710556739
 30
0.0
 10
10.4837604233
 20
6.8587822599
 30
0.0
 10
10.4825105142
 20
7.0333548358
 30
0.0
 10
10.4781710574
 20
7.2508852933
 30
0.0
 10
10.4735590387
 20
7.4233531136
 30
0.0
 10
10.4697643777
 20
7.5512842577
 30
0.0
 10
10.465792531
 20
7.6780517893
 30
0.0
 10
10.463043729
 20
7.7621507741
 30
0.0
 10
10.4616460111
 20
7.8039710055
 30
0.0
  0
LINE
  5
456
100
AcDbEntity
  8
0
100
AcDbLine
 62
9
  6
CONTINUOUS
 10
10.4616460111
 20
7.8039710055
 11
10.4615916324
 21
7.8055975734
  0
SPLINE
  5
457
100
AcDbEntity
  8
0
100
AcDbSpline
 62
9
  6
CONTINUOUS
 70
0
 71
3
 72
13
 73
9
 74
0
 42
0.0000001
 43
0.0000001
 44
0.0000000001
 40
0.0
 40
0.0
 40
0.0
 40
0.0
 40
0.2255944438
 40
0.346634553
 40
0.4724793294
 40
0.6021766547
 40
0.7341636094
 40
1.0
 40
1.0
 40
1.0
 40
1.0
 10
10.4751715717
 20
7.8779915366
 30
0.0
 10
10.4776383328
 20
7.7993983001
 30
0.0
 10
10.4812106414
 20
7.6786299633
 30
0.0
 10
10.4858862212
 20
7.514011558
 30
0.0
 10
10.4892876287
 20
7.3827960583
 30
0.0
 10
10.4922580362
 20
7.2477531276
 30
0.0
 10
10.4953348111
 20
7.0639089908
 30
0.0
 10
10.4962502861
 20
6.9252410274
 30
0.0
 10
10.4959975829
 20
6.8325829255
 30
0.0
  0
LINE
  5
458
100
AcDbEntity
  8
0
100
AcDbLine
 62
9
  6
CONTINUOUS
 10
10.4959978073
 20
6.8326277961
 11
10.4877668427
 21
6.7916454798
  0
LINE
  5
459
100
AcDbEntity
  8
0
100
AcDbLine
 62
9
  6
CONTINUOUS
 10
10.4877668427
 20
6.7916454798
 11
10.4836189898
 21
6.77110005
  0
SPLINE
  5
45A
100
AcDbEntity
  8
0
100
AcDbSpline
 62
9
  6
CONTINUOUS
 70
0
 71
3
 72
16
 73
12
 74
0
 42
0.0000001
 43
0.0000001
 44
0.0000000001
 40
0.0
 40
0.0
 40
0.0
 40
0.0
 40
0.0401247034
 40
0.0843174236
 40
0.1837062206
 40
0.2965939698
 40
0.4214167471
 40
0.5562435571
 40
0.6990455734
 40
0.847764875
 40
1.0
 40
1.0
 40
1.0
 40
1.0
 10
10.4556538436
 20
4.8111640311
 30
0.0
 10
10.4564283168
 20
4.8195621757
 30
0.0
 10
10.4579291809
 20
4.8372216571
 30
0.0
 10
10.4607917362
 20
4.8757289437
 30
0.0
 10
10.464086836
 20
4.9295374672
 30
0.0
 10
10.4675371959
 20
5.0003092935
 30
0.0
 10
10.4705783045
 20
5.0785546211
 30
0.0
 10
10.4731858503
 20
5.1631061338
 30
0.0
 10
10.4753443705
 20
5.2526945256
 30
0.0
 10
10.4770216856
 20
5.345952767
 30
0.0
 10
10.4778153803
 20
5.4092054707
 30
0.0
 10
10.4781435146
 20
5.4412019689
 30
0.0
  0
LINE
  5
45B
100
AcDbEntity
  8
0
100
AcDbLine
 62
9
  6
CONTINUOUS
 10
10.4825973294
 20
6.1766544306
 11
10.4836180409
 21
6.7698153472
  0
LINE
  5
45C
100
AcDbEntity
  8
0
100
AcDbLine
 62
9
  6
CONTINUOUS
 10
10.4836180409
 20
6.7698153472
 11
10.4836201639
 21
6.7711079672
  0
SPLINE
  5
45D
100
AcDbEntity
  8
0
100
AcDbSpline
 62
9
  6
CONTINUOUS
 70
0
 71
3
 72
10
 73
6
 74
0
 42
0.0000001
 43
0.0000001
 44
0.0000000001
 40
0.0
 40
0.0
 40
0.0
 40
0.0
 40
0.2363971317
 40
0.4853904735
 40
1.0
 40
1.0
 40
1.0
 40
1.0
 10
10.4959977014
 20
6.8326272664
 30
0.0
 10
10.4954443566
 20
6.6298537586
 30
0.0
 10
10.4945641843
 20
6.2135014286
 30
0.0
 10
10.4934761018
 20
5.355732505
 30
0.0
 10
10.4932296305
 20
4.7007371454
 30
0.0
 10
10.4931657124
 20
4.2593207647
 30
0.0
  0
LINE
  5
45E
100
AcDbEntity
  8
0
100
AcDbLine
 62
9
  6
CONTINUOUS
 10
9.9180380793
 20
11.2453607131
 11
10.029858724
 21
11.1708526902
  0
SPLINE
  5
45F
100
AcDbEntity
  8
0
100
AcDbSpline
 62
9
  6
CONTINUOUS
 70
0
 71
3
 72
14
 73
10
 74
0
 42
0.0000001
 43
0.0000001
 44
0.0000000001
 40
0.0
 40
0.0
 40
0.0
 40
0.0
 40
0.1230855673
 40
0.2493029748
 40
0.3768627538
 40
0.5042241218
 40
0.6304400172
 40
0.7550971371
 40
1.0
 40
1.0
 40
1.0
 40
1.0
 10
11.5052314678
 20
4.3381949212
 30
0.0
 10
11.5050561174
 20
4.4447886933
 30
0.0
 10
11.5047688581
 20
4.6606885647
 30
0.0
 10
11.504458797
 20
4.9870571282
 30
0.0
 10
11.5042906731
 20
5.3171287001
 30
0.0
 10
11.5041687448
 20
5.6471989766
 30
0.0
 10
11.5040968195
 20
5.9747555235
 30
0.0
 10
11.5040345337
 20
6.4041047401
 30
0.0
 10
11.5039747254
 20
6.7241491303
 30
0.0
 10
11.5039168426
 20
6.9362386131
 30
0.0
  0
LINE
  5
460
100
AcDbEntity
  8
0
100
AcDbLine
 62
9
  6
CONTINUOUS
 10
12.0978572055
 20
11.3241182479
 11
12.0233142102
 21
11.2123166178
  0
SPLINE
  5
461
100
AcDbEntity
  8
0
100
AcDbSpline
 62
9
  6
CONTINUOUS
 70
0
 71
3
 72
20
 73
16
 74
0
 42
0.0000001
 43
0.0000001
 44
0.0000000001
 40
0.0
 40
0.0
 40
0.0
 40
0.0
 40
0.1632357722
 40
0.3302199638
 40
0.4927151894
 40
0.5694078464
 40
0.6414949005
 40
0.7079763695
 40
0.7683408942
 40
0.822230814
 40
0.8693737789
 40
0.9097965128
 40
0.9442670805
 40
0.9738864197
 40
1.0
 40
1.0
 40
1.0
 40
1.0
 10
11.5039168426
 20
6.9362386131
 30
0.0
 10
11.5085694623
 20
6.9362398399
 30
0.0
 10
11.517983598
 20
6.93598105
 30
0.0
 10
11.5319853876
 20
6.9347978345
 30
0.0
 10
11.543440708
 20
6.9330435772
 30
0.0
 10
11.5521161415
 20
6.9311748556
 30
0.0
 10
11.558050774
 20
6.9296071555
 30
0.0
 10
11.5634463876
 20
6.9278535377
 30
0.0
 10
11.5682381378
 20
6.9259514118
 30
0.0
 10
11.5723790565
 20
6.9239360573
 30
0.0
 10
11.5758319484
 20
6.9218396104
 30
0.0
 10
11.5785695763
 20
6.919676156
 30
0.0
 10
11.580602003
 20
6.9174773803
 30
0.0
 10
11.5819562999
 20
6.9152694797
 30
0.0
 10
11.5824410065
 20
6.9137337552
 30
0.0
 10
11.5825590325
 20
6.9129988715
 30
0.0
  0
SPLINE
  5
462
100
AcDbEntity
  8
0
100
AcDbSpline
 62
9
  6
CONTINUOUS
 70
0
 71
3
 72
20
 73
16
 74
0
 42
0.0000001
 43
0.0000001
 44
0.0000000001
 40
0.0
 40
0.0
 40
0.0
 40
0.0
 40
0.166730534
 40
0.3375079174
 40
0.503509257
 40
0.5816125739
 40
0.6547457892
 40
0.7218023028
 40
0.7822015622
 40
0.8355222435
 40
0.8814179549
 40
0.9198433378
 40
0.9515624702
 40
0.9777552484
 40
1.0
 40
1.0
 40
1.0
 40
1.0
 10
11.5299559607
 20
7.9537048218
 30
0.0
 10
11.5346521443
 20
7.953528
 30
0.0
 10
11.5441516086
 20
7.9529504355
 30
0.0
 10
11.5582667193
 20
7.9514214215
 30
0.0
 10
11.569811708
 20
7.949508334
 30
0.0
 10
11.5785497716
 20
7.947602889
 30
0.0
 10
11.5845077356
 20
7.9460586525
 30
0.0
 10
11.5899091658
 20
7.9443798521
 30
0.0
 10
11.5946874531
 20
7.9426015951
 30
0.0
 10
11.5987949917
 20
7.9407566391
 30
0.0
 10
11.602194867
 20
7.9388752224
 30
0.0
 10
11.60486428
 20
7.9369692022
 30
0.0
 10
11.6068176767
 20
7.9350625436
 30
0.0
 10
11.6080888575
 20
7.9331705652
 30
0.0
 10
11.6085128998
 20
7.9318446934
 30
0.0
 10
11.6085930437
 20
7.93122284
 30
0.0
  0
LINE
  5
463
100
AcDbEntity
  8
0
100
AcDbLine
 62
9
  6
CONTINUOUS
 10
12.1765794011
 20
9.1443181048
 11
12.0647779488
 21
9.2188610561
  0
SPLINE
  5
464
100
AcDbEntity
  8
0
100
AcDbSpline
 62
9
  6
CONTINUOUS
 70
0
 71
3
 72
20
 73
16
 74
0
 42
0.0000001
 43
0.0000001
 44
0.0000000001
 40
0.0
 40
0.0
 40
0.0
 40
0.0
 40
0.1681510159
 40
0.340247065
 40
0.507085205
 40
0.585299543
 40
0.6582746621
 40
0.7248840134
 40
0.784586332
 40
0.8370250308
 40
0.8819470266
 40
0.9194633109
 40
0.9505878064
 40
0.9768098249
 40
1.0
 40
1.0
 40
1.0
 40
1.0
 10
11.6378108656
 20
9.4739941262
 30
0.0
 10
11.6425859162
 20
9.4739678276
 30
0.0
 10
11.6522510861
 20
9.4741583
 30
0.0
 10
11.6666212962
 20
9.4751882766
 30
0.0
 10
11.6783717267
 20
9.4767727401
 30
0.0
 10
11.6872414461
 20
9.4784846303
 30
0.0
 10
11.6932594994
 20
9.4799230297
 30
0.0
 10
11.6986870213
 20
9.4815374357
 30
0.0
 10
11.7034551512
 20
9.4832904308
 30
0.0
 10
11.7075164756
 20
9.4851467707
 30
0.0
 10
11.7108359271
 20
9.4870744019
 30
0.0
 10
11.7133906766
 20
9.4890635587
 30
0.0
 10
11.7151968269
 20
9.4910884275
 30
0.0
 10
11.7162841282
 20
9.4931310744
 30
0.0
 10
11.716543628
 20
9.4945394666
 30
0.0
 10
11.7165494067
 20
9.4951979918
 30
0.0
  0
LINE
  5
465
100
AcDbEntity
  8
0
100
AcDbLine
 62
9
  6
CONTINUOUS
 10
9.9968143297
 20
9.0655767803
 11
10.0713226492
 21
9.1773973582
  0
SPLINE
  5
466
100
AcDbEntity
  8
0
100
AcDbSpline
 62
9
  6
CONTINUOUS
 70
0
 71
3
 72
22
 73
18
 74
0
 42
0.0000001
 43
0.0000001
 44
0.0000000001
 40
0.0
 40
0.0
 40
0.0
 40
0.0
 40
0.1870062681
 40
0.3674195953
 40
0.5339931608
 40
0.6102448874
 40
0.6809081048
 40
0.7453851201
 40
0.8031045317
 40
0.8536311991
 40
0.8967190771
 40
0.9322542324
 40
0.960448987
 40
0.9720708071
 40
0.9822936559
 40
0.9914471675
 40
1.0
 40
1.0
 40
1.0
 40
1.0
 10
11.6378695194
 20
9.5113461332
 30
0.0
 10
11.6429865333
 20
9.5113461332
 30
0.0
 10
11.6530411485
 20
9.5115229748
 30
0.0
 10
11.6676348061
 20
9.5123048807
 30
0.0
 10
11.6791691865
 20
9.5133918448
 30
0.0
 10
11.6876731637
 20
9.5145229043
 30
0.0
 10
11.6933834777
 20
9.5154508332
 30
0.0
 10
11.6985621151
 20
9.5164718864
 30
0.0
 10
11.7031591446
 20
9.5175767634
 30
0.0
 10
11.7071311523
 20
9.5187550519
 30
0.0
 10
11.7104458911
 20
9.5199930689
 30
0.0
 10
11.7130756016
 20
9.5212791981
 30
0.0
 10
11.7147883728
 20
9.5224552748
 30
0.0
 10
11.7157495779
 20
9.5234367419
 30
0.0
 10
11.7162391183
 20
9.5241354214
 30
0.0
 10
11.7165402428
 20
9.5248450532
 30
0.0
 10
11.7166096769
 20
9.5253316777
 30
0.0
 10
11.7166096769
 20
9.5255657071
 30
0.0
  0
SPLINE
  5
467
100
AcDbEntity
  8
0
100
AcDbSpline
 62
9
  6
CONTINUOUS
 70
0
 71
3
 72
12
 73
8
 74
0
 42
0.0000001
 43
0.0000001
 44
0.0000000001
 40
0.0
 40
0.0
 40
0.0
 40
0.0
 40
0.2502698973
 40
0.3755096628
 40
0.5006385369
 40
0.7504273843
 40
1.0
 40
1.0
 40
1.0
 40
1.0
 10
10.6070337834
 20
3.7954776437
 30
0.0
 10
10.5908806367
 20
3.8087679041
 30
0.0
 10
10.5681983054
 20
3.8307155446
 30
0.0
 10
10.5418024042
 20
3.8632242252
 30
0.0
 10
10.5181117193
 20
3.8977174049
 30
0.0
 10
10.4937816944
 20
3.9441519466
 30
0.0
 10
10.4804286765
 20
3.9839071524
 30
0.0
 10
10.4753597681
 20
4.0041414444
 30
0.0
  0
SPLINE
  5
468
100
AcDbEntity
  8
0
100
AcDbSpline
 62
9
  6
CONTINUOUS
 70
0
 71
3
 72
13
 73
9
 74
0
 42
0.0000001
 43
0.0000001
 44
0.0000000001
 40
0.0
 40
0.0
 40
0.0
 40
0.0
 40
0.2426921759
 40
0.3679748186
 40
0.4947831346
 40
0.6223147978
 40
0.7496962752
 40
1.0
 40
1.0
 40
1.0
 40
1.0
 10
10.4814845045
 20
4.1929292516
 30
0.0
 10
10.4825131537
 20
4.1641620091
 30
0.0
 10
10.4893863574
 20
4.1205063283
 30
0.0
 10
10.5087752047
 20
4.0650140258
 30
0.0
 10
10.5286238094
 20
4.0244682485
 30
0.0
 10
10.5533633915
 20
3.9864144175
 30
0.0
 10
10.5917039803
 20
3.9402370789
 30
0.0
 10
10.6262000982
 20
3.9108805512
 30
0.0
 10
10.6507927375
 20
3.894249105
 30
0.0
  0
SPLINE
  5
469
100
AcDbEntity
  8
0
100
AcDbSpline
 62
9
  6
CONTINUOUS
 70
0
 71
3
 72
15
 73
11
 74
0
 42
0.0000001
 43
0.0000001
 44
0.0000000001
 40
0.0
 40
0.0
 40
0.0
 40
0.0
 40
0.2418031367
 40
0.304189351
 40
0.3671160575
 40
0.4940616677
 40
0.6218138696
 40
0.7493961256
 40
0.8757650777
 40
1.0
 40
1.0
 40
1.0
 40
1.0
 10
10.4931657057
 20
4.2593215248
 30
0.0
 10
10.4943032557
 20
4.2292340305
 30
0.0
 10
10.5005921933
 20
4.1913197262
 30
0.0
 10
10.5150152095
 20
4.1479378817
 30
0.0
 10
10.5267932307
 20
4.1187956325
 30
0.0
 10
10.5450561196
 20
4.083585807
 30
0.0
 10
10.5722279782
 20
4.0443545688
 30
0.0
 10
10.6039257361
 20
4.0087777188
 30
0.0
 10
10.6393768929
 20
3.9776184784
 30
0.0
 10
10.6651090693
 20
3.9598244513
 30
0.0
 10
10.6783192193
 20
3.9517746547
 30
0.0
  0
SPLINE
  5
46A
100
AcDbEntity
  8
0
100
AcDbSpline
 62
9
  6
CONTINUOUS
 70
0
 71
3
 72
23
 73
19
 74
0
 42
0.0000001
 43
0.0000001
 44
0.0000000001
 40
0.0
 40
0.0
 40
0.0
 40
0.0
 40
0.0639019401
 40
0.1274079754
 40
0.1905438595
 40
0.2532697075
 40
0.3155171179
 40
0.3772784673
 40
0.438716029
 40
0.5000003011
 40
0.561284551
 40
0.6227220552
 40
0.6844833268
 40
0.7467306653
 40
0.809456458
 40
0.8725922772
 40
0.9360982094
 40
1.0
 40
1.0
 40
1.0
 40
1.0
 10
10.6507928286
 20
3.8942493051
 30
0.0
 10
10.6647887351
 20
3.8823528666
 30
0.0
 10
10.6937745277
 20
3.8598716247
 30
0.0
 10
10.7399582439
 20
3.8302947452
 30
0.0
 10
10.7883068849
 20
3.8051273673
 30
0.0
 10
10.8383424002
 20
3.7844460965
 30
0.0
 10
10.8896189735
 20
3.7683401939
 30
0.0
 10
10.9417506215
 20
3.7568851152
 30
0.0
 10
10.9944057938
 20
3.7500519829
 30
0.0
 10
11.0473151449
 20
3.7477911155
 30
0.0
 10
11.1002245077
 20
3.7500513183
 30
0.0
 10
11.1528797208
 20
3.756883785
 30
0.0
 10
11.2050114527
 20
3.7683382056
 30
0.0
 10
11.2562881651
 20
3.7844434698
 30
0.0
 10
11.3063238754
 20
3.8051241245
 30
0.0
 10
11.3546727586
 20
3.8302908977
 30
0.0
 10
11.4008567494
 20
3.8598671797
 30
0.0
 10
11.4298427411
 20
3.8823480473
 30
0.0
 10
11.4438387479
 20
3.8942443016
 30
0.0
  0
SPLINE
  5
46B
100
AcDbEntity
  8
0
100
AcDbSpline
 62
9
  6
CONTINUOUS
 70
0
 71
3
 72
20
 73
16
 74
0
 42
0.0000001
 43
0.0000001
 44
0.0000000001
 40
0.0
 40
0.0
 40
0.0
 40
0.0
 40
0.1247898776
 40
0.187285368
 40
0.2497947475
 40
0.3123283774
 40
0.3748774732
 40
0.4374313108
 40
0.4999942334
 40
0.625021048
 40
0.7500329359
 40
0.8125825866
 40
0.8751008846
 40
0.937591253
 40
1.0
 40
1.0
 40
1.0
 40
1.0
 10
10.6070367347
 20
3.7954753592
 30
0.0
 10
10.6375153529
 20
3.770387014
 30
0.0
 10
10.6870883233
 20
3.7371037459
 30
0.0
 10
10.7581511294
 20
3.7023979084
 30
0.0
 10
10.8136012233
 20
3.6810808341
 30
0.0
 10
10.8706485376
 20
3.6644950026
 30
0.0
 10
10.9288819095
 20
3.652661833
 30
0.0
 10
10.9878933293
 20
3.6455936634
 30
0.0
 10
11.0670298945
 20
3.6424557595
 30
0.0
 10
11.1660570319
 20
3.6502602964
 30
0.0
 10
11.2625515535
 20
3.6739818318
 30
0.0
 10
11.3364706234
 20
3.7023954677
 30
0.0
 10
11.3898613537
 20
3.7284661724
 30
0.0
 10
11.4406015026
 20
3.7592886856
 30
0.0
 10
11.4723503833
 20
3.7829267581
 30
0.0
 10
11.4875956281
 20
3.7954705922
 30
0.0
  0
SPLINE
  5
46C
100
AcDbEntity
  8
0
100
AcDbSpline
 62
9
  6
CONTINUOUS
 70
0
 71
3
 72
12
 73
8
 74
0
 42
0.0000001
 43
0.0000001
 44
0.0000000001
 40
0.0
 40
0.0
 40
0.0
 40
0.0
 40
0.2495525352
 40
0.4993973006
 40
0.6245394487
 40
0.7497757348
 40
1.0
 40
1.0
 40
1.0
 40
1.0
 10
11.6134272779
 20
3.9832337406
 30
0.0
 10
11.6077947847
 20
3.9650287783
 30
0.0
 10
11.5938811273
 20
3.9293576331
 30
0.0
 10
11.5702174327
 20
3.8877516361
 30
0.0
 10
11.5478171331
 20
3.8567717777
 30
0.0
 10
11.523193207
 20
3.8275004384
 30
0.0
 10
11.5023550947
 20
3.8076118153
 30
0.0
 10
11.4875986223
 20
3.7954730439
 30
0.0
  0
SPLINE
  5
46D
100
AcDbEntity
  8
0
100
AcDbSpline
 62
9
  6
CONTINUOUS
 70
0
 71
3
 72
13
 73
9
 74
0
 42
0.0000001
 43
0.0000001
 44
0.0000000001
 40
0.0
 40
0.0
 40
0.0
 40
0.0
 40
0.2503036974
 40
0.3776852826
 40
0.5052170656
 40
0.6320254698
 40
0.7573081321
 40
1.0
 40
1.0
 40
1.0
 40
1.0
 10
11.4438388335
 20
3.8942441135
 30
0.0
 10
11.4684322675
 20
3.9108756793
 30
0.0
 10
11.5029295238
 20
3.9402326367
 30
0.0
 10
11.5412712873
 20
3.9864109521
 30
0.0
 10
11.5660115628
 20
4.0244657128
 30
0.0
 10
11.5858605982
 20
4.0650125499
 30
0.0
 10
11.6052496408
 20
4.1205062927
 30
0.0
 10
11.6121225828
 20
4.1641631068
 30
0.0
 10
11.6131508817
 20
4.1929310321
 30
0.0
  0
SPLINE
  5
46E
100
AcDbEntity
  8
0
100
AcDbSpline
 62
9
  6
CONTINUOUS
 70
0
 71
3
 72
15
 73
11
 74
0
 42
0.0000001
 43
0.0000001
 44
0.0000000001
 40
0.0
 40
0.0
 40
0.0
 40
0.0
 40
0.1242348582
 40
0.2506038133
 40
0.3781861175
 40
0.5059383832
 40
0.6328840473
 40
0.6958107716
 40
0.7581969928
 40
1.0
 40
1.0
 40
1.0
 40
1.0
 10
11.4163143075
 20
3.9517693769
 30
0.0
 10
11.4295246899
 20
3.959819169
 30
0.0
 10
11.4552573319
 20
3.9776132386
 30
0.0
 10
11.4907091398
 20
4.0087726837
 30
0.0
 10
11.5224074737
 20
4.0443498866
 30
0.0
 10
11.5495797958
 20
4.0835815995
 30
0.0
 10
11.5678429454
 20
4.1187919025
 30
0.0
 10
11.5796210915
 20
4.1479345598
 30
0.0
 10
11.5940441998
 20
4.1913169959
 30
0.0
 10
11.6003330447
 20
4.2292318313
 30
0.0
 10
11.6014704113
 20
4.2593197139
 30
0.0
  0
SPLINE
  5
46F
100
AcDbEntity
  8
0
100
AcDbSpline
 62
9
  6
CONTINUOUS
 70
0
 71
3
 72
10
 73
6
 74
0
 42
0.0000001
 43
0.0000001
 44
0.0000000001
 40
0.0
 40
0.0
 40
0.0
 40
0.0
 40
0.514604452
 40
0.7635984569
 40
1.0
 40
1.0
 40
1.0
 40
1.0
 10
11.6014704557
 20
4.2593219998
 30
0.0
 10
11.6014049761
 20
4.7008440119
 30
0.0
 10
11.6011544494
 20
5.3559987886
 30
0.0
 10
11.6000554257
 20
6.2139814253
 30
0.0
 10
11.5991675637
 20
6.6304418347
 30
0.0
 10
11.5986096813
 20
6.8332696395
 30
0.0
  0
LINE
  5
470
100
AcDbEntity
  8
0
100
AcDbLine
 62
9
  6
CONTINUOUS
 10
11.5986096813
 20
6.8332696395
 11
11.6068389196
 21
6.7925038344
  0
LINE
  5
471
100
AcDbEntity
  8
0
100
AcDbLine
 62
9
  6
CONTINUOUS
 10
11.6068389196
 20
6.7925038344
 11
11.6109858639
 21
6.7720686203
  0
LINE
  5
472
100
AcDbEntity
  8
0
100
AcDbLine
 62
9
  6
CONTINUOUS
 10
11.6109844809
 20
6.772077642
 11
11.6109866312
 21
6.7707894032
  0
LINE
  5
473
100
AcDbEntity
  8
0
100
AcDbLine
 62
9
  6
CONTINUOUS
 10
11.6109866312
 20
6.7707894032
 11
11.6120207863
 21
6.1766550319
  0
SPLINE
  5
474
100
AcDbEntity
  8
0
100
AcDbSpline
 62
9
  6
CONTINUOUS
 70
0
 71
3
 72
15
 73
11
 74
0
 42
0.0000001
 43
0.0000001
 44
0.0000000001
 40
0.0
 40
0.0
 40
0.0
 40
0.0
 40
0.3009081579
 40
0.4437049731
 40
0.5785340411
 40
0.7033553747
 40
0.8162751122
 40
0.9156615386
 40
0.9598194622
 40
1.0
 40
1.0
 40
1.0
 40
1.0
 10
11.6164813414
 20
5.4412059477
 30
0.0
 10
11.6171229392
 20
5.3779803832
 30
0.0
 10
11.6185123112
 20
5.2847539888
 30
0.0
 10
11.6214362687
 20
5.1632230743
 30
0.0
 10
11.6240427461
 20
5.0786976112
 30
0.0
 10
11.6270824934
 20
5.000468671
 30
0.0
 10
11.6305288477
 20
4.9297118607
 30
0.0
 10
11.6338198508
 20
4.8759202164
 30
0.0
 10
11.6366864675
 20
4.8374208131
 30
0.0
 10
11.6381858742
 20
4.8197621083
 30
0.0
 10
11.6389572946
 20
4.8113544224
 30
0.0
  0
SPLINE
  5
475
100
AcDbEntity
  8
0
100
AcDbSpline
 62
9
  6
CONTINUOUS
 70
0
 71
3
 72
20
 73
16
 74
0
 42
0.0000001
 43
0.0000001
 44
0.0000000001
 40
0.0
 40
0.0
 40
0.0
 40
0.0
 40
0.1682444502
 40
0.3404054
 40
0.5072680306
 40
0.5854799203
 40
0.6584436725
 40
0.7250337757
 40
0.7847115717
 40
0.8371234098
 40
0.8820189993
 40
0.9195116332
 40
0.9506163653
 40
0.9768227175
 40
1.0
 40
1.0
 40
1.0
 40
1.0
 10
10.4568192851
 20
9.4739939412
 30
0.0
 10
10.4520418984
 20
9.4739677591
 30
0.0
 10
10.4423728772
 20
9.4741587087
 30
0.0
 10
10.4279985001
 20
9.4751898771
 30
0.0
 10
10.4162465392
 20
9.4767756561
 30
0.0
 10
10.4073773158
 20
9.4784885537
 30
0.0
 10
10.4013607711
 20
9.4799274621
 30
0.0
 10
10.3959353665
 20
9.4815421802
 30
0.0
 10
10.3911697662
 20
9.4832952697
 30
0.0
 10
10.3871111332
 20
9.4851514743
 30
0.0
 10
10.3837942888
 20
9.4870787358
 30
0.0
 10
10.3812418399
 20
9.4890672629
 30
0.0
 10
10.3794375456
 20
9.4910912839
 30
0.0
 10
10.3783515554
 20
9.4931328674
 30
0.0
 10
10.3780924356
 20
9.4945403553
 30
0.0
 10
10.3780866715
 20
9.4951984706
 30
0.0
  0
SPLINE
  5
476
100
AcDbEntity
  8
0
100
AcDbSpline
 62
9
  6
CONTINUOUS
 70
0
 71
3
 72
22
 73
18
 74
0
 42
0.0000001
 43
0.0000001
 44
0.0000000001
 40
0.0
 40
0.0
 40
0.0
 40
0.0
 40
0.0085950846
 40
0.0177892742
 40
0.0280490188
 40
0.0397031824
 40
0.0679493675
 40
0.1035208241
 40
0.1466322132
 40
0.1971713522
 40
0.2548934277
 40
0.3193642409
 40
0.3900133701
 40
0.4662439325
 40
0.6327565774
 40
0.8130889178
 40
1.0
 40
1.0
 40
1.0
 40
1.0
 10
10.3780269997
 20
9.5255652314
 30
0.0
 10
10.3780269997
 20
9.5253299201
 30
0.0
 10
10.3780963908
 20
9.5248407763
 30
0.0
 10
10.3783973849
 20
9.5241271148
 30
0.0
 10
10.378886845
 20
9.523424162
 30
0.0
 10
10.3798476733
 20
9.522436682
 30
0.0
 10
10.3815601552
 20
9.5212523737
 30
0.0
 10
10.3841900777
 20
9.5199561122
 30
0.0
 10
10.3875049558
 20
9.5187073832
 30
0.0
 10
10.391477069
 20
9.5175179176
 30
0.0
 10
10.3960741809
 20
9.516401519
 30
0.0
 10
10.4012528807
 20
9.5153687005
 30
0.0
 10
10.4069632374
 20
9.5144288527
 30
0.0
 10
10.4154669959
 20
9.5132813903
 30
0.0
 10
10.4270012553
 20
9.5121744413
 30
0.0
 10
10.4415950716
 20
9.5113705146
 30
0.0
 10
10.4516500179
 20
9.5111803454
 30
0.0
 10
10.4567671572
 20
9.5111739461
 30
0.0
  0
SPLINE
  5
477
100
AcDbEntity
  8
0
100
AcDbSpline
 62
9
  6
CONTINUOUS
 70
0
 71
3
 72
20
 73
16
 74
0
 42
0.0000001
 43
0.0000001
 44
0.0000000001
 40
0.0
 40
0.0
 40
0.0
 40
0.0
 40
0.1658709514
 40
0.3360506359
 40
0.5018333239
 40
0.579967041
 40
0.6532164762
 40
0.7204653011
 40
0.7811070382
 40
0.834690807
 40
0.8808414731
 40
0.9194883538
 40
0.9513798165
 40
0.9776880991
 40
1.0
 40
1.0
 40
1.0
 40
1.0
 10
10.5644424522
 20
7.9591598198
 30
0.0
 10
10.5597726042
 20
7.9589830632
 30
0.0
 10
10.550318435
 20
7.9584086806
 30
0.0
 10
10.5362560216
 20
7.9568916879
 30
0.0
 10
10.5247363696
 20
7.9549942105
 30
0.0
 10
10.5160015583
 20
7.9531023135
 30
0.0
 10
10.5100344212
 20
7.9515665236
 30
0.0
 10
10.5046171324
 20
7.9498951178
 30
0.0
 10
10.4998181056
 20
7.9481229037
 30
0.0
 10
10.4956873261
 20
7.9462824537
 30
0.0
 10
10.4922640992
 20
7.944403907
 30
0.0
 10
10.489573328
 20
7.9424989427
 30
0.0
 10
10.4876020343
 20
7.9405918248
 30
0.0
 10
10.4863173249
 20
7.938697956
 30
0.0
 10
10.4858879587
 20
7.9373684417
 30
0.0
 10
10.4858071415
 20
7.9367450506
 30
0.0
  0
SPLINE
  5
478
100
AcDbEntity
  8
0
100
AcDbSpline
 62
9
  6
CONTINUOUS
 70
0
 71
3
 72
11
 73
7
 74
0
 42
0.0000001
 43
0.0000001
 44
0.0000000001
 40
0.0
 40
0.0
 40
0.0
 40
0.0
 40
0.2503171794
 40
0.4996771027
 40
0.7491663729
 40
1.0
 40
1.0
 40
1.0
 40
1.0
 10
10.5907158441
 20
6.9361241109
 30
0.0
 10
10.590740396
 20
7.0215188859
 30
0.0
 10
10.5891737682
 20
7.1919845215
 30
0.0
 10
10.5830831904
 20
7.4474930412
 30
0.0
 10
10.574430826
 20
7.703100033
 30
0.0
 10
10.5679591986
 20
7.8736612106
 30
0.0
 10
10.5644435395
 20
7.9591599229
 30
0.0
  0
SPLINE
  5
479
100
AcDbEntity
  8
0
100
AcDbSpline
 62
9
  6
CONTINUOUS
 70
0
 71
3
 72
21
 73
17
 74
0
 42
0.0000001
 43
0.0000001
 44
0.0000000001
 40
0.0
 40
0.0
 40
0.0
 40
0.0
 40
0.1229707572
 40
0.1851000758
 40
0.2476090596
 40
0.3104408718
 40
0.3735253323
 40
0.5001325887
 40
0.5634696304
 40
0.626695702
 40
0.6582358348
 40
0.6897130555
 40
0.752451591
 40
0.8148600067
 40
0.876918005
 40
1.0
 40
1.0
 40
1.0
 40
1.0
 10
10.3780869423
 20
9.4951530166
 30
0.0
 10
10.3784694189
 20
9.4311053123
 30
0.0
 10
10.3815231306
 20
9.334703499
 30
0.0
 10
10.3892184838
 20
9.2059655326
 30
0.0
 10
10.3965357872
 20
9.1085931531
 30
0.0
 10
10.4050047614
 20
9.0108175353
 30
0.0
 10
10.4173342003
 20
8.8798700152
 30
0.0
 10
10.4304762443
 20
8.7487374734
 30
0.0
 10
10.4430520717
 20
8.6174753848
 30
0.0
 10
10.4503893252
 20
8.5354544016
 30
0.0
 10
10.4557637102
 20
8.4699206897
 30
0.0
 10
10.4607556624
 20
8.4046114381
 30
0.0
 10
10.4663559584
 20
8.3232254552
 30
0.0
 10
10.4722001775
 20
8.2258947661
 30
0.0
 10
10.4789855093
 20
8.0971379066
 30
0.0
 10
10.4832061915
 20
8.0007990247
 30
0.0
 10
10.4858071976
 20
7.9367450276
 30
0.0
  0
SPLINE
  5
47A
100
AcDbEntity
  8
0
100
AcDbSpline
 62
9
  6
CONTINUOUS
 70
0
 71
3
 72
18
 73
14
 74
0
 42
0.0000001
 43
0.0000001
 44
0.0000000001
 40
0.0
 40
0.0
 40
0.0
 40
0.0
 40
0.0632937036
 40
0.1264409849
 40
0.1894272755
 40
0.2521967527
 40
0.3148030546
 40
0.377322183
 40
0.5021272592
 40
0.6265833122
 40
0.7509376985
 40
0.8754159006
 40
1.0
 40
1.0
 40
1.0
 40
1.0
 10
10.4858071976
 20
7.9367450276
 30
0.0
 10
10.4866872859
 20
7.9151533795
 30
0.0
 10
10.488409012
 20
7.8720185403
 30
0.0
 10
10.4908852916
 20
7.8073921586
 30
0.0
 10
10.4932752964
 20
7.7429416454
 30
0.0
 10
10.4956202246
 20
7.6786743025
 30
0.0
 10
10.497890866
 20
7.6145638716
 30
0.0
 10
10.5007781986
 20
7.5292820606
 30
0.0
 10
10.5040784818
 20
7.4228856724
 30
0.0
 10
10.5074373671
 20
7.295370471
 30
0.0
 10
10.5100328603
 20
7.1679486319
 30
0.0
 10
10.5116810199
 20
7.040467095
 30
0.0
 10
10.5120800223
 20
6.9554324544
 30
0.0
 10
10.5120739212
 20
6.9128972648
 30
0.0
  0
SPLINE
  5
47B
100
AcDbEntity
  8
0
100
AcDbSpline
 62
9
  6
CONTINUOUS
 70
0
 71
3
 72
14
 73
10
 74
0
 42
0.0000001
 43
0.0000001
 44
0.0000000001
 40
0.0
 40
0.0
 40
0.0
 40
0.0
 40
0.2456421084
 40
0.3704821584
 40
0.4966887737
 40
0.6239315244
 40
0.7512578036
 40
0.8771486806
 40
1.0
 40
1.0
 40
1.0
 40
1.0
 10
10.512073845
 20
6.9128967893
 30
0.0
 10
10.5120167591
 20
6.7039941502
 30
0.0
 10
10.5119653232
 20
6.3889231581
 30
0.0
 10
10.5119066044
 20
5.9665216442
 30
0.0
 10
10.5118407323
 20
5.6448110901
 30
0.0
 10
10.5117274895
 20
5.3209861721
 30
0.0
 10
10.511560329
 20
4.9974297915
 30
0.0
 10
10.5112853333
 20
4.6776081022
 30
0.0
 10
10.510991938
 20
4.466069229
 30
0.0
 10
10.5108396946
 20
4.3615922778
 30
0.0
  0
SPLINE
  5
47C
100
AcDbEntity
  8
0
100
AcDbSpline
 62
9
  6
CONTINUOUS
 70
0
 71
3
 72
20
 73
16
 74
0
 42
0.0000001
 43
0.0000001
 44
0.0000000001
 40
0.0
 40
0.0
 40
0.0
 40
0.0
 40
0.1236550265
 40
0.1859010963
 40
0.2483600069
 40
0.311045745
 40
0.3739306442
 40
0.4369452081
 40
0.5000231213
 40
0.5631016541
 40
0.6261184238
 40
0.6890045374
 40
0.7516918461
 40
0.8763335457
 40
1.0
 40
1.0
 40
1.0
 40
1.0
 10
10.6943243125
 20
3.9840743798
 30
0.0
 10
10.7195483218
 20
3.9659982385
 30
0.0
 10
10.7597089858
 20
3.9417727574
 30
0.0
 10
10.8164605355
 20
3.9159076527
 30
0.0
 10
10.8606786146
 20
3.8997460859
 30
0.0
 10
10.9061754289
 20
3.8870515117
 30
0.0
 10
10.9526609191
 20
3.8779146301
 30
0.0
 10
10.9998123787
 20
3.8723982641
 30
0.0
 10
11.0472981594
 20
3.8705574478
 30
0.0
 10
11.0947851252
 20
3.8723910288
 30
0.0
 10
11.1419370619
 20
3.8779086355
 30
0.0
 10
11.1884258369
 20
3.8870436861
 30
0.0
 10
11.2489602311
 20
3.9039412964
 30
0.0
 10
11.3214807616
 20
3.9336484752
 30
0.0
 10
11.3750851826
 20
3.9659896022
 30
0.0
 10
11.4003085358
 20
3.9840715816
 30
0.0
  0
SPLINE
  5
47D
100
AcDbEntity
  8
0
100
AcDbSpline
 62
9
  6
CONTINUOUS
 70
0
 71
3
 72
14
 73
10
 74
0
 42
0.0000001
 43
0.0000001
 44
0.0000000001
 40
0.0
 40
0.0
 40
0.0
 40
0.0
 40
0.2662837229
 40
0.3990277254
 40
0.5294052139
 40
0.6555325558
 40
0.7763501213
 40
0.8911736949
 40
1.0
 40
1.0
 40
1.0
 40
1.0
 10
11.598609799
 20
6.8332259549
 30
0.0
 10
11.5983560762
 20
6.9255248718
 30
0.0
 10
11.5992625857
 20
7.0638407653
 30
0.0
 10
11.6023307605
 20
7.2473177884
 30
0.0
 10
11.6052964834
 20
7.3822072567
 30
0.0
 10
11.6086846898
 20
7.512951031
 30
0.0
 10
11.6122401092
 20
7.6382968615
 30
0.0
 10
11.6157158038
 20
7.7576455727
 30
0.0
 10
11.6180607287
 20
7.8351316543
 30
0.0
 10
11.6192333343
 20
7.8728347987
 30
0.0
  0
LINE
  5
47E
100
AcDbEntity
  8
0
100
AcDbLine
 62
9
  6
CONTINUOUS
 10
11.6327815948
 20
7.80108312
 11
11.6327281395
 21
7.7994642738
  0
SPLINE
  5
47F
100
AcDbEntity
  8
0
100
AcDbSpline
 62
9
  6
CONTINUOUS
 70
0
 71
3
 72
13
 73
9
 74
0
 42
0.0000001
 43
0.0000001
 44
0.0000000001
 40
0.0
 40
0.0
 40
0.0
 40
0.0
 40
0.1215244426
 40
0.2443689813
 40
0.3683178411
 40
0.4931696471
 40
0.7453149056
 40
1.0
 40
1.0
 40
1.0
 40
1.0
 10
11.6327281395
 20
7.7994642738
 30
0.0
 10
11.6313545505
 20
7.7578559948
 30
0.0
 10
11.6286464063
 20
7.6741856646
 30
0.0
 10
11.6247157638
 20
7.5480712741
 30
0.0
 10
11.6209520805
 20
7.420811339
 30
0.0
 10
11.6163752573
 20
7.2492617453
 30
0.0
 10
11.612075682
 20
7.0329037662
 30
0.0
 10
11.610843318
 20
6.8592738669
 30
0.0
 10
11.6109859501
 20
6.7720258459
 30
0.0
  0
SPLINE
  5
480
100
AcDbEntity
  8
0
100
AcDbSpline
 62
9
  6
CONTINUOUS
 70
0
 71
3
 72
23
 73
19
 74
0
 42
0.0000001
 43
0.0000001
 44
0.0000000001
 40
0.0
 40
0.0
 40
0.0
 40
0.0
 40
0.1186285251
 40
0.1762785222
 40
0.2340323553
 40
0.2924990666
 40
0.3515243788
 40
0.4107390934
 40
0.469816615
 40
0.5875036103
 40
0.6474208494
 40
0.7093709534
 40
0.7745050466
 40
0.8086311064
 40
0.8439940162
 40
0.8807395005
 40
0.9189561408
 40
1.0
 40
1.0
 40
1.0
 40
1.0
 10
11.6192333371
 20
7.8728347833
 30
0.0
 10
11.6212321068
 20
7.9371018368
 30
0.0
 10
11.624475803
 20
8.0325933764
 30
0.0
 10
11.6297813865
 20
8.1593314666
 30
0.0
 10
11.6343379021
 20
8.2534620485
 30
0.0
 10
11.6396539077
 20
8.3482995772
 30
0.0
 10
11.6458233865
 20
8.4438793367
 30
0.0
 10
11.6529459228
 20
8.5397246102
 30
0.0
 10
11.6633366806
 20
8.6672061863
 30
0.0
 10
11.6745889113
 20
8.794996773
 30
0.0
 10
11.6860015312
 20
8.9243356506
 30
0.0
 10
11.6945427147
 20
9.0253324627
 30
0.0
 10
11.701320067
 20
9.1124488694
 30
0.0
 10
11.7062467037
 20
9.1852504773
 30
0.0
 10
11.7096495373
 20
9.2427309282
 30
0.0
 10
11.7126132688
 20
9.3024563078
 30
0.0
 10
11.7158173355
 20
9.3869537389
 30
0.0
 10
11.7168500673
 20
9.4516012863
 30
0.0
 10
11.7167787504
 20
9.4955280025
 30
0.0
  0
SPLINE
  5
481
100
AcDbEntity
  8
0
100
AcDbSpline
 62
9
  6
CONTINUOUS
 70
0
 71
3
 72
23
 73
19
 74
0
 42
0.0000001
 43
0.0000001
 44
0.0000000001
 40
0.0
 40
0.0
 40
0.0
 40
0.0
 40
0.0602648676
 40
0.1151181911
 40
0.1649895671
 40
0.2106208949
 40
0.2531681544
 40
0.2942549625
 40
0.3358852037
 40
0.3801798518
 40
0.429086758
 40
0.4842242906
 40
0.546872375
 40
0.6180246655
 40
0.6984061997
 40
0.7885718438
 40
0.8889751147
 40
1.0
 40
1.0
 40
1.0
 40
1.0
 10
11.8319875644
 20
9.4886651615
 30
0.0
 10
11.8309028577
 20
9.4897522018
 30
0.0
 10
11.8287551894
 20
9.4917561113
 30
0.0
 10
11.8254194747
 20
9.4943274778
 30
0.0
 10
11.8221191639
 20
9.4962957538
 30
0.0
 10
11.8188473857
 20
9.4976317608
 30
0.0
 10
11.8155987794
 20
9.4982983799
 30
0.0
 10
11.8123797565
 20
9.4982515669
 30
0.0
 10
11.809213326
 20
9.4974568171
 30
0.0
 10
11.8061217741
 20
9.4959031307
 30
0.0
 10
11.8031104681
 20
9.4935879093
 30
0.0
 10
11.8001729716
 20
9.4905013219
 30
0.0
 10
11.7973016579
 20
9.4866249207
 30
0.0
 10
11.7944925091
 20
9.4819377484
 30
0.0
 10
11.7917416903
 20
9.4764218481
 30
0.0
 10
11.7890483863
 20
9.4700606293
 30
0.0
 10
11.7864130365
 20
9.4628386842
 30
0.0
 10
11.7847791106
 20
9.4577032545
 30
0.0
 10
11.7839664537
 20
9.4549933688
 30
0.0
  0
SPLINE
  5
482
100
AcDbEntity
  8
0
100
AcDbSpline
 62
9
  6
CONTINUOUS
 70
0
 71
3
 72
14
 73
10
 74
0
 42
0.0000001
 43
0.0000001
 44
0.0000000001
 40
0.0
 40
0.0
 40
0.0
 40
0.0
 40
0.0406789125
 40
0.0986779091
 40
0.1663284933
 40
0.2471563071
 40
0.3632801779
 40
0.5365951492
 40
1.0
 40
1.0
 40
1.0
 40
1.0
 10
11.7839664537
 20
9.4549933688
 30
0.0
 10
11.7839869886
 20
9.4550287342
 30
0.0
 10
11.7840177692
 20
9.4551243075
 30
0.0
 10
11.7840585907
 20
9.4552858972
 30
0.0
 10
11.784104455
 20
9.455488555
 30
0.0
 10
11.7841544232
 20
9.4557499203
 30
0.0
 10
11.7841934107
 20
9.4561205269
 30
0.0
 10
11.7842331984
 20
9.4568763744
 30
0.0
 10
11.7842444617
 20
9.4575165648
 30
0.0
 10
11.7842489133
 20
9.4579824087
 30
0.0
  0
LINE
  5
483
100
AcDbEntity
  8
0
100
AcDbLine
 62
9
  6
CONTINUOUS
 10
11.7166096769
 20
10.7853637638
 11
11.9914666252
 21
11.0608893061
  0
LINE
  5
484
100
AcDbEntity
  8
0
100
AcDbLine
 62
9
  6
CONTINUOUS
 10
11.9914667171
 20
9.3288289962
 11
11.8319879868
 21
9.4886677516
  0
SPLINE
  5
485
100
AcDbEntity
  8
0
100
AcDbSpline
 62
9
  6
CONTINUOUS
 70
0
 71
3
 72
15
 73
11
 74
0
 42
0.0000001
 43
0.0000001
 44
0.0000000001
 40
0.0
 40
0.0
 40
0.0
 40
0.0
 40
0.1141564265
 40
0.2329619428
 40
0.355696066
 40
0.4819358031
 40
0.6106637302
 40
0.7405863628
 40
0.8706556229
 40
1.0
 40
1.0
 40
1.0
 40
1.0
 10
11.8319898939
 20
9.4886642442
 30
0.0
 10
11.8319700178
 20
9.4856554852
 30
0.0
 10
11.8315683371
 20
9.4795124207
 30
0.0
 10
11.8298778242
 20
9.4702702772
 30
0.0
 10
11.8269935917
 20
9.460988728
 30
0.0
 10
11.8228315829
 20
9.4519152974
 30
0.0
 10
11.817469879
 20
9.4432731408
 30
0.0
 10
11.8110034491
 20
9.4352881254
 30
0.0
 10
11.8035145539
 20
9.428229274
 30
0.0
 10
11.7979540908
 20
9.4242133891
 30
0.0
 10
11.7950712776
 20
9.4223936138
 30
0.0
  0
SPLINE
  5
486
100
AcDbEntity
  8
0
100
AcDbSpline
 62
9
  6
CONTINUOUS
 70
0
 71
3
 72
15
 73
11
 74
0
 42
0.0000001
 43
0.0000001
 44
0.0000000001
 40
0.0
 40
0.0
 40
0.0
 40
0.0
 40
0.1162024647
 40
0.2393668829
 40
0.368067137
 40
0.4995113123
 40
0.6310295694
 40
0.7599309529
 40
0.8834078672
 40
1.0
 40
1.0
 40
1.0
 40
1.0
 10
11.9914666165
 20
9.328829097
 30
0.0
 10
11.9913925328
 20
9.3241074517
 30
0.0
 10
11.9903433672
 20
9.3143758105
 30
0.0
 10
11.9860358527
 20
9.2999585558
 30
0.0
 10
11.978675499
 20
9.2861170626
 30
0.0
 10
11.9685925616
 20
9.2736623448
 30
0.0
 10
11.9561454415
 20
9.2635569059
 30
0.0
 10
11.9422916269
 20
9.256167801
 30
0.0
 10
11.9278419166
 20
9.2518384128
 30
0.0
 10
11.9180816775
 20
9.2507829401
 30
0.0
 10
11.9133441968
 20
9.2507087347
 30
0.0
  0
SPLINE
  5
487
100
AcDbEntity
  8
0
100
AcDbSpline
 62
9
  6
CONTINUOUS
 70
0
 71
3
 72
11
 73
7
 74
0
 42
0.0000001
 43
0.0000001
 44
0.0000000001
 40
0.0
 40
0.0
 40
0.0
 40
0.0
 40
0.2297655142
 40
0.4800010191
 40
0.7411927885
 40
1.0
 40
1.0
 40
1.0
 40
1.0
 10
12.0647781478
 20
9.2188611597
 30
0.0
 10
12.0621376153
 20
9.2152074595
 30
0.0
 10
12.056302043
 20
9.2078021811
 30
0.0
 10
12.0464712501
 20
9.1970677566
 30
0.0
 10
12.0354162643
 20
9.1867435024
 30
0.0
 10
12.0274297379
 20
9.1803714904
 30
0.0
 10
12.023314223
 20
9.1773971989
 30
0.0
  0
LINE
  5
488
100
AcDbEntity
  8
0
100
AcDbLine
 62
9
  6
CONTINUOUS
 10
11.6461015762
 20
8.1226446398
 11
11.6465310277
 21
8.1308236999
  0
LINE
  5
489
100
AcDbEntity
  8
0
100
AcDbLine
 62
9
  6
CONTINUOUS
 10
11.6658801909
 20
8.4237673774
 11
11.6674192349
 21
8.4427867605
  0
LINE
  5
48A
100
AcDbEntity
  8
0
100
AcDbLine
 62
9
  6
CONTINUOUS
 10
11.6903473656
 20
8.6968286029
 11
11.6905490595
 21
8.698885276
  0
SPLINE
  5
48B
100
AcDbEntity
  8
0
100
AcDbSpline
 62
9
  6
CONTINUOUS
 70
0
 71
3
 72
18
 73
14
 74
0
 42
0.0000001
 43
0.0000001
 44
0.0000000001
 40
0.0
 40
0.0
 40
0.0
 40
0.0
 40
0.1656324658
 40
0.3219846783
 40
0.4683063285
 40
0.6035323115
 40
0.7258520965
 40
0.7817303946
 40
0.8338588808
 40
0.8820023757
 40
0.9259049219
 40
0.9653074136
 40
1.0
 40
1.0
 40
1.0
 40
1.0
 10
11.6905490595
 20
8.698885276
 30
0.0
 10
11.6944861358
 20
8.7390052313
 30
0.0
 10
11.7024410337
 20
8.8169680988
 30
0.0
 10
11.7148949367
 20
8.9302659357
 30
0.0
 10
11.7271784102
 20
9.036134891
 30
0.0
 10
11.738786963
 20
9.1337428065
 30
0.0
 10
11.7478508948
 20
9.2094855559
 30
0.0
 10
11.7546102235
 20
9.2651349067
 30
0.0
 10
11.7592864155
 20
9.302851032
 30
0.0
 10
11.7637514083
 20
9.3376560473
 30
0.0
 10
11.7680574507
 20
9.3693582731
 30
0.0
 10
11.7722703739
 20
9.3977673725
 30
0.0
 10
11.7752553128
 20
9.4155546358
 30
0.0
 10
11.7767855682
 20
9.4238585133
 30
0.0
  0
SPLINE
  5
48C
100
AcDbEntity
  8
0
100
AcDbSpline
 62
9
  6
CONTINUOUS
 70
0
 71
3
 72
9
 73
5
 74
0
 42
0.0000001
 43
0.0000001
 44
0.0000000001
 40
0.0
 40
0.0
 40
0.0
 40
0.0
 40
0.5276040769
 40
1.0
 40
1.0
 40
1.0
 40
1.0
 10
11.7787193079
 20
9.4339400978
 30
0.0
 10
11.7795698228
 20
9.4381925146
 30
0.0
 10
11.7812682117
 20
9.4462355194
 30
0.0
 10
11.7831995031
 20
9.4542268045
 30
0.0
 10
11.7841874608
 20
9.4579818675
 30
0.0
  0
LINE
  5
48D
100
AcDbEntity
  8
0
100
AcDbLine
 62
9
  6
CONTINUOUS
 10
12.0233141237
 20
9.1773974131
 11
11.9133463408
 21
9.2507087883
  0
LINE
  5
48E
100
AcDbEntity
  8
0
100
AcDbLine
 62
9
  6
CONTINUOUS
 10
12.0647774614
 20
9.2188608379
 11
11.9914665142
 21
9.3288276775
  0
SPLINE
  5
48F
100
AcDbEntity
  8
0
100
AcDbSpline
 62
9
  6
CONTINUOUS
 70
0
 71
3
 72
11
 73
7
 74
0
 42
0.0000001
 43
0.0000001
 44
0.0000000001
 40
0.0
 40
0.0
 40
0.0
 40
0.0
 40
0.2297655143
 40
0.4800010191
 40
0.7411927885
 40
1.0
 40
1.0
 40
1.0
 40
1.0
 10
12.0233142242
 20
11.2123168551
 30
0.0
 10
12.0269679245
 20
11.2096763227
 30
0.0
 10
12.0343732028
 20
11.2038407503
 30
0.0
 10
12.0451076273
 20
11.1940099574
 30
0.0
 10
12.0554318815
 20
11.1829549717
 30
0.0
 10
12.0618038935
 20
11.1749684453
 30
0.0
 10
12.064778185
 20
11.1708529303
 30
0.0
  0
LINE
  5
490
100
AcDbEntity
  8
0
100
AcDbLine
 62
9
  6
CONTINUOUS
 10
12.0647779707
 20
11.170852831
 11
11.9914665204
 21
11.0608964246
  0
LINE
  5
491
100
AcDbEntity
  8
0
100
AcDbLine
 62
9
  6
CONTINUOUS
 10
10.1812713382
 20
11.1390051401
 11
10.0713226618
 21
11.2123166782
  0
LINE
  5
492
100
AcDbEntity
  8
0
100
AcDbLine
 62
9
  6
CONTINUOUS
 10
12.0233145479
 20
11.2123161668
 11
11.9133476991
 21
11.1390052147
  0
SPLINE
  5
493
100
AcDbEntity
  8
0
100
AcDbSpline
 62
9
  6
CONTINUOUS
 70
0
 71
3
 72
15
 73
11
 74
0
 42
0.0000001
 43
0.0000001
 44
0.0000000001
 40
0.0
 40
0.0
 40
0.0
 40
0.0
 40
0.1164034974
 40
0.2397259851
 40
0.3685244855
 40
0.5000013599
 40
0.6314780292
 40
0.7602759724
 40
0.8835975912
 40
1.0
 40
1.0
 40
1.0
 40
1.0
 10
10.1812716138
 20
11.1390050357
 30
0.0
 10
10.1765434404
 20
11.1389297088
 30
0.0
 10
10.166800792
 20
11.1378755074
 30
0.0
 10
10.1523728235
 20
11.1335560659
 30
0.0
 10
10.1385308558
 20
11.1261826729
 30
0.0
 10
10.1260849251
 20
11.1160919172
 30
0.0
 10
10.1159938618
 20
11.1036462655
 30
0.0
 10
10.108620136
 20
11.0898045518
 30
0.0
 10
10.1043003231
 20
11.0753768032
 30
0.0
 10
10.1032458456
 20
11.0656342664
 30
0.0
 10
10.1031703761
 20
11.0609061395
 30
0.0
  0
LINE
  5
494
100
AcDbEntity
  8
0
100
AcDbLine
 62
9
  6
CONTINUOUS
 10
10.4567609538
 20
10.8641485037
 11
10.1812831672
 21
11.1390057349
  0
LINE
  5
495
100
AcDbEntity
  8
0
100
AcDbLine
 62
9
  6
CONTINUOUS
 10
11.9133528802
 20
11.1390065895
 11
11.6378741264
 21
10.8641483817
  0
SPLINE
  5
496
100
AcDbEntity
  8
0
100
AcDbSpline
 62
9
  6
CONTINUOUS
 70
0
 71
3
 72
15
 73
11
 74
0
 42
0.0000001
 43
0.0000001
 44
0.0000000001
 40
0.0
 40
0.0
 40
0.0
 40
0.0
 40
0.1160621343
 40
0.2391129782
 40
0.3677389548
 40
0.4991545979
 40
0.6306983944
 40
0.7596723114
 40
0.8832637557
 40
1.0
 40
1.0
 40
1.0
 40
1.0
 10
11.9133515281
 20
11.1390052404
 30
0.0
 10
11.9180670208
 20
11.1389309369
 30
0.0
 10
11.9277873405
 20
11.1378836708
 30
0.0
 10
11.9421912783
 20
11.1335840298
 30
0.0
 10
11.9560267683
 20
11.1262347068
 30
0.0
 10
11.9684829722
 20
11.1161610989
 30
0.0
 10
11.9785959067
 20
11.1037183658
 30
0.0
 10
11.9859954147
 20
11.0898618051
 30
0.0
 10
11.990333371
 20
11.0754018708
 30
0.0
 10
11.9913918744
 20
11.0656321187
 30
0.0
 10
11.9914665488
 20
11.0608892366
 30
0.0
  0
SPLINE
  5
497
100
AcDbEntity
  8
0
100
AcDbSpline
 62
9
  6
CONTINUOUS
 70
0
 71
3
 72
16
 73
12
 74
0
 42
0.0000001
 43
0.0000001
 44
0.0000000001
 40
0.0
 40
0.0
 40
0.0
 40
0.0
 40
0.1258111199
 40
0.188529333
 40
0.2511018722
 40
0.3759086419
 40
0.5005022365
 40
0.625058542
 40
0.7497310696
 40
0.8747812557
 40
1.0
 40
1.0
 40
1.0
 40
1.0
 10
11.4003085355
 20
3.9840715822
 30
0.0
 10
11.4152382515
 20
3.9945803928
 30
0.0
 10
11.4364427741
 20
4.0120677531
 30
0.0
 10
11.4620250549
 20
4.0380404253
 30
0.0
 10
11.4857572544
 20
4.0655314861
 30
0.0
 10
11.5120017822
 20
4.1025767964
 30
0.0
 10
11.5378652092
 20
4.1504228927
 30
0.0
 10
11.5580880226
 20
4.2008830574
 30
0.0
 10
11.5726709689
 20
4.2533145828
 30
0.0
 10
11.5815761056
 20
4.3070896807
 30
0.0
 10
11.583706716
 20
4.3434263859
 30
0.0
 10
11.5837964435
 20
4.3615975694
 30
0.0
  0
SPLINE
  5
498
100
AcDbEntity
  8
0
100
AcDbSpline
 62
9
  6
CONTINUOUS
 70
0
 71
3
 72
14
 73
10
 74
0
 42
0.0000001
 43
0.0000001
 44
0.0000000001
 40
0.0
 40
0.0
 40
0.0
 40
0.0
 40
0.1228533117
 40
0.2487435309
 40
0.3760712005
 40
0.5033137937
 40
0.6295202762
 40
0.7543600941
 40
1.0
 40
1.0
 40
1.0
 40
1.0
 10
11.5837966774
 20
4.3615949353
 30
0.0
 10
11.5836443875
 20
4.4660780926
 30
0.0
 10
11.5833513557
 20
4.6776272365
 30
0.0
 10
11.5830748587
 20
4.9974650535
 30
0.0
 10
11.5829083931
 20
5.3210358966
 30
0.0
 10
11.5827945459
 20
5.6448757344
 30
0.0
 10
11.5827283248
 20
5.9665997375
 30
0.0
 10
11.582669118
 20
6.3890173092
 30
0.0
 10
11.582616872
 20
6.7040998371
 30
0.0
 10
11.5825590295
 20
6.9130096243
 30
0.0
  0
SPLINE
  5
499
100
AcDbEntity
  8
0
100
AcDbSpline
 62
9
  6
CONTINUOUS
 70
0
 71
3
 72
14
 73
10
 74
0
 42
0.0000001
 43
0.0000001
 44
0.0000000001
 40
0.0
 40
0.0
 40
0.0
 40
0.0
 40
0.2490960647
 40
0.3734870592
 40
0.4979379706
 40
0.6226748151
 40
0.7478372317
 40
0.8735385607
 40
1.0
 40
1.0
 40
1.0
 40
1.0
 10
11.582558955
 20
6.9130100913
 30
0.0
 10
11.5825383156
 20
6.9975873721
 30
0.0
 10
11.5837249308
 20
7.1244023252
 30
0.0
 10
11.5871421801
 20
7.2934364178
 30
0.0
 10
11.5904654353
 20
7.4202374149
 30
0.0
 10
11.5944217004
 20
7.5472818204
 30
0.0
 10
11.5988326009
 20
7.6747359136
 30
0.0
 10
11.603547229
 20
7.8027649787
 30
0.0
 10
11.6068618974
 20
7.8883194444
 30
0.0
 10
11.6085930586
 20
7.931222846
 30
0.0
  0
LINE
  5
49A
100
AcDbEntity
  8
0
100
AcDbLine
 62
9
  6
CONTINUOUS
 10
10.1031702276
 20
9.3288282605
 11
10.0298589542
 21
9.2188611773
  0
LINE
  5
49B
100
AcDbEntity
  8
0
100
AcDbLine
 62
9
  6
CONTINUOUS
 10
10.0298587057
 20
11.1708527108
 11
10.1031702331
 21
11.0609064472
  0
SPLINE
  5
49C
100
AcDbEntity
  8
0
100
AcDbSpline
 62
9
  6
CONTINUOUS
 70
0
 71
3
 72
15
 73
11
 74
0
 42
0.0000001
 43
0.0000001
 44
0.0000000001
 40
0.0
 40
0.0
 40
0.0
 40
0.0
 40
0.1163986515
 40
0.239720028
 40
0.3685208993
 40
0.5000017325
 40
0.6314823037
 40
0.7602824638
 40
0.8836027329
 40
1.0
 40
1.0
 40
1.0
 40
1.0
 10
10.1031700682
 20
9.3288280234
 30
0.0
 10
10.1032443428
 20
9.3240986433
 30
0.0
 10
10.1042968552
 20
9.3143531359
 30
0.0
 10
10.1086153465
 20
9.2999203676
 30
0.0
 10
10.1159897981
 20
9.2860734425
 30
0.0
 10
10.1260834133
 20
9.2736231502
 30
0.0
 10
10.1385334977
 20
9.2635293249
 30
0.0
 10
10.1523802071
 20
9.2561546522
 30
0.0
 10
10.166812759
 20
9.2518359003
 30
0.0
 10
10.1765581401
 20
9.2507831807
 30
0.0
 10
10.1812874621
 20
9.2507087948
 30
0.0
  0
SPLINE
  5
49D
100
AcDbEntity
  8
0
100
AcDbSpline
 62
9
  6
CONTINUOUS
 70
0
 71
3
 72
15
 73
11
 74
0
 42
0.0000001
 43
0.0000001
 44
0.0000000001
 40
0.0
 40
0.0
 40
0.0
 40
0.0
 40
0.1138987393
 40
0.2325042931
 40
0.3551104629
 40
0.4813067181
 40
0.610068216
 40
0.7401030379
 40
0.8703750988
 40
1.0
 40
1.0
 40
1.0
 40
1.0
 10
10.2626467118
 20
9.4886651953
 30
0.0
 10
10.2626665522
 20
9.4856609186
 30
0.0
 10
10.2630669816
 20
9.4795252138
 30
0.0
 10
10.2647537425
 20
9.4702907841
 30
0.0
 10
10.2676349823
 20
9.4610107673
 30
0.0
 10
10.2717960926
 20
9.4519325055
 30
0.0
 10
10.2771610446
 20
9.4432799184
 30
0.0
 10
10.2836382513
 20
9.4352813687
 30
0.0
 10
10.2911470852
 20
9.4282090019
 30
0.0
 10
10.2967243109
 20
9.4241853435
 30
0.0
 10
10.2996168626
 20
9.4223622216
 30
0.0
  0
LINE
  5
49E
100
AcDbEntity
  8
0
100
AcDbLine
 62
9
  6
CONTINUOUS
 10
10.181284944
 20
9.2507087581
 11
10.3226107743
 21
9.3917150116
  0
LINE
  5
49F
100
AcDbEntity
  8
0
100
AcDbLine
 62
9
  6
CONTINUOUS
 10
11.7720161921
 20
9.3917221389
 11
11.9133441997
 21
9.2507087581
  0
LINE
  5
4A0
100
AcDbEntity
  8
0
100
AcDbLine
 62
9
  6
CONTINUOUS
 10
10.0713226731
 20
9.1773974131
 11
10.1812874273
 21
9.2507087883
  0
SPLINE
  5
4A1
100
AcDbEntity
  8
0
100
AcDbSpline
 62
9
  6
CONTINUOUS
 70
0
 71
3
 72
23
 73
19
 74
0
 42
0.0000001
 43
0.0000001
 44
0.0000000001
 40
0.0
 40
0.0
 40
0.0
 40
0.0
 40
0.1230694782
 40
0.1851114198
 40
0.2475016319
 40
0.3102297164
 40
0.341704674
 40
0.373243858
 40
0.4364711898
 40
0.499808868
 40
0.5631584719
 40
0.62642854
 40
0.6895250567
 40
0.7523637465
 40
0.814873751
 40
0.877001652
 40
0.9387161698
 40
1.0
 40
1.0
 40
1.0
 40
1.0
 10
11.6085930586
 20
7.931222846
 30
0.0
 10
11.6111883334
 20
7.9954998392
 30
0.0
 10
11.6153919268
 20
8.0921694582
 30
0.0
 10
11.6221539891
 20
8.2213645238
 30
0.0
 10
11.6279859255
 20
8.3190216734
 30
0.0
 10
11.6335820211
 20
8.4006839908
 30
0.0
 10
11.6385659289
 20
8.4662214601
 30
0.0
 10
11.6439276475
 20
8.5319909828
 30
0.0
 10
11.6512668037
 20
8.6143078372
 30
0.0
 10
11.6607170151
 20
8.7131271032
 30
0.0
 10
11.6704715517
 20
8.8119389837
 30
0.0
 10
11.6801863671
 20
8.9106281365
 30
0.0
 10
11.6894726506
 20
9.0090907886
 30
0.0
 10
11.6979828475
 20
9.1072256017
 30
0.0
 10
11.7053445671
 20
9.2049471737
 30
0.0
 10
11.7111497551
 20
9.3021864719
 30
0.0
 10
11.7151689227
 20
9.398876218
 30
0.0
 10
11.7163583984
 20
9.4631650238
 30
0.0
 10
11.7165495742
 20
9.4951979842
 30
0.0
  0
LINE
  5
4A2
100
AcDbEntity
  8
0
100
AcDbLine
 62
9
  6
CONTINUOUS
 10
12.023314083
 20
9.1773973582
 11
12.0978835461
 21
9.0655736366
  0
SPLINE
  5
4A3
100
AcDbEntity
  8
0
100
AcDbSpline
 62
9
  6
CONTINUOUS
 70
0
 71
3
 72
15
 73
11
 74
0
 42
0.0000001
 43
0.0000001
 44
0.0000000001
 40
0.0
 40
0.0
 40
0.0
 40
0.0
 40
0.1241565873
 40
0.249325076
 40
0.3753667215
 40
0.5018239113
 40
0.6281232804
 40
0.7536159355
 40
0.8777074429
 40
1.0
 40
1.0
 40
1.0
 40
1.0
 10
10.5644424492
 20
7.9591598926
 30
0.0
 10
10.5618594808
 20
8.0219742535
 30
0.0
 10
10.5562474258
 20
8.1480986497
 30
0.0
 10
10.545500473
 20
8.337870741
 30
0.0
 10
10.5311231556
 20
8.5285796289
 30
0.0
 10
10.5125440624
 20
8.719492482
 30
0.0
 10
10.4927909189
 20
8.9099975632
 30
0.0
 10
10.4747566672
 20
9.099480786
 30
0.0
 10
10.4613433081
 20
9.2873285236
 30
0.0
 10
10.4572045217
 20
9.4120720227
 30
0.0
 10
10.4568243002
 20
9.4739944375
 30
0.0
  0
SPLINE
  5
4A4
100
AcDbEntity
  8
0
100
AcDbSpline
 62
9
  6
CONTINUOUS
 70
0
 71
3
 72
11
 73
7
 74
0
 42
0.0000001
 43
0.0000001
 44
0.0000000001
 40
0.0
 40
0.0
 40
0.0
 40
0.0
 40
0.2294688819
 40
0.4795774548
 40
0.7408737238
 40
1.0
 40
1.0
 40
1.0
 40
1.0
 10
10.0298590759
 20
9.2188610597
 30
0.0
 10
10.0324961837
 20
9.2152121088
 30
0.0
 10
10.0383260493
 20
9.2078130538
 30
0.0
 10
10.0481515022
 20
9.197082395
 30
0.0
 10
10.059209506
 20
9.1867530136
 30
0.0
 10
10.0672021302
 20
9.1803753692
 30
0.0
 10
10.0713226846
 20
9.1773974318
 30
0.0
  0
SPLINE
  5
4A5
100
AcDbEntity
  8
0
100
AcDbSpline
 62
9
  6
CONTINUOUS
 70
0
 71
3
 72
15
 73
11
 74
0
 42
0.0000001
 43
0.0000001
 44
0.0000000001
 40
0.0
 40
0.0
 40
0.0
 40
0.0
 40
0.1223005244
 40
0.2463945008
 40
0.3719014045
 40
0.4982152023
 40
0.6246729602
 40
0.7507047675
 40
0.8758593146
 40
1.0
 40
1.0
 40
1.0
 40
1.0
 10
11.6378108668
 20
9.4739943187
 30
0.0
 10
11.6374303562
 20
9.4118452509
 30
0.0
 10
11.633263754
 20
9.2866480032
 30
0.0
 10
11.6197584845
 20
9.0981154889
 30
0.0
 10
11.6016177161
 20
8.9079393027
 30
0.0
 10
11.5817842994
 20
8.7167354268
 30
0.0
 10
11.5631916829
 20
8.525128265
 30
0.0
 10
11.5488338114
 20
8.33374024
 30
0.0
 10
11.5381241165
 20
8.1433018738
 30
0.0
 10
11.5325354882
 20
8.0167374112
 30
0.0
 10
11.5299560896
 20
7.9537048069
 30
0.0
  0
SPLINE
  5
4A6
100
AcDbEntity
  8
0
100
AcDbSpline
 62
9
  6
CONTINUOUS
 70
0
 71
3
 72
11
 73
7
 74
0
 42
0.0000001
 43
0.0000001
 44
0.0000000001
 40
0.0
 40
0.0
 40
0.0
 40
0.0
 40
0.2508053299
 40
0.5002958515
 40
0.7496689959
 40
1.0
 40
1.0
 40
1.0
 40
1.0
 10
11.5299559603
 20
7.9537048119
 30
0.0
 10
11.5264765993
 20
7.8686806958
 30
0.0
 10
11.5200556617
 20
7.6990571611
 30
0.0
 10
11.5114724422
 20
7.444846324
 30
0.0
 10
11.5054407017
 20
7.1907192839
 30
0.0
 10
11.5038920435
 20
7.0211729602
 30
0.0
 10
11.5039168248
 20
6.9362386193
 30
0.0
  0
LINE
  5
4A7
100
AcDbEntity
  8
0
100
AcDbLine
 62
9
  6
CONTINUOUS
 10
12.0647780849
 20
11.1708528265
 11
12.1766017281
 21
11.2454203837
  0
SPLINE
  5
4A8
100
AcDbEntity
  8
0
100
AcDbSpline
 62
9
  6
CONTINUOUS
 70
0
 71
3
 72
15
 73
11
 74
0
 42
0.0000001
 43
0.0000001
 44
0.0000000001
 40
0.0
 40
0.0
 40
0.0
 40
0.0
 40
0.1263519743
 40
0.2520986055
 40
0.3772666539
 40
0.5019794259
 40
0.6264218442
 40
0.7507322813
 40
0.8752124682
 40
1.0
 40
1.0
 40
1.0
 40
1.0
 10
11.5052313913
 20
4.3381943083
 30
0.0
 10
11.5052550101
 20
4.322793452
 30
0.0
 10
11.5038160571
 20
4.2920416211
 30
0.0
 10
11.4971542331
 20
4.246469102
 30
0.0
 10
11.485982263
 20
4.20198442
 30
0.0
 10
11.4702874877
 20
4.1590523897
 30
0.0
 10
11.4500782329
 20
4.1181562862
 30
0.0
 10
11.4252066554
 20
4.0799256244
 30
0.0
 10
11.3956322606
 20
4.0451351594
 30
0.0
 10
11.3728005185
 20
4.0248884476
 30
0.0
 10
11.3606735782
 20
4.0157076474
 30
0.0
  0
LINE
  5
4A9
100
AcDbEntity
  8
0
100
AcDbLine
 62
9
  6
CONTINUOUS
 10
10.0713223517
 20
11.2123165344
 11
9.9967793023
 21
11.3241181432
  0
SPLINE
  5
4AA
100
AcDbEntity
  8
0
100
AcDbSpline
 62
9
  6
CONTINUOUS
 70
0
 71
3
 72
11
 73
7
 74
0
 42
0.0000001
 43
0.0000001
 44
0.0000000001
 40
0.0
 40
0.0
 40
0.0
 40
0.0
 40
0.2294689116
 40
0.4795775325
 40
0.7408738094
 40
1.0
 40
1.0
 40
1.0
 40
1.0
 10
10.0713224545
 20
11.2123163807
 30
0.0
 10
10.0676734933
 20
11.2096792699
 30
0.0
 10
10.0602744177
 20
11.2038493955
 30
0.0
 10
10.0495437306
 20
11.1940239251
 30
0.0
 10
10.0392143249
 20
11.1829659006
 30
0.0
 10
10.0328366669
 20
11.1749732614
 30
0.0
 10
10.0298587241
 20
11.1708526996
 30
0.0
  0
LINE
  5
4AB
100
AcDbEntity
  8
0
100
AcDbLine
 62
9
  6
CONTINUOUS
 10
10.0298589619
 20
9.2188609834
 11
9.9180574275
 21
9.1443178778
  0
SPLINE
  5
4AC
100
AcDbEntity
  8
0
100
AcDbSpline
 62
9
  6
CONTINUOUS
 70
0
 71
3
 72
15
 73
11
 74
0
 42
0.0000001
 43
0.0000001
 44
0.0000000001
 40
0.0
 40
0.0
 40
0.0
 40
0.0
 40
0.1232143901
 40
0.2477814478
 40
0.3735706341
 40
0.4999995258
 40
0.6264275888
 40
0.7522162612
 40
0.8767848935
 40
1.0
 40
1.0
 40
1.0
 40
1.0
 10
11.360673587
 20
4.0157076489
 30
0.0
 10
11.3386736003
 20
3.9990516134
 30
0.0
 10
11.2916321308
 20
3.969092926
 30
0.0
 10
11.2144684394
 20
3.9358654974
 30
0.0
 10
11.1322013204
 20
3.9154789033
 30
0.0
 10
11.0473170596
 20
3.9084743258
 30
0.0
 10
10.9624328888
 20
3.9154789087
 30
0.0
 10
10.8801658654
 20
3.9358662047
 30
0.0
 10
10.803002093
 20
3.9690943968
 30
0.0
 10
10.7559602797
 20
3.9990535234
 30
0.0
 10
10.7339603317
 20
4.0157098757
 30
0.0
  0
SPLINE
  5
4AD
100
AcDbEntity
  8
0
100
AcDbSpline
 62
9
  6
CONTINUOUS
 70
0
 71
3
 72
15
 73
11
 74
0
 42
0.0000001
 43
0.0000001
 44
0.0000000001
 40
0.0
 40
0.0
 40
0.0
 40
0.0
 40
0.1247888434
 40
0.2492702144
 40
0.3735825452
 40
0.4980263985
 40
0.622739007
 40
0.7479056289
 40
0.8736501982
 40
1.0
 40
1.0
 40
1.0
 40
1.0
 10
10.7339602763
 20
4.0157098014
 30
0.0
 10
10.7218333432
 20
4.0248905394
 30
0.0
 10
10.699001762
 20
4.0451373168
 30
0.0
 10
10.6694279019
 20
4.0799281389
 30
0.0
 10
10.6445566787
 20
4.1181589452
 30
0.0
 10
10.6243476382
 20
4.1590549025
 30
0.0
 10
10.6086532253
 20
4.201986398
 30
0.0
 10
10.5974817252
 20
4.2464701074
 30
0.0
 10
10.5908202948
 20
4.2920413618
 30
0.0
 10
10.5893814226
 20
4.3227922605
 30
0.0
 10
10.5894050016
 20
4.3381926463
 30
0.0
  0
SPLINE
  5
4AE
100
AcDbEntity
  8
0
100
AcDbSpline
 62
9
  6
CONTINUOUS
 70
0
 71
3
 72
12
 73
8
 74
0
 42
0.0000001
 43
0.0000001
 44
0.0000000001
 40
0.0
 40
0.0
 40
0.0
 40
0.0
 40
0.5042172435
 40
0.6304348256
 40
0.755095204
 40
0.878186943
 40
1.0
 40
1.0
 40
1.0
 40
1.0
 10
10.5894049141
 20
4.3381926445
 30
0.0
 10
10.5901232448
 20
4.7748327441
 30
0.0
 10
10.5903894386
 20
5.3207751947
 30
0.0
 10
10.5905390651
 20
5.9746704618
 30
0.0
 10
10.5905847506
 20
6.2985197354
 30
0.0
 10
10.5906369355
 20
6.6185547846
 30
0.0
 10
10.5906878554
 20
6.8306367745
 30
0.0
 10
10.5907158281
 20
6.9361241138
 30
0.0
  0
SPLINE
  5
4AF
100
AcDbEntity
  8
0
100
AcDbSpline
 62
9
  6
CONTINUOUS
 70
0
 71
3
 72
20
 73
16
 74
0
 42
0.0000001
 43
0.0000001
 44
0.0000000001
 40
0.0
 40
0.0
 40
0.0
 40
0.0
 40
0.1627479226
 40
0.3293825008
 40
0.4917290478
 40
0.5684226908
 40
0.6405580874
 40
0.7071311131
 40
0.7676178957
 40
0.8216465908
 40
0.8689315314
 40
0.9094883356
 40
0.9440783922
 40
0.9737995416
 40
1.0
 40
1.0
 40
1.0
 40
1.0
 10
10.5907158441
 20
6.9361241115
 30
0.0
 10
10.5860772415
 20
6.9361253187
 30
0.0
 10
10.5766872176
 20
6.9358680583
 30
0.0
 10
10.5627135641
 20
6.9346904054
 30
0.0
 10
10.551271883
 20
6.9329430923
 30
0.0
 10
10.5425983785
 20
6.931079939
 30
0.0
 10
10.5366589824
 20
6.9295151727
 30
0.0
 10
10.5312550347
 20
6.9277635092
 30
0.0
 10
10.5264523004
 20
6.9258621882
 30
0.0
 10
10.522298968
 20
6.9238463706
 30
0.0
 10
10.5188334595
 20
6.9217481047
 30
0.0
 10
10.5160841719
 20
6.9195813271
 30
0.0
 10
10.5140418477
 20
6.9173779401
 30
0.0
 10
10.5126800853
 20
6.9151642701
 30
0.0
 10
10.5121925103
 20
6.9136236356
 30
0.0
 10
10.5120739269
 20
6.9128863519
 30
0.0
  0
SPLINE
  5
4B0
100
AcDbEntity
  8
0
100
AcDbSpline
 62
9
  6
CONTINUOUS
 70
0
 71
3
 72
20
 73
16
 74
0
 42
0.0000001
 43
0.0000001
 44
0.0000000001
 40
0.0
 40
0.0
 40
0.0
 40
0.0
 40
0.1624973665
 40
0.3285282821
 40
0.4900652835
 40
0.5663781438
 40
0.6382098624
 40
0.7045969405
 40
0.7650439359
 40
0.819200952
 40
0.8667956603
 40
0.9078324832
 40
0.943010129
 40
0.973327568
 40
1.0
 40
1.0
 40
1.0
 40
1.0
 10
10.5894049141
 20
4.3381933825
 30
0.0
 10
10.584782615
 20
4.3381998977
 30
0.0
 10
10.5754358561
 20
4.3384759403
 30
0.0
 10
10.5615402608
 20
4.3396874471
 30
0.0
 10
10.5501778195
 20
4.3414642412
 30
0.0
 10
10.5415701933
 20
4.3433478693
 30
0.0
 10
10.5356724815
 20
4.3449257098
 30
0.0
 10
10.5302996525
 20
4.34668779
 30
0.0
 10
10.5255143149
 20
4.3485974085
 30
0.0
 10
10.521362017
 20
4.3506199437
 30
0.0
 10
10.5178792127
 20
4.352723758
 30
0.0
 10
10.5150926399
 20
4.3548939064
 30
0.0
 10
10.5129931327
 20
4.3570984754
 30
0.0
 10
10.5115545774
 20
4.3593107213
 30
0.0
 10
10.5109961304
 20
4.3608538073
 30
0.0
 10
10.5108397003
 20
4.361596214
 30
0.0
  0
SPLINE
  5
4B1
100
AcDbEntity
  8
0
100
AcDbSpline
 62
9
  6
CONTINUOUS
 70
0
 71
3
 72
14
 73
10
 74
0
 42
0.0000001
 43
0.0000001
 44
0.0000000001
 40
0.0
 40
0.0
 40
0.0
 40
0.0
 40
0.3021798627
 40
0.4474575547
 40
0.5844577709
 40
0.7102106584
 40
0.8225193786
 40
0.9195591652
 40
1.0
 40
1.0
 40
1.0
 40
1.0
 10
10.7339601218
 20
4.0157099159
 30
0.0
 10
10.7305278138
 20
4.011858351
 30
0.0
 10
10.7252710748
 20
4.0063044738
 30
0.0
 10
10.7180133127
 20
3.999453734
 30
0.0
 10
10.7127329581
 20
3.9949049847
 30
0.0
 10
10.707643512
 20
3.9910125881
 30
0.0
 10
10.7028621964
 20
3.9878588689
 30
0.0
 10
10.6984990782
 20
3.9855134794
 30
0.0
 10
10.695654804
 20
3.9844196212
 30
0.0
 10
10.6943258472
 20
3.9840733201
 30
0.0
  0
ENDSEC
  0
SECTION
  2
OBJECTS
  0
DICTIONARY
  5
C
100
AcDbDictionary
280
0
281
1
  3
ACAD_GROUP
350
D
  3
ACAD_MLINESTYLE
350
17
  3
ACAD_LAYOUT
350
1A
  3
ACAD_PLOTSETTINGS
350
19
  3
ACAD_PLOTSTYLENAME
350
E
  0
DICTIONARY
  5
D
102
{ACAD_REACTORS
330
C
102
}
100
AcDbDictionary
280
0
281
1
  0
ACDBDICTIONARYWDFLT
  5
E
102
{ACAD_REACTORS
330
C
102
}
100
AcDbDictionary
281
1
  3
Normal
350
F
100
AcDbDictionaryWithDefault
340
F
  0
DICTIONARY
  5
17
102
{ACAD_REACTORS
330
C
102
}
100
AcDbDictionary
280
0
281
1
  3
Standard
350
18
  0
DICTIONARY
  5
19
102
{ACAD_REACTORS
330
C
102
}
100
AcDbDictionary
281
1
  0
DICTIONARY
  5
1A
102
{ACAD_REACTORS
330
C
102
}
100
AcDbDictionary
281
1
  3
Model
350
4B2
  3
Layout1
350
4B3
  0
ACDBPLACEHOLDER
  5
F
102
{ACAD_REACTORS
330
E
102
}
  0
MLINESTYLE
  5
18
102
{ACAD_REACTORS
330
17
102
}
100
AcDbMlineStyle
  2
STANDARD
 70
0
  3

 62
256
 51
90.0
 52
90.0
 71
2
 49
0.5
 62
256
  6
BYLAYER
 49
-0.5
 62
256
  6
BYLAYER
  0
LAYOUT
  5
4B2
102
{ACAD_REACTORS
330
1A
102
}
100
AcDbPlotSettings
  1

  2
none_device
  4
ANSI_C_(22.00_x_17.00_Inches)
  6

 40
0.0
 41
0.0
 42
0.0
 43
0.0
 44
558.8
 45
431.8
 46
0.0
 47
0.0
 48
0.0
 49
0.0
140
0.0
141
0.0
142
1.0
143
1.0
 70
1024
 72
0
 73
0
 74
0
  7

 75
0
147
1.0
148
0.0
149
0.0
100
AcDbLayout
  1
Model
 70
0
 71
0
 10
0.0
 20
0.0
 11
22.0
 21
17.0
 12
0.0
 22
0.0
 32
0.0
 14
0.0
 24
0.0
 34
0.0
 15
0.0
 25
0.0
 35
0.0
146
0.0
 13
0.0
 23
0.0
 33
0.0
 16
1.0
 26
0.0
 36
0.0
 17
0.0
 27
1.0
 37
0.0
 76
0
330
202
345
0
346
0
  0
LAYOUT
  5
4B3
102
{ACAD_REACTORS
330
1A
102
}
100
AcDbPlotSettings
  1

  2
none_device
  4
ANSI_C_(22.00_x_17.00_Inches)
  6

 40
0.0
 41
0.0
 42
0.0
 43
0.0
 44
558.8
 45
431.8
 46
0.0
 47
0.0
 48
0.0
 49
0.0
140
0.0
141
0.0
142
1.0
143
1.0
 70
0
 72
0
 73
0
 74
0
  7

 75
0
147
1.0
148
0.0
149
0.0
100
AcDbLayout
  1
Layout1
 70
0
 71
1
 10
0.0
 20
0.0
 11
22.0
 21
17.0
 12
0.0
 22
0.0
 32
0.0
 14
0.0
 24
0.0
 34
0.0
 15
0.0
 25
0.0
 35
0.0
146
0.0
 13
0.0
 23
0.0
 33
0.0
 16
1.0
 26
0.0
 36
0.0
 17
0.0
 27
1.0
 37
0.0
 76
0
330
203
345
0
346
0
  0
ENDSEC
  0
EOF
