999
DXF file: 82-02_top.dxf
999
Pro/ENGINEER 2013150 by Parametric Technology Corporation
  0
SECTION
  2
HEADER
  9
$ACADVER
  1
AC1021
  9
$DWGCODEPAGE
  3
ANSI_1252
  9
$EXTMAX
 10
11.0
 20
8.5
 30
0.0
  9
$EXTMIN
 10
0.0
 20
0.0
 30
0.0
  9
$LIMMIN
 10
0.0
 20
0.0
  9
$LIMMAX
 10
11.0
 20
8.5
  9
$VIEWCTR
 10
5.5
 20
4.25
  9
$VIEWSIZE
 40
8.5
  9
$CLAYER
  8
0
  9
$LTSCALE
 40
0.605
  9
$CELTYPE
  6
BYLAYER
  9
$DIMSCALE
 40
1.0
  9
$DIMASZ
 40
0.1
  9
$DIMEXO
 40
0.0625
  9
$DIMDLI
 40
0.418
  9
$DIMEXE
 40
0.125
  9
$DIMCEN
 40
0.099
  9
$DIMLFAC
 40
1.0
  9
$DIMBLK
  1
_FILLED
  9
$DIMTXT
 40
0.08
  9
$DIMTOL
 70
1
  9
$DIMLIM
 70
0
  9
$DIMTFAC
 40
1.0
  9
$DIMTP
 40
0.001
  9
$DIMTM
 40
0.001
  9
$DIMGAP
 40
0.09
  9
$DIMDSEP
 70
46
  9
$PDMODE
 70
3
  9
$PDSIZE
 40
0.06
  9
$HANDSEED
  5
243
  9
$TILEMODE
 70
1
  9
$MEASUREMENT
 70
0
  9
$INSUNITS
 70
1
  0
ENDSEC
  0
SECTION
  2
CLASSES
  0
CLASS
  1
ACDBDICTIONARYWDFLT
  2
AcDbDictionaryWithDefault
  3
AutoCAD 2000
 90
0
 91
1
280
0
281
0
  0
CLASS
  1
ACDBPLACEHOLDER
  2
AcDbPlaceHolder
  3
AutoCAD 2000
 90
0
 91
1
280
0
281
0
  0
CLASS
  1
LAYOUT
  2
AcDbLayout
  3
AutoCAD 2000
 90
0
 91
0
280
0
281
0
  0
ENDSEC
  0
SECTION
  2
TABLES
  0
TABLE
  2
VPORT
  5
8
100
AcDbSymbolTable
 70
2
  0
VPORT
  5
1F4
100
AcDbSymbolTableRecord
100
AcDbViewportTableRecord
  2
*ACTIVE
 70
0
 10
0.0
 20
0.0
 11
1.0
 21
1.0
 12
5.5
 22
4.25
 13
0.0
 23
0.0
 14
1.0
 24
1.0
 15
0.0
 25
0.0
 16
0.0
 26
0.0
 36
1.0
 17
0.0
 27
0.0
 37
0.0
 40
8.5
 41
1.2941176471
 42
50.0
 43
0.0
 44
0.0
 50
0.0
 51
0.0
 71
0
 72
100
 73
1
 74
1
 75
0
 76
0
 77
0
 78
0
  0
ENDTAB
  0
TABLE
  2
LTYPE
  5
5
100
AcDbSymbolTable
 70
6
  0
LTYPE
  5
14
100
AcDbSymbolTableRecord
100
AcDbLinetypeTableRecord
  2
BYBLOCK
 70
0
  3

 72
65
 73
0
 40
0.0
  0
LTYPE
  5
15
100
AcDbSymbolTableRecord
100
AcDbLinetypeTableRecord
  2
BYLAYER
 70
0
  3

 72
65
 73
0
 40
0.0
  0
LTYPE
  5
16
100
AcDbSymbolTableRecord
100
AcDbLinetypeTableRecord
  2
CONTINUOUS
 70
64
  3
Solid line
 72
65
 73
0
 40
0.0
  0
LTYPE
  5
1F5
100
AcDbSymbolTableRecord
100
AcDbLinetypeTableRecord
  2
CENTER
 70
64
  3
____ _ ____ _ ____ _ ____ _ ____ _ ____ _ ____
 72
65
 73
4
 40
0.6
 49
0.375
 74
0
 49
-0.075
 74
0
 49
0.075
 74
0
 49
-0.075
 74
0
  0
LTYPE
  5
1F6
100
AcDbSymbolTableRecord
100
AcDbLinetypeTableRecord
  2
HIDDEN
 70
64
  3
- - - - - - - - - - - - - - - - - - - -
 72
65
 73
2
 40
0.2
 49
0.1
 74
0
 49
-0.1
 74
0
  0
LTYPE
  5
1F7
100
AcDbSymbolTableRecord
100
AcDbLinetypeTableRecord
  2
PHANTOM
 70
64
  3
_____ _ _ _____ _ _ _____ _ _ _____
 72
65
 73
6
 40
0.8
 49
0.45
 74
0
 49
-0.05
 74
0
 49
0.1
 74
0
 49
-0.05
 74
0
 49
0.1
 74
0
 49
-0.05
 74
0
  0
LTYPE
  5
1F8
100
AcDbSymbolTableRecord
100
AcDbLinetypeTableRecord
  2
DOT
 70
64
  3
. . . . . . . . . . . . . . . . . . . .
 72
65
 73
2
 40
0.2
 49
0.1
 74
0
 49
-0.1
 74
0
  0
LTYPE
  5
1F9
100
AcDbSymbolTableRecord
100
AcDbLinetypeTableRecord
  2
DASHED
 70
64
  3
- - - - - - - - - - - - - - - - - - - -
 72
65
 73
2
 40
0.2
 49
0.1
 74
0
 49
-0.1
 74
0
  0
ENDTAB
  0
TABLE
  2
LAYER
  5
2
100
AcDbSymbolTable
 70
36
  0
LAYER
  5
10
100
AcDbSymbolTableRecord
100
AcDbLayerTableRecord
  2
0
 70
0
 62
7
  6
CONTINUOUS
370
-3
390
F
  0
LAYER
  5
1FA
100
AcDbSymbolTableRecord
100
AcDbLayerTableRecord
  2
DEFAULT_1
 70
0
 62
7
  6
CENTER
370
-3
390
F
  0
LAYER
  5
1FB
100
AcDbSymbolTableRecord
100
AcDbLayerTableRecord
  2
DEFAULT_2
 70
0
 62
8
  6
HIDDEN
370
-3
390
F
  0
LAYER
  5
1FC
100
AcDbSymbolTableRecord
100
AcDbLayerTableRecord
  2
DEFAULT_3
 70
0
 62
7
  6
PHANTOM
370
-3
390
F
  0
LAYER
  5
1FD
100
AcDbSymbolTableRecord
100
AcDbLayerTableRecord
  2
DEFAULT_DATUM_CURVES
 70
0
 62
7
  6
CONTINUOUS
370
-3
390
F
  0
ENDTAB
  0
TABLE
  2
STYLE
  5
3
100
AcDbSymbolTable
 70
1
  0
STYLE
  5
11
100
AcDbSymbolTableRecord
100
AcDbTextStyleTableRecord
  2
STANDARD
 70
0
 40
0.0
 41
0.8
 50
0.0
 71
0
 42
0.2
  3
txt
  4

  0
STYLE
  5
1FE
100
AcDbSymbolTableRecord
100
AcDbTextStyleTableRecord
  2
TEXTSTYLE_1
 70
0
 40
0.0
 41
0.8
 50
0.0
 71
0
 42
0.2
  3
gdt
  4

  0
ENDTAB
  0
TABLE
  2
VIEW
  5
6
100
AcDbSymbolTable
 70
0
  0
ENDTAB
  0
TABLE
  2
UCS
  5
7
100
AcDbSymbolTable
 70
0
  0
ENDTAB
  0
TABLE
  2
APPID
  5
9
100
AcDbSymbolTable
 70
1
  0
APPID
  5
1FF
100
AcDbSymbolTableRecord
100
AcDbRegAppTableRecord
  2
ACAD
 70
0
  0
ENDTAB
  0
TABLE
  2
BLOCK_RECORD
  5
1
100
AcDbSymbolTable
 70
0
  0
BLOCK_RECORD
  5
200
100
AcDbSymbolTableRecord
100
AcDbBlockTableRecord
  2
*Model_Space
  0
BLOCK_RECORD
  5
201
100
AcDbSymbolTableRecord
100
AcDbBlockTableRecord
  2
*Paper_Space
  0
ENDTAB
  0
TABLE
  2
DIMSTYLE
  5
A
100
AcDbSymbolTable
 70
1
100
AcDbDimStyleTable
 71
0
  0
DIMSTYLE
105
202
100
AcDbSymbolTableRecord
100
AcDbDimStyleTableRecord
  2
STANDARD
 70
0
  3

  4

 40
1.0
 41
0.1
 42
0.0625
 43
0.38
 44
0.125
 45
0.0
 46
0.0
 47
0.001
 48
0.001
140
0.08
141
0.09
142
0.0
143
25.4
144
1.0
145
0.0
146
1.0
147
0.09
 71
1.0
 72
0.0
 73
1
 74
1
 75
0
 76
0
 77
0
 78
4
170
0
171
2
172
0
173
0
174
0
175
0
176
0
177
0
178
0
270
2
271
3
272
3
273
2
274
2
275
0
280
0
281
0
282
0
283
1
284
4
285
0
286
0
287
3
288
0
340
11
278
46
  0
ENDTAB
  0
ENDSEC
  0
SECTION
  2
BLOCKS
  0
BLOCK
  5
20
100
AcDbEntity
  8
0
100
AcDbBlockBegin
  2
*Model_Space
 70
0
 10
0.0
 20
0.0
 30
0.0
  3
*Model_Space
  1

  0
ENDBLK
  5
21
100
AcDbEntity
  8
0
100
AcDbBlockEnd
  0
BLOCK
  5
1C
100
AcDbEntity
  8
0
100
AcDbBlockBegin
  2
*Paper_Space
 70
0
 10
0.0
 20
0.0
 30
0.0
  3
*Paper_Space
  1

  0
ENDBLK
  5
1D
100
AcDbEntity
  8
0
100
AcDbBlockEnd
  0
ENDSEC
  0
SECTION
  2
ENTITIES
  0
LINE
  5
203
100
AcDbEntity
  8
0
100
AcDbLine
 62
7
  6
CONTINUOUS
 10
0.0
 20
0.0
 11
0.0
 21
8.5
  0
LINE
  5
204
100
AcDbEntity
  8
0
100
AcDbLine
 62
7
  6
CONTINUOUS
 10
0.0
 20
0.0
 11
11.0
 21
0.0
  0
LINE
  5
205
100
AcDbEntity
  8
0
100
AcDbLine
 62
7
  6
CONTINUOUS
 10
0.0
 20
8.5
 11
11.0
 21
8.5
  0
LINE
  5
206
100
AcDbEntity
  8
0
100
AcDbLine
 62
7
  6
CONTINUOUS
 10
11.0
 20
0.0
 11
11.0
 21
8.5
  0
LINE
  5
207
100
AcDbEntity
  8
0
100
AcDbLine
 62
7
  6
CONTINUOUS
 10
1.9105123242
 20
4.6158567927
 11
1.9097385254
 21
4.704525361
  0
LINE
  5
208
100
AcDbEntity
  8
0
100
AcDbLine
 62
7
  6
CONTINUOUS
 10
2.0385502249
 20
4.6061001641
 11
2.0385502249
 21
3.8974387468
  0
LWPOLYLINE
  5
209
100
AcDbEntity
  8
0
100
AcDbPolyline
 62
7
  6
CONTINUOUS
 90
7
 70
0
 10
2.2550856257
 20
3.9328718522
 10
2.2550805814
 20
3.9330443735
 10
2.2550381745
 20
3.9333990822
 10
2.2549524842
 20
3.9337485171
 10
2.2548238456
 20
3.9340873419
 10
2.2546561259
 20
3.9344054569
 10
2.2544543188
 20
3.9346965816
  0
LINE
  5
20A
100
AcDbEntity
  8
0
100
AcDbLine
 62
7
  6
CONTINUOUS
 10
2.255085658
 20
4.6061001641
 11
2.255085658
 21
4.0982217164
  0
LINE
  5
20B
100
AcDbEntity
  8
0
100
AcDbLine
 62
7
  6
CONTINUOUS
 10
2.255085658
 20
3.9328758345
 11
2.255085658
 21
3.8974387468
  0
LWPOLYLINE
  5
20C
100
AcDbEntity
  8
0
100
AcDbPolyline
 62
7
  6
CONTINUOUS
 90
24
 70
0
 10
2.2150066602
 20
4.0155489824
 10
2.2150604772
 20
4.0181394107
 10
2.2153385357
 20
4.0219882392
 10
2.215857206
 20
4.025880399
 10
2.216614175
 20
4.0297988293
 10
2.2175988536
 20
4.0337206734
 10
2.2187924158
 20
4.0376197783
 10
2.2201739764
 20
4.0414825065
 10
2.2217216899
 20
4.0452991306
 10
2.2234100304
 20
4.0490552302
 10
2.2252160517
 20
4.0527434475
 10
2.2271186141
 20
4.0563592694
 10
2.2290962916
 20
4.059895632
 10
2.2311296494
 20
4.0633472165
 10
2.2331992083
 20
4.0667067648
 10
2.235284267
 20
4.0699636192
 10
2.2373684364
 20
4.0731121353
 10
2.2394301097
 20
4.0761380521
 10
2.2414419318
 20
4.0790172568
 10
2.2433890954
 20
4.0817442155
 10
2.2452462114
 20
4.08429644
 10
2.2469739577
 20
4.0866326567
 10
2.2485565181
 20
4.0887436763
 10
2.2499774572
 20
4.0906171614
  0
LINE
  5
20D
100
AcDbEntity
  8
0
100
AcDbLine
 62
7
  6
CONTINUOUS
 10
2.3831235587
 20
4.6158567927
 11
2.3838973576
 21
4.704525361
  0
LINE
  5
20E
100
AcDbEntity
  8
0
100
AcDbLine
 62
7
  6
CONTINUOUS
 10
2.2544543188
 20
3.9346965816
 11
2.2530894256
 21
3.9364423044
  0
LWPOLYLINE
  5
20F
100
AcDbEntity
  8
0
100
AcDbPolyline
 62
7
  6
CONTINUOUS
 90
26
 70
0
 10
2.2530894256
 20
3.9364423044
 10
2.2512288724
 20
3.9388466639
 10
2.2500012343
 20
3.9404495523
 10
2.2485821632
 20
3.9423203906
 10
2.2470007513
 20
3.9444292735
 10
2.2452733502
 20
3.9467645291
 10
2.2434158495
 20
3.9493167778
 10
2.2414683977
 20
3.952043133
 10
2.2394566768
 20
3.9549214924
 10
2.2373952649
 20
3.9579459258
 10
2.2353116798
 20
3.9610922367
 10
2.2332275579
 20
3.964346201
 10
2.2311591062
 20
3.9677018369
 10
2.2291269687
 20
3.9711490808
 10
2.2271502531
 20
3.9746804108
 10
2.225248621
 20
3.9782905973
 10
2.2234428785
 20
3.9819728995
 10
2.2217542744
 20
3.9857228298
 10
2.2202055322
 20
3.9895330231
 10
2.2188218406
 20
3.9933898485
 10
2.2176250971
 20
3.9972835259
 10
2.2166361361
 20
4.0012007043
 10
2.2158738782
 20
4.0051161191
 10
2.2153491659
 20
4.0090072644
 10
2.2150647791
 20
4.0128570237
 10
2.2150066559
 20
4.0155489827
  0
LWPOLYLINE
  5
210
100
AcDbEntity
  8
0
100
AcDbPolyline
 62
7
  6
CONTINUOUS
 90
7
 70
0
 10
2.2544550825
 20
4.096402392
 10
2.2546567308
 20
4.0966935933
 10
2.2548242833
 20
4.0970117644
 10
2.2549527507
 20
4.0973506238
 10
2.2550382712
 20
4.0977000716
 10
2.2550805124
 20
4.0980547732
 10
2.2550854787
 20
4.0982259569
  0
LINE
  5
211
100
AcDbEntity
  8
0
100
AcDbLine
 62
7
  6
CONTINUOUS
 10
2.2499774572
 20
4.0906171614
 11
2.252241948
 21
4.0935641582
  0
LINE
  5
212
100
AcDbEntity
  8
0
100
AcDbLine
 62
7
  6
CONTINUOUS
 10
2.252241948
 20
4.0935641582
 11
2.2541306004
 21
4.0959887399
  0
LINE
  5
213
100
AcDbEntity
  8
0
100
AcDbLine
 62
7
  6
CONTINUOUS
 10
2.2541340612
 20
4.0959930761
 11
2.2544550825
 21
4.096402392
  0
LINE
  5
214
100
AcDbEntity
  8
0
100
AcDbLine
 62
7
  6
CONTINUOUS
 10
8.2600069067
 20
3.8875962271
 11
8.0631565353
 21
3.8875962271
  0
LINE
  5
215
100
AcDbEntity
  8
0
100
AcDbLine
 62
7
  6
CONTINUOUS
 10
2.2452431272
 20
3.8875962271
 11
2.0483927558
 21
3.8875962271
  0
LINE
  5
216
100
AcDbEntity
  8
0
100
AcDbLine
 62
9
  6
CONTINUOUS
 10
2.0385502249
 20
3.8974387468
 11
2.255085658
 21
3.8974387468
  0
LINE
  5
217
100
AcDbEntity
  8
0
100
AcDbLine
 62
9
  6
CONTINUOUS
 10
8.0533140045
 20
3.8974387468
 11
8.2698494375
 21
3.8974387468
  0
LINE
  5
218
100
AcDbEntity
  8
0
100
AcDbLine
 62
7
  6
CONTINUOUS
 10
2.2524074649
 20
3.9373206366
 11
8.0559921977
 21
3.9373206366
  0
LINE
  5
219
100
AcDbEntity
  8
0
100
AcDbLine
 62
9
  6
CONTINUOUS
 10
2.2150066602
 20
4.0155489824
 11
2.2138829273
 21
4.0155489828
  0
LINE
  5
21A
100
AcDbEntity
  8
0
100
AcDbLine
 62
9
  6
CONTINUOUS
 10
8.0933930006
 20
4.0155489836
 11
8.0945167348
 21
4.0155489832
  0
LINE
  5
21B
100
AcDbEntity
  8
0
100
AcDbLine
 62
7
  6
CONTINUOUS
 10
8.0559921615
 20
4.0937773295
 11
2.2524074658
 21
4.0937773295
  0
LINE
  5
21C
100
AcDbEntity
  8
0
100
AcDbLine
 62
7
  6
CONTINUOUS
 10
8.3772184217
 20
4.6061001641
 11
7.924291477
 21
4.6061001641
  0
LINE
  5
21D
100
AcDbEntity
  8
0
100
AcDbLine
 62
7
  6
CONTINUOUS
 10
2.3732814138
 20
4.6061001641
 11
1.9203544691
 21
4.6061001641
  0
LINE
  5
21E
100
AcDbEntity
  8
0
100
AcDbLine
 62
9
  6
CONTINUOUS
 10
1.9105123242
 20
4.6158567927
 11
2.3831235587
 21
4.6158567927
  0
LINE
  5
21F
100
AcDbEntity
  8
0
100
AcDbLine
 62
9
  6
CONTINUOUS
 10
7.9144516248
 20
4.6158567927
 11
8.3870605666
 21
4.6158567927
  0
LINE
  5
220
100
AcDbEntity
  8
0
100
AcDbLine
 62
7
  6
CONTINUOUS
 10
8.3878343655
 20
4.704525361
 11
7.9136755332
 21
4.704525361
  0
LINE
  5
221
100
AcDbEntity
  8
0
100
AcDbLine
 62
7
  6
CONTINUOUS
 10
2.3838973576
 20
4.704525361
 11
1.9097385254
 21
4.704525361
  0
LINE
  5
222
100
AcDbEntity
  8
0
100
AcDbLine
 62
7
  6
CONTINUOUS
 10
8.0539445799
 20
4.096402392
 11
8.0553143613
 21
4.0946503694
  0
LWPOLYLINE
  5
223
100
AcDbEntity
  8
0
100
AcDbPolyline
 62
7
  6
CONTINUOUS
 90
26
 70
0
 10
8.0553143613
 20
4.0946503694
 10
8.0571771868
 20
4.0922430343
 10
8.0584055232
 20
4.0906390996
 10
8.0598246818
 20
4.0887680187
 10
8.061405922
 20
4.0866593384
 10
8.0631328105
 20
4.0843245485
 10
8.0649893942
 20
4.0817734453
 10
8.0669358615
 20
4.0790483798
 10
8.0689467348
 20
4.0761709889
 10
8.0710073843
 20
4.0731476526
 10
8.0730903097
 20
4.0700021403
 10
8.0751740819
 20
4.0667486364
 10
8.0772423583
 20
4.0633931484
 10
8.0792744284
 20
4.0599458602
 10
8.0812511712
 20
4.056414327
 10
8.0831529117
 20
4.0528036968
 10
8.0849587285
 20
4.0491209375
 10
8.0866473855
 20
4.0453704982
 10
8.0881960997
 20
4.0415597942
 10
8.0895796588
 20
4.0377026223
 10
8.0907761335
 20
4.0338088302
 10
8.0917647606
 20
4.029891772
 10
8.0925265911
 20
4.0259769404
 10
8.0930508826
 20
4.0220869602
 10
8.0933349726
 20
4.0182388472
 10
8.0933930054
 20
4.0155489834
  0
LWPOLYLINE
  5
224
100
AcDbEntity
  8
0
100
AcDbPolyline
 62
7
  6
CONTINUOUS
 90
7
 70
0
 10
8.0539453437
 20
3.9346965816
 10
8.0537435366
 20
3.9344054569
 10
8.0535758168
 20
3.9340873419
 10
8.0534471782
 20
3.9337485171
 10
8.0533614879
 20
3.9333990821
 10
8.0533190811
 20
3.9330443734
 10
8.0533140368
 20
3.9328718522
  0
LINE
  5
225
100
AcDbEntity
  8
0
100
AcDbLine
 62
7
  6
CONTINUOUS
 10
8.0584178675
 20
3.9404750721
 11
8.0561537773
 21
3.9375287428
  0
LINE
  5
226
100
AcDbEntity
  8
0
100
AcDbLine
 62
7
  6
CONTINUOUS
 10
8.0561537773
 20
3.9375287428
 11
8.0542647566
 21
3.9351037699
  0
LINE
  5
227
100
AcDbEntity
  8
0
100
AcDbLine
 62
7
  6
CONTINUOUS
 10
8.0542647566
 20
3.9351037699
 11
8.0539453437
 21
3.9346965816
  0
LINE
  5
228
100
AcDbEntity
  8
0
100
AcDbLine
 62
7
  6
CONTINUOUS
 10
7.9144493321
 20
4.6158567927
 11
7.9136755332
 21
4.704525361
  0
LWPOLYLINE
  5
229
100
AcDbEntity
  8
0
100
AcDbPolyline
 62
7
  6
CONTINUOUS
 90
7
 70
0
 10
8.0533141838
 20
4.0982259569
 10
8.0533191501
 20
4.0980547732
 10
8.0533613913
 20
4.0977000717
 10
8.0534469118
 20
4.0973506238
 10
8.0535753791
 20
4.0970117645
 10
8.0537429317
 20
4.0966935933
 10
8.0539445799
 20
4.096402392
  0
LINE
  5
22A
100
AcDbEntity
  8
0
100
AcDbLine
 62
7
  6
CONTINUOUS
 10
8.0533140045
 20
4.6061001641
 11
8.0533140045
 21
4.0982217164
  0
LINE
  5
22B
100
AcDbEntity
  8
0
100
AcDbLine
 62
7
  6
CONTINUOUS
 10
8.0533140045
 20
3.9328758345
 11
8.0533140045
 21
3.8974387468
  0
LINE
  5
22C
100
AcDbEntity
  8
0
100
AcDbLine
 62
7
  6
CONTINUOUS
 10
8.2698494375
 20
4.6061001641
 11
8.2698494375
 21
3.8974387468
  0
LINE
  5
22D
100
AcDbEntity
  8
0
100
AcDbLine
 62
7
  6
CONTINUOUS
 10
8.3870605666
 20
4.6158567927
 11
8.3878343655
 21
4.704525361
  0
LWPOLYLINE
  5
22E
100
AcDbEntity
  8
0
100
AcDbPolyline
 62
7
  6
CONTINUOUS
 90
24
 70
0
 10
8.0933930006
 20
4.0155489836
 10
8.0933391038
 20
4.0129565806
 10
8.093060775
 20
4.0091063317
 10
8.0925417678
 20
4.0052133885
 10
8.0917845432
 20
4.0012948824
 10
8.0907997643
 20
3.99737355
 10
8.0896062632
 20
3.9934752331
 10
8.0882249356
 20
3.9896134893
 10
8.0866776387
 20
3.9857980706
 10
8.0849898132
 20
3.9820430946
 10
8.0831843056
 20
3.9783559208
 10
8.0812823553
 20
3.9747410587
 10
8.0793050939
 20
3.9712053762
 10
8.0772721007
 20
3.9677541622
 10
8.0752026787
 20
3.9643947874
 10
8.0731175455
 20
3.9611376097
 10
8.0710329655
 20
3.9579884491
 10
8.0689706275
 20
3.9549614724
 10
8.0669579517
 20
3.9520809643
 10
8.0650096532
 20
3.9493525417
 10
8.0631512752
 20
3.9467985305
 10
8.0614225194
 20
3.9444610199
 10
8.059839255
 20
3.94234917
 10
8.0584178675
 20
3.9404750721
  0
ARC
  5
22F
100
AcDbEntity
  8
0
100
AcDbCircle
 62
7
  6
CONTINUOUS
 10
7.924291477
 20
4.6159426838
 40
0.0098425197
100
AcDbArc
 50
180.5000001307
 51
270.0
  0
ARC
  5
230
100
AcDbEntity
  8
0
100
AcDbCircle
 62
7
  6
CONTINUOUS
 10
8.3772184217
 20
4.6159426838
 40
0.0098425197
100
AcDbArc
 50
269.9999863968
 51
359.4999998693
  0
ARC
  5
231
100
AcDbEntity
  8
0
100
AcDbCircle
 62
7
  6
CONTINUOUS
 10
1.9203544691
 20
4.6159426838
 40
0.0098425197
100
AcDbArc
 50
180.5000001307
 51
270.0
  0
ARC
  5
232
100
AcDbEntity
  8
0
100
AcDbCircle
 62
7
  6
CONTINUOUS
 10
2.3732814138
 20
4.6159426838
 40
0.0098425197
100
AcDbArc
 50
269.9999863968
 51
359.4999998693
  0
ARC
  5
233
100
AcDbEntity
  8
0
100
AcDbCircle
 62
7
  6
CONTINUOUS
 10
2.2452431383
 20
3.8974387468
 40
0.0098425197
100
AcDbArc
 50
269.9999351109
 51
360.0
  0
ARC
  5
234
100
AcDbEntity
  8
0
100
AcDbCircle
 62
7
  6
CONTINUOUS
 10
2.0483927446
 20
3.8974387468
 40
0.0098425197
100
AcDbArc
 50
180.0
 51
270.0000648891
  0
ARC
  5
235
100
AcDbEntity
  8
0
100
AcDbCircle
 62
7
  6
CONTINUOUS
 10
8.0631565241
 20
3.8974387468
 40
0.0098425197
100
AcDbArc
 50
180.0
 51
270.0000648891
  0
ARC
  5
236
100
AcDbEntity
  8
0
100
AcDbCircle
 62
7
  6
CONTINUOUS
 10
8.2600069179
 20
3.8974387468
 40
0.0098425197
100
AcDbArc
 50
269.9999351109
 51
360.0
  0
SPLINE
  5
237
100
AcDbEntity
  8
0
100
AcDbSpline
 62
9
  6
CONTINUOUS
 70
0
 71
3
 72
13
 73
9
 74
0
 42
0.0000001
 43
0.0000001
 44
0.0000000001
 40
0.0
 40
0.0
 40
0.0
 40
0.0
 40
0.1604255393
 40
0.3164902275
 40
0.465289113
 40
0.6045657112
 40
0.8430303217
 40
1.0
 40
1.0
 40
1.0
 40
1.0
 10
2.2138829217
 20
4.015548983
 30
0.0
 10
2.2138830206
 20
4.0107150326
 30
0.0
 10
2.2150104135
 20
4.001151007
 30
0.0
 10
2.2193801291
 20
3.9877675629
 30
0.0
 10
2.2251994228
 20
3.9756880293
 30
0.0
 10
2.2332933986
 20
3.9620288873
 30
0.0
 10
2.2425703924
 20
3.9488335011
 30
0.0
 10
2.2498638257
 20
3.9394106532
 30
0.0
 10
2.2528102226
 20
3.9357106631
 30
0.0
  0
LINE
  5
238
100
AcDbEntity
  8
0
100
AcDbLine
 62
9
  6
CONTINUOUS
 10
2.2528102226
 20
3.9357106631
 11
2.2550649522
 21
3.9328976227
  0
LINE
  5
239
100
AcDbEntity
  8
0
100
AcDbLine
 62
9
  6
CONTINUOUS
 10
2.2550856572
 20
4.0982259094
 11
2.2527667292
 21
4.09533153
  0
LINE
  5
23A
100
AcDbEntity
  8
0
100
AcDbLine
 62
9
  6
CONTINUOUS
 10
2.2527667292
 20
4.09533153
 11
2.2522759725
 21
4.0947137821
  0
SPLINE
  5
23B
100
AcDbEntity
  8
0
100
AcDbSpline
 62
9
  6
CONTINUOUS
 70
0
 71
3
 72
13
 73
9
 74
0
 42
0.0000001
 43
0.0000001
 44
0.0000000001
 40
0.0
 40
0.0
 40
0.0
 40
0.0
 40
0.1626854667
 40
0.4015565892
 40
0.5398859994
 40
0.6872545982
 40
0.8415669504
 40
1.0
 40
1.0
 40
1.0
 40
1.0
 10
2.2522759725
 20
4.0947137821
 30
0.0
 10
2.2492584835
 20
4.090909721
 30
0.0
 10
2.2419435851
 20
4.0814153734
 30
0.0
 10
2.2327155168
 20
4.0681826056
 30
0.0
 10
2.2248035543
 20
4.0546594118
 30
0.0
 10
2.2191606004
 20
4.0427727102
 30
0.0
 10
2.2149680106
 20
4.029636801
 30
0.0
 10
2.2138829571
 20
4.0202775898
 30
0.0
 10
2.2138829217
 20
4.015548983
 30
0.0
  0
LINE
  5
23C
100
AcDbEntity
  8
0
100
AcDbLine
 62
9
  6
CONTINUOUS
 10
8.0533140048
 20
3.932871846
 11
8.0556317584
 21
3.9357638295
  0
LINE
  5
23D
100
AcDbEntity
  8
0
100
AcDbLine
 62
9
  6
CONTINUOUS
 10
8.0556317584
 20
3.9357638295
 11
8.0561220163
 21
3.936380612
  0
SPLINE
  5
23E
100
AcDbEntity
  8
0
100
AcDbSpline
 62
9
  6
CONTINUOUS
 70
0
 71
3
 72
13
 73
9
 74
0
 42
0.0000001
 43
0.0000001
 44
0.0000000001
 40
0.0
 40
0.0
 40
0.0
 40
0.0
 40
0.1626611473
 40
0.4015412274
 40
0.5398716077
 40
0.687249766
 40
0.8415523802
 40
1.0
 40
1.0
 40
1.0
 40
1.0
 10
8.0561220163
 20
3.936380612
 30
0.0
 10
8.0591400807
 20
3.9401835852
 30
0.0
 10
8.0664548634
 20
3.9496782736
 30
0.0
 10
8.0756810987
 20
3.9629124747
 30
0.0
 10
8.083595664
 20
3.976435977
 30
0.0
 10
8.0892340381
 20
3.9883250419
 30
0.0
 10
8.0934384089
 20
4.0014586877
 30
0.0
 10
8.0945167
 20
4.0108197162
 30
0.0
 10
8.0945167407
 20
4.015548983
 30
0.0
  0
SPLINE
  5
23F
100
AcDbEntity
  8
0
100
AcDbSpline
 62
9
  6
CONTINUOUS
 70
0
 71
3
 72
13
 73
9
 74
0
 42
0.0000001
 43
0.0000001
 44
0.0000000001
 40
0.0
 40
0.0
 40
0.0
 40
0.0
 40
0.1604158772
 40
0.3164828242
 40
0.4652756767
 40
0.6045496184
 40
0.8430061084
 40
1.0
 40
1.0
 40
1.0
 40
1.0
 10
8.0945167407
 20
4.015548983
 30
0.0
 10
8.0945166353
 20
4.0203827991
 30
0.0
 10
8.093385384
 20
4.0299462096
 30
0.0
 10
8.0890218973
 20
4.0433315514
 30
0.0
 10
8.0831992946
 20
4.0554100538
 30
0.0
 10
8.0751064785
 20
4.0690697013
 30
0.0
 10
8.0658282276
 20
4.0822655157
 30
0.0
 10
8.0585341682
 20
4.0916888605
 30
0.0
 10
8.0555892898
 20
4.0953911876
 30
0.0
  0
LINE
  5
240
100
AcDbEntity
  8
0
100
AcDbLine
 62
9
  6
CONTINUOUS
 10
8.0555892898
 20
4.0953911876
 11
8.0533345762
 21
4.0981996636
  0
ENDSEC
  0
SECTION
  2
OBJECTS
  0
DICTIONARY
  5
C
100
AcDbDictionary
280
0
281
1
  3
ACAD_GROUP
350
D
  3
ACAD_MLINESTYLE
350
17
  3
ACAD_LAYOUT
350
1A
  3
ACAD_PLOTSETTINGS
350
19
  3
ACAD_PLOTSTYLENAME
350
E
  0
DICTIONARY
  5
D
102
{ACAD_REACTORS
330
C
102
}
100
AcDbDictionary
280
0
281
1
  0
ACDBDICTIONARYWDFLT
  5
E
102
{ACAD_REACTORS
330
C
102
}
100
AcDbDictionary
281
1
  3
Normal
350
F
100
AcDbDictionaryWithDefault
340
F
  0
DICTIONARY
  5
17
102
{ACAD_REACTORS
330
C
102
}
100
AcDbDictionary
280
0
281
1
  3
Standard
350
18
  0
DICTIONARY
  5
19
102
{ACAD_REACTORS
330
C
102
}
100
AcDbDictionary
281
1
  0
DICTIONARY
  5
1A
102
{ACAD_REACTORS
330
C
102
}
100
AcDbDictionary
281
1
  3
Model
350
241
  3
Layout1
350
242
  0
ACDBPLACEHOLDER
  5
F
102
{ACAD_REACTORS
330
E
102
}
  0
MLINESTYLE
  5
18
102
{ACAD_REACTORS
330
17
102
}
100
AcDbMlineStyle
  2
STANDARD
 70
0
  3

 62
256
 51
90.0
 52
90.0
 71
2
 49
0.5
 62
256
  6
BYLAYER
 49
-0.5
 62
256
  6
BYLAYER
  0
LAYOUT
  5
241
102
{ACAD_REACTORS
330
1A
102
}
100
AcDbPlotSettings
  1

  2
none_device
  4
ANSI_A_(11.00_x_8.50_Inches)
  6

 40
0.0
 41
0.0
 42
0.0
 43
0.0
 44
279.4
 45
215.9
 46
0.0
 47
0.0
 48
0.0
 49
0.0
140
0.0
141
0.0
142
1.0
143
1.0
 70
1024
 72
0
 73
0
 74
0
  7

 75
0
147
1.0
148
0.0
149
0.0
100
AcDbLayout
  1
Model
 70
0
 71
0
 10
0.0
 20
0.0
 11
11.0
 21
8.5
 12
0.0
 22
0.0
 32
0.0
 14
0.0
 24
0.0
 34
0.0
 15
0.0
 25
0.0
 35
0.0
146
0.0
 13
0.0
 23
0.0
 33
0.0
 16
1.0
 26
0.0
 36
0.0
 17
0.0
 27
1.0
 37
0.0
 76
0
330
200
345
0
346
0
  0
LAYOUT
  5
242
102
{ACAD_REACTORS
330
1A
102
}
100
AcDbPlotSettings
  1

  2
none_device
  4
ANSI_A_(11.00_x_8.50_Inches)
  6

 40
0.0
 41
0.0
 42
0.0
 43
0.0
 44
279.4
 45
215.9
 46
0.0
 47
0.0
 48
0.0
 49
0.0
140
0.0
141
0.0
142
1.0
143
1.0
 70
0
 72
0
 73
0
 74
0
  7

 75
0
147
1.0
148
0.0
149
0.0
100
AcDbLayout
  1
Layout1
 70
0
 71
1
 10
0.0
 20
0.0
 11
11.0
 21
8.5
 12
0.0
 22
0.0
 32
0.0
 14
0.0
 24
0.0
 34
0.0
 15
0.0
 25
0.0
 35
0.0
146
0.0
 13
0.0
 23
0.0
 33
0.0
 16
1.0
 26
0.0
 36
0.0
 17
0.0
 27
1.0
 37
0.0
 76
0
330
201
345
0
346
0
  0
ENDSEC
  0
EOF
