999
DXF file: 82-12_front.dxf
999
Pro/ENGINEER 2013150 by Parametric Technology Corporation
  0
SECTION
  2
HEADER
  9
$ACADVER
  1
AC1021
  9
$DWGCODEPAGE
  3
ANSI_1252
  9
$EXTMAX
 10
11.0
 20
8.5
 30
0.0
  9
$EXTMIN
 10
0.0
 20
0.0
 30
0.0
  9
$LIMMIN
 10
0.0
 20
0.0
  9
$LIMMAX
 10
11.0
 20
8.5
  9
$VIEWCTR
 10
5.5
 20
4.25
  9
$VIEWSIZE
 40
8.5
  9
$CLAYER
  8
0
  9
$LTSCALE
 40
0.605
  9
$CELTYPE
  6
BYLAYER
  9
$DIMSCALE
 40
1.0
  9
$DIMASZ
 40
0.1
  9
$DIMEXO
 40
0.0625
  9
$DIMDLI
 40
0.418
  9
$DIMEXE
 40
0.125
  9
$DIMCEN
 40
0.099
  9
$DIMLFAC
 40
1.0
  9
$DIMBLK
  1
_FILLED
  9
$DIMTXT
 40
0.08
  9
$DIMTOL
 70
1
  9
$DIMLIM
 70
0
  9
$DIMTFAC
 40
1.0
  9
$DIMTP
 40
0.001
  9
$DIMTM
 40
0.001
  9
$DIMGAP
 40
0.09
  9
$DIMDSEP
 70
46
  9
$PDMODE
 70
3
  9
$PDSIZE
 40
0.06
  9
$HANDSEED
  5
263
  9
$TILEMODE
 70
1
  9
$MEASUREMENT
 70
0
  9
$INSUNITS
 70
1
  0
ENDSEC
  0
SECTION
  2
CLASSES
  0
CLASS
  1
ACDBDICTIONARYWDFLT
  2
AcDbDictionaryWithDefault
  3
AutoCAD 2000
 90
0
 91
1
280
0
281
0
  0
CLASS
  1
ACDBPLACEHOLDER
  2
AcDbPlaceHolder
  3
AutoCAD 2000
 90
0
 91
1
280
0
281
0
  0
CLASS
  1
LAYOUT
  2
AcDbLayout
  3
AutoCAD 2000
 90
0
 91
0
280
0
281
0
  0
ENDSEC
  0
SECTION
  2
TABLES
  0
TABLE
  2
VPORT
  5
8
100
AcDbSymbolTable
 70
2
  0
VPORT
  5
1F4
100
AcDbSymbolTableRecord
100
AcDbViewportTableRecord
  2
*ACTIVE
 70
0
 10
0.0
 20
0.0
 11
1.0
 21
1.0
 12
5.5
 22
4.25
 13
0.0
 23
0.0
 14
1.0
 24
1.0
 15
0.0
 25
0.0
 16
0.0
 26
0.0
 36
1.0
 17
0.0
 27
0.0
 37
0.0
 40
8.5
 41
1.2941176471
 42
50.0
 43
0.0
 44
0.0
 50
0.0
 51
0.0
 71
0
 72
100
 73
1
 74
1
 75
0
 76
0
 77
0
 78
0
  0
ENDTAB
  0
TABLE
  2
LTYPE
  5
5
100
AcDbSymbolTable
 70
6
  0
LTYPE
  5
14
100
AcDbSymbolTableRecord
100
AcDbLinetypeTableRecord
  2
BYBLOCK
 70
0
  3

 72
65
 73
0
 40
0.0
  0
LTYPE
  5
15
100
AcDbSymbolTableRecord
100
AcDbLinetypeTableRecord
  2
BYLAYER
 70
0
  3

 72
65
 73
0
 40
0.0
  0
LTYPE
  5
16
100
AcDbSymbolTableRecord
100
AcDbLinetypeTableRecord
  2
CONTINUOUS
 70
64
  3
Solid line
 72
65
 73
0
 40
0.0
  0
LTYPE
  5
1F5
100
AcDbSymbolTableRecord
100
AcDbLinetypeTableRecord
  2
CENTER
 70
64
  3
____ _ ____ _ ____ _ ____ _ ____ _ ____ _ ____
 72
65
 73
4
 40
0.6
 49
0.375
 74
0
 49
-0.075
 74
0
 49
0.075
 74
0
 49
-0.075
 74
0
  0
LTYPE
  5
1F6
100
AcDbSymbolTableRecord
100
AcDbLinetypeTableRecord
  2
HIDDEN
 70
64
  3
- - - - - - - - - - - - - - - - - - - -
 72
65
 73
2
 40
0.2
 49
0.1
 74
0
 49
-0.1
 74
0
  0
LTYPE
  5
1F7
100
AcDbSymbolTableRecord
100
AcDbLinetypeTableRecord
  2
PHANTOM
 70
64
  3
_____ _ _ _____ _ _ _____ _ _ _____
 72
65
 73
6
 40
0.8
 49
0.45
 74
0
 49
-0.05
 74
0
 49
0.1
 74
0
 49
-0.05
 74
0
 49
0.1
 74
0
 49
-0.05
 74
0
  0
LTYPE
  5
1F8
100
AcDbSymbolTableRecord
100
AcDbLinetypeTableRecord
  2
DOT
 70
64
  3
. . . . . . . . . . . . . . . . . . . .
 72
65
 73
2
 40
0.2
 49
0.1
 74
0
 49
-0.1
 74
0
  0
LTYPE
  5
1F9
100
AcDbSymbolTableRecord
100
AcDbLinetypeTableRecord
  2
DASHED
 70
64
  3
- - - - - - - - - - - - - - - - - - - -
 72
65
 73
2
 40
0.2
 49
0.1
 74
0
 49
-0.1
 74
0
  0
ENDTAB
  0
TABLE
  2
LAYER
  5
2
100
AcDbSymbolTable
 70
36
  0
LAYER
  5
10
100
AcDbSymbolTableRecord
100
AcDbLayerTableRecord
  2
0
 70
0
 62
7
  6
CONTINUOUS
370
-3
390
F
  0
LAYER
  5
1FA
100
AcDbSymbolTableRecord
100
AcDbLayerTableRecord
  2
DEFAULT_1
 70
0
 62
7
  6
CENTER
370
-3
390
F
  0
LAYER
  5
1FB
100
AcDbSymbolTableRecord
100
AcDbLayerTableRecord
  2
DEFAULT_2
 70
0
 62
8
  6
HIDDEN
370
-3
390
F
  0
LAYER
  5
1FC
100
AcDbSymbolTableRecord
100
AcDbLayerTableRecord
  2
DEFAULT_3
 70
0
 62
7
  6
PHANTOM
370
-3
390
F
  0
LAYER
  5
1FD
100
AcDbSymbolTableRecord
100
AcDbLayerTableRecord
  2
DEFAULT_DATUM_CURVES
 70
0
 62
7
  6
CONTINUOUS
370
-3
390
F
  0
ENDTAB
  0
TABLE
  2
STYLE
  5
3
100
AcDbSymbolTable
 70
1
  0
STYLE
  5
11
100
AcDbSymbolTableRecord
100
AcDbTextStyleTableRecord
  2
STANDARD
 70
0
 40
0.0
 41
0.8
 50
0.0
 71
0
 42
0.2
  3
txt
  4

  0
STYLE
  5
1FE
100
AcDbSymbolTableRecord
100
AcDbTextStyleTableRecord
  2
TEXTSTYLE_1
 70
0
 40
0.0
 41
0.8
 50
0.0
 71
0
 42
0.2
  3
gdt
  4

  0
ENDTAB
  0
TABLE
  2
VIEW
  5
6
100
AcDbSymbolTable
 70
0
  0
ENDTAB
  0
TABLE
  2
UCS
  5
7
100
AcDbSymbolTable
 70
0
  0
ENDTAB
  0
TABLE
  2
APPID
  5
9
100
AcDbSymbolTable
 70
1
  0
APPID
  5
1FF
100
AcDbSymbolTableRecord
100
AcDbRegAppTableRecord
  2
ACAD
 70
0
  0
ENDTAB
  0
TABLE
  2
BLOCK_RECORD
  5
1
100
AcDbSymbolTable
 70
0
  0
BLOCK_RECORD
  5
200
100
AcDbSymbolTableRecord
100
AcDbBlockTableRecord
  2
*Model_Space
  0
BLOCK_RECORD
  5
201
100
AcDbSymbolTableRecord
100
AcDbBlockTableRecord
  2
*Paper_Space
  0
ENDTAB
  0
TABLE
  2
DIMSTYLE
  5
A
100
AcDbSymbolTable
 70
1
100
AcDbDimStyleTable
 71
0
  0
DIMSTYLE
105
202
100
AcDbSymbolTableRecord
100
AcDbDimStyleTableRecord
  2
STANDARD
 70
0
  3

  4

 40
1.0
 41
0.1
 42
0.0625
 43
0.38
 44
0.125
 45
0.0
 46
0.0
 47
0.001
 48
0.001
140
0.08
141
0.09
142
0.0
143
25.4
144
1.0
145
0.0
146
1.0
147
0.09
 71
1.0
 72
0.0
 73
1
 74
1
 75
0
 76
0
 77
0
 78
4
170
0
171
2
172
0
173
0
174
0
175
0
176
0
177
0
178
0
270
2
271
3
272
3
273
2
274
2
275
0
280
0
281
0
282
0
283
1
284
4
285
0
286
0
287
3
288
0
340
11
278
46
  0
ENDTAB
  0
ENDSEC
  0
SECTION
  2
BLOCKS
  0
BLOCK
  5
20
100
AcDbEntity
  8
0
100
AcDbBlockBegin
  2
*Model_Space
 70
0
 10
0.0
 20
0.0
 30
0.0
  3
*Model_Space
  1

  0
ENDBLK
  5
21
100
AcDbEntity
  8
0
100
AcDbBlockEnd
  0
BLOCK
  5
1C
100
AcDbEntity
  8
0
100
AcDbBlockBegin
  2
*Paper_Space
 70
0
 10
0.0
 20
0.0
 30
0.0
  3
*Paper_Space
  1

  0
ENDBLK
  5
1D
100
AcDbEntity
  8
0
100
AcDbBlockEnd
  0
ENDSEC
  0
SECTION
  2
ENTITIES
  0
LINE
  5
203
100
AcDbEntity
  8
0
100
AcDbLine
 62
7
  6
CONTINUOUS
 10
0.0
 20
0.0
 11
0.0
 21
8.5
  0
LINE
  5
204
100
AcDbEntity
  8
0
100
AcDbLine
 62
7
  6
CONTINUOUS
 10
0.0
 20
0.0
 11
11.0
 21
0.0
  0
LINE
  5
205
100
AcDbEntity
  8
0
100
AcDbLine
 62
7
  6
CONTINUOUS
 10
0.0
 20
8.5
 11
11.0
 21
8.5
  0
LINE
  5
206
100
AcDbEntity
  8
0
100
AcDbLine
 62
7
  6
CONTINUOUS
 10
11.0
 20
0.0
 11
11.0
 21
8.5
  0
LINE
  5
207
100
AcDbEntity
  8
0
100
AcDbLine
 62
7
  6
CONTINUOUS
 10
4.8908824584
 20
2.8390940846
 11
4.9051324121
 21
2.8406192119
  0
LINE
  5
208
100
AcDbEntity
  8
0
100
AcDbLine
 62
7
  6
CONTINUOUS
 10
4.8843595052
 20
2.8384296239
 11
4.8908824584
 21
2.8390940846
  0
LINE
  5
209
100
AcDbEntity
  8
0
100
AcDbLine
 62
7
  6
CONTINUOUS
 10
4.8788375718
 20
2.8378929623
 11
4.8843595052
 21
2.8384296239
  0
LINE
  5
20A
100
AcDbEntity
  8
0
100
AcDbLine
 62
7
  6
CONTINUOUS
 10
4.8727804127
 20
2.837333958
 11
4.8788375718
 21
2.8378929623
  0
LINE
  5
20B
100
AcDbEntity
  8
0
100
AcDbLine
 62
7
  6
CONTINUOUS
 10
4.8673307538
 20
2.8368587082
 11
4.8727804127
 21
2.837333958
  0
LINE
  5
20C
100
AcDbEntity
  8
0
100
AcDbLine
 62
7
  6
CONTINUOUS
 10
4.8615248318
 20
2.8363820975
 11
4.8673307538
 21
2.8368587082
  0
LINE
  5
20D
100
AcDbEntity
  8
0
100
AcDbLine
 62
7
  6
CONTINUOUS
 10
4.8566303679
 20
2.8360046841
 11
4.8615248318
 21
2.8363820975
  0
LINE
  5
20E
100
AcDbEntity
  8
0
100
AcDbLine
 62
7
  6
CONTINUOUS
 10
4.8515206281
 20
2.8356349684
 11
4.8566303679
 21
2.8360046841
  0
LINE
  5
20F
100
AcDbEntity
  8
0
100
AcDbLine
 62
7
  6
CONTINUOUS
 10
4.8462042551
 20
2.8352768335
 11
4.8515206281
 21
2.8356349684
  0
LINE
  5
210
100
AcDbEntity
  8
0
100
AcDbLine
 62
7
  6
CONTINUOUS
 10
4.8406903649
 20
2.8349339827
 11
4.8462042551
 21
2.8352768335
  0
LINE
  5
211
100
AcDbEntity
  8
0
100
AcDbLine
 62
7
  6
CONTINUOUS
 10
4.8349885291
 20
2.8346102581
 11
4.8406903649
 21
2.8349339827
  0
LINE
  5
212
100
AcDbEntity
  8
0
100
AcDbLine
 62
7
  6
CONTINUOUS
 10
4.8291089546
 20
2.8343096647
 11
4.8349885291
 21
2.8346102581
  0
LINE
  5
213
100
AcDbEntity
  8
0
100
AcDbLine
 62
7
  6
CONTINUOUS
 10
4.8245892534
 20
2.8341018054
 11
4.8291089546
 21
2.8343096647
  0
LINE
  5
214
100
AcDbEntity
  8
0
100
AcDbLine
 62
7
  6
CONTINUOUS
 10
4.8199810735
 20
2.8339105581
 11
4.8245892534
 21
2.8341018054
  0
LINE
  5
215
100
AcDbEntity
  8
0
100
AcDbLine
 62
7
  6
CONTINUOUS
 10
4.8152898915
 20
2.8337372229
 11
4.8199810735
 21
2.8339105581
  0
LINE
  5
216
100
AcDbEntity
  8
0
100
AcDbLine
 62
7
  6
CONTINUOUS
 10
4.8105213888
 20
2.8335831341
 11
4.8152898915
 21
2.8337372229
  0
LINE
  5
217
100
AcDbEntity
  8
0
100
AcDbLine
 62
7
  6
CONTINUOUS
 10
4.8056814463
 20
2.8334496598
 11
4.8105213888
 21
2.8335831341
  0
LINE
  5
218
100
AcDbEntity
  8
0
100
AcDbLine
 62
7
  6
CONTINUOUS
 10
4.8007761442
 20
2.8333382012
 11
4.8056814463
 21
2.8334496598
  0
LINE
  5
219
100
AcDbEntity
  8
0
100
AcDbLine
 62
7
  6
CONTINUOUS
 10
4.7958122745
 20
2.833249941
 11
4.8007761442
 21
2.8333382012
  0
LINE
  5
21A
100
AcDbEntity
  8
0
100
AcDbLine
 62
7
  6
CONTINUOUS
 10
4.790797872
 20
2.8331855428
 11
4.7958122745
 21
2.833249941
  0
LINE
  5
21B
100
AcDbEntity
  8
0
100
AcDbLine
 62
7
  6
CONTINUOUS
 10
4.7857413579
 20
2.8331456101
 11
4.790797872
 21
2.8331855428
  0
LINE
  5
21C
100
AcDbEntity
  8
0
100
AcDbLine
 62
7
  6
CONTINUOUS
 10
4.7803000929
 20
2.8331306709
 11
4.7857413579
 21
2.8331456101
  0
LINE
  5
21D
100
AcDbEntity
  8
0
100
AcDbLine
 62
7
  6
CONTINUOUS
 10
4.775792719
 20
2.8331408257
 11
4.7803000947
 21
2.8331304922
  0
LINE
  5
21E
100
AcDbEntity
  8
0
100
AcDbLine
 62
7
  6
CONTINUOUS
 10
4.7692235561
 20
2.8331917069
 11
4.775792719
 21
2.8331408257
  0
LINE
  5
21F
100
AcDbEntity
  8
0
100
AcDbLine
 62
7
  6
CONTINUOUS
 10
4.7627500172
 20
2.8332833086
 11
4.7692235561
 21
2.8331917069
  0
LINE
  5
220
100
AcDbEntity
  8
0
100
AcDbLine
 62
7
  6
CONTINUOUS
 10
4.7563894675
 20
2.8334137163
 11
4.7627500172
 21
2.8332833086
  0
LINE
  5
221
100
AcDbEntity
  8
0
100
AcDbLine
 62
7
  6
CONTINUOUS
 10
4.7501575003
 20
2.8335807265
 11
4.7563894675
 21
2.8334137163
  0
LINE
  5
222
100
AcDbEntity
  8
0
100
AcDbLine
 62
7
  6
CONTINUOUS
 10
4.7440664319
 20
2.8337810846
 11
4.7501575003
 21
2.8335807265
  0
LWPOLYLINE
  5
223
100
AcDbEntity
  8
0
100
AcDbPolyline
 62
7
  6
CONTINUOUS
 90
7
 70
0
 10
4.6504297388
 20
2.8411062384
 10
4.6504142177
 20
2.8411067993
 10
4.6504067907
 20
2.8411071175
 10
4.6504339976
 20
2.8411056889
 10
4.6504847918
 20
2.8411026535
 10
4.6505574144
 20
2.841097882
 10
4.6506542299
 20
2.8410910189
  0
LINE
  5
224
100
AcDbEntity
  8
0
100
AcDbLine
 62
7
  6
CONTINUOUS
 10
4.7381272509
 20
2.8340114541
 11
4.7440664319
 21
2.8337810846
  0
LINE
  5
225
100
AcDbEntity
  8
0
100
AcDbLine
 62
7
  6
CONTINUOUS
 10
4.7323501566
 20
2.8342686556
 11
4.7381272509
 21
2.8340114541
  0
LINE
  5
226
100
AcDbEntity
  8
0
100
AcDbLine
 62
7
  6
CONTINUOUS
 10
4.7267446253
 20
2.8345496354
 11
4.7323501566
 21
2.8342686556
  0
LINE
  5
227
100
AcDbEntity
  8
0
100
AcDbLine
 62
7
  6
CONTINUOUS
 10
4.721318987
 20
2.834850988
 11
4.7267446253
 21
2.8345496354
  0
LINE
  5
228
100
AcDbEntity
  8
0
100
AcDbLine
 62
7
  6
CONTINUOUS
 10
4.7160802569
 20
2.8351690055
 11
4.721318987
 21
2.834850988
  0
LINE
  5
229
100
AcDbEntity
  8
0
100
AcDbLine
 62
7
  6
CONTINUOUS
 10
4.7110346917
 20
2.8355001692
 11
4.7160802569
 21
2.8351690055
  0
LINE
  5
22A
100
AcDbEntity
  8
0
100
AcDbLine
 62
7
  6
CONTINUOUS
 10
4.7061879081
 20
2.8358411615
 11
4.7110346917
 21
2.8355001692
  0
LINE
  5
22B
100
AcDbEntity
  8
0
100
AcDbLine
 62
7
  6
CONTINUOUS
 10
4.7000438041
 20
2.8363056078
 11
4.7061879081
 21
2.8358411615
  0
LINE
  5
22C
100
AcDbEntity
  8
0
100
AcDbLine
 62
7
  6
CONTINUOUS
 10
4.6506542299
 20
2.8410910189
 11
4.6509058909
 21
2.8410715061
  0
LINE
  5
22D
100
AcDbEntity
  8
0
100
AcDbLine
 62
7
  6
CONTINUOUS
 10
4.6942714677
 20
2.8367742191
 11
4.7000438041
 21
2.8363056078
  0
LINE
  5
22E
100
AcDbEntity
  8
0
100
AcDbLine
 62
7
  6
CONTINUOUS
 10
4.6509058909
 20
2.8410715061
 11
4.6512349406
 21
2.8410437266
  0
LINE
  5
22F
100
AcDbEntity
  8
0
100
AcDbLine
 62
7
  6
CONTINUOUS
 10
4.6888755047
 20
2.8372398252
 11
4.6942714677
 21
2.8367742191
  0
LINE
  5
230
100
AcDbEntity
  8
0
100
AcDbLine
 62
7
  6
CONTINUOUS
 10
4.6512349406
 20
2.8410437266
 11
4.6516363663
 21
2.8410076692
  0
LINE
  5
231
100
AcDbEntity
  8
0
100
AcDbLine
 62
7
  6
CONTINUOUS
 10
4.6826639747
 20
2.8378077902
 11
4.6888755047
 21
2.8372398252
  0
LINE
  5
232
100
AcDbEntity
  8
0
100
AcDbLine
 62
7
  6
CONTINUOUS
 10
4.6516363663
 20
2.8410076692
 11
4.6523727733
 21
2.8409376794
  0
LINE
  5
233
100
AcDbEntity
  8
0
100
AcDbLine
 62
7
  6
CONTINUOUS
 10
4.6770453695
 20
2.8383498652
 11
4.6826639747
 21
2.8378077902
  0
LINE
  5
234
100
AcDbEntity
  8
0
100
AcDbLine
 62
7
  6
CONTINUOUS
 10
4.6523727733
 20
2.8409376794
 11
4.6536062186
 21
2.8408139766
  0
LINE
  5
235
100
AcDbEntity
  8
0
100
AcDbLine
 62
7
  6
CONTINUOUS
 10
4.6701613903
 20
2.8390479197
 11
4.6770453695
 21
2.8383498652
  0
LINE
  5
236
100
AcDbEntity
  8
0
100
AcDbLine
 62
7
  6
CONTINUOUS
 10
4.6536062186
 20
2.8408139766
 11
4.6564770582
 21
2.8405114311
  0
LINE
  5
237
100
AcDbEntity
  8
0
100
AcDbLine
 62
7
  6
CONTINUOUS
 10
4.6564770582
 20
2.8405114311
 11
4.6701613903
 21
2.8390479197
  0
LINE
  5
238
100
AcDbEntity
  8
0
100
AcDbLine
 62
7
  6
CONTINUOUS
 10
4.2881741088
 20
3.5551885268
 11
4.2881741088
 21
4.5280930408
  0
LINE
  5
239
100
AcDbEntity
  8
0
100
AcDbLine
 62
9
  6
CONTINUOUS
 10
4.3275441875
 20
4.5280930408
 11
4.3275441875
 21
3.5551885261
  0
LINE
  5
23A
100
AcDbEntity
  8
0
100
AcDbLine
 62
9
  6
CONTINUOUS
 10
4.2881741088
 20
3.5551885268
 11
4.3275441875
 21
3.5551885268
  0
LINE
  5
23B
100
AcDbEntity
  8
0
100
AcDbLine
 62
9
  6
CONTINUOUS
 10
5.2330559986
 20
3.5551885268
 11
5.2724260773
 21
3.5551885268
  0
LINE
  5
23C
100
AcDbEntity
  8
0
100
AcDbLine
 62
9
  6
CONTINUOUS
 10
4.7803000927
 20
2.8331304922
 11
4.7803000929
 21
2.8308635187
  0
LINE
  5
23D
100
AcDbEntity
  8
0
100
AcDbLine
 62
9
  6
CONTINUOUS
 10
5.2197800418
 20
4.6152239066
 11
5.2014683773
 21
4.5803715603
  0
LINE
  5
23E
100
AcDbEntity
  8
0
100
AcDbLine
 62
9
  6
CONTINUOUS
 10
4.301012178
 20
3.5065843814
 11
4.335247029
 21
3.5260260396
  0
LINE
  5
23F
100
AcDbEntity
  8
0
100
AcDbLine
 62
9
  6
CONTINUOUS
 10
5.2595880081
 20
3.5065843814
 11
5.2253531571
 21
3.5260260395
  0
LINE
  5
240
100
AcDbEntity
  8
0
100
AcDbLine
 62
9
  6
CONTINUOUS
 10
4.3408201443
 20
4.6152239066
 11
4.3591318089
 21
4.5803715603
  0
LINE
  5
241
100
AcDbEntity
  8
0
100
AcDbLine
 62
9
  6
CONTINUOUS
 10
5.2330559986
 20
3.5551885261
 11
5.2330559986
 21
4.5280930408
  0
LINE
  5
242
100
AcDbEntity
  8
0
100
AcDbLine
 62
7
  6
CONTINUOUS
 10
5.2724260773
 20
4.5280930408
 11
5.2724260773
 21
3.5551885268
  0
LINE
  5
243
100
AcDbEntity
  8
0
100
AcDbLine
 62
9
  6
CONTINUOUS
 10
5.2724260773
 20
4.5280930408
 11
5.2330559986
 21
4.5280930408
  0
LINE
  5
244
100
AcDbEntity
  8
0
100
AcDbLine
 62
9
  6
CONTINUOUS
 10
4.3275441875
 20
4.5280930408
 11
4.2881741088
 21
4.5280930408
  0
ARC
  5
245
100
AcDbEntity
  8
0
100
AcDbCircle
 62
9
  6
CONTINUOUS
 10
4.780191926
 20
3.8398687486
 40
1.0067358029
100
AcDbArc
 50
267.7864579725
 51
268.328454062
  0
ARC
  5
246
100
AcDbEntity
  8
0
100
AcDbCircle
 62
9
  6
CONTINUOUS
 10
4.7802437713
 20
3.8394164267
 40
1.0062856935
100
AcDbArc
 50
270.0032068423
 51
270.5810395364
  0
ARC
  5
247
100
AcDbEntity
  8
0
100
AcDbCircle
 62
9
  6
CONTINUOUS
 10
4.7798163635
 20
3.7047785853
 40
0.8739155957
100
AcDbArc
 50
263.6641080179
 51
270.0317143496
  0
ARC
  5
248
100
AcDbEntity
  8
0
100
AcDbCircle
 62
7
  6
CONTINUOUS
 10
4.3865993057
 20
3.5551885268
 40
0.0984251969
100
AcDbArc
 50
180.0
 51
209.591845794
  0
ARC
  5
249
100
AcDbEntity
  8
0
100
AcDbCircle
 62
9
  6
CONTINUOUS
 10
4.3865993057
 20
3.5551885268
 40
0.0590551182
100
AcDbArc
 50
180.0000006321
 51
209.591845451
  0
ARC
  5
24A
100
AcDbEntity
  8
0
100
AcDbCircle
 62
7
  6
CONTINUOUS
 10
4.3865993057
 20
4.5280930408
 40
0.0984251969
100
AcDbArc
 50
117.7177476894
 51
180.0
  0
ARC
  5
24B
100
AcDbEntity
  8
0
100
AcDbCircle
 62
9
  6
CONTINUOUS
 10
4.3865993057
 20
4.5280930408
 40
0.0590551181
100
AcDbArc
 50
117.7177475891
 51
180.000000057
  0
ARC
  5
24C
100
AcDbEntity
  8
0
100
AcDbCircle
 62
9
  6
CONTINUOUS
 10
4.7804531119
 20
3.8517030259
 40
1.0185726667
100
AcDbArc
 50
268.3331864199
 51
269.4383961066
  0
ARC
  5
24D
100
AcDbEntity
  8
0
100
AcDbCircle
 62
9
  6
CONTINUOUS
 10
4.7803454887
 20
3.8417039689
 40
1.0085720942
100
AcDbArc
 50
270.5739435528
 51
272.2297294906
  0
ARC
  5
24E
100
AcDbEntity
  8
0
100
AcDbCircle
 62
9
  6
CONTINUOUS
 10
4.7803520667
 20
3.8388813893
 40
1.0057506559
100
AcDbArc
 50
269.4369927998
 51
269.9970391571
  0
CIRCLE
  5
24F
100
AcDbEntity
  8
0
100
AcDbCircle
 62
7
  6
CONTINUOUS
 10
4.7803000931
 20
3.7787675955
 40
0.9483176645
  0
CIRCLE
  5
250
100
AcDbEntity
  8
0
100
AcDbCircle
 62
9
  6
CONTINUOUS
 10
4.7803000931
 20
3.7787675955
 40
0.945222469
  0
ARC
  5
251
100
AcDbEntity
  8
0
100
AcDbCircle
 62
7
  6
CONTINUOUS
 10
4.7803000931
 20
3.7787675955
 40
0.9448818898
100
AcDbArc
 50
62.2822523104
 51
117.7177476896
  0
ARC
  5
252
100
AcDbEntity
  8
0
100
AcDbCircle
 62
9
  6
CONTINUOUS
 10
4.7803000931
 20
3.7787675955
 40
0.90585388
100
AcDbArc
 50
122.8569965765
 51
57.1465675921
  0
ARC
  5
253
100
AcDbEntity
  8
0
100
AcDbCircle
 62
9
  6
CONTINUOUS
 10
4.7803000931
 20
3.7787675955
 40
0.905511811
100
AcDbArc
 50
62.2822523169
 51
117.7177476831
  0
ARC
  5
254
100
AcDbEntity
  8
0
100
AcDbCircle
 62
7
  6
CONTINUOUS
 10
4.7803000931
 20
3.7787675955
 40
0.5511811024
100
AcDbArc
 50
209.5918457939
 51
330.4081542061
  0
ARC
  5
255
100
AcDbEntity
  8
0
100
AcDbCircle
 62
9
  6
CONTINUOUS
 10
4.7803000931
 20
3.7787675955
 40
0.5118110236
100
AcDbArc
 50
209.5918457544
 51
330.4081542456
  0
ARC
  5
256
100
AcDbEntity
  8
0
100
AcDbCircle
 62
7
  6
CONTINUOUS
 10
5.1740008805
 20
3.5551885268
 40
0.0984251969
100
AcDbArc
 50
330.4081542061
 51
360.0
  0
ARC
  5
257
100
AcDbEntity
  8
0
100
AcDbCircle
 62
9
  6
CONTINUOUS
 10
5.1740008805
 20
3.5551885268
 40
0.0590551182
100
AcDbArc
 50
330.4081545491
 51
359.9999993679
  0
ARC
  5
258
100
AcDbEntity
  8
0
100
AcDbCircle
 62
7
  6
CONTINUOUS
 10
5.1740008805
 20
4.5280930408
 40
0.0984251969
100
AcDbArc
 50
0.0
 51
62.2822523104
  0
ARC
  5
259
100
AcDbEntity
  8
0
100
AcDbCircle
 62
9
  6
CONTINUOUS
 10
5.1740008805
 20
4.5280930408
 40
0.0590551181
100
AcDbArc
 50
0.0
 51
62.2822524109
  0
SPLINE
  5
25A
100
AcDbEntity
  8
0
100
AcDbSpline
 62
9
  6
CONTINUOUS
 70
0
 71
3
 72
11
 73
7
 74
0
 42
0.0000001
 43
0.0000001
 44
0.0000000001
 40
0.0
 40
0.0
 40
0.0
 40
0.0
 40
0.3256604423
 40
0.6194341042
 40
0.8523186048
 40
1.0
 40
1.0
 40
1.0
 40
1.0
 10
4.7803000931
 20
2.8308631235
 30
0.0
 10
4.7940117859
 20
2.830863569
 30
0.0
 10
4.8200965096
 20
2.8314650807
 30
0.0
 10
4.8559131088
 20
2.8338691661
 30
0.0
 10
4.8841495652
 20
2.8368890299
 30
0.0
 10
4.9000279567
 20
2.8390686434
 30
0.0
 10
4.9061652333
 20
2.8400674238
 30
0.0
  0
SPLINE
  5
25B
100
AcDbEntity
  8
0
100
AcDbSpline
 62
9
  6
CONTINUOUS
 70
0
 71
3
 72
18
 73
14
 74
0
 42
0.0000001
 43
0.0000001
 44
0.0000000001
 40
0.0
 40
0.0
 40
0.0
 40
0.0
 40
0.492139214
 40
0.6705344216
 40
0.8033244062
 40
0.8525467634
 40
0.8902957781
 40
0.9165841854
 40
0.9315402578
 40
0.9365777598
 40
0.9464993185
 40
0.9675292722
 40
1.0
 40
1.0
 40
1.0
 40
1.0
 10
4.9061652333
 20
2.8400674238
 30
0.0
 10
4.907171558
 20
2.8402311931
 30
0.0
 10
4.9085420044
 20
2.8404599645
 30
0.0
 10
4.910178115
 20
2.8407630542
 30
0.0
 10
4.9109112034
 20
2.8409075605
 30
0.0
 10
4.9113540169
 20
2.8410110509
 30
0.0
 10
4.9115839303
 20
2.8410628282
 30
0.0
 10
4.9117356383
 20
2.8411219816
 30
0.0
 10
4.9118337438
 20
2.8411365233
 30
0.0
 10
4.9118717869
 20
2.8412052496
 30
0.0
 10
4.9117603708
 20
2.8412101091
 30
0.0
 10
4.9116545637
 20
2.8412209394
 30
0.0
 10
4.9115343009
 20
2.8412171544
 30
0.0
 10
4.9114670581
 20
2.8412152568
 30
0.0
  0
SPLINE
  5
25C
100
AcDbEntity
  8
0
100
AcDbSpline
 62
9
  6
CONTINUOUS
 70
0
 71
3
 72
11
 73
7
 74
0
 42
0.0000001
 43
0.0000001
 44
0.0000000001
 40
0.0
 40
0.0
 40
0.0
 40
0.0
 40
0.3337934631
 40
0.6227662727
 40
0.8496305626
 40
1.0
 40
1.0
 40
1.0
 40
1.0
 10
4.7413077757
 20
2.8338841564
 30
0.0
 10
4.7316165791
 20
2.8342584617
 30
0.0
 10
4.7135443179
 20
2.8352144717
 30
0.0
 10
4.6889329985
 20
2.8371614816
 30
0.0
 10
4.6696693829
 20
2.8390666681
 30
0.0
 10
4.6587755127
 20
2.8402746104
 30
0.0
 10
4.6544307038
 20
2.8407338121
 30
0.0
  0
SPLINE
  5
25D
100
AcDbEntity
  8
0
100
AcDbSpline
 62
9
  6
CONTINUOUS
 70
0
 71
3
 72
23
 73
19
 74
0
 42
0.0000001
 43
0.0000001
 44
0.0000000001
 40
0.0
 40
0.0
 40
0.0
 40
0.0
 40
0.2146844818
 40
0.2991709073
 40
0.3682604273
 40
0.4218889337
 40
0.4600046612
 40
0.4732413109
 40
0.4826112822
 40
0.4881785077
 40
0.4904191351
 40
0.4935934526
 40
0.5003849991
 40
0.525504228
 40
0.5661383313
 40
0.622258909
 40
0.7806892279
 40
1.0
 40
1.0
 40
1.0
 40
1.0
 10
4.6544307038
 20
2.8407338121
 30
0.0
 10
4.6536001174
 20
2.8408215966
 30
0.0
 10
4.652442459
 20
2.8409422466
 30
0.0
 10
4.6510163125
 20
2.8410788095
 30
0.0
 10
4.6502131346
 20
2.8411483839
 30
0.0
 10
4.6495893558
 20
2.8411956922
 30
0.0
 10
4.6491808923
 20
2.8412142827
 30
0.0
 10
4.6489452605
 20
2.8412201495
 30
0.0
 10
4.6488346292
 20
2.8412097343
 30
0.0
 10
4.6487700914
 20
2.8412113902
 30
0.0
 10
4.6487268528
 20
2.8411768475
 30
0.0
 10
4.6487844278
 20
2.8411437547
 30
0.0
 10
4.6488951482
 20
2.8411010353
 30
0.0
 10
4.6491844153
 20
2.8410221872
 30
0.0
 10
4.6496375983
 20
2.840920723
 30
0.0
 10
4.6506163521
 20
2.8407224299
 30
0.0
 10
4.6522735747
 20
2.8404251342
 30
0.0
 10
4.6537245851
 20
2.8401826689
 30
0.0
 10
4.6545667832
 20
2.8400460282
 30
0.0
  0
SPLINE
  5
25E
100
AcDbEntity
  8
0
100
AcDbSpline
 62
9
  6
CONTINUOUS
 70
0
 71
3
 72
9
 73
5
 74
0
 42
0.0000001
 43
0.0000001
 44
0.0000000001
 40
0.0
 40
0.0
 40
0.0
 40
0.0
 40
0.4044729047
 40
1.0
 40
1.0
 40
1.0
 40
1.0
 10
4.6545667832
 20
2.8400460282
 30
0.0
 10
4.6584347825
 20
2.8394184724
 30
0.0
 10
4.6680242855
 20
2.8380317393
 30
0.0
 10
4.6776402028
 20
2.8368445444
 30
0.0
 10
4.6833737128
 20
2.8362008493
 30
0.0
  0
LINE
  5
25F
100
AcDbEntity
  8
0
100
AcDbLine
 62
9
  6
CONTINUOUS
 10
4.9114670581
 20
2.8412152568
 11
4.9060123809
 21
2.84071722
  0
SPLINE
  5
260
100
AcDbEntity
  8
0
100
AcDbSpline
 62
9
  6
CONTINUOUS
 70
0
 71
3
 72
11
 73
7
 74
0
 42
0.0000001
 43
0.0000001
 44
0.0000000001
 40
0.0
 40
0.0
 40
0.0
 40
0.0
 40
0.1512572572
 40
0.3782794867
 40
0.6668741048
 40
1.0
 40
1.0
 40
1.0
 40
1.0
 10
4.9060123809
 20
2.84071722
 30
0.0
 10
4.9016646428
 20
2.8402566738
 30
0.0
 10
4.8907969625
 20
2.8390529371
 30
0.0
 10
4.871613655
 20
2.8371574614
 30
0.0
 10
4.8471552902
 20
2.8352226682
 30
0.0
 10
4.8292069556
 20
2.8342698969
 30
0.0
 10
4.8195852961
 20
2.8338955015
 30
0.0
  0
ENDSEC
  0
SECTION
  2
OBJECTS
  0
DICTIONARY
  5
C
100
AcDbDictionary
280
0
281
1
  3
ACAD_GROUP
350
D
  3
ACAD_MLINESTYLE
350
17
  3
ACAD_LAYOUT
350
1A
  3
ACAD_PLOTSETTINGS
350
19
  3
ACAD_PLOTSTYLENAME
350
E
  0
DICTIONARY
  5
D
102
{ACAD_REACTORS
330
C
102
}
100
AcDbDictionary
280
0
281
1
  0
ACDBDICTIONARYWDFLT
  5
E
102
{ACAD_REACTORS
330
C
102
}
100
AcDbDictionary
281
1
  3
Normal
350
F
100
AcDbDictionaryWithDefault
340
F
  0
DICTIONARY
  5
17
102
{ACAD_REACTORS
330
C
102
}
100
AcDbDictionary
280
0
281
1
  3
Standard
350
18
  0
DICTIONARY
  5
19
102
{ACAD_REACTORS
330
C
102
}
100
AcDbDictionary
281
1
  0
DICTIONARY
  5
1A
102
{ACAD_REACTORS
330
C
102
}
100
AcDbDictionary
281
1
  3
Model
350
261
  3
Layout1
350
262
  0
ACDBPLACEHOLDER
  5
F
102
{ACAD_REACTORS
330
E
102
}
  0
MLINESTYLE
  5
18
102
{ACAD_REACTORS
330
17
102
}
100
AcDbMlineStyle
  2
STANDARD
 70
0
  3

 62
256
 51
90.0
 52
90.0
 71
2
 49
0.5
 62
256
  6
BYLAYER
 49
-0.5
 62
256
  6
BYLAYER
  0
LAYOUT
  5
261
102
{ACAD_REACTORS
330
1A
102
}
100
AcDbPlotSettings
  1

  2
none_device
  4
ANSI_A_(11.00_x_8.50_Inches)
  6

 40
0.0
 41
0.0
 42
0.0
 43
0.0
 44
279.4
 45
215.9
 46
0.0
 47
0.0
 48
0.0
 49
0.0
140
0.0
141
0.0
142
1.0
143
1.0
 70
1024
 72
0
 73
0
 74
0
  7

 75
0
147
1.0
148
0.0
149
0.0
100
AcDbLayout
  1
Model
 70
0
 71
0
 10
0.0
 20
0.0
 11
11.0
 21
8.5
 12
0.0
 22
0.0
 32
0.0
 14
0.0
 24
0.0
 34
0.0
 15
0.0
 25
0.0
 35
0.0
146
0.0
 13
0.0
 23
0.0
 33
0.0
 16
1.0
 26
0.0
 36
0.0
 17
0.0
 27
1.0
 37
0.0
 76
0
330
200
345
0
346
0
  0
LAYOUT
  5
262
102
{ACAD_REACTORS
330
1A
102
}
100
AcDbPlotSettings
  1

  2
none_device
  4
ANSI_A_(11.00_x_8.50_Inches)
  6

 40
0.0
 41
0.0
 42
0.0
 43
0.0
 44
279.4
 45
215.9
 46
0.0
 47
0.0
 48
0.0
 49
0.0
140
0.0
141
0.0
142
1.0
143
1.0
 70
0
 72
0
 73
0
 74
0
  7

 75
0
147
1.0
148
0.0
149
0.0
100
AcDbLayout
  1
Layout1
 70
0
 71
1
 10
0.0
 20
0.0
 11
11.0
 21
8.5
 12
0.0
 22
0.0
 32
0.0
 14
0.0
 24
0.0
 34
0.0
 15
0.0
 25
0.0
 35
0.0
146
0.0
 13
0.0
 23
0.0
 33
0.0
 16
1.0
 26
0.0
 36
0.0
 17
0.0
 27
1.0
 37
0.0
 76
0
330
201
345
0
346
0
  0
ENDSEC
  0
EOF
