999
DXF file: 82-27_top.dxf
999
Pro/ENGINEER 2013150 by Parametric Technology Corporation
  0
SECTION
  2
HEADER
  9
$ACADVER
  1
AC1021
  9
$DWGCODEPAGE
  3
ANSI_1252
  9
$EXTMAX
 10
11.0
 20
8.5
 30
0.0
  9
$EXTMIN
 10
0.0
 20
0.0
 30
0.0
  9
$LIMMIN
 10
0.0
 20
0.0
  9
$LIMMAX
 10
11.0
 20
8.5
  9
$VIEWCTR
 10
5.5
 20
4.25
  9
$VIEWSIZE
 40
8.5
  9
$CLAYER
  8
0
  9
$LTSCALE
 40
0.605
  9
$CELTYPE
  6
BYLAYER
  9
$DIMSCALE
 40
1.0
  9
$DIMASZ
 40
0.1
  9
$DIMEXO
 40
0.0625
  9
$DIMDLI
 40
0.418
  9
$DIMEXE
 40
0.125
  9
$DIMCEN
 40
0.099
  9
$DIMLFAC
 40
1.0
  9
$DIMBLK
  1
_FILLED
  9
$DIMTXT
 40
0.08
  9
$DIMTOL
 70
1
  9
$DIMLIM
 70
0
  9
$DIMTFAC
 40
1.0
  9
$DIMTP
 40
0.001
  9
$DIMTM
 40
0.001
  9
$DIMGAP
 40
0.09
  9
$DIMDSEP
 70
46
  9
$PDMODE
 70
3
  9
$PDSIZE
 40
0.06
  9
$HANDSEED
  5
242
  9
$TILEMODE
 70
1
  9
$MEASUREMENT
 70
0
  9
$INSUNITS
 70
1
  0
ENDSEC
  0
SECTION
  2
CLASSES
  0
CLASS
  1
ACDBDICTIONARYWDFLT
  2
AcDbDictionaryWithDefault
  3
AutoCAD 2000
 90
0
 91
1
280
0
281
0
  0
CLASS
  1
ACDBPLACEHOLDER
  2
AcDbPlaceHolder
  3
AutoCAD 2000
 90
0
 91
1
280
0
281
0
  0
CLASS
  1
LAYOUT
  2
AcDbLayout
  3
AutoCAD 2000
 90
0
 91
0
280
0
281
0
  0
ENDSEC
  0
SECTION
  2
TABLES
  0
TABLE
  2
VPORT
  5
8
100
AcDbSymbolTable
 70
2
  0
VPORT
  5
1F4
100
AcDbSymbolTableRecord
100
AcDbViewportTableRecord
  2
*ACTIVE
 70
0
 10
0.0
 20
0.0
 11
1.0
 21
1.0
 12
5.5
 22
4.25
 13
0.0
 23
0.0
 14
1.0
 24
1.0
 15
0.0
 25
0.0
 16
0.0
 26
0.0
 36
1.0
 17
0.0
 27
0.0
 37
0.0
 40
8.5
 41
1.2941176471
 42
50.0
 43
0.0
 44
0.0
 50
0.0
 51
0.0
 71
0
 72
100
 73
1
 74
1
 75
0
 76
0
 77
0
 78
0
  0
ENDTAB
  0
TABLE
  2
LTYPE
  5
5
100
AcDbSymbolTable
 70
6
  0
LTYPE
  5
14
100
AcDbSymbolTableRecord
100
AcDbLinetypeTableRecord
  2
BYBLOCK
 70
0
  3

 72
65
 73
0
 40
0.0
  0
LTYPE
  5
15
100
AcDbSymbolTableRecord
100
AcDbLinetypeTableRecord
  2
BYLAYER
 70
0
  3

 72
65
 73
0
 40
0.0
  0
LTYPE
  5
16
100
AcDbSymbolTableRecord
100
AcDbLinetypeTableRecord
  2
CONTINUOUS
 70
64
  3
Solid line
 72
65
 73
0
 40
0.0
  0
LTYPE
  5
1F5
100
AcDbSymbolTableRecord
100
AcDbLinetypeTableRecord
  2
CENTER
 70
64
  3
____ _ ____ _ ____ _ ____ _ ____ _ ____ _ ____
 72
65
 73
4
 40
0.6
 49
0.375
 74
0
 49
-0.075
 74
0
 49
0.075
 74
0
 49
-0.075
 74
0
  0
LTYPE
  5
1F6
100
AcDbSymbolTableRecord
100
AcDbLinetypeTableRecord
  2
HIDDEN
 70
64
  3
- - - - - - - - - - - - - - - - - - - -
 72
65
 73
2
 40
0.2
 49
0.1
 74
0
 49
-0.1
 74
0
  0
LTYPE
  5
1F7
100
AcDbSymbolTableRecord
100
AcDbLinetypeTableRecord
  2
PHANTOM
 70
64
  3
_____ _ _ _____ _ _ _____ _ _ _____
 72
65
 73
6
 40
0.8
 49
0.45
 74
0
 49
-0.05
 74
0
 49
0.1
 74
0
 49
-0.05
 74
0
 49
0.1
 74
0
 49
-0.05
 74
0
  0
LTYPE
  5
1F8
100
AcDbSymbolTableRecord
100
AcDbLinetypeTableRecord
  2
DOT
 70
64
  3
. . . . . . . . . . . . . . . . . . . .
 72
65
 73
2
 40
0.2
 49
0.1
 74
0
 49
-0.1
 74
0
  0
LTYPE
  5
1F9
100
AcDbSymbolTableRecord
100
AcDbLinetypeTableRecord
  2
DASHED
 70
64
  3
- - - - - - - - - - - - - - - - - - - -
 72
65
 73
2
 40
0.2
 49
0.1
 74
0
 49
-0.1
 74
0
  0
ENDTAB
  0
TABLE
  2
LAYER
  5
2
100
AcDbSymbolTable
 70
36
  0
LAYER
  5
10
100
AcDbSymbolTableRecord
100
AcDbLayerTableRecord
  2
0
 70
0
 62
7
  6
CONTINUOUS
370
-3
390
F
  0
LAYER
  5
1FA
100
AcDbSymbolTableRecord
100
AcDbLayerTableRecord
  2
DEFAULT_1
 70
0
 62
7
  6
CENTER
370
-3
390
F
  0
LAYER
  5
1FB
100
AcDbSymbolTableRecord
100
AcDbLayerTableRecord
  2
DEFAULT_2
 70
0
 62
8
  6
HIDDEN
370
-3
390
F
  0
LAYER
  5
1FC
100
AcDbSymbolTableRecord
100
AcDbLayerTableRecord
  2
DEFAULT_3
 70
0
 62
7
  6
PHANTOM
370
-3
390
F
  0
LAYER
  5
1FD
100
AcDbSymbolTableRecord
100
AcDbLayerTableRecord
  2
DEFAULT_DATUM_CURVES
 70
0
 62
7
  6
CONTINUOUS
370
-3
390
F
  0
ENDTAB
  0
TABLE
  2
STYLE
  5
3
100
AcDbSymbolTable
 70
1
  0
STYLE
  5
11
100
AcDbSymbolTableRecord
100
AcDbTextStyleTableRecord
  2
STANDARD
 70
0
 40
0.0
 41
0.8
 50
0.0
 71
0
 42
0.2
  3
txt
  4

  0
STYLE
  5
1FE
100
AcDbSymbolTableRecord
100
AcDbTextStyleTableRecord
  2
TEXTSTYLE_1
 70
0
 40
0.0
 41
0.8
 50
0.0
 71
0
 42
0.2
  3
gdt
  4

  0
ENDTAB
  0
TABLE
  2
VIEW
  5
6
100
AcDbSymbolTable
 70
0
  0
ENDTAB
  0
TABLE
  2
UCS
  5
7
100
AcDbSymbolTable
 70
0
  0
ENDTAB
  0
TABLE
  2
APPID
  5
9
100
AcDbSymbolTable
 70
1
  0
APPID
  5
1FF
100
AcDbSymbolTableRecord
100
AcDbRegAppTableRecord
  2
ACAD
 70
0
  0
ENDTAB
  0
TABLE
  2
BLOCK_RECORD
  5
1
100
AcDbSymbolTable
 70
0
  0
BLOCK_RECORD
  5
200
100
AcDbSymbolTableRecord
100
AcDbBlockTableRecord
  2
*Model_Space
  0
BLOCK_RECORD
  5
201
100
AcDbSymbolTableRecord
100
AcDbBlockTableRecord
  2
*Paper_Space
  0
ENDTAB
  0
TABLE
  2
DIMSTYLE
  5
A
100
AcDbSymbolTable
 70
1
100
AcDbDimStyleTable
 71
0
  0
DIMSTYLE
105
202
100
AcDbSymbolTableRecord
100
AcDbDimStyleTableRecord
  2
STANDARD
 70
0
  3

  4

 40
1.0
 41
0.1
 42
0.0625
 43
0.38
 44
0.125
 45
0.0
 46
0.0
 47
0.001
 48
0.001
140
0.08
141
0.09
142
0.0
143
25.4
144
1.0
145
0.0
146
1.0
147
0.09
 71
1.0
 72
0.0
 73
1
 74
1
 75
0
 76
0
 77
0
 78
4
170
0
171
2
172
0
173
0
174
0
175
0
176
0
177
0
178
0
270
2
271
3
272
3
273
2
274
2
275
0
280
0
281
0
282
0
283
1
284
4
285
0
286
0
287
3
288
0
340
11
278
46
  0
ENDTAB
  0
ENDSEC
  0
SECTION
  2
BLOCKS
  0
BLOCK
  5
20
100
AcDbEntity
  8
0
100
AcDbBlockBegin
  2
*Model_Space
 70
0
 10
0.0
 20
0.0
 30
0.0
  3
*Model_Space
  1

  0
ENDBLK
  5
21
100
AcDbEntity
  8
0
100
AcDbBlockEnd
  0
BLOCK
  5
1C
100
AcDbEntity
  8
0
100
AcDbBlockBegin
  2
*Paper_Space
 70
0
 10
0.0
 20
0.0
 30
0.0
  3
*Paper_Space
  1

  0
ENDBLK
  5
1D
100
AcDbEntity
  8
0
100
AcDbBlockEnd
  0
ENDSEC
  0
SECTION
  2
ENTITIES
  0
LINE
  5
203
100
AcDbEntity
  8
0
100
AcDbLine
 62
7
  6
CONTINUOUS
 10
0.0
 20
0.0
 11
0.0
 21
8.5
  0
LINE
  5
204
100
AcDbEntity
  8
0
100
AcDbLine
 62
7
  6
CONTINUOUS
 10
0.0
 20
0.0
 11
11.0
 21
0.0
  0
LINE
  5
205
100
AcDbEntity
  8
0
100
AcDbLine
 62
7
  6
CONTINUOUS
 10
0.0
 20
8.5
 11
11.0
 21
8.5
  0
LINE
  5
206
100
AcDbEntity
  8
0
100
AcDbLine
 62
7
  6
CONTINUOUS
 10
11.0
 20
0.0
 11
11.0
 21
8.5
  0
LINE
  5
207
100
AcDbEntity
  8
0
100
AcDbLine
 62
9
  6
CONTINUOUS
 10
2.5362056049
 20
2.6959046082
 11
2.5362056049
 21
2.3809439782
  0
LINE
  5
208
100
AcDbEntity
  8
0
100
AcDbLine
 62
7
  6
CONTINUOUS
 10
4.3866091708
 20
2.1447235058
 11
5.1739910153
 21
2.1447235058
  0
LINE
  5
209
100
AcDbEntity
  8
0
100
AcDbLine
 62
9
  6
CONTINUOUS
 10
4.3472292269
 20
2.1840935845
 11
5.2133709592
 21
2.1840935845
  0
LINE
  5
20A
100
AcDbEntity
  8
0
100
AcDbLine
 62
7
  6
CONTINUOUS
 10
4.3534388757
 20
2.3809439782
 11
2.2212449749
 21
2.3809439782
  0
LINE
  5
20B
100
AcDbEntity
  8
0
100
AcDbLine
 62
7
  6
CONTINUOUS
 10
5.207161334
 20
2.3809439782
 11
7.3393552112
 21
2.3809439782
  0
LINE
  5
20C
100
AcDbEntity
  8
0
100
AcDbLine
 62
7
  6
CONTINUOUS
 10
3.8350776241
 20
4.3884744295
 11
3.8319824286
 21
4.7431487026
  0
LINE
  5
20D
100
AcDbEntity
  8
0
100
AcDbLine
 62
7
  6
CONTINUOUS
 10
4.3534388768
 20
2.6959046082
 11
2.2212449749
 21
2.6959046082
  0
LINE
  5
20E
100
AcDbEntity
  8
0
100
AcDbLine
 62
7
  6
CONTINUOUS
 10
5.2071613402
 20
2.6959046082
 11
7.3393552112
 21
2.6959046082
  0
LINE
  5
20F
100
AcDbEntity
  8
0
100
AcDbLine
 62
7
  6
CONTINUOUS
 10
4.3481402137
 20
2.7090728076
 11
4.348705932
 21
2.7077086299
  0
LWPOLYLINE
  5
210
100
AcDbEntity
  8
0
100
AcDbPolyline
 62
7
  6
CONTINUOUS
 90
4
 70
0
 10
4.348706358
 20
2.7077075712
 10
4.3504361267
 20
2.7034773604
 10
4.351732441
 20
2.7002464651
 10
4.3532928548
 20
2.6962838399
  0
LWPOLYLINE
  5
211
100
AcDbEntity
  8
0
100
AcDbPolyline
 62
7
  6
CONTINUOUS
 90
37
 70
0
 10
4.3532928548
 20
2.6962838399
 10
4.3550985531
 20
2.6915933191
 10
4.3571169843
 20
2.6861997037
 10
4.3593108711
 20
2.6801379168
 10
4.361644134
 20
2.6734352299
 10
4.3640769356
 20
2.6661188964
 10
4.3665574501
 20
2.6582521614
 10
4.3690424844
 20
2.6498744304
 10
4.3714890613
 20
2.6410218095
 10
4.373844227
 20
2.6317725649
 10
4.3760644489
 20
2.6221850856
 10
4.3781157231
 20
2.6122936785
 10
4.3799617118
 20
2.6021520178
 10
4.3815679404
 20
2.5918288465
 10
4.3829145228
 20
2.5813565561
 10
4.3839856256
 20
2.5707347901
 10
4.3847603334
 20
2.5600157641
 10
4.3852297976
 20
2.5492499154
 10
4.3853886666
 20
2.5384317205
 10
4.3852302435
 20
2.5276136173
 10
4.3847612016
 20
2.5168480283
 10
4.3839869761
 20
2.5061294017
 10
4.382916408
 20
2.4955083285
 10
4.3815703723
 20
2.4850368641
 10
4.3799646832
 20
2.4747141771
 10
4.3781191956
 20
2.4645726879
 10
4.3760683309
 20
2.4546811574
 10
4.3738483214
 20
2.4450928541
 10
4.3714930873
 20
2.4358419273
 10
4.369046202
 20
2.4269871177
 10
4.3665607094
 20
2.4186070665
 10
4.36407961
 20
2.4107379388
 10
4.3616461326
 20
2.4034192202
 10
4.359312218
 20
2.3967144585
 10
4.3571177362
 20
2.3906509263
 10
4.3550987945
 20
2.385255901
 10
4.3532950161
 20
2.3805702783
  0
LINE
  5
212
100
AcDbEntity
  8
0
100
AcDbLine
 62
7
  6
CONTINUOUS
 10
4.3472292269
 20
4.3494479152
 11
4.3472292269
 21
2.7136211436
  0
LINE
  5
213
100
AcDbEntity
  8
0
100
AcDbLine
 62
7
  6
CONTINUOUS
 10
4.3472292269
 20
2.3632274428
 11
4.3472292269
 21
2.1840935845
  0
LWPOLYLINE
  5
214
100
AcDbEntity
  8
0
100
AcDbPolyline
 62
7
  6
CONTINUOUS
 90
3
 70
0
 10
4.3532950161
 20
2.3805702783
 10
4.351734149
 20
2.3766064434
 10
4.3504374245
 20
2.3733744083
  0
LINE
  5
215
100
AcDbEntity
  8
0
100
AcDbLine
 62
7
  6
CONTINUOUS
 10
4.3504374245
 20
2.3733744083
 11
4.3487061332
 21
2.3691404385
  0
LINE
  5
216
100
AcDbEntity
  8
0
100
AcDbLine
 62
7
  6
CONTINUOUS
 10
4.3487061557
 20
2.3691405303
 11
4.3481407553
 21
2.3677771191
  0
LINE
  5
217
100
AcDbEntity
  8
0
100
AcDbLine
 62
7
  6
CONTINUOUS
 10
5.2124599885
 20
2.3677757827
 11
5.2118940261
 21
2.3691405102
  0
LWPOLYLINE
  5
218
100
AcDbEntity
  8
0
100
AcDbPolyline
 62
7
  6
CONTINUOUS
 90
42
 70
0
 10
5.2118940261
 20
2.3691405102
 10
5.2101635477
 20
2.3733724904
 10
5.208867275
 20
2.3766033042
 10
5.2073070316
 20
2.3805655149
 10
5.2055039767
 20
2.3852491218
 10
5.2034857951
 20
2.3906418326
 10
5.2012920742
 20
2.3967029095
 10
5.1989588562
 20
2.4034051406
 10
5.1965259644
 20
2.4107213169
 10
5.194045276
 20
2.4185881285
 10
5.1915599931
 20
2.4269661778
 10
5.1891130979
 20
2.4358193652
 10
5.1867575927
 20
2.445069302
 10
5.184537035
 20
2.4546575743
 10
5.1824854385
 20
2.4645498938
 10
5.1806391632
 20
2.4746924969
 10
5.1790326897
 20
2.4850165822
 10
5.1776859104
 20
2.4954897788
 10
5.1766146767
 20
2.5061124669
 10
5.1758398814
 20
2.5168324032
 10
5.1753703615
 20
2.5275991256
 10
5.1752115195
 20
2.5384181942
 10
5.1753700118
 20
2.5492371598
 10
5.175839138
 20
2.5600035831
 10
5.1766135424
 20
2.5707230451
 10
5.177684335
 20
2.5813449784
 10
5.179030597
 20
2.5918173137
 10
5.1806365861
 20
2.6021408603
 10
5.1824824328
 20
2.6122832375
 10
5.1845336629
 20
2.6221756532
 10
5.1867540466
 20
2.6317647218
 10
5.1891096623
 20
2.6410162997
 10
5.1915568982
 20
2.6498716194
 10
5.1940426546
 20
2.6582519022
 10
5.1965239281
 20
2.6661209918
 10
5.1989574823
 20
2.6734394105
 10
5.2012913142
 20
2.6801435381
 10
5.2034855759
 20
2.6862061626
 10
5.2055042091
 20
2.6916000735
 10
5.2073075414
 20
2.6962843777
 10
5.2088679096
 20
2.7002468817
 10
5.210164184
 20
2.7034776655
  0
LINE
  5
219
100
AcDbEntity
  8
0
100
AcDbLine
 62
7
  6
CONTINUOUS
 10
5.2133709592
 20
4.3494479152
 11
5.2133709592
 21
2.7136211436
  0
LINE
  5
21A
100
AcDbEntity
  8
0
100
AcDbLine
 62
7
  6
CONTINUOUS
 10
5.2133709592
 20
2.3632274428
 11
5.2133709592
 21
2.1840935845
  0
LINE
  5
21B
100
AcDbEntity
  8
0
100
AcDbLine
 62
7
  6
CONTINUOUS
 10
5.210164184
 20
2.7034776655
 11
5.2118942846
 21
2.7077087096
  0
LINE
  5
21C
100
AcDbEntity
  8
0
100
AcDbLine
 62
7
  6
CONTINUOUS
 10
5.2118942846
 20
2.7077087096
 11
5.212459434
 21
2.7090714751
  0
LINE
  5
21D
100
AcDbEntity
  8
0
100
AcDbLine
 62
7
  6
CONTINUOUS
 10
5.725522562
 20
4.3884744295
 11
5.7286177575
 21
4.7431487026
  0
LINE
  5
21E
100
AcDbEntity
  8
0
100
AcDbLine
 62
7
  6
CONTINUOUS
 10
5.6861539824
 20
4.3494479152
 11
3.8744462037
 21
4.3494479152
  0
LINE
  5
21F
100
AcDbEntity
  8
0
100
AcDbLine
 62
9
  6
CONTINUOUS
 10
3.8350776241
 20
4.3884744295
 11
5.725522562
 21
4.3884744295
  0
LINE
  5
220
100
AcDbEntity
  8
0
100
AcDbLine
 62
7
  6
CONTINUOUS
 10
5.7286177575
 20
4.7431487026
 11
3.8319824286
 21
4.7431487026
  0
LINE
  5
221
100
AcDbEntity
  8
0
100
AcDbLine
 62
9
  6
CONTINUOUS
 10
7.1621898568
 20
2.3809439782
 11
7.1621898568
 21
2.6959046081
  0
LINE
  5
222
100
AcDbEntity
  8
0
100
AcDbLine
 62
7
  6
CONTINUOUS
 10
7.2606150537
 20
2.4793698807
 11
7.2606150537
 21
2.5974787057
  0
ARC
  5
223
100
AcDbEntity
  8
0
100
AcDbCircle
 62
9
  6
CONTINUOUS
 10
3.7795521961
 20
2.6058984908
 40
0.6173726142
100
AcDbArc
 50
337.7396798113
 51
338.2686333385
  0
ARC
  5
224
100
AcDbEntity
  8
0
100
AcDbCircle
 62
9
  6
CONTINUOUS
 10
5.7806010617
 20
2.4711310061
 40
0.6168904833
100
AcDbArc
 50
157.7403082994
 51
158.2689113535
  0
ARC
  5
225
100
AcDbEntity
  8
0
100
AcDbCircle
 62
9
  6
CONTINUOUS
 10
3.7810102568
 20
2.4715766242
 40
0.6157861261
100
AcDbArc
 50
21.7255720221
 51
22.2113621754
  0
ARC
  5
226
100
AcDbEntity
  8
0
100
AcDbCircle
 62
9
  6
CONTINUOUS
 10
5.7795021455
 20
2.6052367094
 40
0.6156915338
100
AcDbArc
 50
201.7255880121
 51
202.2119771209
  0
ARC
  5
227
100
AcDbEntity
  8
0
100
AcDbCircle
 62
9
  6
CONTINUOUS
 10
3.8040999415
 20
2.4809538153
 40
0.5908649917
100
AcDbArc
 50
22.2159295523
 51
22.8485673667
  0
ARC
  5
228
100
AcDbEntity
  8
0
100
AcDbCircle
 62
9
  6
CONTINUOUS
 10
5.7564345093
 20
2.5958684075
 40
0.5907941726
100
AcDbArc
 50
202.2165607489
 51
202.8490198197
  0
ARC
  5
229
100
AcDbEntity
  8
0
100
AcDbCircle
 62
9
  6
CONTINUOUS
 10
3.8076064687
 20
2.5944215041
 40
0.587061504
100
AcDbArc
 50
337.3990726145
 51
337.7391181243
  0
ARC
  5
22A
100
AcDbEntity
  8
0
100
AcDbCircle
 62
9
  6
CONTINUOUS
 10
5.7528134379
 20
2.4824983648
 40
0.586867678
100
AcDbArc
 50
157.3995180777
 51
157.7397349321
  0
ARC
  5
22B
100
AcDbEntity
  8
0
100
AcDbCircle
 62
7
  6
CONTINUOUS
 10
7.3393552112
 20
2.5384242932
 40
0.157480315
100
AcDbArc
 50
230.2170838151
 51
129.7829161849
  0
ARC
  5
22C
100
AcDbEntity
  8
0
100
AcDbCircle
 62
7
  6
CONTINUOUS
 10
2.2212449749
 20
2.5384242932
 40
0.157480315
100
AcDbArc
 50
90.0
 51
270.0
  0
ARC
  5
22D
100
AcDbEntity
  8
0
100
AcDbCircle
 62
7
  6
CONTINUOUS
 10
7.1621898568
 20
2.5974794113
 40
0.0984251969
100
AcDbArc
 50
0.0002063237
 51
89.9999999998
  0
ARC
  5
22E
100
AcDbEntity
  8
0
100
AcDbCircle
 62
7
  6
CONTINUOUS
 10
7.1621898568
 20
2.4793691751
 40
0.0984251969
100
AcDbArc
 50
270.0000000002
 51
359.9997936763
  0
CIRCLE
  5
22F
100
AcDbEntity
  8
0
100
AcDbCircle
 62
9
  6
CONTINUOUS
 10
7.3393552112
 20
2.5384242932
 40
0.0590551772
  0
ARC
  5
230
100
AcDbEntity
  8
0
100
AcDbCircle
 62
7
  6
CONTINUOUS
 10
3.8744462037
 20
4.388817994
 40
0.0393700787
100
AcDbArc
 50
180.5000001307
 51
270.0
  0
ARC
  5
231
100
AcDbEntity
  8
0
100
AcDbCircle
 62
7
  6
CONTINUOUS
 10
5.6861539824
 20
4.388817994
 40
0.0393700787
100
AcDbArc
 50
269.9999863968
 51
359.4999998693
  0
ARC
  5
232
100
AcDbEntity
  8
0
100
AcDbCircle
 62
7
  6
CONTINUOUS
 10
4.3865993057
 20
2.1840935845
 40
0.0393700787
100
AcDbArc
 50
180.0
 51
270.0
  0
ARC
  5
233
100
AcDbEntity
  8
0
100
AcDbCircle
 62
7
  6
CONTINUOUS
 10
5.1740008805
 20
2.1840935845
 40
0.0393700787
100
AcDbArc
 50
269.9999919765
 51
360.0
  0
SPLINE
  5
234
100
AcDbEntity
  8
0
100
AcDbSpline
 62
7
  6
CONTINUOUS
 70
0
 71
3
 72
9
 73
5
 74
0
 42
0.0000001
 43
0.0000001
 44
0.0000000001
 40
0.0
 40
0.0
 40
0.0
 40
0.0
 40
0.2566916921
 40
1.0
 40
1.0
 40
1.0
 40
1.0
 10
5.2124600607
 20
2.709072826
 30
0.0
 10
5.212613641
 20
2.7094403936
 30
0.0
 10
5.213136418
 20
2.7109028423
 30
0.0
 10
5.2133706954
 20
2.7124675951
 30
0.0
 10
5.2133706424
 20
2.7136211436
 30
0.0
  0
SPLINE
  5
235
100
AcDbEntity
  8
0
100
AcDbSpline
 62
7
  6
CONTINUOUS
 70
0
 71
3
 72
9
 73
5
 74
0
 42
0.0000001
 43
0.0000001
 44
0.0000000001
 40
0.0
 40
0.0
 40
0.0
 40
0.0
 40
0.2566916611
 40
1.0
 40
1.0
 40
1.0
 40
1.0
 10
5.212460057
 20
2.3677758113
 30
0.0
 10
5.2126136431
 20
2.3674082406
 30
0.0
 10
5.2131364408
 20
2.3659457781
 30
0.0
 10
5.2133707324
 20
2.3643810061
 30
0.0
 10
5.2133706854
 20
2.3632274428
 30
0.0
  0
SPLINE
  5
236
100
AcDbEntity
  8
0
100
AcDbSpline
 62
7
  6
CONTINUOUS
 70
0
 71
3
 72
9
 73
5
 74
0
 42
0.0000001
 43
0.0000001
 44
0.0000000001
 40
0.0
 40
0.0
 40
0.0
 40
0.0
 40
0.2566916298
 40
1.0
 40
1.0
 40
1.0
 40
1.0
 10
4.3481401118
 20
2.3677757699
 30
0.0
 10
4.3479865287
 20
2.3674082022
 30
0.0
 10
4.347463741
 20
2.3659457519
 30
0.0
 10
4.347229454
 20
2.3643809951
 30
0.0
 10
4.3472295011
 20
2.3632274428
 30
0.0
  0
SPLINE
  5
237
100
AcDbEntity
  8
0
100
AcDbSpline
 62
7
  6
CONTINUOUS
 70
0
 71
3
 72
9
 73
5
 74
0
 42
0.0000001
 43
0.0000001
 44
0.0000000001
 40
0.0
 40
0.0
 40
0.0
 40
0.0
 40
0.2566917302
 40
1.0
 40
1.0
 40
1.0
 40
1.0
 10
4.3481401451
 20
2.7090727789
 30
0.0
 10
4.3479865615
 20
2.7094403499
 30
0.0
 10
4.3474637734
 20
2.7109028126
 30
0.0
 10
4.3472294911
 20
2.7124675827
 30
0.0
 10
4.3472295442
 20
2.7136211436
 30
0.0
  0
LINE
  5
238
100
AcDbEntity
  8
0
100
AcDbLine
 62
9
  6
CONTINUOUS
 10
4.3472292269
 20
2.3632274428
 11
4.3495839956
 21
2.3688077415
  0
SPLINE
  5
239
100
AcDbEntity
  8
0
100
AcDbSpline
 62
9
  6
CONTINUOUS
 70
0
 71
3
 72
13
 73
9
 74
0
 42
0.0000001
 43
0.0000001
 44
0.0000000001
 40
0.0
 40
0.0
 40
0.0
 40
0.0
 40
0.2020487049
 40
0.3442129635
 40
0.4999911638
 40
0.6557549338
 40
0.7978963281
 40
1.0
 40
1.0
 40
1.0
 40
1.0
 10
4.3530481472
 20
2.3773129732
 30
0.0
 10
4.3612994132
 20
2.3980121451
 30
0.0
 10
4.3733908341
 20
2.4341423552
 30
0.0
 10
4.3841515997
 20
2.4883326766
 30
0.0
 10
4.3876642173
 20
2.5384096697
 30
0.0
 10
4.3841562254
 20
2.5884844199
 30
0.0
 10
4.3733992561
 20
2.6426776357
 30
0.0
 10
4.3613064115
 20
2.6788110333
 30
0.0
 10
4.3530555273
 20
2.6995168831
 30
0.0
  0
LINE
  5
23A
100
AcDbEntity
  8
0
100
AcDbLine
 62
9
  6
CONTINUOUS
 10
4.3486023209
 20
2.7103848446
 11
4.3473817784
 21
2.7132650196
  0
LINE
  5
23B
100
AcDbEntity
  8
0
100
AcDbLine
 62
9
  6
CONTINUOUS
 10
4.3473817784
 20
2.7132650196
 11
4.3472292262
 21
2.7136211468
  0
LINE
  5
23C
100
AcDbEntity
  8
0
100
AcDbLine
 62
9
  6
CONTINUOUS
 10
5.2133709592
 20
2.7136211436
 11
5.2110130985
 21
2.7080334256
  0
SPLINE
  5
23D
100
AcDbEntity
  8
0
100
AcDbSpline
 62
9
  6
CONTINUOUS
 70
0
 71
3
 72
13
 73
9
 74
0
 42
0.0000001
 43
0.0000001
 44
0.0000000001
 40
0.0
 40
0.0
 40
0.0
 40
0.0
 40
0.2020503653
 40
0.3442152885
 40
0.4999939171
 40
0.6557576943
 40
0.7978981569
 40
1.0
 40
1.0
 40
1.0
 40
1.0
 10
5.2075518682
 20
2.6995352316
 30
0.0
 10
5.1993006267
 20
2.6788358521
 30
0.0
 10
5.1872091976
 20
2.6427053858
 30
0.0
 10
5.1764483224
 20
2.5885147624
 30
0.0
 10
5.1729360683
 20
2.5384376185
 30
0.0
 10
5.1764440943
 20
2.4883629341
 30
0.0
 10
5.1872011708
 20
2.4341700416
 30
0.0
 10
5.199293999
 20
2.3980369671
 30
0.0
 10
5.2075448119
 20
2.3773313053
 30
0.0
  0
LINE
  5
23E
100
AcDbEntity
  8
0
100
AcDbLine
 62
9
  6
CONTINUOUS
 10
5.2119992037
 20
2.3664605777
 11
5.2132186269
 21
2.3635830638
  0
LINE
  5
23F
100
AcDbEntity
  8
0
100
AcDbLine
 62
9
  6
CONTINUOUS
 10
5.2132186269
 20
2.3635830638
 11
5.2133709599
 21
2.3632274398
  0
ENDSEC
  0
SECTION
  2
OBJECTS
  0
DICTIONARY
  5
C
100
AcDbDictionary
280
0
281
1
  3
ACAD_GROUP
350
D
  3
ACAD_MLINESTYLE
350
17
  3
ACAD_LAYOUT
350
1A
  3
ACAD_PLOTSETTINGS
350
19
  3
ACAD_PLOTSTYLENAME
350
E
  0
DICTIONARY
  5
D
102
{ACAD_REACTORS
330
C
102
}
100
AcDbDictionary
280
0
281
1
  0
ACDBDICTIONARYWDFLT
  5
E
102
{ACAD_REACTORS
330
C
102
}
100
AcDbDictionary
281
1
  3
Normal
350
F
100
AcDbDictionaryWithDefault
340
F
  0
DICTIONARY
  5
17
102
{ACAD_REACTORS
330
C
102
}
100
AcDbDictionary
280
0
281
1
  3
Standard
350
18
  0
DICTIONARY
  5
19
102
{ACAD_REACTORS
330
C
102
}
100
AcDbDictionary
281
1
  0
DICTIONARY
  5
1A
102
{ACAD_REACTORS
330
C
102
}
100
AcDbDictionary
281
1
  3
Model
350
240
  3
Layout1
350
241
  0
ACDBPLACEHOLDER
  5
F
102
{ACAD_REACTORS
330
E
102
}
  0
MLINESTYLE
  5
18
102
{ACAD_REACTORS
330
17
102
}
100
AcDbMlineStyle
  2
STANDARD
 70
0
  3

 62
256
 51
90.0
 52
90.0
 71
2
 49
0.5
 62
256
  6
BYLAYER
 49
-0.5
 62
256
  6
BYLAYER
  0
LAYOUT
  5
240
102
{ACAD_REACTORS
330
1A
102
}
100
AcDbPlotSettings
  1

  2
none_device
  4
ANSI_A_(11.00_x_8.50_Inches)
  6

 40
0.0
 41
0.0
 42
0.0
 43
0.0
 44
279.4
 45
215.9
 46
0.0
 47
0.0
 48
0.0
 49
0.0
140
0.0
141
0.0
142
1.0
143
1.0
 70
1024
 72
0
 73
0
 74
0
  7

 75
0
147
1.0
148
0.0
149
0.0
100
AcDbLayout
  1
Model
 70
0
 71
0
 10
0.0
 20
0.0
 11
11.0
 21
8.5
 12
0.0
 22
0.0
 32
0.0
 14
0.0
 24
0.0
 34
0.0
 15
0.0
 25
0.0
 35
0.0
146
0.0
 13
0.0
 23
0.0
 33
0.0
 16
1.0
 26
0.0
 36
0.0
 17
0.0
 27
1.0
 37
0.0
 76
0
330
200
345
0
346
0
  0
LAYOUT
  5
241
102
{ACAD_REACTORS
330
1A
102
}
100
AcDbPlotSettings
  1

  2
none_device
  4
ANSI_A_(11.00_x_8.50_Inches)
  6

 40
0.0
 41
0.0
 42
0.0
 43
0.0
 44
279.4
 45
215.9
 46
0.0
 47
0.0
 48
0.0
 49
0.0
140
0.0
141
0.0
142
1.0
143
1.0
 70
0
 72
0
 73
0
 74
0
  7

 75
0
147
1.0
148
0.0
149
0.0
100
AcDbLayout
  1
Layout1
 70
0
 71
1
 10
0.0
 20
0.0
 11
11.0
 21
8.5
 12
0.0
 22
0.0
 32
0.0
 14
0.0
 24
0.0
 34
0.0
 15
0.0
 25
0.0
 35
0.0
146
0.0
 13
0.0
 23
0.0
 33
0.0
 16
1.0
 26
0.0
 36
0.0
 17
0.0
 27
1.0
 37
0.0
 76
0
330
201
345
0
346
0
  0
ENDSEC
  0
EOF
