999
DXF file: E:\BT Custom\CADOUTPUT\_FRONT.dxf
999
Pro/ENGINEER 2018400 by Parametric Technology Corporation
  0
SECTION
  2
HEADER
  9
$ACADVER
  1
AC1018
  9
$DWGCODEPAGE
  3
ANSI_1252
  9
$EXTMAX
 10
22.0
 20
17.0
 30
0.0
  9
$EXTMIN
 10
0.0
 20
0.0
 30
0.0
  9
$LIMMIN
 10
0.0
 20
0.0
  9
$LIMMAX
 10
22.0
 20
17.0
  9
$VIEWCTR
 10
11.0
 20
8.5
  9
$VIEWSIZE
 40
17.0
  9
$CLAYER
  8
0
  9
$LTSCALE
 40
1.21
  9
$CELTYPE
  6
BYLAYER
  9
$DIMSCALE
 40
1.0
  9
$DIMASZ
 40
0.1
  9
$DIMEXO
 40
0.0625
  9
$DIMDLI
 40
0.836
  9
$DIMEXE
 40
0.125
  9
$DIMCEN
 40
0.198
  9
$DIMLFAC
 40
1.0
  9
$DIMBLK
  1
_FILLED
  9
$DIMALT
 70
1
  9
$DIMALTD
 70
2
  9
$DIMALTTD
 70
2
  9
$DIMALTF
 40
25.4
  9
$DIMTXT
 40
0.08
  9
$DIMTOL
 70
1
  9
$DIMLIM
 70
0
  9
$DIMTFAC
 40
1.0
  9
$DIMTP
 40
0.001
  9
$DIMTM
 40
0.001
  9
$DIMGAP
 40
0.09
  9
$DIMDSEP
 70
46
  9
$AUNITS
 70
0
  9
$PDMODE
 70
3
  9
$PDSIZE
 40
0.06
  9
$HANDSEED
  5
4B7
  9
$TILEMODE
 70
1
  9
$MEASUREMENT
 70
0
  9
$INSUNITS
 70
1
  0
ENDSEC
  0
SECTION
  2
CLASSES
  0
CLASS
  1
ACDBDICTIONARYWDFLT
  2
AcDbDictionaryWithDefault
  3
AutoCAD 2000
 90
0
 91
1
280
0
281
0
  0
CLASS
  1
ACDBPLACEHOLDER
  2
AcDbPlaceHolder
  3
AutoCAD 2000
 90
0
 91
1
280
0
281
0
  0
CLASS
  1
LAYOUT
  2
AcDbLayout
  3
AutoCAD 2000
 90
0
 91
0
280
0
281
0
  0
ENDSEC
  0
SECTION
  2
TABLES
  0
TABLE
  2
VPORT
  5
8
100
AcDbSymbolTable
 70
2
  0
VPORT
  5
1F4
100
AcDbSymbolTableRecord
100
AcDbViewportTableRecord
  2
*ACTIVE
 70
0
 10
0.0
 20
0.0
 11
1.0
 21
1.0
 12
11.0
 22
8.5
 13
0.0
 23
0.0
 14
1.0
 24
1.0
 15
0.0
 25
0.0
 16
0.0
 26
0.0
 36
1.0
 17
0.0
 27
0.0
 37
0.0
 40
17.0
 41
1.2941176471
 42
50.0
 43
0.0
 44
0.0
 50
0.0
 51
0.0
 71
0
 72
100
 73
1
 74
1
 75
0
 76
0
 77
0
 78
0
  0
ENDTAB
  0
TABLE
  2
LTYPE
  5
5
100
AcDbSymbolTable
 70
6
  0
LTYPE
  5
14
100
AcDbSymbolTableRecord
100
AcDbLinetypeTableRecord
  2
BYBLOCK
 70
0
  3

 72
65
 73
0
 40
0.0
  0
LTYPE
  5
15
100
AcDbSymbolTableRecord
100
AcDbLinetypeTableRecord
  2
BYLAYER
 70
0
  3

 72
65
 73
0
 40
0.0
  0
LTYPE
  5
16
100
AcDbSymbolTableRecord
100
AcDbLinetypeTableRecord
  2
CONTINUOUS
 70
64
  3
Solid line
 72
65
 73
0
 40
0.0
  0
LTYPE
  5
1F5
100
AcDbSymbolTableRecord
100
AcDbLinetypeTableRecord
  2
CENTER
 70
64
  3
____ _ ____ _ ____ _ ____ _ ____ _ ____ _ ____
 72
65
 73
4
 40
0.6
 49
0.375
 74
0
 49
-0.075
 74
0
 49
0.075
 74
0
 49
-0.075
 74
0
  0
LTYPE
  5
1F6
100
AcDbSymbolTableRecord
100
AcDbLinetypeTableRecord
  2
HIDDEN
 70
64
  3
- - - - - - - - - - - - - - - - - - - -
 72
65
 73
2
 40
0.2
 49
0.1
 74
0
 49
-0.1
 74
0
  0
LTYPE
  5
1F7
100
AcDbSymbolTableRecord
100
AcDbLinetypeTableRecord
  2
PHANTOM
 70
64
  3
_____ _ _ _____ _ _ _____ _ _ _____
 72
65
 73
6
 40
0.8
 49
0.45
 74
0
 49
-0.05
 74
0
 49
0.1
 74
0
 49
-0.05
 74
0
 49
0.1
 74
0
 49
-0.05
 74
0
  0
LTYPE
  5
1F8
100
AcDbSymbolTableRecord
100
AcDbLinetypeTableRecord
  2
DOT
 70
64
  3
. . . . . . . . . . . . . . . . . . . .
 72
65
 73
2
 40
0.2
 49
0.1
 74
0
 49
-0.1
 74
0
  0
LTYPE
  5
1F9
100
AcDbSymbolTableRecord
100
AcDbLinetypeTableRecord
  2
DASHED
 70
64
  3
- - - - - - - - - - - - - - - - - - - -
 72
65
 73
2
 40
0.2
 49
0.1
 74
0
 49
-0.1
 74
0
  0
ENDTAB
  0
TABLE
  2
LAYER
  5
2
100
AcDbSymbolTable
 70
36
  0
LAYER
  5
10
100
AcDbSymbolTableRecord
100
AcDbLayerTableRecord
  2
0
 70
0
 62
7
  6
CONTINUOUS
370
-3
390
F
  0
LAYER
  5
1FA
100
AcDbSymbolTableRecord
100
AcDbLayerTableRecord
  2
DEFAULT_1
 70
0
 62
7
  6
CENTER
370
-3
390
F
  0
LAYER
  5
1FB
100
AcDbSymbolTableRecord
100
AcDbLayerTableRecord
  2
DEFAULT_2
 70
0
 62
8
  6
HIDDEN
370
-3
390
F
  0
LAYER
  5
1FC
100
AcDbSymbolTableRecord
100
AcDbLayerTableRecord
  2
DEFAULT_3
 70
0
 62
7
  6
PHANTOM
370
-3
390
F
  0
LAYER
  5
1FD
100
AcDbSymbolTableRecord
100
AcDbLayerTableRecord
  2
ALL_FEATURES
 70
0
 62
7
  6
CONTINUOUS
370
-3
390
F
  0
LAYER
  5
1FE
100
AcDbSymbolTableRecord
100
AcDbLayerTableRecord
  2
AXES_FEATURES
 70
0
 62
7
  6
CONTINUOUS
370
-3
390
F
  0
LAYER
  5
1FF
100
AcDbSymbolTableRecord
100
AcDbLayerTableRecord
  2
DEFAULT_COORDINATE_SYSTEM
 70
0
 62
7
  6
CONTINUOUS
370
-3
390
F
  0
LAYER
  5
200
100
AcDbSymbolTableRecord
100
AcDbLayerTableRecord
  2
DEFAULT_DATUM_AXES
 70
0
 62
7
  6
CONTINUOUS
370
-3
390
F
  0
LAYER
  5
201
100
AcDbSymbolTableRecord
100
AcDbLayerTableRecord
  2
DEFAULT_DATUM_PLANES
 70
0
 62
7
  6
CONTINUOUS
370
-3
390
F
  0
LAYER
  5
202
100
AcDbSymbolTableRecord
100
AcDbLayerTableRecord
  2
DIMENSIONS
 70
0
 62
7
  6
CONTINUOUS
370
-3
390
F
  0
ENDTAB
  0
TABLE
  2
STYLE
  5
3
100
AcDbSymbolTable
 70
1
  0
STYLE
  5
11
100
AcDbSymbolTableRecord
100
AcDbTextStyleTableRecord
  2
STANDARD
 70
0
 40
0.0
 41
0.8
 50
0.0
 71
0
 42
0.2
  3
txt
  4

  0
STYLE
  5
203
100
AcDbSymbolTableRecord
100
AcDbTextStyleTableRecord
  2
TEXTSTYLE_1
 70
0
 40
0.0
 41
0.8
 50
0.0
 71
0
 42
0.2
  3
gdt
  4

  0
ENDTAB
  0
TABLE
  2
VIEW
  5
6
100
AcDbSymbolTable
 70
0
  0
ENDTAB
  0
TABLE
  2
UCS
  5
7
100
AcDbSymbolTable
 70
0
  0
ENDTAB
  0
TABLE
  2
APPID
  5
9
100
AcDbSymbolTable
 70
1
  0
APPID
  5
204
100
AcDbSymbolTableRecord
100
AcDbRegAppTableRecord
  2
ACAD
 70
0
  0
ENDTAB
  0
TABLE
  2
BLOCK_RECORD
  5
1
100
AcDbSymbolTable
 70
0
  0
BLOCK_RECORD
  5
205
100
AcDbSymbolTableRecord
100
AcDbBlockTableRecord
  2
*Model_Space
  0
BLOCK_RECORD
  5
206
100
AcDbSymbolTableRecord
100
AcDbBlockTableRecord
  2
*Paper_Space
  0
BLOCK_RECORD
  5
207
100
AcDbSymbolTableRecord
100
AcDbBlockTableRecord
  2
_FILLED
  0
ENDTAB
  0
TABLE
  2
DIMSTYLE
  5
A
100
AcDbSymbolTable
 70
1
100
AcDbDimStyleTable
 71
0
  0
DIMSTYLE
105
208
100
AcDbSymbolTableRecord
100
AcDbDimStyleTableRecord
  2
STANDARD
 70
0
  3

  4

 40
1.0
 41
0.1
 42
0.0625
 43
0.38
 44
0.125
 45
0.0
 46
0.0
 47
0.001
 48
0.001
140
0.08
141
0.09
142
0.0
143
25.4
144
1.0
145
0.0
146
1.0
147
0.09
 71
1.0
 72
0.0
 73
1
 74
1
 75
0
 76
0
 77
0
 78
4
 79
1
170
1
171
2
172
0
173
0
174
0
175
0
176
0
177
0
178
0
270
2
179
3
271
3
272
3
273
2
274
2
275
0
280
0
281
0
282
0
283
1
284
4
285
0
286
0
287
3
288
0
340
11
278
46
341
207
342
207
343
207
344
207
  0
ENDTAB
  0
ENDSEC
  0
SECTION
  2
BLOCKS
  0
BLOCK
  5
20
100
AcDbEntity
  8
0
100
AcDbBlockBegin
  2
*Model_Space
 70
0
 10
0.0
 20
0.0
 30
0.0
  3
*Model_Space
  1

  0
ENDBLK
  5
21
100
AcDbEntity
  8
0
100
AcDbBlockEnd
  0
BLOCK
  5
1C
100
AcDbEntity
  8
0
100
AcDbBlockBegin
  2
*Paper_Space
 70
0
 10
0.0
 20
0.0
 30
0.0
  3
*Paper_Space
  1

  0
ENDBLK
  5
1D
100
AcDbEntity
  8
0
100
AcDbBlockEnd
  0
BLOCK
  5
209
100
AcDbEntity
  8
0
100
AcDbBlockBegin
  2
_FILLED
 70
64
 10
0.0
 20
0.0
  3
_FILLED
  1

  0
SOLID
  5
20A
100
AcDbEntity
  8
0
  6
BYBLOCK
 62
0
100
AcDbTrace
 10
0.0
 20
0.0
 11
-1.0
 21
0.2
 12
-1.0
 22
-0.2
 13
-1.0
 23
-0.2
  0
ENDBLK
  5
20B
100
AcDbEntity
  8
0
  6
BYBLOCK
 62
0
100
AcDbBlockEnd
  0
ENDSEC
  0
SECTION
  2
ENTITIES
  0
LINE
  5
20C
100
AcDbEntity
  8
0
100
AcDbLine
 62
7
  6
CONTINUOUS
 10
8.725838012
 20
0.9541525685
 11
10.7730821065
 21
0.9541525685
  0
LINE
  5
20D
100
AcDbEntity
  8
0
100
AcDbLine
 62
9
  6
CONTINUOUS
 10
8.725838012
 20
1.2297431197
 11
10.7730821065
 21
1.2297431197
  0
LINE
  5
20E
100
AcDbEntity
  8
0
100
AcDbLine
 62
7
  6
CONTINUOUS
 10
10.7337118673
 20
1.2691131984
 11
8.7652082348
 21
1.2691131984
  0
LINE
  5
20F
100
AcDbEntity
  8
0
100
AcDbLine
 62
9
  6
CONTINUOUS
 10
8.8537911034
 20
1.3478533559
 11
10.6451293506
 21
1.3478533559
  0
LINE
  5
210
100
AcDbEntity
  8
0
100
AcDbLine
 62
7
  6
CONTINUOUS
 10
13.1105201591
 20
2.6310985706
 11
12.3857671459
 21
2.6247737469
  0
LINE
  5
211
100
AcDbEntity
  8
0
100
AcDbLine
 62
7
  6
CONTINUOUS
 10
11.8951293506
 20
2.6234439071
 11
10.8026096656
 21
2.6234439071
  0
LINE
  5
212
100
AcDbEntity
  8
0
100
AcDbLine
 62
9
  6
CONTINUOUS
 10
13.1495466734
 20
3.5132076867
 11
12.0160828327
 21
3.5132076866
  0
LINE
  5
213
100
AcDbEntity
  8
0
100
AcDbLine
 62
7
  6
CONTINUOUS
 10
12.00781439
 20
4.40493997
 11
12.3469274412
 21
4.4078993648
  0
LINE
  5
214
100
AcDbEntity
  8
0
100
AcDbLine
 62
7
  6
CONTINUOUS
 10
12.4492393489
 20
4.4087922273
 11
12.4644168487
 21
4.4089246793
  0
LINE
  5
215
100
AcDbEntity
  8
0
100
AcDbLine
 62
7
  6
CONTINUOUS
 10
12.5661058458
 20
4.4098121058
 11
12.6854715759
 21
4.4108537947
  0
LINE
  5
216
100
AcDbEntity
  8
0
100
AcDbLine
 62
7
  6
CONTINUOUS
 10
11.8951293506
 20
4.4029714661
 11
10.8026096656
 21
4.4029714661
  0
LINE
  5
217
100
AcDbEntity
  8
0
100
AcDbLine
 62
7
  6
CONTINUOUS
 10
12.2994600593
 20
4.4108454819
 11
12.6144206892
 21
4.4108454819
  0
LINE
  5
218
100
AcDbEntity
  8
0
100
AcDbLine
 62
9
  6
CONTINUOUS
 10
12.322941727
 20
4.4387299623
 11
12.5909390215
 21
4.4387299623
  0
LINE
  5
219
100
AcDbEntity
  8
0
100
AcDbLine
 62
7
  6
CONTINUOUS
 10
13.1126747576
 20
4.3973205938
 11
13.069736984
 21
4.4000506404
  0
LINE
  5
21A
100
AcDbEntity
  8
0
100
AcDbLine
 62
9
  6
CONTINUOUS
 10
10.6451293506
 20
5.2651761905
 11
8.8537907679
 21
5.2651761905
  0
LINE
  5
21B
100
AcDbEntity
  8
0
100
AcDbLine
 62
7
  6
CONTINUOUS
 10
8.8734759008
 20
5.2848612299
 11
10.6254442276
 21
5.2848612299
  0
LINE
  5
21C
100
AcDbEntity
  8
0
100
AcDbLine
 62
7
  6
CONTINUOUS
 10
9.1982789819
 20
5.2986407574
 11
10.3006411366
 21
5.2986407574
  0
LINE
  5
21D
100
AcDbEntity
  8
0
100
AcDbLine
 62
7
  6
CONTINUOUS
 10
12.7871033534
 20
7.0548073222
 11
12.7865987582
 21
7.0548012061
  0
LINE
  5
21E
100
AcDbEntity
  8
0
100
AcDbLine
 62
7
  6
CONTINUOUS
 10
12.7864151662
 20
7.0547990938
 11
12.9292001288
 21
7.0565147732
  0
LINE
  5
21F
100
AcDbEntity
  8
0
100
AcDbLine
 62
7
  6
CONTINUOUS
 10
9.234640431
 20
10.0844014298
 11
9.2345887564
 21
10.0941205223
  0
LINE
  5
220
100
AcDbEntity
  8
0
100
AcDbLine
 62
9
  6
CONTINUOUS
 10
9.2346402116
 20
10.0844839664
 11
9.234640431
 21
10.0844014298
  0
LINE
  5
221
100
AcDbEntity
  8
0
100
AcDbLine
 62
7
  6
CONTINUOUS
 10
8.725838012
 20
1.2297431197
 11
8.725838012
 21
0.9541525685
  0
LINE
  5
222
100
AcDbEntity
  8
0
100
AcDbLine
 62
7
  6
CONTINUOUS
 10
8.8537907679
 20
5.2651761905
 11
8.8537907679
 21
1.3478533559
  0
LINE
  5
223
100
AcDbEntity
  8
0
100
AcDbLine
 62
7
  6
CONTINUOUS
 10
9.1982789569
 20
5.2986407574
 11
9.1982789569
 21
10.0312238623
  0
LINE
  5
224
100
AcDbEntity
  8
0
100
AcDbLine
 62
7
  6
CONTINUOUS
 10
9.1982789569
 20
12.8405065641
 11
9.1982789569
 21
17.030069341
  0
LINE
  5
225
100
AcDbEntity
  8
0
100
AcDbLine
 62
7
  6
CONTINUOUS
 10
9.2081214766
 20
5.2848612299
 11
9.2081214766
 21
5.2986407574
  0
LINE
  5
226
100
AcDbEntity
  8
0
100
AcDbLine
 62
7
  6
CONTINUOUS
 10
9.2277823126
 20
10.0845853526
 11
9.2277824115
 21
10.0846411097
  0
LINE
  5
227
100
AcDbEntity
  8
0
100
AcDbLine
 62
7
  6
CONTINUOUS
 10
9.1494166602
 20
10.0852296139
 11
9.149411079
 21
10.0845854707
  0
LINE
  5
228
100
AcDbEntity
  8
0
100
AcDbLine
 62
7
  6
CONTINUOUS
 10
9.1979457193
 20
12.8380242295
 11
9.1494168565
 21
10.0852409531
  0
LINE
  5
229
100
AcDbEntity
  8
0
100
AcDbLine
 62
7
  6
CONTINUOUS
 10
9.4049718703
 20
10.0535679037
 11
9.4049985186
 21
10.0536309814
  0
LINE
  5
22A
100
AcDbEntity
  8
0
100
AcDbLine
 62
9
  6
CONTINUOUS
 10
13.1017848693
 20
7.0216641008
 11
12.9291937533
 21
7.0250129056
  0
LINE
  5
22B
100
AcDbEntity
  8
0
100
AcDbLine
 62
7
  6
CONTINUOUS
 10
13.0709077821
 20
7.0537652037
 11
12.9292001288
 21
7.0565147732
  0
LINE
  5
22C
100
AcDbEntity
  8
0
100
AcDbLine
 62
7
  6
CONTINUOUS
 10
9.363872024
 20
10.062741437
 11
9.3638605337
 21
10.0628612436
  0
LINE
  5
22D
100
AcDbEntity
  8
0
100
AcDbLine
 62
7
  6
CONTINUOUS
 10
9.3243207727
 20
10.0627624871
 11
9.3243318508
 21
10.0626215445
  0
LINE
  5
22E
100
AcDbEntity
  8
0
100
AcDbLine
 62
7
  6
CONTINUOUS
 10
9.4049718703
 20
10.0535679037
 11
9.4049718703
 21
10.0284357281
  0
LINE
  5
22F
100
AcDbEntity
  8
0
100
AcDbLine
 62
7
  6
CONTINUOUS
 10
9.4062396033
 20
10.01216896
 11
9.4062403294
 21
9.9825311123
  0
LINE
  5
230
100
AcDbEntity
  8
0
100
AcDbLine
 62
7
  6
CONTINUOUS
 10
9.4735354803
 20
9.9747737752
 11
9.4735354803
 21
9.9752685309
  0
LINE
  5
231
100
AcDbEntity
  8
0
100
AcDbLine
 62
7
  6
CONTINUOUS
 10
9.5501566218
 20
9.9958462682
 11
9.5501566218
 21
10.0017469684
  0
LINE
  5
232
100
AcDbEntity
  8
0
100
AcDbLine
 62
7
  6
CONTINUOUS
 10
9.5668447924
 20
9.9984624997
 11
9.5668447924
 21
10.0045056089
  0
LINE
  5
233
100
AcDbEntity
  8
0
100
AcDbLine
 62
7
  6
CONTINUOUS
 10
9.5865298317
 20
9.9984624997
 11
9.5865298317
 21
10.0043831191
  0
LINE
  5
234
100
AcDbEntity
  8
0
100
AcDbLine
 62
7
  6
CONTINUOUS
 10
9.5934635789
 20
9.9855102305
 11
9.5934635789
 21
9.9914308499
  0
LINE
  5
235
100
AcDbEntity
  8
0
100
AcDbLine
 62
7
  6
CONTINUOUS
 10
9.6032180023
 20
10.0010787312
 11
9.6032180023
 21
10.0069993506
  0
LINE
  5
236
100
AcDbEntity
  8
0
100
AcDbLine
 62
7
  6
CONTINUOUS
 10
9.6131486183
 20
9.9855102305
 11
9.6131486183
 21
9.9914308499
  0
LINE
  5
237
100
AcDbEntity
  8
0
100
AcDbLine
 62
7
  6
CONTINUOUS
 10
9.6213024286
 20
9.990344396
 11
9.6213024286
 21
9.9962650154
  0
LINE
  5
238
100
AcDbEntity
  8
0
100
AcDbLine
 62
7
  6
CONTINUOUS
 10
9.6229030417
 20
10.0010787312
 11
9.6229030417
 21
10.0069993506
  0
LINE
  5
239
100
AcDbEntity
  8
0
100
AcDbLine
 62
7
  6
CONTINUOUS
 10
9.6354267282
 20
10.0121663072
 11
9.6354267282
 21
10.0114328264
  0
LINE
  5
23A
100
AcDbEntity
  8
0
100
AcDbLine
 62
7
  6
CONTINUOUS
 10
9.6395912122
 20
10.0036949627
 11
9.6395912122
 21
10.0096155821
  0
LINE
  5
23B
100
AcDbEntity
  8
0
100
AcDbLine
 62
7
  6
CONTINUOUS
 10
9.6409874679
 20
9.990344396
 11
9.6409874679
 21
9.9962650154
  0
LINE
  5
23C
100
AcDbEntity
  8
0
100
AcDbLine
 62
7
  6
CONTINUOUS
 10
9.6489095425
 20
9.9793015222
 11
9.6489095425
 21
9.9767406274
  0
LINE
  5
23D
100
AcDbEntity
  8
0
100
AcDbLine
 62
7
  6
CONTINUOUS
 10
9.6491412782
 20
9.9951785615
 11
9.6491412782
 21
10.0010991809
  0
LINE
  5
23E
100
AcDbEntity
  8
0
100
AcDbLine
 62
7
  6
CONTINUOUS
 10
9.655782519
 20
10.0105481127
 11
9.655782519
 21
10.013589537
  0
LINE
  5
23F
100
AcDbEntity
  8
0
100
AcDbLine
 62
7
  6
CONTINUOUS
 10
9.6592762516
 20
10.0036949627
 11
9.6592762516
 21
10.0096155821
  0
LINE
  5
240
100
AcDbEntity
  8
0
100
AcDbLine
 62
7
  6
CONTINUOUS
 10
9.6639758193
 20
9.9814311537
 11
9.6639758193
 21
9.9856176638
  0
LINE
  5
241
100
AcDbEntity
  8
0
100
AcDbLine
 62
7
  6
CONTINUOUS
 10
9.6679238304
 20
9.9753607151
 11
9.6679238304
 21
9.9803597746
  0
LINE
  5
242
100
AcDbEntity
  8
0
100
AcDbLine
 62
7
  6
CONTINUOUS
 10
9.6688263176
 20
9.9951785615
 11
9.6688263176
 21
10.0010991809
  0
LINE
  5
243
100
AcDbEntity
  8
0
100
AcDbLine
 62
7
  6
CONTINUOUS
 10
9.6747968069
 20
10.0146354905
 11
9.6747968069
 21
10.0114328264
  0
LINE
  5
244
100
AcDbEntity
  8
0
100
AcDbLine
 62
7
  6
CONTINUOUS
 10
9.6769801279
 20
10.000012727
 11
9.6769801279
 21
10.0059333464
  0
LINE
  5
245
100
AcDbEntity
  8
0
100
AcDbLine
 62
7
  6
CONTINUOUS
 10
9.6790420962
 20
9.9877472953
 11
9.6790420962
 21
9.9919338054
  0
LINE
  5
246
100
AcDbEntity
  8
0
100
AcDbLine
 62
7
  6
CONTINUOUS
 10
9.6829901073
 20
9.98054644
 11
9.6829901073
 21
9.9866759162
  0
LINE
  5
247
100
AcDbEntity
  8
0
100
AcDbLine
 62
7
  6
CONTINUOUS
 10
9.6941083731
 20
9.9940634369
 11
9.6941083731
 21
9.998249947
  0
LINE
  5
248
100
AcDbEntity
  8
0
100
AcDbLine
 62
7
  6
CONTINUOUS
 10
9.6951525978
 20
10.0105481127
 11
9.6951525978
 21
10.0154817027
  0
LINE
  5
249
100
AcDbEntity
  8
0
100
AcDbLine
 62
7
  6
CONTINUOUS
 10
9.6966651672
 20
10.000012727
 11
9.6966651672
 21
10.0059333464
  0
LINE
  5
24A
100
AcDbEntity
  8
0
100
AcDbLine
 62
7
  6
CONTINUOUS
 10
9.6980563841
 20
9.9868625816
 11
9.6980563841
 21
9.9929920578
  0
LINE
  5
24B
100
AcDbEntity
  8
0
100
AcDbLine
 62
7
  6
CONTINUOUS
 10
9.7048189775
 20
10.0048468925
 11
9.7048189775
 21
10.0107675119
  0
LINE
  5
24C
100
AcDbEntity
  8
0
100
AcDbLine
 62
9
  6
CONTINUOUS
 10
9.7081214766
 20
9.9123267077
 11
9.7081214766
 21
9.9206198979
  0
LINE
  5
24D
100
AcDbEntity
  8
0
100
AcDbLine
 62
9
  6
CONTINUOUS
 10
9.7081214766
 20
10.0159192908
 11
9.7081214766
 21
10.0242122181
  0
LINE
  5
24E
100
AcDbEntity
  8
0
100
AcDbLine
 62
7
  6
CONTINUOUS
 10
9.713122661
 20
9.9931787232
 11
9.713122661
 21
9.9993081995
  0
LINE
  5
24F
100
AcDbEntity
  8
0
100
AcDbLine
 62
7
  6
CONTINUOUS
 10
9.7141668857
 20
10.0156193365
 11
9.7141668857
 21
10.0114328264
  0
LINE
  5
250
100
AcDbEntity
  8
0
100
AcDbLine
 62
7
  6
CONTINUOUS
 10
9.7146614972
 20
10.0180715671
 11
9.7146614972
 21
10.0164743448
  0
LINE
  5
251
100
AcDbEntity
  8
0
100
AcDbLine
 62
7
  6
CONTINUOUS
 10
9.7199325002
 20
10.0666410389
 11
9.7199325002
 21
10.0278149823
  0
LINE
  5
252
100
AcDbEntity
  8
0
100
AcDbLine
 62
7
  6
CONTINUOUS
 10
9.7199325002
 20
9.9500422312
 11
9.7199325002
 21
9.9216738501
  0
LINE
  5
253
100
AcDbEntity
  8
0
100
AcDbLine
 62
7
  6
CONTINUOUS
 10
9.7245040169
 20
10.0048468925
 11
9.7245040169
 21
10.0107675119
  0
LINE
  5
254
100
AcDbEntity
  8
0
100
AcDbLine
 62
7
  6
CONTINUOUS
 10
9.7250755421
 20
10.029510163
 11
9.7250755421
 21
10.0329284342
  0
LINE
  5
255
100
AcDbEntity
  8
0
100
AcDbLine
 62
7
  6
CONTINUOUS
 10
9.7317092414
 20
10.0216017516
 11
9.7317092414
 21
10.0181834804
  0
LINE
  5
256
100
AcDbEntity
  8
0
100
AcDbLine
 62
7
  6
CONTINUOUS
 10
9.7355406344
 20
10.0353746248
 11
9.7355406344
 21
10.0336515893
  0
LINE
  5
257
100
AcDbEntity
  8
0
100
AcDbLine
 62
7
  6
CONTINUOUS
 10
9.7355406344
 20
10.031001557
 11
9.7355406344
 21
10.0268150468
  0
LINE
  5
258
100
AcDbEntity
  8
0
100
AcDbLine
 62
7
  6
CONTINUOUS
 10
9.7355406344
 20
10.0241650145
 11
9.7355406344
 21
10.0199785044
  0
LINE
  5
259
100
AcDbEntity
  8
0
100
AcDbLine
 62
7
  6
CONTINUOUS
 10
9.7355406344
 20
9.9755409786
 11
9.7355406344
 21
9.9797274888
  0
LINE
  5
25A
100
AcDbEntity
  8
0
100
AcDbLine
 62
7
  6
CONTINUOUS
 10
9.7355406344
 20
9.982377521
 11
9.7355406344
 21
9.9865640312
  0
LINE
  5
25B
100
AcDbEntity
  8
0
100
AcDbLine
 62
7
  6
CONTINUOUS
 10
9.7355406344
 20
9.9892140635
 11
9.7355406344
 21
9.9934005736
  0
LINE
  5
25C
100
AcDbEntity
  8
0
100
AcDbLine
 62
7
  6
CONTINUOUS
 10
9.7355406344
 20
9.9960506059
 11
9.7355406344
 21
10.000237116
  0
LINE
  5
25D
100
AcDbEntity
  8
0
100
AcDbLine
 62
7
  6
CONTINUOUS
 10
9.7355406344
 20
10.0028871483
 11
9.7355406344
 21
10.0070736585
  0
LINE
  5
25E
100
AcDbEntity
  8
0
100
AcDbLine
 62
9
  6
CONTINUOUS
 10
9.7396175396
 20
10.0862228576
 11
9.7396175396
 21
10.074584582
  0
LINE
  5
25F
100
AcDbEntity
  8
0
100
AcDbLine
 62
7
  6
CONTINUOUS
 10
9.7545549224
 20
9.9746562649
 11
9.7545549224
 21
9.9807857412
  0
LINE
  5
260
100
AcDbEntity
  8
0
100
AcDbLine
 62
7
  6
CONTINUOUS
 10
9.7545549224
 20
9.9814928074
 11
9.7545549224
 21
9.9876222836
  0
LINE
  5
261
100
AcDbEntity
  8
0
100
AcDbLine
 62
7
  6
CONTINUOUS
 10
9.7545549224
 20
9.9883293498
 11
9.7545549224
 21
9.994458826
  0
LINE
  5
262
100
AcDbEntity
  8
0
100
AcDbLine
 62
7
  6
CONTINUOUS
 10
9.7545549224
 20
9.9951658922
 11
9.7545549224
 21
10.0012953685
  0
LINE
  5
263
100
AcDbEntity
  8
0
100
AcDbLine
 62
7
  6
CONTINUOUS
 10
9.7545549224
 20
10.0020024346
 11
9.7545549224
 21
10.0081319109
  0
LINE
  5
264
100
AcDbEntity
  8
0
100
AcDbLine
 62
7
  6
CONTINUOUS
 10
9.7545549224
 20
10.0327668756
 11
9.7545549224
 21
10.0354434486
  0
LINE
  5
265
100
AcDbEntity
  8
0
100
AcDbLine
 62
7
  6
CONTINUOUS
 10
9.7545549224
 20
10.0259303331
 11
9.7545549224
 21
10.0320598094
  0
LINE
  5
266
100
AcDbEntity
  8
0
100
AcDbLine
 62
7
  6
CONTINUOUS
 10
9.7545549224
 20
10.0190937907
 11
9.7545549224
 21
10.025223267
  0
LINE
  5
267
100
AcDbEntity
  8
0
100
AcDbLine
 62
9
  6
CONTINUOUS
 10
9.759302579
 20
10.074584582
 11
9.759302579
 21
10.0862228576
  0
LINE
  5
268
100
AcDbEntity
  8
0
100
AcDbLine
 62
7
  6
CONTINUOUS
 10
9.7672108772
 20
10.0060980666
 11
9.7672108772
 21
10.0095163378
  0
LINE
  5
269
100
AcDbEntity
  8
0
100
AcDbLine
 62
7
  6
CONTINUOUS
 10
9.7738445765
 20
9.9981896553
 11
9.7738445765
 21
9.9947713841
  0
LINE
  5
26A
100
AcDbEntity
  8
0
100
AcDbLine
 62
7
  6
CONTINUOUS
 10
9.7744161017
 20
10.0169323063
 11
9.7744161017
 21
10.0228529257
  0
LINE
  5
26B
100
AcDbEntity
  8
0
100
AcDbLine
 62
7
  6
CONTINUOUS
 10
9.7769728958
 20
10.032988726
 11
9.7769728958
 21
10.0288022158
  0
LINE
  5
26C
100
AcDbEntity
  8
0
100
AcDbLine
 62
7
  6
CONTINUOUS
 10
9.7789876183
 20
9.9216741126
 11
9.7789876183
 21
9.9500422312
  0
LINE
  5
26D
100
AcDbEntity
  8
0
100
AcDbLine
 62
7
  6
CONTINUOUS
 10
9.7789876183
 20
10.0278149823
 11
9.7789876183
 21
10.0666411762
  0
LINE
  5
26E
100
AcDbEntity
  8
0
100
AcDbLine
 62
7
  6
CONTINUOUS
 10
9.7842586213
 20
10.004388931
 11
9.7842586213
 21
10.0112254734
  0
LINE
  5
26F
100
AcDbEntity
  8
0
100
AcDbLine
 62
7
  6
CONTINUOUS
 10
9.7889108533
 20
9.9918735136
 11
9.7889108533
 21
9.9884552424
  0
LINE
  5
270
100
AcDbEntity
  8
0
100
AcDbLine
 62
9
  6
CONTINUOUS
 10
9.790798642
 20
10.024212481
 11
9.790798642
 21
10.0159192908
  0
LINE
  5
271
100
AcDbEntity
  8
0
100
AcDbLine
 62
9
  6
CONTINUOUS
 10
9.790798642
 20
9.9206198979
 11
9.790798642
 21
9.9123269707
  0
LINE
  5
272
100
AcDbEntity
  8
0
100
AcDbLine
 62
7
  6
CONTINUOUS
 10
9.7908923207
 20
9.9930622484
 11
9.7908923207
 21
9.9998987909
  0
LINE
  5
273
100
AcDbEntity
  8
0
100
AcDbLine
 62
7
  6
CONTINUOUS
 10
9.7935777946
 20
10.0105481127
 11
9.7935777946
 21
10.0158255183
  0
LINE
  5
274
100
AcDbEntity
  8
0
100
AcDbLine
 62
7
  6
CONTINUOUS
 10
9.7950497268
 20
10.0046821723
 11
9.7950497268
 21
10.0012639011
  0
LINE
  5
275
100
AcDbEntity
  8
0
100
AcDbLine
 62
7
  6
CONTINUOUS
 10
9.8013063655
 20
10.0095163378
 11
9.8013063655
 21
10.0060980666
  0
LINE
  5
276
100
AcDbEntity
  8
0
100
AcDbLine
 62
7
  6
CONTINUOUS
 10
9.8039771302
 20
9.985557372
 11
9.8039771302
 21
9.9821391008
  0
LINE
  5
277
100
AcDbEntity
  8
0
100
AcDbLine
 62
7
  6
CONTINUOUS
 10
9.8059585975
 20
9.9867461068
 11
9.8059585975
 21
9.9935826493
  0
LINE
  5
278
100
AcDbEntity
  8
0
100
AcDbLine
 62
7
  6
CONTINUOUS
 10
9.8079400648
 20
9.9947713841
 11
9.8079400648
 21
9.9981896553
  0
LINE
  5
279
100
AcDbEntity
  8
0
100
AcDbLine
 62
7
  6
CONTINUOUS
 10
9.812097471
 20
9.9995547655
 11
9.812097471
 21
10.0063913079
  0
LINE
  5
27A
100
AcDbEntity
  8
0
100
AcDbLine
 62
7
  6
CONTINUOUS
 10
9.8125920825
 20
10.0114328264
 11
9.8125920825
 21
10.0151839497
  0
LINE
  5
27B
100
AcDbEntity
  8
0
100
AcDbLine
 62
7
  6
CONTINUOUS
 10
9.8190434071
 20
9.9792412304
 11
9.8190434071
 21
9.9758229592
  0
LINE
  5
27C
100
AcDbEntity
  8
0
100
AcDbLine
 62
7
  6
CONTINUOUS
 10
9.8210248744
 20
9.9804299652
 11
9.8210248744
 21
9.9872665076
  0
LINE
  5
27D
100
AcDbEntity
  8
0
100
AcDbLine
 62
7
  6
CONTINUOUS
 10
9.8228885765
 20
9.9998480068
 11
9.8228885765
 21
9.9964297356
  0
LINE
  5
27E
100
AcDbEntity
  8
0
100
AcDbLine
 62
7
  6
CONTINUOUS
 10
9.8230063417
 20
9.9884552424
 11
9.8230063417
 21
9.9918735136
  0
LINE
  5
27F
100
AcDbEntity
  8
0
100
AcDbLine
 62
7
  6
CONTINUOUS
 10
9.8291452152
 20
10.0012639011
 11
9.8291452152
 21
10.0046821723
  0
LINE
  5
280
100
AcDbEntity
  8
0
100
AcDbLine
 62
7
  6
CONTINUOUS
 10
9.8329478733
 20
10.0105481127
 11
9.8329478733
 21
10.014200327
  0
LINE
  5
281
100
AcDbEntity
  8
0
100
AcDbLine
 62
7
  6
CONTINUOUS
 10
9.8360911512
 20
9.9756908494
 11
9.8360911512
 21
9.980950366
  0
LINE
  5
282
100
AcDbEntity
  8
0
100
AcDbLine
 62
7
  6
CONTINUOUS
 10
9.8380726185
 20
9.9821391008
 11
9.8380726185
 21
9.985557372
  0
LINE
  5
283
100
AcDbEntity
  8
0
100
AcDbLine
 62
7
  6
CONTINUOUS
 10
9.8399363206
 20
9.9947206
 11
9.8399363206
 21
10.0015571424
  0
LINE
  5
284
100
AcDbEntity
  8
0
100
AcDbLine
 62
7
  6
CONTINUOUS
 10
9.8443915235
 20
10.003353476
 11
9.8443915235
 21
10.0094829522
  0
LINE
  5
285
100
AcDbEntity
  8
0
100
AcDbLine
 62
7
  6
CONTINUOUS
 10
9.8507274261
 20
9.9950138413
 11
9.8507274261
 21
9.9915955701
  0
LINE
  5
286
100
AcDbEntity
  8
0
100
AcDbLine
 62
7
  6
CONTINUOUS
 10
9.8519621613
 20
10.0114328264
 11
9.8519621613
 21
10.0130101544
  0
LINE
  5
287
100
AcDbEntity
  8
0
100
AcDbLine
 62
7
  6
CONTINUOUS
 10
9.8531388954
 20
9.9769927774
 11
9.8531388954
 21
9.9792412304
  0
LINE
  5
288
100
AcDbEntity
  8
0
100
AcDbLine
 62
7
  6
CONTINUOUS
 10
9.8569840648
 20
9.9964297356
 11
9.8569840648
 21
9.9998480068
  0
LINE
  5
289
100
AcDbEntity
  8
0
100
AcDbLine
 62
7
  6
CONTINUOUS
 10
9.8634058114
 20
10.0042381897
 11
9.8634058114
 21
10.0084246998
  0
LINE
  5
28A
100
AcDbEntity
  8
0
100
AcDbLine
 62
7
  6
CONTINUOUS
 10
10.0716212883
 20
9.9610912248
 11
10.0691730359
 21
9.9583244875
  0
LINE
  5
28B
100
AcDbEntity
  8
0
100
AcDbLine
 62
7
  6
CONTINUOUS
 10
10.0691733596
 20
9.9583244774
 11
10.0885506145
 21
9.9771072759
  0
LINE
  5
28C
100
AcDbEntity
  8
0
100
AcDbLine
 62
7
  6
CONTINUOUS
 10
9.6354267282
 20
10.0114328264
 11
9.6367249677
 21
10.0122741684
  0
LINE
  5
28D
100
AcDbEntity
  8
0
100
AcDbLine
 62
7
  6
CONTINUOUS
 10
9.6747968069
 20
10.0114328264
 11
9.67989167
 21
10.0147346228
  0
LINE
  5
28E
100
AcDbEntity
  8
0
100
AcDbLine
 62
7
  6
CONTINUOUS
 10
9.6845529001
 20
10.0151165905
 11
9.6812331729
 21
10.0129651954
  0
LINE
  5
28F
100
AcDbEntity
  8
0
100
AcDbLine
 62
7
  6
CONTINUOUS
 10
9.7141668857
 20
10.0114328264
 11
9.7192617488
 21
10.0147346228
  0
LINE
  5
290
100
AcDbEntity
  8
0
100
AcDbLine
 62
7
  6
CONTINUOUS
 10
9.7847532329
 20
10.0162669919
 11
9.7796583698
 21
10.0129651954
  0
LINE
  5
291
100
AcDbEntity
  8
0
100
AcDbLine
 62
7
  6
CONTINUOUS
 10
9.8125920825
 20
10.0114328264
 11
9.8176869456
 21
10.0147346228
  0
LINE
  5
292
100
AcDbEntity
  8
0
100
AcDbLine
 62
7
  6
CONTINUOUS
 10
9.8217838277
 20
10.014750857
 11
9.8190284485
 21
10.0129651954
  0
LINE
  5
293
100
AcDbEntity
  8
0
100
AcDbLine
 62
7
  6
CONTINUOUS
 10
9.8355669618
 20
10.0090723552
 11
9.8304720987
 21
10.0057705587
  0
LINE
  5
294
100
AcDbEntity
  8
0
100
AcDbLine
 62
7
  6
CONTINUOUS
 10
9.8519621613
 20
10.0114328264
 11
9.8541721723
 21
10.0128650546
  0
LINE
  5
295
100
AcDbEntity
  8
0
100
AcDbLine
 62
7
  6
CONTINUOUS
 10
9.8634058114
 20
10.0042381897
 11
9.8685006745
 21
10.0075399861
  0
LINE
  5
296
100
AcDbEntity
  8
0
100
AcDbLine
 62
7
  6
CONTINUOUS
 10
9.8719401717
 20
10.0064561237
 11
9.8668453086
 21
10.0031543272
  0
LINE
  5
297
100
AcDbEntity
  8
0
100
AcDbLine
 62
7
  6
CONTINUOUS
 10
9.8997790214
 20
10.0016219582
 11
9.9048738845
 21
10.0049237546
  0
LINE
  5
298
100
AcDbEntity
  8
0
100
AcDbLine
 62
7
  6
CONTINUOUS
 10
9.9083133817
 20
10.0038398921
 11
9.9032185186
 21
10.0005380957
  0
LINE
  5
299
100
AcDbEntity
  8
0
100
AcDbLine
 62
7
  6
CONTINUOUS
 10
9.9361522313
 20
9.9990057266
 11
9.9412470944
 21
10.0023075231
  0
LINE
  5
29A
100
AcDbEntity
  8
0
100
AcDbLine
 62
7
  6
CONTINUOUS
 10
9.9446865916
 20
10.0012236606
 11
9.9395917285
 21
9.9979218642
  0
LINE
  5
29B
100
AcDbEntity
  8
0
100
AcDbLine
 62
7
  6
CONTINUOUS
 10
9.4747552488
 20
9.9752685309
 11
9.4750563939
 21
9.9754479639
  0
LINE
  5
29C
100
AcDbEntity
  8
0
100
AcDbLine
 62
7
  6
CONTINUOUS
 10
9.5668447924
 20
10.0043831191
 11
9.5570022727
 21
10.0014228094
  0
LINE
  5
29D
100
AcDbEntity
  8
0
100
AcDbLine
 62
7
  6
CONTINUOUS
 10
9.5501566218
 20
9.9958462682
 11
9.5599991415
 21
9.9988065779
  0
LINE
  5
29E
100
AcDbEntity
  8
0
100
AcDbLine
 62
7
  6
CONTINUOUS
 10
9.6032180023
 20
10.0069993506
 11
9.5933754826
 21
10.0040390409
  0
LINE
  5
29F
100
AcDbEntity
  8
0
100
AcDbLine
 62
7
  6
CONTINUOUS
 10
9.5865298317
 20
9.9984624997
 11
9.5963723514
 21
10.0014228094
  0
LINE
  5
2A0
100
AcDbEntity
  8
0
100
AcDbLine
 62
7
  6
CONTINUOUS
 10
9.6395912122
 20
10.0096155821
 11
9.6297486926
 21
10.0066552724
  0
LINE
  5
2A1
100
AcDbEntity
  8
0
100
AcDbLine
 62
7
  6
CONTINUOUS
 10
9.6229030417
 20
10.0010787312
 11
9.6327455614
 21
10.0040390409
  0
LINE
  5
2A2
100
AcDbEntity
  8
0
100
AcDbLine
 62
7
  6
CONTINUOUS
 10
9.5934635789
 20
9.9914308499
 11
9.5836210592
 21
9.9884705402
  0
LINE
  5
2A3
100
AcDbEntity
  8
0
100
AcDbLine
 62
7
  6
CONTINUOUS
 10
9.6213024286
 20
9.9962650154
 11
9.6114599089
 21
9.9933047057
  0
LINE
  5
2A4
100
AcDbEntity
  8
0
100
AcDbLine
 62
7
  6
CONTINUOUS
 10
9.6491412782
 20
10.0010991809
 11
9.6392987585
 21
9.9981388712
  0
LINE
  5
2A5
100
AcDbEntity
  8
0
100
AcDbLine
 62
7
  6
CONTINUOUS
 10
9.6592762516
 20
10.0036949627
 11
9.6691187713
 21
10.0066552724
  0
LINE
  5
2A6
100
AcDbEntity
  8
0
100
AcDbLine
 62
7
  6
CONTINUOUS
 10
9.6769801279
 20
10.0059333464
 11
9.6671376082
 21
10.0029730367
  0
LINE
  5
2A7
100
AcDbEntity
  8
0
100
AcDbLine
 62
7
  6
CONTINUOUS
 10
12.0392342599
 20
3.439350628
 11
12.3857671204
 21
2.6247738067
  0
LINE
  5
2A8
100
AcDbEntity
  8
0
100
AcDbLine
 62
7
  6
CONTINUOUS
 10
10.1350480945
 20
10.0676575586
 11
10.1350595849
 21
10.0675377391
  0
LINE
  5
2A9
100
AcDbEntity
  8
0
100
AcDbLine
 62
7
  6
CONTINUOUS
 10
10.3009743993
 20
12.8380242295
 11
10.349503262
 21
10.0852409531
  0
LINE
  5
2AA
100
AcDbEntity
  8
0
100
AcDbLine
 62
7
  6
CONTINUOUS
 10
10.3495090395
 20
10.0845854707
 11
10.3495034625
 21
10.085229367
  0
LINE
  5
2AB
100
AcDbEntity
  8
0
100
AcDbLine
 62
7
  6
CONTINUOUS
 10
10.2711377071
 20
10.0846411097
 11
10.2711378059
 21
10.0845853525
  0
LINE
  5
2AC
100
AcDbEntity
  8
0
100
AcDbLine
 62
7
  6
CONTINUOUS
 10
9.8677751703
 20
9.9898864345
 11
9.8677751703
 21
9.9967229769
  0
LINE
  5
2AD
100
AcDbEntity
  8
0
100
AcDbLine
 62
7
  6
CONTINUOUS
 10
9.8723179521
 20
10.0105481127
 11
9.8723179521
 21
10.0114331389
  0
LINE
  5
2AE
100
AcDbEntity
  8
0
100
AcDbLine
 62
7
  6
CONTINUOUS
 10
9.8785662758
 20
9.9901796758
 11
9.8785662758
 21
9.9867614046
  0
LINE
  5
2AF
100
AcDbEntity
  8
0
100
AcDbLine
 62
7
  6
CONTINUOUS
 10
9.8807647335
 20
10.0007372445
 11
9.8807647335
 21
10.0068667207
  0
LINE
  5
2B0
100
AcDbEntity
  8
0
100
AcDbLine
 62
7
  6
CONTINUOUS
 10
9.8848229145
 20
9.9915955701
 11
9.8848229145
 21
9.9950138413
  0
LINE
  5
2B1
100
AcDbEntity
  8
0
100
AcDbLine
 62
7
  6
CONTINUOUS
 10
9.89561402
 20
9.985052269
 11
9.89561402
 21
9.9918888114
  0
LINE
  5
2B2
100
AcDbEntity
  8
0
100
AcDbLine
 62
7
  6
CONTINUOUS
 10
9.8997790214
 20
10.0016219582
 11
9.8997790214
 21
10.0058084683
  0
LINE
  5
2B3
100
AcDbEntity
  8
0
100
AcDbLine
 62
7
  6
CONTINUOUS
 10
9.9126617641
 20
9.9867614046
 11
9.9126617641
 21
9.9901796758
  0
LINE
  5
2B4
100
AcDbEntity
  8
0
100
AcDbLine
 62
7
  6
CONTINUOUS
 10
9.9171379434
 20
9.9981210129
 11
9.9171379434
 21
10.0042504892
  0
LINE
  5
2B5
100
AcDbEntity
  8
0
100
AcDbLine
 62
7
  6
CONTINUOUS
 10
9.9361522313
 20
9.9990057266
 11
9.9361522313
 21
10.0031922368
  0
LINE
  5
2B6
100
AcDbEntity
  8
0
100
AcDbLine
 62
7
  6
CONTINUOUS
 10
10.0253846382
 20
9.9752685279
 11
10.0253846382
 21
9.9747737752
  0
LINE
  5
2B7
100
AcDbEntity
  8
0
100
AcDbLine
 62
7
  6
CONTINUOUS
 10
10.0926805153
 20
9.9825280835
 11
10.0926797891
 21
10.01216896
  0
LINE
  5
2B8
100
AcDbEntity
  8
0
100
AcDbLine
 62
7
  6
CONTINUOUS
 10
10.0939482482
 20
10.028435669
 11
10.0939482482
 21
10.0535679037
  0
LINE
  5
2B9
100
AcDbEntity
  8
0
100
AcDbLine
 62
7
  6
CONTINUOUS
 10
10.290798642
 20
5.2848612299
 11
10.290798642
 21
5.2986407574
  0
LINE
  5
2BA
100
AcDbEntity
  8
0
100
AcDbLine
 62
7
  6
CONTINUOUS
 10
10.3006411616
 20
5.2986407574
 11
10.3006411616
 21
10.0312438951
  0
LINE
  5
2BB
100
AcDbEntity
  8
0
100
AcDbLine
 62
7
  6
CONTINUOUS
 10
10.3006411616
 20
12.840424737
 11
10.3006411616
 21
17.030069341
  0
LINE
  5
2BC
100
AcDbEntity
  8
0
100
AcDbLine
 62
9
  6
CONTINUOUS
 10
10.2642796876
 20
10.0844014298
 11
10.264279907
 21
10.0844839664
  0
LINE
  5
2BD
100
AcDbEntity
  8
0
100
AcDbLine
 62
7
  6
CONTINUOUS
 10
10.2642796876
 20
10.0844014298
 11
10.2643313622
 21
10.0941205223
  0
LINE
  5
2BE
100
AcDbEntity
  8
0
100
AcDbLine
 62
7
  6
CONTINUOUS
 10
9.6131486183
 20
9.9855102305
 11
9.622991138
 21
9.9884705402
  0
LINE
  5
2BF
100
AcDbEntity
  8
0
100
AcDbLine
 62
7
  6
CONTINUOUS
 10
9.7048189775
 20
10.0107675119
 11
9.6949764578
 21
10.0078072022
  0
LINE
  5
2C0
100
AcDbEntity
  8
0
100
AcDbLine
 62
7
  6
CONTINUOUS
 10
9.6409874679
 20
9.990344396
 11
9.6508299876
 21
9.9933047057
  0
LINE
  5
2C1
100
AcDbEntity
  8
0
100
AcDbLine
 62
7
  6
CONTINUOUS
 10
9.6688263176
 20
9.9951785615
 11
9.6786688373
 21
9.9981388712
  0
LINE
  5
2C2
100
AcDbEntity
  8
0
100
AcDbLine
 62
7
  6
CONTINUOUS
 10
9.6966651672
 20
10.000012727
 11
9.7065076869
 21
10.0029730367
  0
LINE
  5
2C3
100
AcDbEntity
  8
0
100
AcDbLine
 62
7
  6
CONTINUOUS
 10
9.7744161017
 20
10.0228529257
 11
9.764573582
 21
10.019892616
  0
LINE
  5
2C4
100
AcDbEntity
  8
0
100
AcDbLine
 62
7
  6
CONTINUOUS
 10
9.7245040169
 20
10.0048468925
 11
9.7343465366
 21
10.0078072022
  0
LINE
  5
2C5
100
AcDbEntity
  8
0
100
AcDbLine
 62
7
  6
CONTINUOUS
 10
9.4297541056
 20
9.9583230898
 11
9.4103711186
 21
9.9771114741
  0
LINE
  5
2C6
100
AcDbEntity
  8
0
100
AcDbLine
 62
7
  6
CONTINUOUS
 10
9.4297544289
 20
9.9583230998
 11
9.4273051659
 21
9.9610912248
  0
LINE
  5
2C7
100
AcDbEntity
  8
0
100
AcDbLine
 62
7
  6
CONTINUOUS
 10
10.1745994363
 20
10.0676787594
 11
10.1745882678
 21
10.0677774382
  0
LINE
  5
2C8
100
AcDbEntity
  8
0
100
AcDbLine
 62
7
  6
CONTINUOUS
 10
10.6451293506
 20
5.2651761905
 11
10.6451293506
 21
4.5604517811
  0
LINE
  5
2C9
100
AcDbEntity
  8
0
100
AcDbLine
 62
7
  6
CONTINUOUS
 10
10.6451293506
 20
2.4659635921
 11
10.6451293506
 21
1.3478533559
  0
LINE
  5
2CA
100
AcDbEntity
  8
0
100
AcDbLine
 62
7
  6
CONTINUOUS
 10
10.7730821065
 20
1.2297431197
 11
10.7730821065
 21
0.9541525685
  0
LINE
  5
2CB
100
AcDbEntity
  8
0
100
AcDbLine
 62
7
  6
CONTINUOUS
 10
9.6438146794
 20
9.9784168085
 11
9.6460467388
 21
9.9769702915
  0
LINE
  5
2CC
100
AcDbEntity
  8
0
100
AcDbLine
 62
7
  6
CONTINUOUS
 10
9.6588809562
 20
9.9847329501
 11
9.6639758193
 21
9.9814311537
  0
LINE
  5
2CD
100
AcDbEntity
  8
0
100
AcDbLine
 62
7
  6
CONTINUOUS
 10
9.6818432552
 20
9.9766473811
 11
9.6767483921
 21
9.9799491775
  0
LINE
  5
2CE
100
AcDbEntity
  8
0
100
AcDbLine
 62
7
  6
CONTINUOUS
 10
9.6739472331
 20
9.9910490917
 11
9.6790420962
 21
9.9877472953
  0
LINE
  5
2CF
100
AcDbEntity
  8
0
100
AcDbLine
 62
7
  6
CONTINUOUS
 10
9.6969095321
 20
9.9829635227
 11
9.691814669
 21
9.9862653192
  0
LINE
  5
2D0
100
AcDbEntity
  8
0
100
AcDbLine
 62
7
  6
CONTINUOUS
 10
9.68901351
 20
9.9973652333
 11
9.6941083731
 21
9.9940634369
  0
LINE
  5
2D1
100
AcDbEntity
  8
0
100
AcDbLine
 62
7
  6
CONTINUOUS
 10
9.7119758089
 20
9.9892796643
 11
9.7068809459
 21
9.9925814608
  0
LINE
  5
2D2
100
AcDbEntity
  8
0
100
AcDbLine
 62
7
  6
CONTINUOUS
 10
9.7304457714
 20
9.9788427751
 11
9.7355406344
 21
9.9755409786
  0
LINE
  5
2D3
100
AcDbEntity
  8
0
100
AcDbLine
 62
7
  6
CONTINUOUS
 10
9.7304457714
 20
9.9856793175
 11
9.7355406344
 21
9.982377521
  0
LINE
  5
2D4
100
AcDbEntity
  8
0
100
AcDbLine
 62
7
  6
CONTINUOUS
 10
9.7304457714
 20
9.9925158599
 11
9.7355406344
 21
9.9892140635
  0
LINE
  5
2D5
100
AcDbEntity
  8
0
100
AcDbLine
 62
7
  6
CONTINUOUS
 10
9.7270420858
 20
9.995595806
 11
9.7219472227
 21
9.9988976024
  0
LINE
  5
2D6
100
AcDbEntity
  8
0
100
AcDbLine
 62
7
  6
CONTINUOUS
 10
9.7304457714
 20
9.9993524023
 11
9.7355406344
 21
9.9960506059
  0
LINE
  5
2D7
100
AcDbEntity
  8
0
100
AcDbLine
 62
7
  6
CONTINUOUS
 10
9.7684743472
 20
9.9770733477
 11
9.7633794841
 21
9.9803751441
  0
LINE
  5
2D8
100
AcDbEntity
  8
0
100
AcDbLine
 62
7
  6
CONTINUOUS
 10
9.7304457714
 20
10.0061889448
 11
9.7355406344
 21
10.0028871483
  0
LINE
  5
2D9
100
AcDbEntity
  8
0
100
AcDbLine
 62
7
  6
CONTINUOUS
 10
9.7684743472
 20
9.9839098901
 11
9.7633794841
 21
9.9872116866
  0
LINE
  5
2DA
100
AcDbEntity
  8
0
100
AcDbLine
 62
7
  6
CONTINUOUS
 10
9.7684743472
 20
9.9907464325
 11
9.7633794841
 21
9.994048229
  0
LINE
  5
2DB
100
AcDbEntity
  8
0
100
AcDbLine
 62
7
  6
CONTINUOUS
 10
9.7684743472
 20
9.997582975
 11
9.7633794841
 21
10.0008847714
  0
LINE
  5
2DC
100
AcDbEntity
  8
0
100
AcDbLine
 62
7
  6
CONTINUOUS
 10
9.7304457714
 20
10.0232803008
 11
9.7355406344
 21
10.0199785044
  0
LINE
  5
2DD
100
AcDbEntity
  8
0
100
AcDbLine
 62
7
  6
CONTINUOUS
 10
9.7684743472
 20
10.0044195174
 11
9.7633794841
 21
10.0077213138
  0
LINE
  5
2DE
100
AcDbEntity
  8
0
100
AcDbLine
 62
7
  6
CONTINUOUS
 10
9.7304457714
 20
10.0301168433
 11
9.7355406344
 21
10.0268150468
  0
LINE
  5
2DF
100
AcDbEntity
  8
0
100
AcDbLine
 62
7
  6
CONTINUOUS
 10
9.7329135071
 20
10.0353541354
 11
9.7355406344
 21
10.0336515893
  0
LINE
  5
2E0
100
AcDbEntity
  8
0
100
AcDbLine
 62
7
  6
CONTINUOUS
 10
9.7684743472
 20
10.0215108735
 11
9.7633794841
 21
10.0248126699
  0
LINE
  5
2E1
100
AcDbEntity
  8
0
100
AcDbLine
 62
7
  6
CONTINUOUS
 10
9.7684743472
 20
10.0283474159
 11
9.7633794841
 21
10.0316492123
  0
LINE
  5
2E2
100
AcDbEntity
  8
0
100
AcDbLine
 62
7
  6
CONTINUOUS
 10
9.7718780327
 20
10.0321040123
 11
9.7769728958
 21
10.0288022158
  0
LINE
  5
2E3
100
AcDbEntity
  8
0
100
AcDbLine
 62
7
  6
CONTINUOUS
 10
9.8190434071
 20
9.9758229592
 11
9.8265120235
 21
9.9750741869
  0
LINE
  5
2E4
100
AcDbEntity
  8
0
100
AcDbLine
 62
7
  6
CONTINUOUS
 10
9.8039771302
 20
9.9821391008
 11
9.8210248744
 21
9.9804299652
  0
LINE
  5
2E5
100
AcDbEntity
  8
0
100
AcDbLine
 62
7
  6
CONTINUOUS
 10
9.8531388954
 20
9.9792412304
 11
9.8360911512
 21
9.980950366
  0
LINE
  5
2E6
100
AcDbEntity
  8
0
100
AcDbLine
 62
7
  6
CONTINUOUS
 10
9.7889108533
 20
9.9884552424
 11
9.8059585975
 21
9.9867461068
  0
LINE
  5
2E7
100
AcDbEntity
  8
0
100
AcDbLine
 62
7
  6
CONTINUOUS
 10
9.8380726185
 20
9.985557372
 11
9.8210248744
 21
9.9872665076
  0
LINE
  5
2E8
100
AcDbEntity
  8
0
100
AcDbLine
 62
7
  6
CONTINUOUS
 10
9.7738445765
 20
9.9947713841
 11
9.7908923207
 21
9.9930622484
  0
LINE
  5
2E9
100
AcDbEntity
  8
0
100
AcDbLine
 62
7
  6
CONTINUOUS
 10
9.8230063417
 20
9.9918735136
 11
9.8059585975
 21
9.9935826493
  0
LINE
  5
2EA
100
AcDbEntity
  8
0
100
AcDbLine
 62
7
  6
CONTINUOUS
 10
9.8785662758
 20
9.9867614046
 11
9.89561402
 21
9.985052269
  0
LINE
  5
2EB
100
AcDbEntity
  8
0
100
AcDbLine
 62
7
  6
CONTINUOUS
 10
9.8507274261
 20
9.9915955701
 11
9.8677751703
 21
9.9898864345
  0
LINE
  5
2EC
100
AcDbEntity
  8
0
100
AcDbLine
 62
7
  6
CONTINUOUS
 10
9.8228885765
 20
9.9964297356
 11
9.8399363206
 21
9.9947206
  0
LINE
  5
2ED
100
AcDbEntity
  8
0
100
AcDbLine
 62
7
  6
CONTINUOUS
 10
9.8079400648
 20
9.9981896553
 11
9.7908923207
 21
9.9998987909
  0
LINE
  5
2EE
100
AcDbEntity
  8
0
100
AcDbLine
 62
7
  6
CONTINUOUS
 10
9.7950497268
 20
10.0012639011
 11
9.812097471
 21
9.9995547655
  0
LINE
  5
2EF
100
AcDbEntity
  8
0
100
AcDbLine
 62
7
  6
CONTINUOUS
 10
9.9126617641
 20
9.9901796758
 11
9.89561402
 21
9.9918888114
  0
LINE
  5
2F0
100
AcDbEntity
  8
0
100
AcDbLine
 62
7
  6
CONTINUOUS
 10
9.7672108772
 20
10.0060980666
 11
9.7842586213
 21
10.004388931
  0
LINE
  5
2F1
100
AcDbEntity
  8
0
100
AcDbLine
 62
7
  6
CONTINUOUS
 10
9.8848229145
 20
9.9950138413
 11
9.8677751703
 21
9.9967229769
  0
LINE
  5
2F2
100
AcDbEntity
  8
0
100
AcDbLine
 62
7
  6
CONTINUOUS
 10
9.8569840648
 20
9.9998480068
 11
9.8399363206
 21
10.0015571424
  0
LINE
  5
2F3
100
AcDbEntity
  8
0
100
AcDbLine
 62
7
  6
CONTINUOUS
 10
9.8291452152
 20
10.0046821723
 11
9.812097471
 21
10.0063913079
  0
LINE
  5
2F4
100
AcDbEntity
  8
0
100
AcDbLine
 62
7
  6
CONTINUOUS
 10
9.7121672518
 20
10.0167244074
 11
9.7146614972
 21
10.0164743448
  0
LINE
  5
2F5
100
AcDbEntity
  8
0
100
AcDbLine
 62
7
  6
CONTINUOUS
 10
9.8013063655
 20
10.0095163378
 11
9.7842586213
 21
10.0112254734
  0
LINE
  5
2F6
100
AcDbEntity
  8
0
100
AcDbLine
 62
7
  6
CONTINUOUS
 10
9.7317092414
 20
10.0216017516
 11
9.7187858758
 21
10.0228973943
  0
LINE
  5
2F7
100
AcDbEntity
  8
0
100
AcDbLine
 62
7
  6
CONTINUOUS
 10
9.7250755421
 20
10.0329284342
 11
9.7199325002
 21
10.0334440541
  0
LINE
  5
2F8
100
AcDbEntity
  8
0
100
AcDbLine
 62
7
  6
CONTINUOUS
 10
9.643073053
 20
10.0127550883
 11
9.655782519
 21
10.0105481127
  0
LINE
  5
2F9
100
AcDbEntity
  8
0
100
AcDbLine
 62
7
  6
CONTINUOUS
 10
9.6812331729
 20
10.0129651954
 11
9.6951525978
 21
10.0105481127
  0
LINE
  5
2FA
100
AcDbEntity
  8
0
100
AcDbLine
 62
7
  6
CONTINUOUS
 10
9.7192617488
 20
10.0147346228
 11
9.7105302973
 21
10.0162508234
  0
LINE
  5
2FB
100
AcDbEntity
  8
0
100
AcDbLine
 62
7
  6
CONTINUOUS
 10
9.7796583698
 20
10.0129651954
 11
9.7935777946
 21
10.0105481127
  0
LINE
  5
2FC
100
AcDbEntity
  8
0
100
AcDbLine
 62
7
  6
CONTINUOUS
 10
9.8304720987
 20
10.0057705587
 11
9.8443915235
 21
10.003353476
  0
LINE
  5
2FD
100
AcDbEntity
  8
0
100
AcDbLine
 62
7
  6
CONTINUOUS
 10
9.8668453086
 20
10.0031543272
 11
9.8807647335
 21
10.0007372445
  0
LINE
  5
2FE
100
AcDbEntity
  8
0
100
AcDbLine
 62
7
  6
CONTINUOUS
 10
9.8190284485
 20
10.0129651954
 11
9.8329478733
 21
10.0105481127
  0
LINE
  5
2FF
100
AcDbEntity
  8
0
100
AcDbLine
 62
7
  6
CONTINUOUS
 10
9.8176869456
 20
10.0147346228
 11
9.8159315106
 21
10.0150394509
  0
LINE
  5
300
100
AcDbEntity
  8
0
100
AcDbLine
 62
7
  6
CONTINUOUS
 10
9.9032185186
 20
10.0005380957
 11
9.9171379434
 21
9.9981210129
  0
LINE
  5
301
100
AcDbEntity
  8
0
100
AcDbLine
 62
7
  6
CONTINUOUS
 10
9.8685006745
 20
10.0075399861
 11
9.8545812497
 21
10.0099570689
  0
LINE
  5
302
100
AcDbEntity
  8
0
100
AcDbLine
 62
7
  6
CONTINUOUS
 10
9.9395917285
 20
9.9979218642
 11
9.9535111533
 21
9.9955047814
  0
LINE
  5
303
100
AcDbEntity
  8
0
100
AcDbLine
 62
7
  6
CONTINUOUS
 10
9.8625457285
 20
10.0122450415
 11
9.8723179521
 21
10.0105481127
  0
LINE
  5
304
100
AcDbEntity
  8
0
100
AcDbLine
 62
7
  6
CONTINUOUS
 10
9.9048738845
 20
10.0049237546
 11
9.8909544596
 21
10.0073408374
  0
LINE
  5
305
100
AcDbEntity
  8
0
100
AcDbLine
 62
7
  6
CONTINUOUS
 10
9.9412470944
 20
10.0023075231
 11
9.9273276696
 21
10.0047246058
  0
LINE
  5
306
100
AcDbEntity
  8
0
100
AcDbLine
 62
7
  6
CONTINUOUS
 10
9.5836210592
 20
9.9884705402
 11
9.5934635789
 21
9.9855102305
  0
LINE
  5
307
100
AcDbEntity
  8
0
100
AcDbLine
 62
7
  6
CONTINUOUS
 10
9.5599991415
 20
9.9988065779
 11
9.5501566218
 21
10.0017668876
  0
LINE
  5
308
100
AcDbEntity
  8
0
100
AcDbLine
 62
7
  6
CONTINUOUS
 10
9.5570022727
 20
10.0014228094
 11
9.5668447924
 21
9.9984624997
  0
LINE
  5
309
100
AcDbEntity
  8
0
100
AcDbLine
 62
7
  6
CONTINUOUS
 10
9.622991138
 20
9.9884705402
 11
9.6131486183
 21
9.9914308499
  0
LINE
  5
30A
100
AcDbEntity
  8
0
100
AcDbLine
 62
7
  6
CONTINUOUS
 10
9.6114599089
 20
9.9933047057
 11
9.6213024286
 21
9.990344396
  0
LINE
  5
30B
100
AcDbEntity
  8
0
100
AcDbLine
 62
7
  6
CONTINUOUS
 10
9.5963723514
 20
10.0014228094
 11
9.5865298317
 21
10.0043831191
  0
LINE
  5
30C
100
AcDbEntity
  8
0
100
AcDbLine
 62
7
  6
CONTINUOUS
 10
9.5933754826
 20
10.0040390409
 11
9.6032180023
 21
10.0010787312
  0
LINE
  5
30D
100
AcDbEntity
  8
0
100
AcDbLine
 62
7
  6
CONTINUOUS
 10
9.6508299876
 20
9.9933047057
 11
9.6409874679
 21
9.9962650154
  0
LINE
  5
30E
100
AcDbEntity
  8
0
100
AcDbLine
 62
7
  6
CONTINUOUS
 10
9.6392987585
 20
9.9981388712
 11
9.6491412782
 21
9.9951785615
  0
LINE
  5
30F
100
AcDbEntity
  8
0
100
AcDbLine
 62
7
  6
CONTINUOUS
 10
9.6327455614
 20
10.0040390409
 11
9.6229030417
 21
10.0069993506
  0
LINE
  5
310
100
AcDbEntity
  8
0
100
AcDbLine
 62
7
  6
CONTINUOUS
 10
9.6297486926
 20
10.0066552724
 11
9.6395912122
 21
10.0036949627
  0
LINE
  5
311
100
AcDbEntity
  8
0
100
AcDbLine
 62
7
  6
CONTINUOUS
 10
9.6786688373
 20
9.9981388712
 11
9.6688263176
 21
10.0010991809
  0
LINE
  5
312
100
AcDbEntity
  8
0
100
AcDbLine
 62
7
  6
CONTINUOUS
 10
9.6671376082
 20
10.0029730367
 11
9.6769801279
 21
10.000012727
  0
LINE
  5
313
100
AcDbEntity
  8
0
100
AcDbLine
 62
7
  6
CONTINUOUS
 10
9.6691187713
 20
10.0066552724
 11
9.6592762516
 21
10.0096155821
  0
LINE
  5
314
100
AcDbEntity
  8
0
100
AcDbLine
 62
7
  6
CONTINUOUS
 10
9.7065076869
 20
10.0029730367
 11
9.6966651672
 21
10.0059333464
  0
LINE
  5
315
100
AcDbEntity
  8
0
100
AcDbLine
 62
7
  6
CONTINUOUS
 10
9.6949764578
 20
10.0078072022
 11
9.7048189775
 21
10.0048468925
  0
LINE
  5
316
100
AcDbEntity
  8
0
100
AcDbLine
 62
7
  6
CONTINUOUS
 10
9.7343465366
 20
10.0078072022
 11
9.7245040169
 21
10.0107675119
  0
LINE
  5
317
100
AcDbEntity
  8
0
100
AcDbLine
 62
7
  6
CONTINUOUS
 10
9.764573582
 20
10.019892616
 11
9.7744161017
 21
10.0169323063
  0
LINE
  5
318
100
AcDbEntity
  8
0
100
AcDbLine
 62
7
  6
CONTINUOUS
 10
10.0238637247
 20
9.9754479639
 11
10.0241648697
 21
9.9752685309
  0
LINE
  5
319
100
AcDbEntity
  8
0
100
AcDbLine
 62
9
  6
CONTINUOUS
 10
11.8951293506
 20
2.6234439071
 11
11.8951293506
 21
4.4029714661
  0
LINE
  5
31A
100
AcDbEntity
  8
0
100
AcDbLine
 62
7
  6
CONTINUOUS
 10
11.91481439
 20
4.3832864267
 11
11.91481439
 21
2.6431289464
  0
LINE
  5
31B
100
AcDbEntity
  8
0
100
AcDbLine
 62
7
  6
CONTINUOUS
 10
12.00781439
 20
4.40493997
 11
12.00781439
 21
3.5934702142
  0
LINE
  5
31C
100
AcDbEntity
  8
0
100
AcDbLine
 62
7
  6
CONTINUOUS
 10
9.7545549224
 20
9.9746562649
 11
9.7684743472
 21
9.9770733477
  0
LINE
  5
31D
100
AcDbEntity
  8
0
100
AcDbLine
 62
7
  6
CONTINUOUS
 10
9.7545549224
 20
9.9814928074
 11
9.7684743472
 21
9.9839098901
  0
LINE
  5
31E
100
AcDbEntity
  8
0
100
AcDbLine
 62
7
  6
CONTINUOUS
 10
9.7443651962
 20
9.9812598578
 11
9.7304457714
 21
9.9788427751
  0
LINE
  5
31F
100
AcDbEntity
  8
0
100
AcDbLine
 62
7
  6
CONTINUOUS
 10
9.7545549224
 20
9.9883293498
 11
9.7684743472
 21
9.9907464325
  0
LINE
  5
320
100
AcDbEntity
  8
0
100
AcDbLine
 62
7
  6
CONTINUOUS
 10
9.672687407
 20
9.9750574847
 11
9.6818432552
 21
9.9766473811
  0
LINE
  5
321
100
AcDbEntity
  8
0
100
AcDbLine
 62
7
  6
CONTINUOUS
 10
9.7443651962
 20
9.9880964002
 11
9.7304457714
 21
9.9856793175
  0
LINE
  5
322
100
AcDbEntity
  8
0
100
AcDbLine
 62
7
  6
CONTINUOUS
 10
9.6829901073
 20
9.98054644
 11
9.6969095321
 21
9.9829635227
  0
LINE
  5
323
100
AcDbEntity
  8
0
100
AcDbLine
 62
7
  6
CONTINUOUS
 10
9.7545549224
 20
9.9951658922
 11
9.7684743472
 21
9.997582975
  0
LINE
  5
324
100
AcDbEntity
  8
0
100
AcDbLine
 62
7
  6
CONTINUOUS
 10
9.6980563841
 20
9.9868625816
 11
9.7119758089
 21
9.9892796643
  0
LINE
  5
325
100
AcDbEntity
  8
0
100
AcDbLine
 62
7
  6
CONTINUOUS
 10
9.7443651962
 20
9.9949329427
 11
9.7304457714
 21
9.9925158599
  0
LINE
  5
326
100
AcDbEntity
  8
0
100
AcDbLine
 62
7
  6
CONTINUOUS
 10
9.6577341042
 20
9.9808338912
 11
9.6438146794
 21
9.9784168085
  0
LINE
  5
327
100
AcDbEntity
  8
0
100
AcDbLine
 62
7
  6
CONTINUOUS
 10
9.713122661
 20
9.9931787232
 11
9.7270420858
 21
9.995595806
  0
LINE
  5
328
100
AcDbEntity
  8
0
100
AcDbLine
 62
7
  6
CONTINUOUS
 10
9.6728003811
 20
9.9871500329
 11
9.6588809562
 21
9.9847329501
  0
LINE
  5
329
100
AcDbEntity
  8
0
100
AcDbLine
 62
7
  6
CONTINUOUS
 10
9.7545549224
 20
10.0020024346
 11
9.7684743472
 21
10.0044195174
  0
LINE
  5
32A
100
AcDbEntity
  8
0
100
AcDbLine
 62
7
  6
CONTINUOUS
 10
9.7443651962
 20
10.0017694851
 11
9.7304457714
 21
9.9993524023
  0
LINE
  5
32B
100
AcDbEntity
  8
0
100
AcDbLine
 62
7
  6
CONTINUOUS
 10
9.6878666579
 20
9.9934661745
 11
9.6739472331
 21
9.9910490917
  0
LINE
  5
32C
100
AcDbEntity
  8
0
100
AcDbLine
 62
7
  6
CONTINUOUS
 10
9.7029329348
 20
9.9997823161
 11
9.68901351
 21
9.9973652333
  0
LINE
  5
32D
100
AcDbEntity
  8
0
100
AcDbLine
 62
7
  6
CONTINUOUS
 10
9.7443651962
 20
10.0086060275
 11
9.7304457714
 21
10.0061889448
  0
LINE
  5
32E
100
AcDbEntity
  8
0
100
AcDbLine
 62
7
  6
CONTINUOUS
 10
9.7545549224
 20
10.0190937907
 11
9.7684743472
 21
10.0215108735
  0
LINE
  5
32F
100
AcDbEntity
  8
0
100
AcDbLine
 62
7
  6
CONTINUOUS
 10
9.7545549224
 20
10.0259303331
 11
9.7684743472
 21
10.0283474159
  0
LINE
  5
330
100
AcDbEntity
  8
0
100
AcDbLine
 62
7
  6
CONTINUOUS
 10
9.7443651962
 20
10.0256973836
 11
9.7304457714
 21
10.0232803008
  0
LINE
  5
331
100
AcDbEntity
  8
0
100
AcDbLine
 62
7
  6
CONTINUOUS
 10
9.7789876183
 20
10.0333385789
 11
9.7718780327
 21
10.0321040123
  0
LINE
  5
332
100
AcDbEntity
  8
0
100
AcDbLine
 62
7
  6
CONTINUOUS
 10
9.7545549224
 20
10.0327668756
 11
9.7684743472
 21
10.0351839583
  0
LINE
  5
333
100
AcDbEntity
  8
0
100
AcDbLine
 62
7
  6
CONTINUOUS
 10
9.7443651962
 20
10.032533926
 11
9.7304457714
 21
10.0301168433
  0
LINE
  5
334
100
AcDbEntity
  8
0
100
AcDbLine
 62
7
  6
CONTINUOUS
 10
9.89561402
 20
9.985052269
 11
9.9126617641
 21
9.9867614046
  0
LINE
  5
335
100
AcDbEntity
  8
0
100
AcDbLine
 62
7
  6
CONTINUOUS
 10
9.8360911512
 20
9.980950366
 11
9.8190434071
 21
9.9792412304
  0
LINE
  5
336
100
AcDbEntity
  8
0
100
AcDbLine
 62
7
  6
CONTINUOUS
 10
9.8210248744
 20
9.9804299652
 11
9.8380726185
 21
9.9821391008
  0
LINE
  5
337
100
AcDbEntity
  8
0
100
AcDbLine
 62
7
  6
CONTINUOUS
 10
9.89561402
 20
9.9918888114
 11
9.8785662758
 21
9.9901796758
  0
LINE
  5
338
100
AcDbEntity
  8
0
100
AcDbLine
 62
7
  6
CONTINUOUS
 10
9.8677751703
 20
9.9898864345
 11
9.8848229145
 21
9.9915955701
  0
LINE
  5
339
100
AcDbEntity
  8
0
100
AcDbLine
 62
7
  6
CONTINUOUS
 10
9.8210248744
 20
9.9872665076
 11
9.8039771302
 21
9.985557372
  0
LINE
  5
33A
100
AcDbEntity
  8
0
100
AcDbLine
 62
7
  6
CONTINUOUS
 10
9.8059585975
 20
9.9867461068
 11
9.8230063417
 21
9.9884552424
  0
LINE
  5
33B
100
AcDbEntity
  8
0
100
AcDbLine
 62
7
  6
CONTINUOUS
 10
9.8677751703
 20
9.9967229769
 11
9.8507274261
 21
9.9950138413
  0
LINE
  5
33C
100
AcDbEntity
  8
0
100
AcDbLine
 62
7
  6
CONTINUOUS
 10
9.8399363206
 20
9.9947206
 11
9.8569840648
 21
9.9964297356
  0
LINE
  5
33D
100
AcDbEntity
  8
0
100
AcDbLine
 62
7
  6
CONTINUOUS
 10
9.8059585975
 20
9.9935826493
 11
9.7889108533
 21
9.9918735136
  0
LINE
  5
33E
100
AcDbEntity
  8
0
100
AcDbLine
 62
7
  6
CONTINUOUS
 10
9.7908923207
 20
9.9930622484
 11
9.8079400648
 21
9.9947713841
  0
LINE
  5
33F
100
AcDbEntity
  8
0
100
AcDbLine
 62
7
  6
CONTINUOUS
 10
9.8399363206
 20
10.0015571424
 11
9.8228885765
 21
9.9998480068
  0
LINE
  5
340
100
AcDbEntity
  8
0
100
AcDbLine
 62
7
  6
CONTINUOUS
 10
9.812097471
 20
9.9995547655
 11
9.8291452152
 21
10.0012639011
  0
LINE
  5
341
100
AcDbEntity
  8
0
100
AcDbLine
 62
7
  6
CONTINUOUS
 10
9.7908923207
 20
9.9998987909
 11
9.7738445765
 21
9.9981896553
  0
LINE
  5
342
100
AcDbEntity
  8
0
100
AcDbLine
 62
7
  6
CONTINUOUS
 10
9.812097471
 20
10.0063913079
 11
9.7950497268
 21
10.0046821723
  0
LINE
  5
343
100
AcDbEntity
  8
0
100
AcDbLine
 62
7
  6
CONTINUOUS
 10
9.7842586213
 20
10.004388931
 11
9.8013063655
 21
10.0060980666
  0
LINE
  5
344
100
AcDbEntity
  8
0
100
AcDbLine
 62
7
  6
CONTINUOUS
 10
9.7842586213
 20
10.0112254734
 11
9.7672108772
 21
10.0095163378
  0
LINE
  5
345
100
AcDbEntity
  8
0
100
AcDbLine
 62
7
  6
CONTINUOUS
 10
9.7146614972
 20
10.0164743448
 11
9.7317092414
 21
10.0181834804
  0
LINE
  5
346
100
AcDbEntity
  8
0
100
AcDbLine
 62
7
  6
CONTINUOUS
 10
9.7198154192
 20
10.028982805
 11
9.7250755421
 21
10.029510163
  0
LINE
  5
347
100
AcDbEntity
  8
0
100
AcDbLine
 62
7
  6
CONTINUOUS
 10
9.9535111533
 20
9.9955047814
 11
9.9618413126
 21
9.9958923745
  0
LINE
  5
348
100
AcDbEntity
  8
0
100
AcDbLine
 62
7
  6
CONTINUOUS
 10
9.9171379434
 20
9.9981210129
 11
9.9361522313
 21
9.9990057266
  0
LINE
  5
349
100
AcDbEntity
  8
0
100
AcDbLine
 62
7
  6
CONTINUOUS
 10
9.9502787042
 20
10.0014838554
 11
9.9446865916
 21
10.0012236606
  0
LINE
  5
34A
100
AcDbEntity
  8
0
100
AcDbLine
 62
7
  6
CONTINUOUS
 10
9.8807647335
 20
10.0007372445
 11
9.8997790214
 21
10.0016219582
  0
LINE
  5
34B
100
AcDbEntity
  8
0
100
AcDbLine
 62
7
  6
CONTINUOUS
 10
9.9273276696
 20
10.0047246058
 11
9.9083133817
 21
10.0038398921
  0
LINE
  5
34C
100
AcDbEntity
  8
0
100
AcDbLine
 62
7
  6
CONTINUOUS
 10
9.8443915235
 20
10.003353476
 11
9.8634058114
 21
10.0042381897
  0
LINE
  5
34D
100
AcDbEntity
  8
0
100
AcDbLine
 62
7
  6
CONTINUOUS
 10
9.8909544596
 20
10.0073408374
 11
9.8719401717
 21
10.0064561237
  0
LINE
  5
34E
100
AcDbEntity
  8
0
100
AcDbLine
 62
7
  6
CONTINUOUS
 10
9.8723179521
 20
10.0105481127
 11
9.8791462487
 21
10.0108658257
  0
LINE
  5
34F
100
AcDbEntity
  8
0
100
AcDbLine
 62
7
  6
CONTINUOUS
 10
9.8545812497
 20
10.0099570689
 11
9.8355669618
 21
10.0090723552
  0
LINE
  5
350
100
AcDbEntity
  8
0
100
AcDbLine
 62
7
  6
CONTINUOUS
 10
9.8329478733
 20
10.0105481127
 11
9.8519621613
 21
10.0114328264
  0
LINE
  5
351
100
AcDbEntity
  8
0
100
AcDbLine
 62
7
  6
CONTINUOUS
 10
9.7935777946
 20
10.0105481127
 11
9.8125920825
 21
10.0114328264
  0
LINE
  5
352
100
AcDbEntity
  8
0
100
AcDbLine
 62
7
  6
CONTINUOUS
 10
9.6951525978
 20
10.0105481127
 11
9.7141668857
 21
10.0114328264
  0
LINE
  5
353
100
AcDbEntity
  8
0
100
AcDbLine
 62
7
  6
CONTINUOUS
 10
9.7878378736
 20
10.0164105168
 11
9.7847532329
 21
10.0162669919
  0
LINE
  5
354
100
AcDbEntity
  8
0
100
AcDbLine
 62
7
  6
CONTINUOUS
 10
9.655782519
 20
10.0105481127
 11
9.6747968069
 21
10.0114328264
  0
LINE
  5
355
100
AcDbEntity
  8
0
100
AcDbLine
 62
7
  6
CONTINUOUS
 10
9.6166674686
 20
10.0105599789
 11
9.6354267282
 21
10.0114328264
  0
LINE
  5
356
100
AcDbEntity
  8
0
100
AcDbLine
 62
9
  6
CONTINUOUS
 10
10.0716212883
 20
9.9610912248
 11
10.0238637247
 21
9.9610912248
  0
LINE
  5
357
100
AcDbEntity
  8
0
100
AcDbLine
 62
9
  6
CONTINUOUS
 10
9.4750563939
 20
9.9610912248
 11
9.4273051659
 21
9.9610912248
  0
LINE
  5
358
100
AcDbEntity
  8
0
100
AcDbLine
 62
9
  6
CONTINUOUS
 10
9.4141499096
 20
9.9747737752
 11
9.4735354803
 21
9.9747737752
  0
LINE
  5
359
100
AcDbEntity
  8
0
100
AcDbLine
 62
9
  6
CONTINUOUS
 10
10.0253846382
 20
9.9747737752
 11
10.08477691
 21
9.9747737752
  0
LINE
  5
35A
100
AcDbEntity
  8
0
100
AcDbLine
 62
7
  6
CONTINUOUS
 10
9.4272988302
 20
9.9752685279
 11
9.4747552488
 21
9.9752685279
  0
LINE
  5
35B
100
AcDbEntity
  8
0
100
AcDbLine
 62
7
  6
CONTINUOUS
 10
10.0241648698
 20
9.9752685279
 11
10.0716149527
 21
9.9752685279
  0
LINE
  5
35C
100
AcDbEntity
  8
0
100
AcDbLine
 62
9
  6
CONTINUOUS
 10
9.4272988302
 20
9.9754479639
 11
9.4750563939
 21
9.9754479639
  0
LINE
  5
35D
100
AcDbEntity
  8
0
100
AcDbLine
 62
9
  6
CONTINUOUS
 10
10.0238637247
 20
9.9754479639
 11
10.0716149527
 21
9.9754479639
  0
LINE
  5
35E
100
AcDbEntity
  8
0
100
AcDbLine
 62
7
  6
CONTINUOUS
 10
9.5934635789
 20
9.9855102305
 11
9.6131486183
 21
9.9855102305
  0
LINE
  5
35F
100
AcDbEntity
  8
0
100
AcDbLine
 62
7
  6
CONTINUOUS
 10
9.6213024286
 20
9.990344396
 11
9.6409874679
 21
9.990344396
  0
LINE
  5
360
100
AcDbEntity
  8
0
100
AcDbLine
 62
7
  6
CONTINUOUS
 10
9.6131486183
 20
9.9914308499
 11
9.5934635789
 21
9.9914308499
  0
LINE
  5
361
100
AcDbEntity
  8
0
100
AcDbLine
 62
7
  6
CONTINUOUS
 10
9.6491412782
 20
9.9951785615
 11
9.6688263176
 21
9.9951785615
  0
LINE
  5
362
100
AcDbEntity
  8
0
100
AcDbLine
 62
7
  6
CONTINUOUS
 10
9.5372082971
 20
9.9958462682
 11
9.5501566218
 21
9.9958462682
  0
LINE
  5
363
100
AcDbEntity
  8
0
100
AcDbLine
 62
7
  6
CONTINUOUS
 10
9.6409874679
 20
9.9962650154
 11
9.6213024286
 21
9.9962650154
  0
LINE
  5
364
100
AcDbEntity
  8
0
100
AcDbLine
 62
7
  6
CONTINUOUS
 10
9.5668447924
 20
9.9984624997
 11
9.5865298317
 21
9.9984624997
  0
LINE
  5
365
100
AcDbEntity
  8
0
100
AcDbLine
 62
7
  6
CONTINUOUS
 10
9.6769801279
 20
10.000012727
 11
9.6966651672
 21
10.000012727
  0
LINE
  5
366
100
AcDbEntity
  8
0
100
AcDbLine
 62
7
  6
CONTINUOUS
 10
9.6032180023
 20
10.0010787312
 11
9.6229030417
 21
10.0010787312
  0
LINE
  5
367
100
AcDbEntity
  8
0
100
AcDbLine
 62
7
  6
CONTINUOUS
 10
9.6688263176
 20
10.0010991809
 11
9.6491412782
 21
10.0010991809
  0
LINE
  5
368
100
AcDbEntity
  8
0
100
AcDbLine
 62
7
  6
CONTINUOUS
 10
9.6395912122
 20
10.0036949627
 11
9.6592762516
 21
10.0036949627
  0
LINE
  5
369
100
AcDbEntity
  8
0
100
AcDbLine
 62
7
  6
CONTINUOUS
 10
9.5865298317
 20
10.0043831191
 11
9.5668447924
 21
10.0043831191
  0
LINE
  5
36A
100
AcDbEntity
  8
0
100
AcDbLine
 62
7
  6
CONTINUOUS
 10
9.7048189775
 20
10.0048468925
 11
9.7245040169
 21
10.0048468925
  0
LINE
  5
36B
100
AcDbEntity
  8
0
100
AcDbLine
 62
7
  6
CONTINUOUS
 10
9.6966651672
 20
10.0059333464
 11
9.6769801279
 21
10.0059333464
  0
LINE
  5
36C
100
AcDbEntity
  8
0
100
AcDbLine
 62
7
  6
CONTINUOUS
 10
9.6229030417
 20
10.0069993506
 11
9.6032180023
 21
10.0069993506
  0
LINE
  5
36D
100
AcDbEntity
  8
0
100
AcDbLine
 62
7
  6
CONTINUOUS
 10
9.6592762516
 20
10.0096155821
 11
9.6395912122
 21
10.0096155821
  0
LINE
  5
36E
100
AcDbEntity
  8
0
100
AcDbLine
 62
7
  6
CONTINUOUS
 10
9.7245040169
 20
10.0107675119
 11
9.7048189775
 21
10.0107675119
  0
LINE
  5
36F
100
AcDbEntity
  8
0
100
AcDbLine
 62
7
  6
CONTINUOUS
 10
9.7744161017
 20
10.0169323063
 11
9.7863196098
 21
10.0169323063
  0
LINE
  5
370
100
AcDbEntity
  8
0
100
AcDbLine
 62
7
  6
CONTINUOUS
 10
9.7801550434
 20
10.0228529257
 11
9.7744161017
 21
10.0228529257
  0
LINE
  5
371
100
AcDbEntity
  8
0
100
AcDbLine
 62
9
  6
CONTINUOUS
 10
9.4051125064
 20
10.0247183969
 11
9.405803999
 21
10.0247183969
  0
LINE
  5
372
100
AcDbEntity
  8
0
100
AcDbLine
 62
9
  6
CONTINUOUS
 10
10.0931161192
 20
10.0247183969
 11
10.0938076121
 21
10.0247183969
  0
LINE
  5
373
100
AcDbEntity
  8
0
100
AcDbLine
 62
9
  6
CONTINUOUS
 10
10.0938076121
 20
10.0281366682
 11
10.0935567894
 21
10.0281366682
  0
LINE
  5
374
100
AcDbEntity
  8
0
100
AcDbLine
 62
9
  6
CONTINUOUS
 10
9.4053633208
 20
10.0281366682
 11
9.4051125064
 21
10.0281366682
  0
LINE
  5
375
100
AcDbEntity
  8
0
100
AcDbLine
 62
7
  6
CONTINUOUS
 10
9.7355406344
 20
9.9755409786
 11
9.7545549224
 21
9.9746562649
  0
LINE
  5
376
100
AcDbEntity
  8
0
100
AcDbLine
 62
7
  6
CONTINUOUS
 10
9.6767483921
 20
9.9799491775
 11
9.6577341042
 21
9.9808338912
  0
LINE
  5
377
100
AcDbEntity
  8
0
100
AcDbLine
 62
7
  6
CONTINUOUS
 10
9.6639758193
 20
9.9814311537
 11
9.6829901073
 21
9.98054644
  0
LINE
  5
378
100
AcDbEntity
  8
0
100
AcDbLine
 62
7
  6
CONTINUOUS
 10
9.7633794841
 20
9.9803751441
 11
9.7443651962
 21
9.9812598578
  0
LINE
  5
379
100
AcDbEntity
  8
0
100
AcDbLine
 62
7
  6
CONTINUOUS
 10
9.7355406344
 20
9.982377521
 11
9.7545549224
 21
9.9814928074
  0
LINE
  5
37A
100
AcDbEntity
  8
0
100
AcDbLine
 62
7
  6
CONTINUOUS
 10
9.691814669
 20
9.9862653192
 11
9.6728003811
 21
9.9871500329
  0
LINE
  5
37B
100
AcDbEntity
  8
0
100
AcDbLine
 62
7
  6
CONTINUOUS
 10
9.6790420962
 20
9.9877472953
 11
9.6980563841
 21
9.9868625816
  0
LINE
  5
37C
100
AcDbEntity
  8
0
100
AcDbLine
 62
7
  6
CONTINUOUS
 10
9.7633794841
 20
9.9872116866
 11
9.7443651962
 21
9.9880964002
  0
LINE
  5
37D
100
AcDbEntity
  8
0
100
AcDbLine
 62
7
  6
CONTINUOUS
 10
9.7355406344
 20
9.9892140635
 11
9.7545549224
 21
9.9883293498
  0
LINE
  5
37E
100
AcDbEntity
  8
0
100
AcDbLine
 62
7
  6
CONTINUOUS
 10
9.7068809459
 20
9.9925814608
 11
9.6878666579
 21
9.9934661745
  0
LINE
  5
37F
100
AcDbEntity
  8
0
100
AcDbLine
 62
7
  6
CONTINUOUS
 10
9.6941083731
 20
9.9940634369
 11
9.713122661
 21
9.9931787232
  0
LINE
  5
380
100
AcDbEntity
  8
0
100
AcDbLine
 62
7
  6
CONTINUOUS
 10
9.7633794841
 20
9.994048229
 11
9.7443651962
 21
9.9949329427
  0
LINE
  5
381
100
AcDbEntity
  8
0
100
AcDbLine
 62
7
  6
CONTINUOUS
 10
9.7355406344
 20
9.9960506059
 11
9.7545549224
 21
9.9951658922
  0
LINE
  5
382
100
AcDbEntity
  8
0
100
AcDbLine
 62
7
  6
CONTINUOUS
 10
9.7219472227
 20
9.9988976024
 11
9.7029329348
 21
9.9997823161
  0
LINE
  5
383
100
AcDbEntity
  8
0
100
AcDbLine
 62
7
  6
CONTINUOUS
 10
9.7633794841
 20
10.0008847714
 11
9.7443651962
 21
10.0017694851
  0
LINE
  5
384
100
AcDbEntity
  8
0
100
AcDbLine
 62
7
  6
CONTINUOUS
 10
9.7355406344
 20
10.0028871483
 11
9.7545549224
 21
10.0020024346
  0
LINE
  5
385
100
AcDbEntity
  8
0
100
AcDbLine
 62
7
  6
CONTINUOUS
 10
9.7633794841
 20
10.0077213138
 11
9.7443651962
 21
10.0086060275
  0
LINE
  5
386
100
AcDbEntity
  8
0
100
AcDbLine
 62
7
  6
CONTINUOUS
 10
9.7355406344
 20
10.0199785044
 11
9.7545549224
 21
10.0190937907
  0
LINE
  5
387
100
AcDbEntity
  8
0
100
AcDbLine
 62
7
  6
CONTINUOUS
 10
9.7633794841
 20
10.0248126699
 11
9.7443651962
 21
10.0256973836
  0
LINE
  5
388
100
AcDbEntity
  8
0
100
AcDbLine
 62
7
  6
CONTINUOUS
 10
9.7355406344
 20
10.0268150468
 11
9.7545549224
 21
10.0259303331
  0
LINE
  5
389
100
AcDbEntity
  8
0
100
AcDbLine
 62
7
  6
CONTINUOUS
 10
9.7769728958
 20
10.0288022158
 11
9.7790291016
 21
10.0287065429
  0
LINE
  5
38A
100
AcDbEntity
  8
0
100
AcDbLine
 62
7
  6
CONTINUOUS
 10
9.7633794841
 20
10.0316492123
 11
9.7443651962
 21
10.032533926
  0
LINE
  5
38B
100
AcDbEntity
  8
0
100
AcDbLine
 62
7
  6
CONTINUOUS
 10
9.7355406344
 20
10.0336515893
 11
9.7545549224
 21
10.0327668756
  0
LINE
  5
38C
100
AcDbEntity
  8
0
100
AcDbLine
 62
9
  6
CONTINUOUS
 10
13.1105201591
 20
2.6310985706
 11
13.1105201591
 21
3.5132076866
  0
LINE
  5
38D
100
AcDbEntity
  8
0
100
AcDbLine
 62
9
  6
CONTINUOUS
 10
13.1126747646
 20
4.028484912
 11
13.1126747576
 21
4.3973205938
  0
LINE
  5
38E
100
AcDbEntity
  8
0
100
AcDbLine
 62
7
  6
CONTINUOUS
 10
13.1495466734
 20
2.6704671681
 11
13.1495466734
 21
4.3580294811
  0
LINE
  5
38F
100
AcDbEntity
  8
0
100
AcDbLine
 62
7
  6
CONTINUOUS
 10
12.704979646
 20
4.4301561925
 11
12.7553066647
 21
7.0239162849
  0
LINE
  5
390
100
AcDbEntity
  8
0
100
AcDbLine
 62
7
  6
CONTINUOUS
 10
13.0513059979
 20
4.4200778092
 11
13.1017848693
 21
7.0216641008
  0
ARC
  5
391
100
AcDbEntity
  8
0
100
AcDbCircle
 62
7
  6
CONTINUOUS
 10
8.7750506105
 20
1.3478533559
 40
0.0787401575
100
AcDbArc
 50
270.0
 51
360.0
  0
ARC
  5
392
100
AcDbEntity
  8
0
100
AcDbCircle
 62
7
  6
CONTINUOUS
 10
8.7652080908
 20
1.2297431197
 40
0.0393700787
100
AcDbArc
 50
90.0
 51
180.0
  0
ARC
  5
393
100
AcDbEntity
  8
0
100
AcDbCircle
 62
7
  6
CONTINUOUS
 10
8.8734758073
 20
5.2651761905
 40
0.0196850394
100
AcDbArc
 50
89.999457129
 51
180.0
  0
ARC
  5
394
100
AcDbEntity
  8
0
100
AcDbCircle
 62
7
  6
CONTINUOUS
 10
9.7489552143
 20
8.1031191707
 40
1.9443530154
100
AcDbArc
 50
90.8552690744
 51
91.2063926062
  0
ARC
  5
395
100
AcDbEntity
  8
0
100
AcDbCircle
 62
7
  6
CONTINUOUS
 10
9.7485838776
 20
8.1200025834
 40
1.9274655269
100
AcDbArc
 50
91.2059231859
 51
91.596024471
  0
ARC
  5
396
100
AcDbEntity
  8
0
100
AcDbCircle
 62
7
  6
CONTINUOUS
 10
9.7472768699
 20
8.1639450976
 40
1.8835035527
100
AcDbArc
 50
91.6873993217
 51
92.11160567
  0
ARC
  5
397
100
AcDbEntity
  8
0
100
AcDbCircle
 62
7
  6
CONTINUOUS
 10
9.7486648399
 20
8.2046599641
 40
1.8200038927
100
AcDbArc
 50
91.2764564851
 51
91.411978791
  0
ARC
  5
398
100
AcDbEntity
  8
0
100
AcDbCircle
 62
7
  6
CONTINUOUS
 10
9.7448395828
 20
8.2275842439
 40
1.8198177327
100
AcDbArc
 50
92.1663400577
 51
92.6461733711
  0
ARC
  5
399
100
AcDbEntity
  8
0
100
AcDbCircle
 62
7
  6
CONTINUOUS
 10
9.7483742581
 20
8.2162302899
 40
1.8084299198
100
AcDbArc
 50
91.4118081164
 51
91.6119283933
  0
ARC
  5
39A
100
AcDbEntity
  8
0
100
AcDbCircle
 62
7
  6
CONTINUOUS
 10
9.7465671105
 20
8.2740760529
 40
1.750556222
100
AcDbArc
 50
91.6060616703
 51
92.5162411063
  0
ARC
  5
39B
100
AcDbEntity
  8
0
100
AcDbCircle
 62
7
  6
CONTINUOUS
 10
9.7396825263
 20
8.3326174699
 40
1.7146581379
100
AcDbArc
 50
92.6971522507
 51
93.5977816157
  0
ARC
  5
39C
100
AcDbEntity
  8
0
100
AcDbCircle
 62
7
  6
CONTINUOUS
 10
9.7431196821
 20
8.3521936143
 40
1.6723625773
100
AcDbArc
 50
92.5628636361
 51
92.9880493479
  0
ARC
  5
39D
100
AcDbEntity
  8
0
100
AcDbCircle
 62
7
  6
CONTINUOUS
 10
9.735180706
 20
8.4053947077
 40
1.6417418364
100
AcDbArc
 50
93.6003627871
 51
93.786911993
  0
ARC
  5
39E
100
AcDbEntity
  8
0
100
AcDbCircle
 62
7
  6
CONTINUOUS
 10
9.732906391
 20
8.4395177381
 40
1.6075431016
100
AcDbArc
 50
93.7863538248
 51
94.0236446245
  0
ARC
  5
39F
100
AcDbEntity
  8
0
100
AcDbCircle
 62
7
  6
CONTINUOUS
 10
9.7385718999
 20
8.4360562418
 40
1.5883767767
100
AcDbArc
 50
93.0289304758
 51
93.7170817623
  0
ARC
  5
3A0
100
AcDbEntity
  8
0
100
AcDbCircle
 62
7
  6
CONTINUOUS
 10
9.7293549794
 20
8.4894619965
 40
1.5574727514
100
AcDbArc
 50
94.0222407219
 51
94.3745176756
  0
ARC
  5
3A1
100
AcDbEntity
  8
0
100
AcDbCircle
 62
7
  6
CONTINUOUS
 10
9.7348110858
 20
8.494525591
 40
1.529786615
100
AcDbArc
 50
93.7184920565
 51
93.9020862593
  0
ARC
  5
3A2
100
AcDbEntity
  8
0
100
AcDbCircle
 62
7
  6
CONTINUOUS
 10
9.7248868402
 20
8.5473340742
 40
1.4994284021
100
AcDbArc
 50
94.4788735265
 51
94.6519472918
  0
ARC
  5
3A3
100
AcDbEntity
  8
0
100
AcDbCircle
 62
7
  6
CONTINUOUS
 10
9.7492667794
 20
8.5735315958
 40
1.4656847609
100
AcDbArc
 50
90.7367558874
 51
91.1484281814
  0
ARC
  5
3A4
100
AcDbEntity
  8
0
100
AcDbCircle
 62
7
  6
CONTINUOUS
 10
9.7210411572
 20
8.5940552346
 40
1.4525492583
100
AcDbArc
 50
94.6502193773
 51
95.01341368
  0
ARC
  5
3A5
100
AcDbEntity
  8
0
100
AcDbCircle
 62
7
  6
CONTINUOUS
 10
9.7160135705
 20
8.6511096485
 40
1.395273764
100
AcDbArc
 50
95.0124927563
 51
95.3348949738
  0
ARC
  5
3A6
100
AcDbEntity
  8
0
100
AcDbCircle
 62
7
  6
CONTINUOUS
 10
9.7492789558
 20
8.6920197439
 40
1.3434623453
100
AcDbArc
 50
90.8029834806
 51
91.0351508484
  0
ARC
  5
3A7
100
AcDbEntity
  8
0
100
AcDbCircle
 62
7
  6
CONTINUOUS
 10
9.7491313794
 20
8.7003375292
 40
1.3351432513
100
AcDbArc
 50
91.0352673672
 51
91.2543518408
  0
ARC
  5
3A8
100
AcDbEntity
  8
0
100
AcDbCircle
 62
7
  6
CONTINUOUS
 10
9.7494600593
 20
8.1029055393
 40
1.9833417407
100
AcDbArc
 50
89.7156631452
 51
90.2843368548
  0
ARC
  5
3A9
100
AcDbEntity
  8
0
100
AcDbCircle
 62
9
  6
CONTINUOUS
 10
9.7494600593
 20
8.1360428788
 40
1.9773447646
100
AcDbArc
 50
88.8402361626
 51
91.1597638395
  0
ARC
  5
3AA
100
AcDbEntity
  8
0
100
AcDbCircle
 62
7
  6
CONTINUOUS
 10
9.749833184
 20
8.1094372435
 40
1.9380396624
100
AcDbArc
 50
88.0450307705
 51
88.4551538878
  0
ARC
  5
3AB
100
AcDbEntity
  8
0
100
AcDbCircle
 62
7
  6
CONTINUOUS
 10
9.7498887278
 20
8.1117745823
 40
1.9357016757
100
AcDbArc
 50
88.4549322006
 51
88.6351681927
  0
ARC
  5
3AC
100
AcDbEntity
  8
0
100
AcDbCircle
 62
7
  6
CONTINUOUS
 10
9.7504512982
 20
8.137113422
 40
1.9103566255
100
AcDbArc
 50
88.6339348001
 51
89.1441014823
  0
ARC
  5
3AD
100
AcDbEntity
  8
0
100
AcDbCircle
 62
7
  6
CONTINUOUS
 10
9.752071647
 20
8.1756708438
 40
1.8717682507
100
AcDbArc
 50
87.6111147455
 51
88.0443470882
  0
ARC
  5
3AE
100
AcDbEntity
  8
0
100
AcDbCircle
 62
7
  6
CONTINUOUS
 10
9.7554553431
 20
8.2570788894
 40
1.7902898504
100
AcDbArc
 50
87.2865016811
 51
87.4590031651
  0
ARC
  5
3AF
100
AcDbEntity
  8
0
100
AcDbCircle
 62
7
  6
CONTINUOUS
 10
9.7513510088
 20
8.2465825007
 40
1.7780673873
100
AcDbArc
 50
87.4664171019
 51
88.6205613851
  0
ARC
  5
3B0
100
AcDbEntity
  8
0
100
AcDbCircle
 62
7
  6
CONTINUOUS
 10
9.7566913183
 20
8.2831310171
 40
1.7642084204
100
AcDbArc
 50
86.9762302194
 51
87.2865417996
  0
ARC
  5
3B1
100
AcDbEntity
  8
0
100
AcDbCircle
 62
7
  6
CONTINUOUS
 10
9.7595065624
 20
8.3363314729
 40
1.7109335288
100
AcDbArc
 50
86.4240044872
 51
86.9763972414
  0
ARC
  5
3B2
100
AcDbEntity
  8
0
100
AcDbCircle
 62
7
  6
CONTINUOUS
 10
9.7552135102
 20
8.3398396919
 40
1.6847306191
100
AcDbArc
 50
87.1286118963
 51
87.3956924466
  0
ARC
  5
3B3
100
AcDbEntity
  8
0
100
AcDbCircle
 62
7
  6
CONTINUOUS
 10
9.7581862744
 20
8.3985756696
 40
1.6259194666
100
AcDbArc
 50
86.4362367995
 51
87.1295527767
  0
ARC
  5
3B4
100
AcDbEntity
  8
0
100
AcDbCircle
 62
7
  6
CONTINUOUS
 10
9.7638164359
 20
8.4065543616
 40
1.6405785526
100
AcDbArc
 50
86.069460757
 51
86.4212633967
  0
ARC
  5
3B5
100
AcDbEntity
  8
0
100
AcDbCircle
 62
7
  6
CONTINUOUS
 10
9.7494600593
 20
8.477160321
 40
1.5974545831
100
AcDbArc
 50
89.646976877
 51
90.353023123
  0
ARC
  5
3B6
100
AcDbEntity
  8
0
100
AcDbCircle
 62
7
  6
CONTINUOUS
 10
9.7677256189
 20
8.4638561071
 40
1.5831436246
100
AcDbArc
 50
85.7214021523
 51
86.0684518273
  0
ARC
  5
3B7
100
AcDbEntity
  8
0
100
AcDbCircle
 62
7
  6
CONTINUOUS
 10
9.7629093719
 20
8.4764811526
 40
1.5478710549
100
AcDbArc
 50
86.0990843742
 51
86.4314770643
  0
ARC
  5
3B8
100
AcDbEntity
  8
0
100
AcDbCircle
 62
7
  6
CONTINUOUS
 10
9.749460649
 20
8.5460094579
 40
1.5135099218
100
AcDbArc
 50
89.8071532745
 51
90.5270416339
  0
ARC
  5
3B9
100
AcDbEntity
  8
0
100
AcDbCircle
 62
7
  6
CONTINUOUS
 10
9.7729510546
 20
8.533552566
 40
1.5132515052
100
AcDbArc
 50
85.3409427365
 51
85.6259773445
  0
ARC
  5
3BA
100
AcDbEntity
  8
0
100
AcDbCircle
 62
7
  6
CONTINUOUS
 10
9.7495496486
 20
8.5575201052
 40
1.501999041
100
AcDbArc
 50
88.8966415364
 51
89.809070377
  0
ARC
  5
3BB
100
AcDbEntity
  8
0
100
AcDbCircle
 62
7
  6
CONTINUOUS
 10
9.7493450853
 20
8.558542278
 40
1.500976569
100
AcDbArc
 50
90.5270311013
 51
91.103141009
  0
ARC
  5
3BC
100
AcDbEntity
  8
0
100
AcDbCircle
 62
7
  6
CONTINUOUS
 10
9.7494600593
 20
8.5557110818
 40
1.4835063954
100
AcDbArc
 50
89.8031674451
 51
90.1968487747
  0
ARC
  5
3BD
100
AcDbEntity
  8
0
100
AcDbCircle
 62
7
  6
CONTINUOUS
 10
9.7494536965
 20
8.5572901946
 40
1.4819272701
100
AcDbArc
 50
90.1968125288
 51
90.5380605315
  0
ARC
  5
3BE
100
AcDbEntity
  8
0
100
AcDbCircle
 62
7
  6
CONTINUOUS
 10
9.7494719212
 20
8.5581480881
 40
1.4810693628
100
AcDbArc
 50
89.4613052133
 51
89.8033024493
  0
ARC
  5
3BF
100
AcDbEntity
  8
0
100
AcDbCircle
 62
7
  6
CONTINUOUS
 10
9.7494031423
 20
8.5630107766
 40
1.4762064656
100
AcDbArc
 50
90.5381835226
 51
90.6873686442
  0
ARC
  5
3C0
100
AcDbEntity
  8
0
100
AcDbCircle
 62
7
  6
CONTINUOUS
 10
9.749570586
 20
8.5676374227
 40
1.4715795132
100
AcDbArc
 50
89.1297916778
 51
89.4156877288
  0
ARC
  5
3C1
100
AcDbEntity
  8
0
100
AcDbCircle
 62
7
  6
CONTINUOUS
 10
9.7772525696
 20
8.5864725414
 40
1.460156998
100
AcDbArc
 50
84.9649485423
 51
85.3405035443
  0
ARC
  5
3C2
100
AcDbEntity
  8
0
100
AcDbCircle
 62
7
  6
CONTINUOUS
 10
9.7497664774
 20
8.5798262522
 40
1.4593891014
100
AcDbArc
 50
88.8510598977
 51
89.0302816279
  0
ARC
  5
3C3
100
AcDbEntity
  8
0
100
AcDbCircle
 62
7
  6
CONTINUOUS
 10
9.7826052892
 20
8.6476304678
 40
1.3987652864
100
AcDbArc
 50
84.6176279828
 51
84.9634955972
  0
ARC
  5
3C4
100
AcDbEntity
  8
0
100
AcDbCircle
 62
7
  6
CONTINUOUS
 10
9.7494597476
 20
8.6762297519
 40
1.3592534324
100
AcDbArc
 50
89.784186517
 51
89.9999868623
  0
ARC
  5
3C5
100
AcDbEntity
  8
0
100
AcDbCircle
 62
7
  6
CONTINUOUS
 10
9.7494599936
 20
8.6765761643
 40
1.35890702
100
AcDbArc
 50
89.9999972322
 51
90.5879934629
  0
ARC
  5
3C6
100
AcDbEntity
  8
0
100
AcDbCircle
 62
7
  6
CONTINUOUS
 10
9.7494919635
 20
8.6809896031
 40
1.3544934937
100
AcDbArc
 50
89.196662394
 51
89.784790866
  0
ARC
  5
3C7
100
AcDbEntity
  8
0
100
AcDbCircle
 62
7
  6
CONTINUOUS
 10
9.7493913518
 20
8.6838704531
 40
1.3516124109
100
AcDbArc
 50
90.5882570267
 51
90.8029062773
  0
ARC
  5
3C8
100
AcDbEntity
  8
0
100
AcDbCircle
 62
7
  6
CONTINUOUS
 10
9.7496375253
 20
8.6917302672
 40
1.3437518444
100
AcDbArc
 50
89.0482314929
 51
89.1964474413
  0
ARC
  5
3C9
100
AcDbEntity
  8
0
100
AcDbCircle
 62
7
  6
CONTINUOUS
 10
9.7497896501
 20
8.7004529009
 40
1.3350278873
100
AcDbArc
 50
88.7455788509
 51
89.0485411217
  0
ARC
  5
3CA
100
AcDbEntity
  8
0
100
AcDbCircle
 62
7
  6
CONTINUOUS
 10
9.7486934242
 20
11.2709282162
 40
1.2980977881
100
AcDbArc
 50
266.6433067082
 51
270.0338379392
  0
ARC
  5
3CB
100
AcDbEntity
  8
0
100
AcDbCircle
 62
7
  6
CONTINUOUS
 10
9.7502734653
 20
11.2704642542
 40
1.2976342048
100
AcDbArc
 50
269.9640848349
 51
273.3681859844
  0
ARC
  5
3CC
100
AcDbEntity
  8
0
100
AcDbCircle
 62
7
  6
CONTINUOUS
 10
9.7381785799
 20
11.0744768974
 40
1.1013683029
100
AcDbArc
 50
265.3566988303
 51
266.5909835504
  0
ARC
  5
3CD
100
AcDbEntity
  8
0
100
AcDbCircle
 62
7
  6
CONTINUOUS
 10
9.7632381709
 20
11.0389387281
 40
1.0657445015
100
AcDbArc
 50
273.4036843563
 51
274.8389276304
  0
ARC
  5
3CE
100
AcDbEntity
  8
0
100
AcDbCircle
 62
7
  6
CONTINUOUS
 10
9.7311858153
 20
10.9839858882
 40
1.0106082694
100
AcDbArc
 50
265.167367387
 51
265.3365364261
  0
ARC
  5
3CF
100
AcDbEntity
  8
0
100
AcDbCircle
 62
7
  6
CONTINUOUS
 10
9.7494600593
 20
17.030924222
 40
0.5511811024
100
AcDbArc
 50
0.0
 51
180.0
  0
ARC
  5
3D0
100
AcDbEntity
  8
0
100
AcDbCircle
 62
7
  6
CONTINUOUS
 10
9.5873049892
 20
9.7304708947
 40
0.2733128019
100
AcDbArc
 50
105.0467615157
 51
105.6992836711
  0
ARC
  5
3D1
100
AcDbEntity
  8
0
100
AcDbCircle
 62
7
  6
CONTINUOUS
 10
9.1485845905
 20
10.0013397419
 40
0.2576617116
100
AcDbArc
 50
2.1656483493
 51
2.8055105154
  0
ARC
  5
3D2
100
AcDbEntity
  8
0
100
AcDbCircle
 62
7
  6
CONTINUOUS
 10
9.159813146
 20
10.001725365
 40
0.2464266069
100
AcDbArc
 50
0.0438878687
 51
2.1747079085
  0
ARC
  5
3D3
100
AcDbEntity
  8
0
100
AcDbCircle
 62
9
  6
CONTINUOUS
 10
9.4350301042
 20
10.0951543802
 40
0.0547433694
100
AcDbArc
 50
234.7030881415
 51
236.4735307515
  0
ARC
  5
3D4
100
AcDbEntity
  8
0
100
AcDbCircle
 62
7
  6
CONTINUOUS
 10
9.7591606014
 20
10.0547036268
 40
0.0198821801
100
AcDbArc
 50
27.15819185
 51
89.5908356304
  0
ARC
  5
3D5
100
AcDbEntity
  8
0
100
AcDbCircle
 62
7
  6
CONTINUOUS
 10
9.7397595172
 20
10.0547036268
 40
0.0198821801
100
AcDbArc
 50
90.409164412
 51
152.841868568
  0
ARC
  5
3D6
100
AcDbEntity
  8
0
100
AcDbCircle
 62
7
  6
CONTINUOUS
 10
9.7596101359
 20
10.0549320568
 40
0.0193774964
100
AcDbArc
 50
0.0688841689
 51
27.1639398669
  0
ARC
  5
3D7
100
AcDbEntity
  8
0
100
AcDbCircle
 62
7
  6
CONTINUOUS
 10
9.7393099819
 20
10.0549320569
 40
0.0193774957
100
AcDbArc
 50
152.8361214674
 51
179.9311161869
  0
ARC
  5
3D8
100
AcDbEntity
  8
0
100
AcDbCircle
 62
7
  6
CONTINUOUS
 10
9.415517159
 20
10.0264348971
 40
0.0105452913
100
AcDbArc
 50
180.0400140548
 51
189.3679512087
  0
ARC
  5
3D9
100
AcDbEntity
  8
0
100
AcDbCircle
 62
7
  6
CONTINUOUS
 10
9.4154489734
 20
10.0264257786
 40
0.0104771033
100
AcDbArc
 50
170.6016264655
 51
179.9904082709
  0
ARC
  5
3DA
100
AcDbEntity
  8
0
100
AcDbCircle
 62
7
  6
CONTINUOUS
 10
10.8026103049
 20
2.4659629527
 40
0.1574803152
100
AcDbArc
 50
90.0002285128
 51
179.9997673874
  0
ARC
  5
3DB
100
AcDbEntity
  8
0
100
AcDbCircle
 62
7
  6
CONTINUOUS
 10
10.8026103017
 20
4.5604524173
 40
0.1574803151
100
AcDbArc
 50
180.0002314656
 51
269.9997726767
  0
ARC
  5
3DC
100
AcDbEntity
  8
0
100
AcDbCircle
 62
7
  6
CONTINUOUS
 10
10.7238695081
 20
1.3478533559
 40
0.0787401575
100
AcDbArc
 50
180.0
 51
270.0
  0
ARC
  5
3DD
100
AcDbEntity
  8
0
100
AcDbCircle
 62
7
  6
CONTINUOUS
 10
10.7337120278
 20
1.2297431197
 40
0.0393700787
100
AcDbArc
 50
0.0
 51
90.0
  0
ARC
  5
3DE
100
AcDbEntity
  8
0
100
AcDbCircle
 62
7
  6
CONTINUOUS
 10
10.6254443112
 20
5.2651761905
 40
0.0196850394
100
AcDbArc
 50
0.0
 51
90.0
  0
ARC
  5
3DF
100
AcDbEntity
  8
0
100
AcDbCircle
 62
7
  6
CONTINUOUS
 10
9.9126475703
 20
9.7342260531
 40
0.2694183635
100
AcDbArc
 50
74.2960001576
 51
74.957955087
  0
ARC
  5
3E0
100
AcDbEntity
  8
0
100
AcDbCircle
 62
7
  6
CONTINUOUS
 10
10.3503363553
 20
10.001339706
 40
0.2576625396
100
AcDbArc
 50
177.1944952847
 51
177.8343494977
  0
ARC
  5
3E1
100
AcDbEntity
  8
0
100
AcDbCircle
 62
7
  6
CONTINUOUS
 10
10.3331237822
 20
10.0018415011
 40
0.2404433445
100
AcDbArc
 50
177.7988428521
 51
179.9826879749
  0
ARC
  5
3E2
100
AcDbEntity
  8
0
100
AcDbCircle
 62
9
  6
CONTINUOUS
 10
10.0657204084
 20
10.0924868739
 40
0.0515087265
100
AcDbArc
 50
303.4559358336
 51
306.3514757116
  0
ARC
  5
3E3
100
AcDbEntity
  8
0
100
AcDbCircle
 62
7
  6
CONTINUOUS
 10
10.083339038
 20
10.0264115306
 40
0.0106097664
100
AcDbArc
 50
3.1650040148
 51
9.3577845219
  0
ARC
  5
3E4
100
AcDbEntity
  8
0
100
AcDbCircle
 62
7
  6
CONTINUOUS
 10
10.0834711451
 20
10.0264292865
 40
0.0104771033
100
AcDbArc
 50
350.6016264654
 51
359.9904082711
  0
ARC
  5
3E5
100
AcDbEntity
  8
0
100
AcDbCircle
 62
7
  6
CONTINUOUS
 10
10.0835435404
 20
10.0264272709
 40
0.0104047079
100
AcDbArc
 50
0.0014408285
 51
3.1406347884
  0
ARC
  5
3E6
100
AcDbEntity
  8
0
100
AcDbCircle
 62
9
  6
CONTINUOUS
 10
15.0021665171
 20
-18.8866146923
 40
22.9928680094
100
AcDbArc
 50
94.7137279851
 51
95.260084745
  0
ARC
  5
3E7
100
AcDbEntity
  8
0
100
AcDbCircle
 62
7
  6
CONTINUOUS
 10
12.4485084463
 20
5.2469710581
 40
0.8453964197
100
AcDbArc
 50
271.5349068983
 51
277.9959750987
  0
ARC
  5
3E8
100
AcDbEntity
  8
0
100
AcDbCircle
 62
7
  6
CONTINUOUS
 10
12.4492816472
 20
5.2407900965
 40
0.8392024111
100
AcDbArc
 50
262.9944559872
 51
269.5440766307
  0
ARC
  5
3E9
100
AcDbEntity
  8
0
100
AcDbCircle
 62
9
  6
CONTINUOUS
 10
12.8863604581
 20
4.8305872132
 40
0.8211994246
100
AcDbArc
 50
267.7150843929
 51
270.5506141165
  0
ARC
  5
3EA
100
AcDbEntity
  8
0
100
AcDbCircle
 62
7
  6
CONTINUOUS
 10
11.8946819163
 20
3.5129726472
 40
0.7874015748
100
AcDbArc
 50
271.4651119917
 51
300.6498009162
  0
ARC
  5
3EB
100
AcDbEntity
  8
0
100
AcDbCircle
 62
7
  6
CONTINUOUS
 10
12.4569403742
 20
3.6628139858
 40
0.7874015748
100
AcDbArc
 50
80.2018150924
 51
99.7981849076
  0
ARC
  5
3EC
100
AcDbEntity
  8
0
100
AcDbCircle
 62
7
  6
CONTINUOUS
 10
11.8946821568
 20
3.5134455525
 40
0.787398743
100
AcDbArc
 50
81.7392411926
 51
88.5349002424
  0
ARC
  5
3ED
100
AcDbEntity
  8
0
100
AcDbCircle
 62
9
  6
CONTINUOUS
 10
12.9602050801
 20
4.4608905574
 40
0.4704316799
100
AcDbArc
 50
256.8379351083
 51
261.9721736259
  0
ARC
  5
3EE
100
AcDbEntity
  8
0
100
AcDbCircle
 62
7
  6
CONTINUOUS
 10
12.4015151774
 20
3.5934702142
 40
0.3937007874
100
AcDbArc
 50
180.0
 51
203.0456088398
  0
ARC
  5
3EF
100
AcDbEntity
  8
0
100
AcDbCircle
 62
9
  6
CONTINUOUS
 10
12.8635829199
 20
4.0683622287
 40
0.3241216873
100
AcDbArc
 50
86.2965011425
 51
90.0333084921
  0
ARC
  5
3F0
100
AcDbEntity
  8
0
100
AcDbCircle
 62
9
  6
CONTINUOUS
 10
12.7806856703
 20
4.0118173155
 40
0.0729563688
100
AcDbArc
 50
352.9151774642
 51
358.6084437989
  0
ARC
  5
3F1
100
AcDbEntity
  8
0
100
AcDbCircle
 62
7
  6
CONTINUOUS
 10
13.1101765947
 20
4.3580298534
 40
0.0393700787
100
AcDbArc
 50
0.0
 51
86.3619475077
  0
ARC
  5
3F2
100
AcDbEntity
  8
0
100
AcDbCircle
 62
7
  6
CONTINUOUS
 10
13.1101765947
 20
2.6704671502
 40
0.0393700787
100
AcDbArc
 50
270.5
 51
360.0
  0
ARC
  5
3F3
100
AcDbEntity
  8
0
100
AcDbCircle
 62
7
  6
CONTINUOUS
 10
13.0702947334
 20
7.0222751075
 40
0.031496063
100
AcDbArc
 50
358.8884230293
 51
88.8884230293
  0
ARC
  5
3F4
100
AcDbEntity
  8
0
100
AcDbCircle
 62
7
  6
CONTINUOUS
 10
12.7867932282
 20
7.0233052323
 40
0.0314960558
100
AcDbArc
 50
90.6884230293
 51
178.8884229934
  0
ARC
  5
3F5
100
AcDbEntity
  8
0
100
AcDbCircle
 62
7
  6
CONTINUOUS
 10
12.5861234451
 20
4.4108454819
 40
0.0282972441
100
AcDbArc
 50
0.0
 51
80.2018150925
  0
ARC
  5
3F6
100
AcDbEntity
  8
0
100
AcDbCircle
 62
7
  6
CONTINUOUS
 10
12.3277573034
 20
4.4108454819
 40
0.0282972441
100
AcDbArc
 50
99.7981849075
 51
180.0
  0
ARC
  5
3F7
100
AcDbEntity
  8
0
100
AcDbCircle
 62
7
  6
CONTINUOUS
 10
12.6852923355
 20
4.4305457355
 40
0.0196935797
100
AcDbArc
 50
270.51718993
 51
358.8637563213
  0
ARC
  5
3F8
100
AcDbEntity
  8
0
100
AcDbCircle
 62
7
  6
CONTINUOUS
 10
13.0709933296
 20
4.4197030056
 40
0.0196933
100
AcDbArc
 50
178.9119668881
 51
266.3458417616
  0
ARC
  5
3F9
100
AcDbEntity
  8
0
100
AcDbCircle
 62
7
  6
CONTINUOUS
 10
11.8951293506
 20
2.6431289464
 40
0.0196850394
100
AcDbArc
 50
270.0
 51
360.0
  0
ARC
  5
3FA
100
AcDbEntity
  8
0
100
AcDbCircle
 62
7
  6
CONTINUOUS
 10
11.8951293506
 20
4.3832864267
 40
0.0196850394
100
AcDbArc
 50
0.0
 51
90.0
  0
ARC
  5
3FB
100
AcDbEntity
  8
0
100
AcDbCircle
 62
7
  6
CONTINUOUS
 10
12.4569403742
 20
4.3950974504
 40
0.0157480315
100
AcDbArc
 50
25.5096698115
 51
155.5562001964
  0
SPLINE
  5
3FC
100
AcDbEntity
  8
0
100
AcDbSpline
 62
7
  6
CONTINUOUS
 70
0
 71
3
 72
40
 73
36
 74
0
 42
0.0000001
 43
0.0000001
 44
0.0000000001
 40
0.0
 40
0.0
 40
0.0
 40
0.0
 40
0.0941781665
 40
0.1860499707
 40
0.2749834993
 40
0.3603714432
 40
0.4416440686
 40
0.5182755961
 40
0.5547021521
 40
0.5897968407
 40
0.6235118159
 40
0.6558041295
 40
0.6866378334
 40
0.7159837207
 40
0.7438216484
 40
0.7701425138
 40
0.7949493645
 40
0.8182641979
 40
0.8401281134
 40
0.8606149402
 40
0.8798332369
 40
0.8890182122
 40
0.8979515177
 40
0.9066648726
 40
0.9151963605
 40
0.923588456
 40
0.9318849679
 40
0.9401347286
 40
0.9483947349
 40
0.9567111049
 40
0.9651347341
 40
0.9736972546
 40
0.9823534441
 40
0.9910887518
 40
1.0
 40
1.0
 40
1.0
 40
1.0
 10
9.6384999836
 20
12.9474127795
 30
0.0
 10
9.6236784644
 20
12.9468674656
 30
0.0
 10
9.5944060892
 20
12.9455655046
 30
0.0
 10
9.5511781956
 20
12.9429427746
 30
0.0
 10
9.5093813223
 20
12.9396886181
 30
0.0
 10
9.4693126053
 20
12.9358259234
 30
0.0
 10
9.431253944
 20
12.9313811939
 30
0.0
 10
9.4009406866
 20
12.9271489905
 30
0.0
 10
9.377900073
 20
12.9234711618
 30
0.0
 10
9.3615714917
 20
12.9206318564
 30
0.0
 10
9.3459270336
 20
12.9176688185
 30
0.0
 10
9.3309903005
 20
12.9145855195
 30
0.0
 10
9.3167825825
 20
12.9113851694
 30
0.0
 10
9.3033224252
 20
12.9080701708
 30
0.0
 10
9.2906251949
 20
12.9046420881
 30
0.0
 10
9.2787028189
 20
12.9011004838
 30
0.0
 10
9.2675624882
 20
12.8974431295
 30
0.0
 10
9.2572070261
 20
12.8936629551
 30
0.0
 10
9.2476320093
 20
12.8897484749
 30
0.0
 10
9.238828023
 20
12.8856773045
 30
0.0
 10
9.2320182884
 20
12.882073424
 30
0.0
 10
9.2269647969
 20
12.8790654198
 30
0.0
 10
9.2234128292
 20
12.8767746818
 30
0.0
 10
9.2200404792
 20
12.8744010964
 30
0.0
 10
9.216847248
 20
12.8719279727
 30
0.0
 10
9.2138313912
 20
12.8693406944
 30
0.0
 10
9.210997284
 20
12.8666183919
 30
0.0
 10
9.2083572623
 20
12.8637348939
 30
0.0
 10
9.2059232906
 20
12.8606706663
 30
0.0
 10
9.2037231045
 20
12.857400084
 30
0.0
 10
9.2018004472
 20
12.8539032264
 30
0.0
 10
9.2002024949
 20
12.8501874348
 30
0.0
 10
9.1989761775
 20
12.8462801519
 30
0.0
 10
9.1981811809
 20
12.8422060601
 30
0.0
 10
9.1979704556
 20
12.8394273898
 30
0.0
 10
9.1979457193
 20
12.8380242295
 30
0.0
  0
SPLINE
  5
3FD
100
AcDbEntity
  8
0
100
AcDbSpline
 62
7
  6
CONTINUOUS
 70
0
 71
3
 72
14
 73
10
 74
0
 42
0.0000001
 43
0.0000001
 44
0.0000000001
 40
0.0
 40
0.0
 40
0.0
 40
0.0
 40
0.0822163345
 40
0.1702165711
 40
0.2687061145
 40
0.3809975196
 40
0.5092660886
 40
0.6548160459
 40
1.0
 40
1.0
 40
1.0
 40
1.0
 10
9.393159759
 20
10.0388157312
 30
0.0
 10
9.3931596983
 20
10.0388711312
 30
0.0
 10
9.3931430832
 20
10.0389863386
 30
0.0
 10
9.3930708064
 20
10.0391541312
 30
0.0
 10
9.3929532105
 20
10.0393190015
 30
0.0
 10
9.3927914254
 20
10.0394813812
 30
0.0
 10
9.3925858291
 20
10.0396416712
 30
0.0
 10
9.3922332726
 20
10.0398654018
 30
0.0
 10
9.3919341743
 20
10.0400092036
 30
0.0
 10
9.3917204795
 20
10.0401010484
 30
0.0
  0
SPLINE
  5
3FE
100
AcDbEntity
  8
0
100
AcDbSpline
 62
7
  6
CONTINUOUS
 70
0
 71
3
 72
33
 73
29
 74
0
 42
0.0000001
 43
0.0000001
 44
0.0000000001
 40
0.0
 40
0.0
 40
0.0
 40
0.0
 40
0.0038575215
 40
0.0079473754
 40
0.0124628983
 40
0.0175467431
 40
0.0297597848
 40
0.0450316014
 40
0.0635056059
 40
0.0851795804
 40
0.1099761369
 40
0.1377588591
 40
0.1683545611
 40
0.201554345
 40
0.2748025351
 40
0.3553764469
 40
0.4408766837
 40
0.5287329199
 40
0.6162938171
 40
0.7009177357
 40
0.7800635069
 40
0.8513807772
 40
0.8834487347
 40
0.9128155013
 40
0.9392837214
 40
0.9627030524
 40
0.9829635573
 40
1.0
 40
1.0
 40
1.0
 40
1.0
 10
9.3834769149
 20
10.0869648818
 30
0.0
 10
9.3834768767
 20
10.0870158407
 30
0.0
 10
9.3834629362
 20
10.0871212397
 30
0.0
 10
9.3834020161
 20
10.0872756024
 30
0.0
 10
9.3833024929
 20
10.0874277989
 30
0.0
 10
9.383107242
 20
10.0876410129
 30
0.0
 10
9.3827578888
 20
10.0878978529
 30
0.0
 10
9.3822199158
 20
10.0881814202
 30
0.0
 10
9.3815403243
 20
10.0884563718
 30
0.0
 10
9.3807236209
 20
10.0887207005
 30
0.0
 10
9.3797750939
 20
10.0889721402
 30
0.0
 10
9.3787018247
 20
10.0892086491
 30
0.0
 10
9.3775119351
 20
10.089428206
 30
0.0
 10
9.375722636
 20
10.0897050299
 30
0.0
 10
9.3732675332
 20
10.0899894913
 30
0.0
 10
9.3701146468
 20
10.0902311208
 30
0.0
 10
9.3667626306
 20
10.0903745841
 30
0.0
 10
9.3633155491
 20
10.0904151916
 30
0.0
 10
9.3598803914
 20
10.0903515107
 30
0.0
 10
9.3565637699
 20
10.0901857489
 30
0.0
 10
9.3534686693
 20
10.0899233275
 30
0.0
 10
9.351075237
 20
10.089622328
 30
0.0
 10
9.3493453724
 20
10.0893328733
 30
0.0
 10
9.3482063841
 20
10.0891055415
 30
0.0
 10
9.3471878137
 20
10.0888621126
 30
0.0
 10
9.3462971277
 20
10.088604642
 30
0.0
 10
9.3455411022
 20
10.0883352767
 30
0.0
 10
9.345091143
 20
10.0881319562
 30
0.0
 10
9.3448926548
 20
10.0880258774
 30
0.0
  0
SPLINE
  5
3FF
100
AcDbEntity
  8
0
100
AcDbSpline
 62
7
  6
CONTINUOUS
 70
0
 71
3
 72
28
 73
24
 74
0
 42
0.0000001
 43
0.0000001
 44
0.0000000001
 40
0.0
 40
0.0
 40
0.0
 40
0.0
 40
0.0036931168
 40
0.0075607575
 40
0.0163556586
 40
0.0272354615
 40
0.0405962971
 40
0.0566106295
 40
0.0753243399
 40
0.096716524
 40
0.1207178649
 40
0.1761103646
 40
0.240411591
 40
0.3122248322
 40
0.3899321897
 40
0.4717538456
 40
0.5557997172
 40
0.6401206361
 40
0.7227602378
 40
0.8018060584
 40
0.8754385848
 40
0.9419926634
 40
1.0
 40
1.0
 40
1.0
 40
1.0
 10
9.4496092063
 20
10.1085644843
 30
0.0
 10
9.4496090362
 20
10.108609081
 30
0.0
 10
9.449598216
 20
10.1087006328
 30
0.0
 10
9.4495330813
 20
10.1088884631
 30
0.0
 10
9.4493637442
 20
10.1091233818
 30
0.0
 10
9.4490572989
 20
10.1093818864
 30
0.0
 10
9.4486404687
 20
10.109634721
 30
0.0
 10
9.4481137415
 20
10.1098809692
 30
0.0
 10
9.4474790862
 20
10.1101200436
 30
0.0
 10
9.4467396365
 20
10.1103503237
 30
0.0
 10
9.4455619292
 20
10.1106586177
 30
0.0
 10
9.4438596527
 20
10.1110017736
 30
0.0
 10
9.4415716739
 20
10.1113426316
 30
0.0
 10
9.4390039506
 20
10.1116199773
 30
0.0
 10
9.4362175531
 20
10.1118267993
 30
0.0
 10
9.4332787295
 20
10.1119576589
 30
0.0
 10
9.4302576043
 20
10.1120092456
 30
0.0
 10
9.4272263036
 20
10.111980228
 30
0.0
 10
9.424257213
 20
10.1118713533
 30
0.0
 10
9.4214212536
 20
10.1116853638
 30
0.0
 10
9.418785922
 20
10.1114271075
 30
0.0
 10
9.4164140335
 20
10.1111031447
 30
0.0
 10
9.4149340522
 20
10.1108289909
 30
0.0
 10
9.4142502586
 20
10.1106770112
 30
0.0
  0
SPLINE
  5
400
100
AcDbEntity
  8
0
100
AcDbSpline
 62
7
  6
CONTINUOUS
 70
0
 71
3
 72
26
 73
22
 74
0
 42
0.0000001
 43
0.0000001
 44
0.0000000001
 40
0.0
 40
0.0
 40
0.0
 40
0.0
 40
0.0074926939
 40
0.0159645919
 40
0.0260874232
 40
0.0382374923
 40
0.052606892
 40
0.0692812015
 40
0.0882777967
 40
0.1095795164
 40
0.1588655102
 40
0.2165195293
 40
0.2816691258
 40
0.3532645913
 40
0.4301165676
 40
0.5109292214
 40
0.5943282956
 40
0.6788869721
 40
0.8456819814
 40
0.9250926105
 40
1.0
 40
1.0
 40
1.0
 40
1.0
 10
9.5542928918
 20
10.124935086
 30
0.0
 10
9.554292229
 20
10.1250126449
 30
0.0
 10
9.5542566368
 20
10.1251786383
 30
0.0
 10
9.5541126649
 20
10.1254112675
 30
0.0
 10
9.5538848898
 20
10.1256363712
 30
0.0
 10
9.5535746351
 20
10.1258565233
 30
0.0
 10
9.5531822462
 20
10.1260723293
 30
0.0
 10
9.5527086454
 20
10.1262832508
 30
0.0
 10
9.552155467
 20
10.1264886166
 30
0.0
 10
9.551270657
 20
10.1267672545
 30
0.0
 10
9.5499808782
 20
10.1270864666
 30
0.0
 10
9.5482300859
 20
10.1274183922
 30
0.0
 10
9.5462382311
 20
10.1277085087
 30
0.0
 10
9.5440401712
 20
10.1279513883
 30
0.0
 10
9.5416743395
 20
10.1281423582
 30
0.0
 10
9.5391823588
 20
10.1282778348
 30
0.0
 10
9.536608081
 20
10.1283553506
 30
0.0
 10
9.5331427235
 20
10.1283790877
 30
0.0
 10
9.5297184437
 20
10.1282868714
 30
0.0
 10
9.5264010126
 20
10.1280729423
 30
0.0
 10
9.5248100013
 20
10.1279265323
 30
0.0
 10
9.5240391115
 20
10.127842885
 30
0.0
  0
SPLINE
  5
401
100
AcDbEntity
  8
0
100
AcDbSpline
 62
7
  6
CONTINUOUS
 70
0
 71
3
 72
24
 73
20
 74
0
 42
0.0000001
 43
0.0000001
 44
0.0000000001
 40
0.0
 40
0.0
 40
0.0
 40
0.0
 40
0.0078459281
 40
0.0164426317
 40
0.0263400907
 40
0.0378893151
 40
0.0512953167
 40
0.0666745799
 40
0.1035119945
 40
0.148471221
 40
0.2012613822
 40
0.2613956607
 40
0.3282431881
 40
0.401057109
 40
0.479001553
 40
0.5611652247
 40
0.6465784293
 40
0.8230356297
 40
1.0
 40
1.0
 40
1.0
 40
1.0
 10
9.6849019227
 20
10.1341021376
 30
0.0
 10
9.6849010006
 20
10.1341666422
 30
0.0
 10
9.684876216
 20
10.1343022171
 30
0.0
 10
9.6847757948
 20
10.1344967061
 30
0.0
 10
9.6846154133
 20
10.1346865786
 30
0.0
 10
9.6843965442
 20
10.1348729513
 30
0.0
 10
9.6841196097
 20
10.1350564888
 30
0.0
 10
9.6836440873
 20
10.1353126229
 30
0.0
 10
9.6829020286
 20
10.1356141399
 30
0.0
 10
9.6818441243
 20
10.1359411987
 30
0.0
 10
9.6805818708
 20
10.1362473267
 30
0.0
 10
9.6791303303
 20
10.1365284709
 30
0.0
 10
9.6775067235
 20
10.1367807266
 30
0.0
 10
9.6757308627
 20
10.1370008094
 30
0.0
 10
9.6738244799
 20
10.1371858178
 30
0.0
 10
9.6718109684
 20
10.1373333549
 30
0.0
 10
9.6689858107
 20
10.1374790961
 30
0.0
 10
9.6653774562
 20
10.137555155
 30
0.0
 10
9.6624711112
 20
10.1375067102
 30
0.0
 10
9.6610170576
 20
10.137453041
 30
0.0
  0
SPLINE
  5
402
100
AcDbEntity
  8
0
100
AcDbSpline
 62
7
  6
CONTINUOUS
 70
0
 71
3
 72
22
 73
18
 74
0
 42
0.0000001
 43
0.0000001
 44
0.0000000001
 40
0.0
 40
0.0
 40
0.0
 40
0.0
 40
0.0086983479
 40
0.0179642825
 40
0.0282336355
 40
0.0398218904
 40
0.0676888549
 40
0.1025423046
 40
0.1446674477
 40
0.1940551783
 40
0.2505037291
 40
0.3137000569
 40
0.3832297799
 40
0.4586124402
 40
0.6246933149
 40
0.8070000634
 40
1.0
 40
1.0
 40
1.0
 40
1.0
 10
9.8256831691
 20
10.1349598646
 30
0.0
 10
9.8256821168
 20
10.1350114588
 30
0.0
 10
9.8256657527
 20
10.135118142
 30
0.0
 10
9.8256006557
 20
10.1352739055
 30
0.0
 10
9.8254962089
 20
10.1354273947
 30
0.0
 10
9.8252929203
 20
10.135642467
 30
0.0
 10
9.8249320614
 20
10.1359014272
 30
0.0
 10
9.8243783573
 20
10.1361870142
 30
0.0
 10
9.8236806124
 20
10.1364638932
 30
0.0
 10
9.822843471
 20
10.1367295893
 30
0.0
 10
9.8218725626
 20
10.1369820764
 30
0.0
 10
9.8207752781
 20
10.1372190289
 30
0.0
 10
9.81956009
 20
10.1374385393
 30
0.0
 10
9.8177355713
 20
10.1377143008
 30
0.0
 10
9.8152363454
 20
10.1379959102
 30
0.0
 10
9.812032512
 20
10.1382317824
 30
0.0
 10
9.8098072112
 20
10.1383204171
 30
0.0
 10
9.808662535
 20
10.1383483525
 30
0.0
  0
SPLINE
  5
403
100
AcDbEntity
  8
0
100
AcDbSpline
 62
7
  6
CONTINUOUS
 70
0
 71
3
 72
19
 73
15
 74
0
 42
0.0000001
 43
0.0000001
 44
0.0000000001
 40
0.0
 40
0.0
 40
0.0
 40
0.0
 40
0.0210253705
 40
0.0449634643
 40
0.0736715251
 40
0.1081815441
 40
0.1490130922
 40
0.1963753111
 40
0.250320071
 40
0.3107705658
 40
0.4505160956
 40
0.613745508
 40
0.7979551872
 40
1.0
 40
1.0
 40
1.0
 40
1.0
 10
9.9596563626
 20
10.1274046833
 30
0.0
 10
9.959654302
 20
10.1274835072
 30
0.0
 10
9.9596145517
 20
10.1276521551
 30
0.0
 10
9.959462631
 20
10.1278871367
 30
0.0
 10
9.9592252802
 20
10.128114678
 30
0.0
 10
9.9589033516
 20
10.1283371708
 30
0.0
 10
9.958497301
 20
10.1285551309
 30
0.0
 10
9.9580081618
 20
10.1287681216
 30
0.0
 10
9.9574376269
 20
10.1289751667
 30
0.0
 10
9.9565264736
 20
10.1292558082
 30
0.0
 10
9.9552005708
 20
10.1295764422
 30
0.0
 10
9.9534033848
 20
10.1299087198
 30
0.0
 10
9.9513624863
 20
10.1301974584
 30
0.0
 10
9.9499218333
 20
10.1303511673
 30
0.0
 10
9.94916732
 20
10.1304208318
 30
0.0
  0
SPLINE
  5
404
100
AcDbEntity
  8
0
100
AcDbSpline
 62
7
  6
CONTINUOUS
 70
0
 71
3
 72
17
 73
13
 74
0
 42
0.0000001
 43
0.0000001
 44
0.0000000001
 40
0.0
 40
0.0
 40
0.0
 40
0.0
 40
0.0273231021
 40
0.0565576027
 40
0.0890940969
 40
0.1259219014
 40
0.2147600255
 40
0.3260419325
 40
0.4605947507
 40
0.6183126448
 40
0.7985425156
 40
1.0
 40
1.0
 40
1.0
 40
1.0
 10
10.0706621552
 20
10.1123477561
 30
0.0
 10
10.0706605296
 20
10.1124004296
 30
0.0
 10
10.0706423341
 20
10.1125094382
 30
0.0
 10
10.0705729124
 20
10.1126681235
 30
0.0
 10
10.0704627496
 20
10.1128243921
 30
0.0
 10
10.0702491192
 20
10.1130435939
 30
0.0
 10
10.0698715042
 20
10.1133068989
 30
0.0
 10
10.0692938364
 20
10.1135971001
 30
0.0
 10
10.0685668713
 20
10.1138779365
 30
0.0
 10
10.0676956977
 20
10.114147064
 30
0.0
 10
10.0666866879
 20
10.1144020468
 30
0.0
 10
10.0659659861
 20
10.1145530758
 30
0.0
 10
10.065584462
 20
10.1146266549
 30
0.0
  0
SPLINE
  5
405
100
AcDbEntity
  8
0
100
AcDbSpline
 62
7
  6
CONTINUOUS
 70
0
 71
3
 72
13
 73
9
 74
0
 42
0.0000001
 43
0.0000001
 44
0.0000000001
 40
0.0
 40
0.0
 40
0.0
 40
0.0
 40
0.0821764086
 40
0.1705662318
 40
0.269583463
 40
0.3823232962
 40
0.6559910469
 40
1.0
 40
1.0
 40
1.0
 40
1.0
 10
10.1453112708
 20
10.0916051404
 30
0.0
 10
10.1453094085
 20
10.0916599306
 30
0.0
 10
10.1452894059
 20
10.0917735821
 30
0.0
 10
10.1452139071
 20
10.0919384667
 30
0.0
 10
10.1450946125
 20
10.0921006524
 30
0.0
 10
10.1448630597
 20
10.0923284965
 30
0.0
 10
10.1444550254
 20
10.0926011519
 30
0.0
 10
10.1440831827
 20
10.0927802118
 30
0.0
 10
10.1438723356
 20
10.0928708326
 30
0.0
  0
SPLINE
  5
406
100
AcDbEntity
  8
0
100
AcDbSpline
 62
7
  6
CONTINUOUS
 70
0
 71
3
 72
33
 73
29
 74
0
 42
0.0000001
 43
0.0000001
 44
0.0000000001
 40
0.0
 40
0.0
 40
0.0
 40
0.0
 40
0.0038693019
 40
0.0079979006
 40
0.0125716762
 40
0.0177262865
 40
0.0300986452
 40
0.0455329361
 40
0.0641607632
 40
0.0859744204
 40
0.1108931773
 40
0.1387793595
 40
0.1694585551
 40
0.202722017
 40
0.2760385492
 40
0.3566071399
 40
0.4420378394
 40
0.5297726689
 40
0.6171748501
 40
0.7016184369
 40
0.7805783658
 40
0.851719805
 40
0.8837080765
 40
0.9130028192
 40
0.939408042
 40
0.9627746669
 40
0.9829935512
 40
1.0
 40
1.0
 40
1.0
 40
1.0
 10
10.1549944434
 20
10.043454606
 30
0.0
 10
10.1549926826
 20
10.0435056645
 30
0.0
 10
10.1549750976
 20
10.0436111165
 30
0.0
 10
10.154909254
 20
10.0437648504
 30
0.0
 10
10.154805122
 20
10.0439164535
 30
0.0
 10
10.1546036875
 20
10.0441288396
 30
0.0
 10
10.1542476087
 20
10.0443845856
 30
0.0
 10
10.1537023965
 20
10.0446671314
 30
0.0
 10
10.1530163114
 20
10.0449409829
 30
0.0
 10
10.1521939286
 20
10.0452041321
 30
0.0
 10
10.151240607
 20
10.0454543324
 30
0.0
 10
10.1501634467
 20
10.0456895471
 30
0.0
 10
10.1489705748
 20
10.0459077929
 30
0.0
 10
10.1471790267
 20
10.0461826971
 30
0.0
 10
10.1447232515
 20
10.0464649568
 30
0.0
 10
10.1415718759
 20
10.0467042572
 30
0.0
 10
10.1382240621
 20
10.0468456662
 30
0.0
 10
10.1347833174
 20
10.0468845806
 30
0.0
 10
10.1313559974
 20
10.0468196319
 30
0.0
 10
10.1280480324
 20
10.0466530603
 30
0.0
 10
10.1249617157
 20
10.046390291
 30
0.0
 10
10.1225753752
 20
10.0460893636
 30
0.0
 10
10.1208507435
 20
10.0458001973
 30
0.0
 10
10.1197151827
 20
10.0455731687
 30
0.0
 10
10.1186996126
 20
10.0453301219
 30
0.0
 10
10.1178114464
 20
10.0450731031
 30
0.0
 10
10.1170574135
 20
10.0448042445
 30
0.0
 10
10.116608576
 20
10.0446013555
 30
0.0
 10
10.1164105371
 20
10.0444955167
 30
0.0
  0
SPLINE
  5
407
100
AcDbEntity
  8
0
100
AcDbSpline
 62
7
  6
CONTINUOUS
 70
0
 71
3
 72
29
 73
25
 74
0
 42
0.0000001
 43
0.0000001
 44
0.0000000001
 40
0.0
 40
0.0
 40
0.0
 40
0.0
 40
0.0116982264
 40
0.0247209546
 40
0.039136972
 40
0.0549902544
 40
0.0723047894
 40
0.0910915971
 40
0.1113504302
 40
0.1330736356
 40
0.1562458922
 40
0.180847052
 40
0.2068513922
 40
0.2342296834
 40
0.2929689125
 40
0.3567618218
 40
0.4252576492
 40
0.4980668298
 40
0.5747662687
 40
0.6549037781
 40
0.7380023836
 40
0.823563554
 40
0.9110728345
 40
1.0
 40
1.0
 40
1.0
 40
1.0
 10
10.0691732756
 20
9.95832448
 30
0.0
 10
10.0683753102
 20
9.95755098
 30
0.0
 10
10.0665911727
 20
9.9560162555
 30
0.0
 10
10.0635618332
 20
9.9538544034
 30
0.0
 10
10.0600453446
 20
9.9517155647
 30
0.0
 10
10.0560465072
 20
9.9496027792
 30
0.0
 10
10.0515705478
 20
9.947518556
 30
0.0
 10
10.0466238091
 20
9.9454662731
 30
0.0
 10
10.04121358
 20
9.9434488832
 30
0.0
 10
10.0353479475
 20
9.9414697385
 30
0.0
 10
10.0290358444
 20
9.9395318071
 30
0.0
 10
10.0222869476
 20
9.9376383455
 30
0.0
 10
10.0151116781
 20
9.9357921743
 30
0.0
 10
10.0047456552
 20
9.9333400315
 30
0.0
 10
9.9908005269
 20
9.9304362391
 30
0.0
 10
9.9729310305
 20
9.9272594098
 30
0.0
 10
9.953665688
 20
9.924334596
 30
0.0
 10
9.9331245692
 20
9.9216806115
 30
0.0
 10
9.911435614
 20
9.9193146471
 30
0.0
 10
9.8887341852
 20
9.9172518857
 30
0.0
 10
9.8651620875
 20
9.9155055544
 30
0.0
 10
9.8408665358
 20
9.9140867868
 30
0.0
 10
9.8159995268
 20
9.9130046558
 30
0.0
 10
9.7992446032
 20
9.9125151749
 30
0.0
 10
9.790798642
 20
9.9123269707
 30
0.0
  0
SPLINE
  5
408
100
AcDbEntity
  8
0
100
AcDbSpline
 62
7
  6
CONTINUOUS
 70
0
 71
3
 72
24
 73
20
 74
0
 42
0.0000001
 43
0.0000001
 44
0.0000000001
 40
0.0
 40
0.0
 40
0.0
 40
0.0
 40
0.0023473296
 40
0.0041312287
 40
0.0064113506
 40
0.0125546898
 40
0.0208792071
 40
0.0314049061
 40
0.0441277122
 40
0.0761062177
 40
0.1166137923
 40
0.1653651364
 40
0.2219971557
 40
0.2860956579
 40
0.3571767938
 40
0.434714651
 40
0.6067848839
 40
0.7971256539
 40
1.0
 40
1.0
 40
1.0
 40
1.0
 10
10.0936929218
 20
10.0284357367
 30
0.0
 10
10.0936801289
 20
10.02843574
 30
0.0
 10
10.0936596777
 20
10.028419885
 30
0.0
 10
10.0936401679
 20
10.0283917651
 30
0.0
 10
10.0936138487
 20
10.0283422437
 30
0.0
 10
10.09358238
 20
10.0282565137
 30
0.0
 10
10.0935449903
 20
10.0281254112
 30
0.0
 10
10.0935062519
 20
10.0279577213
 30
0.0
 10
10.0934482372
 20
10.0276623372
 30
0.0
 10
10.0933760841
 20
10.0272034582
 30
0.0
 10
10.0932917234
 20
10.0265480859
 30
0.0
 10
10.0932065587
 20
10.02575751
 30
0.0
 10
10.0931223025
 20
10.0248376619
 30
0.0
 10
10.093040896
 20
10.0237954429
 30
0.0
 10
10.0929640692
 20
10.0226386658
 30
0.0
 10
10.0928666639
 20
10.0208936117
 30
0.0
 10
10.0927689059
 20
10.0184977492
 30
0.0
 10
10.0926964005
 20
10.0154176909
 30
0.0
 10
10.0926804379
 20
10.0132746386
 30
0.0
 10
10.0926804379
 20
10.0121689815
 30
0.0
  0
LINE
  5
409
100
AcDbEntity
  8
0
100
AcDbLine
 62
7
  6
CONTINUOUS
 10
10.0720522223
 20
9.9752685176
 11
10.0725093973
 21
9.9753422002
  0
SPLINE
  5
40A
100
AcDbEntity
  8
0
100
AcDbSpline
 62
7
  6
CONTINUOUS
 70
0
 71
3
 72
17
 73
13
 74
0
 42
0.0000001
 43
0.0000001
 44
0.0000000001
 40
0.0
 40
0.0
 40
0.0
 40
0.0
 40
0.0334179347
 40
0.0734125408
 40
0.1192758408
 40
0.1702644877
 40
0.2849388471
 40
0.4128917418
 40
0.5506981908
 40
0.6957729217
 40
0.8461453121
 40
1.0
 40
1.0
 40
1.0
 40
1.0
 10
10.0725093973
 20
9.9753422002
 30
0.0
 10
10.0726778321
 20
9.9753894902
 30
0.0
 10
10.0730385625
 20
9.9755258316
 30
0.0
 10
10.0735995154
 20
9.9758009946
 30
0.0
 10
10.0742213342
 20
9.9761576317
 30
0.0
 10
10.0751553958
 20
9.9767529182
 30
0.0
 10
10.076406093
 20
9.9776481928
 30
0.0
 10
10.077973237
 20
9.9788778356
 30
0.0
 10
10.0796210965
 20
9.9802605142
 30
0.0
 10
10.0813203648
 20
9.9817631392
 30
0.0
 10
10.0830475725
 20
9.9833600678
 30
0.0
 10
10.0841952217
 20
9.9844645494
 30
0.0
 10
10.0847702089
 20
9.9850285888
 30
0.0
  0
SPLINE
  5
40B
100
AcDbEntity
  8
0
100
AcDbSpline
 62
7
  6
CONTINUOUS
 70
0
 71
3
 72
24
 73
20
 74
0
 42
0.0000001
 43
0.0000001
 44
0.0000000001
 40
0.0
 40
0.0
 40
0.0
 40
0.0
 40
0.0023473219
 40
0.0041312152
 40
0.0064113306
 40
0.0125546576
 40
0.020879163
 40
0.0314048435
 40
0.0441276246
 40
0.0761060603
 40
0.1166135449
 40
0.1653647983
 40
0.2219967243
 40
0.2860951306
 40
0.3571761258
 40
0.4347138066
 40
0.6067838394
 40
0.7971240021
 40
1.0
 40
1.0
 40
1.0
 40
1.0
 10
9.4052271968
 20
10.0284357368
 30
0.0
 10
9.4052399896
 20
10.0284357401
 30
0.0
 10
9.4052604408
 20
10.0284198851
 30
0.0
 10
9.4052799506
 20
10.0283917652
 30
0.0
 10
9.4053062698
 20
10.0283422439
 30
0.0
 10
9.4053377385
 20
10.028256514
 30
0.0
 10
9.4053751281
 20
10.0281254115
 30
0.0
 10
9.4054138666
 20
10.0279577217
 30
0.0
 10
9.4054718812
 20
10.0276623378
 30
0.0
 10
9.4055440343
 20
10.0272034593
 30
0.0
 10
9.405628395
 20
10.0265480874
 30
0.0
 10
9.4057135596
 20
10.0257575119
 30
0.0
 10
9.4057978158
 20
10.0248376642
 30
0.0
 10
9.4058792223
 20
10.0237954456
 30
0.0
 10
9.4059560491
 20
10.0226386692
 30
0.0
 10
9.4060534549
 20
10.0208936157
 30
0.0
 10
9.4061512102
 20
10.0184977553
 30
0.0
 10
9.4062237247
 20
10.0154176885
 30
0.0
 10
9.40623967
 20
10.0132746275
 30
0.0
 10
9.40623967
 20
10.01216896
 30
0.0
  0
LINE
  5
40C
100
AcDbEntity
  8
0
100
AcDbLine
 62
7
  6
CONTINUOUS
 10
9.4268615049
 20
9.9752685176
 11
9.4264043004
 21
9.9753421984
  0
SPLINE
  5
40D
100
AcDbEntity
  8
0
100
AcDbSpline
 62
7
  6
CONTINUOUS
 70
0
 71
3
 72
17
 73
13
 74
0
 42
0.0000001
 43
0.0000001
 44
0.0000000001
 40
0.0
 40
0.0
 40
0.0
 40
0.0
 40
0.0334191203
 40
0.073414612
 40
0.1192785287
 40
0.1702675641
 40
0.2849421627
 40
0.4128947935
 40
0.5507006682
 40
0.6957746472
 40
0.8461461922
 40
1.0
 40
1.0
 40
1.0
 40
1.0
 10
9.4264043004
 20
9.9753421984
 30
0.0
 10
9.4262358561
 20
9.9753894874
 30
0.0
 10
9.4258751072
 20
9.9755258266
 30
0.0
 10
9.4253141274
 20
9.9758009879
 30
0.0
 10
9.4246922839
 20
9.976157623
 30
0.0
 10
9.4237581925
 20
9.9767529053
 30
0.0
 10
9.4225074618
 20
9.9776481757
 30
0.0
 10
9.4209402824
 20
9.9788778161
 30
0.0
 10
9.4192923921
 20
9.9802604945
 30
0.0
 10
9.4175930966
 20
9.9817631222
 30
0.0
 10
9.415865865
 20
9.9833600571
 30
0.0
 10
9.4147182021
 20
9.9844645454
 30
0.0
 10
9.4141432086
 20
9.9850285888
 30
0.0
  0
SPLINE
  5
40E
100
AcDbEntity
  8
0
100
AcDbSpline
 62
7
  6
CONTINUOUS
 70
0
 71
3
 72
10
 73
6
 74
0
 42
0.0000001
 43
0.0000001
 44
0.0000000001
 40
0.0
 40
0.0
 40
0.0
 40
0.0
 40
0.2738299458
 40
0.530770083
 40
1.0
 40
1.0
 40
1.0
 40
1.0
 10
9.4103711075
 20
9.9771117788
 30
0.0
 10
9.4099226803
 20
9.9775462599
 30
0.0
 10
9.4090795562
 20
9.9784165318
 30
0.0
 10
9.4076184253
 20
9.9801679331
 30
0.0
 10
9.4067146444
 20
9.9815711116
 30
0.0
 10
9.4062396917
 20
9.9825298565
 30
0.0
  0
LINE
  5
40F
100
AcDbEntity
  8
0
100
AcDbLine
 62
7
  6
CONTINUOUS
 10
12.5656972681
 20
4.4107283888
 11
12.5661060015
 21
4.4097942595
  0
SPLINE
  5
410
100
AcDbEntity
  8
0
100
AcDbSpline
 62
7
  6
CONTINUOUS
 70
0
 71
3
 72
29
 73
25
 74
0
 42
0.0000001
 43
0.0000001
 44
0.0000000001
 40
0.0
 40
0.0
 40
0.0
 40
0.0
 40
0.0242633794
 40
0.036173229
 40
0.0480057098
 40
0.0714592083
 40
0.0944843009
 40
0.1170440694
 40
0.1393401684
 40
0.1615541644
 40
0.1839038332
 40
0.2297145537
 40
0.2535173648
 40
0.2780930544
 40
0.3299262211
 40
0.3858333309
 40
0.4461805096
 40
0.5111868576
 40
0.5809536944
 40
0.6554995091
 40
0.7347841829
 40
0.818718777
 40
0.9071762622
 40
1.0
 40
1.0
 40
1.0
 40
1.0
 10
9.234640431
 20
10.0844014298
 30
0.0
 10
9.2346490835
 20
10.0827740333
 30
0.0
 10
9.2348316762
 20
10.0803440891
 30
0.0
 10
9.2354097499
 20
10.0771746869
 30
0.0
 10
9.2361883431
 20
10.0741040809
 30
0.0
 10
9.2375157614
 20
10.070413508
 30
0.0
 10
9.2395912512
 20
10.0662629942
 30
0.0
 10
9.2420705417
 20
10.0624342778
 30
0.0
 10
9.2448724056
 20
10.0589072957
 30
0.0
 10
9.2479472123
 20
10.055636414
 30
0.0
 10
9.2524203859
 20
10.0515392169
 30
0.0
 10
9.2573592429
 20
10.047817878
 30
0.0
 10
9.2626713918
 20
10.0443965125
 30
0.0
 10
9.2684738899
 20
10.0409999415
 30
0.0
 10
9.2763891939
 20
10.0369691416
 30
0.0
 10
9.2867298074
 20
10.032464413
 30
0.0
 10
9.2981053354
 20
10.0281623539
 30
0.0
 10
9.3105273742
 20
10.0240333551
 30
0.0
 10
9.323996952
 20
10.0200648407
 30
0.0
 10
9.3385033078
 20
10.0162513899
 30
0.0
 10
9.3540271519
 20
10.0125927105
 30
0.0
 10
9.3705421336
 20
10.0090916147
 30
0.0
 10
9.3880158384
 20
10.0057525706
 30
0.0
 10
9.3999988422
 20
10.0036866131
 30
0.0
 10
9.4061425985
 20
10.0026781449
 30
0.0
  0
SPLINE
  5
411
100
AcDbEntity
  8
0
100
AcDbSpline
 62
7
  6
CONTINUOUS
 70
0
 71
3
 72
29
 73
25
 74
0
 42
0.0000001
 43
0.0000001
 44
0.0000000001
 40
0.0
 40
0.0
 40
0.0
 40
0.0
 40
0.0928265037
 40
0.1812869285
 40
0.2652244119
 40
0.3445116632
 40
0.4190600254
 40
0.4888290976
 40
0.5538368543
 40
0.6141854378
 40
0.6700929255
 40
0.7219255536
 40
0.7465006748
 40
0.7703033634
 40
0.816110773
 40
0.8384595691
 40
0.8606721881
 40
0.8829661392
 40
0.9055239596
 40
0.928544011
 40
0.9519977016
 40
0.9638320222
 40
0.9757431634
 40
1.0
 40
1.0
 40
1.0
 40
1.0
 10
10.0927327534
 20
10.0026707973
 30
0.0
 10
10.0988781169
 20
10.0036792808
 30
0.0
 10
10.1108642792
 20
10.0057452974
 30
0.0
 10
10.1283426257
 20
10.0090844799
 30
0.0
 10
10.1448620286
 20
10.0125857822
 30
0.0
 10
10.1603900575
 20
10.0162447146
 30
0.0
 10
10.1749003405
 20
10.020058462
 30
0.0
 10
10.1883735394
 20
10.0240273508
 30
0.0
 10
10.2007989259
 20
10.0281566962
 30
0.0
 10
10.212177469
 20
10.0324591476
 30
0.0
 10
10.2225206937
 20
10.0369644343
 30
0.0
 10
10.2304381294
 20
10.0409953534
 30
0.0
 10
10.2362420188
 20
10.044392394
 30
0.0
 10
10.2415552517
 20
10.0478141971
 30
0.0
 10
10.2464954298
 20
10.0515356214
 30
0.0
 10
10.2509695653
 20
10.0556332288
 30
0.0
 10
10.2540453261
 20
10.0589042139
 30
0.0
 10
10.2568473792
 20
10.0624318719
 30
0.0
 10
10.2593274824
 20
10.0662605227
 30
0.0
 10
10.261403796
 20
10.0704113107
 30
0.0
 10
10.2627313846
 20
10.0741025611
 30
0.0
 10
10.263510172
 20
10.0771740831
 30
0.0
 10
10.2640882985
 20
10.0803439784
 30
0.0
 10
10.2642710354
 20
10.0827741055
 30
0.0
 10
10.2642796876
 20
10.0844014298
 30
0.0
  0
LINE
  5
412
100
AcDbEntity
  8
0
100
AcDbLine
 62
7
  6
CONTINUOUS
 10
12.3469278573
 20
4.4078516803
 11
12.3482347835
 21
4.4108454819
  0
SPLINE
  5
413
100
AcDbEntity
  8
0
100
AcDbSpline
 62
7
  6
CONTINUOUS
 70
0
 71
3
 72
51
 73
47
 74
0
 42
0.0000001
 43
0.0000001
 44
0.0000000001
 40
0.0
 40
0.0
 40
0.0
 40
0.0
 40
0.0053970321
 40
0.0114922157
 40
0.0183340106
 40
0.0259515984
 40
0.0343610531
 40
0.0435687618
 40
0.0535742872
 40
0.0643715368
 40
0.0759503279
 40
0.0882966666
 40
0.1013937923
 40
0.1152220245
 40
0.1449814294
 40
0.1773770328
 40
0.2121815445
 40
0.2491438312
 40
0.2879925809
 40
0.3284392475
 40
0.370181247
 40
0.4129045675
 40
0.45628685
 40
0.5000000001
 40
0.5437131502
 40
0.5870954327
 40
0.6298187533
 40
0.6715607527
 40
0.7120074193
 40
0.750856169
 40
0.7878184556
 40
0.8226229674
 40
0.8550185708
 40
0.8847779756
 40
0.8986062078
 40
0.9117033335
 40
0.9240496722
 40
0.9356284633
 40
0.9464257129
 40
0.9564312383
 40
0.965638947
 40
0.9740484016
 40
0.9816659894
 40
0.9885077844
 40
0.9946029679
 40
1.0
 40
1.0
 40
1.0
 40
1.0
 10
9.4948925723
 20
9.9874795093
 30
0.0
 10
9.4955226497
 20
9.9867870251
 30
0.0
 10
9.4969754798
 20
9.9854125538
 30
0.0
 10
9.4995153545
 20
9.9834910962
 30
0.0
 10
9.5025376101
 20
9.9815921032
 30
0.0
 10
9.5060372154
 20
9.9797184751
 30
0.0
 10
9.5100088586
 20
9.9778730499
 30
0.0
 10
9.514445609
 20
9.9760591765
 30
0.0
 10
9.5193394922
 20
9.9742804193
 30
0.0
 10
9.5246813846
 20
9.9725402022
 30
0.0
 10
9.5304611852
 20
9.9708420742
 30
0.0
 10
9.5366678354
 20
9.9691893515
 30
0.0
 10
9.5432893855
 20
9.9675853563
 30
0.0
 10
9.5528915494
 20
9.9654637346
 30
0.0
 10
9.565838783
 20
9.9629781046
 30
0.0
 10
9.5824464599
 20
9.9603030411
 30
0.0
 10
9.6003555938
 20
9.957889614
 30
0.0
 10
9.6194268711
 20
9.9557572232
 30
0.0
 10
9.6395120004
 20
9.9539231563
 30
0.0
 10
9.6604545321
 20
9.9524021322
 30
0.0
 10
9.6820912385
 20
9.9512063384
 30
0.0
 10
9.7042534232
 20
9.9503453245
 30
0.0
 10
9.7267682348
 20
9.9498259577
 30
0.0
 10
9.7494600594
 20
9.9496523747
 30
0.0
 10
9.7721518839
 20
9.9498259577
 30
0.0
 10
9.7946666955
 20
9.9503453245
 30
0.0
 10
9.8168288802
 20
9.9512063384
 30
0.0
 10
9.8384655866
 20
9.9524021322
 30
0.0
 10
9.8594081183
 20
9.9539231563
 30
0.0
 10
9.8794932476
 20
9.9557572232
 30
0.0
 10
9.8985645249
 20
9.957889614
 30
0.0
 10
9.9164736588
 20
9.9603030411
 30
0.0
 10
9.9330813356
 20
9.9629781046
 30
0.0
 10
9.9460285693
 20
9.9654637346
 30
0.0
 10
9.9556307331
 20
9.9675853564
 30
0.0
 10
9.9622522832
 20
9.9691893515
 30
0.0
 10
9.9684589334
 20
9.9708420742
 30
0.0
 10
9.9742387341
 20
9.9725402022
 30
0.0
 10
9.9795806264
 20
9.9742804194
 30
0.0
 10
9.9844745096
 20
9.9760591765
 30
0.0
 10
9.98891126
 20
9.97787305
 30
0.0
 10
9.9928829032
 20
9.9797184751
 30
0.0
 10
9.9963825085
 20
9.9815921032
 30
0.0
 10
9.9994047641
 20
9.9834910962
 30
0.0
 10
10.0019446387
 20
9.9854125539
 30
0.0
 10
10.0033974689
 20
9.9867870251
 30
0.0
 10
10.0040275463
 20
9.9874795093
 30
0.0
  0
SPLINE
  5
414
100
AcDbEntity
  8
0
100
AcDbSpline
 62
7
  6
CONTINUOUS
 70
0
 71
3
 72
11
 73
7
 74
0
 42
0.0000001
 43
0.0000001
 44
0.0000000001
 40
0.0
 40
0.0
 40
0.0
 40
0.0
 40
0.2596089928
 40
0.5110768648
 40
0.7569593298
 40
1.0
 40
1.0
 40
1.0
 40
1.0
 10
9.1998960863
 20
12.8494542945
 30
0.0
 10
9.1996317533
 20
12.8500521992
 30
0.0
 10
9.1991646607
 20
12.851253898
 30
0.0
 10
9.1986540517
 20
12.8530937734
 30
0.0
 10
9.1983473268
 20
12.8549362925
 30
0.0
 10
9.1982789992
 20
12.8561685154
 30
0.0
 10
9.1982789979
 20
12.8567805235
 30
0.0
  0
SPLINE
  5
415
100
AcDbEntity
  8
0
100
AcDbSpline
 62
7
  6
CONTINUOUS
 70
0
 71
3
 72
38
 73
34
 74
0
 42
0.0000001
 43
0.0000001
 44
0.0000000001
 40
0.0
 40
0.0
 40
0.0
 40
0.0
 40
0.0106116209
 40
0.0210529614
 40
0.0313952578
 40
0.0416902311
 40
0.0519333
 40
0.0620989542
 40
0.0721605525
 40
0.0821377167
 40
0.0920665508
 40
0.1019745369
 40
0.1118866642
 40
0.121836793
 40
0.1419710587
 40
0.1625974441
 40
0.1839074045
 40
0.2060672389
 40
0.2292014696
 40
0.2534077095
 40
0.2787672007
 40
0.3053336013
 40
0.3331502645
 40
0.3622479856
 40
0.3926442831
 40
0.4243519828
 40
0.4917056253
 40
0.5642771198
 40
0.6419602822
 40
0.7245945789
 40
0.8119765945
 40
0.9038677625
 40
1.0
 40
1.0
 40
1.0
 40
1.0
 10
9.149411079
 20
10.0845854707
 30
0.0
 10
9.149411079
 20
10.0835576079
 30
0.0
 10
9.1494943727
 20
10.0815173391
 30
0.0
 10
9.149868256
 20
10.0784961575
 30
0.0
 10
9.1504787193
 20
10.0755450674
 30
0.0
 10
9.1513120368
 20
10.0726693818
 30
0.0
 10
9.152348149
 20
10.0698789835
 30
0.0
 10
9.1535669722
 20
10.0671884466
 30
0.0
 10
9.1549517502
 20
10.0646088641
 30
0.0
 10
9.1564861947
 20
10.0621426998
 30
0.0
 10
9.1581554553
 20
10.0597842668
 30
0.0
 10
9.1599463351
 20
10.0575251979
 30
0.0
 10
9.1618481369
 20
10.0553561342
 30
0.0
 10
9.1645363667
 20
10.0525647746
 30
0.0
 10
9.168171811
 20
10.049253066
 30
0.0
 10
9.1729011087
 20
10.0455337763
 30
0.0
 10
9.1780176897
 20
10.0420109197
 30
0.0
 10
9.1835217826
 20
10.038640615
 30
0.0
 10
9.1894215416
 20
10.0353940028
 30
0.0
 10
9.1957259003
 20
10.0322528872
 30
0.0
 10
9.2024396364
 20
10.0291990087
 30
0.0
 10
9.2095688444
 20
10.026223695
 30
0.0
 10
9.2171162876
 20
10.0233191247
 30
0.0
 10
9.2250833441
 20
10.0204798061
 30
0.0
 10
9.2334703029
 20
10.0177030473
 30
0.0
 10
9.245453275
 20
10.014006246
 30
0.0
 10
9.2614757153
 20
10.0095583401
 30
0.0
 10
9.2819545687
 20
10.004556994
 30
0.0
 10
9.3040069429
 20
9.9997958156
 30
0.0
 10
9.3275734554
 20
9.9952836606
 30
0.0
 10
9.3525850961
 20
9.9910314251
 30
0.0
 10
9.378964098
 20
9.9870507533
 30
0.0
 10
9.3970168019
 20
9.9846377737
 30
0.0
 10
9.4062553793
 20
9.9834742198
 30
0.0
  0
SPLINE
  5
416
100
AcDbEntity
  8
0
100
AcDbSpline
 62
7
  6
CONTINUOUS
 70
0
 71
3
 72
36
 73
32
 74
0
 42
0.0000001
 43
0.0000001
 44
0.0000000001
 40
0.0
 40
0.0
 40
0.0
 40
0.0
 40
0.0961331215
 40
0.1880250017
 40
0.2754075868
 40
0.3580423343
 40
0.4357258381
 40
0.5082976125
 40
0.5756515629
 40
0.6073594927
 40
0.6377559536
 40
0.6668537936
 40
0.6946708504
 40
0.7212373153
 40
0.7465971941
 40
0.7708039114
 40
0.7939382278
 40
0.816098823
 40
0.8374093174
 40
0.8580358605
 40
0.8781711038
 40
0.8980287881
 40
0.9178592117
 40
0.927836719
 40
0.9378976799
 40
0.9480631131
 40
0.9583071112
 40
0.9686039701
 40
0.9789484083
 40
0.9893905351
 40
1.0
 40
1.0
 40
1.0
 40
1.0
 10
10.0926869864
 20
9.9834770227
 30
0.0
 10
10.1019248041
 20
9.9846405952
 30
0.0
 10
10.1199760084
 20
9.9870536016
 30
0.0
 10
10.146352796
 20
9.9910342801
 30
0.0
 10
10.1713622979
 20
9.9952864888
 30
0.0
 10
10.1949267596
 20
9.9997985856
 30
0.0
 10
10.2169771846
 20
10.0045596744
 30
0.0
 10
10.2374542079
 20
10.0095609046
 30
0.0
 10
10.2534752169
 20
10.0140086763
 30
0.0
 10
10.2654571076
 20
10.0177053892
 30
0.0
 10
10.2738433123
 20
10.0204820553
 30
0.0
 10
10.2818096701
 20
10.0233212669
 30
0.0
 10
10.2893564067
 20
10.0262258026
 30
0.0
 10
10.2964850261
 20
10.0292009357
 30
0.0
 10
10.3031981481
 20
10.0322547862
 30
0.0
 10
10.3095019326
 20
10.0353958302
 30
0.0
 10
10.3154013206
 20
10.0386421351
 30
0.0
 10
10.320904726
 20
10.042012726
 30
0.0
 10
10.3260210385
 20
10.0455351475
 30
0.0
 10
10.3307499837
 20
10.0492545531
 30
0.0
 10
10.335094975
 20
10.0532125322
 30
0.0
 10
10.3390281523
 20
10.0574778908
 30
0.0
 10
10.3419276232
 20
10.0613293036
 30
0.0
 10
10.3439688196
 20
10.064609723
 30
0.0
 10
10.3453536106
 20
10.0671890022
 30
0.0
 10
10.3465723008
 20
10.0698793048
 30
0.0
 10
10.3476082905
 20
10.0726697366
 30
0.0
 10
10.348441522
 20
10.0755456663
 30
0.0
 10
10.3490518993
 20
10.0784969728
 30
0.0
 10
10.3494257249
 20
10.0815179581
 30
0.0
 10
10.3495090395
 20
10.0835579091
 30
0.0
 10
10.3495090395
 20
10.0845854707
 30
0.0
  0
SPLINE
  5
417
100
AcDbEntity
  8
0
100
AcDbSpline
 62
7
  6
CONTINUOUS
 70
0
 71
3
 72
55
 73
51
 74
0
 42
0.0000001
 43
0.0000001
 44
0.0000000001
 40
0.0
 40
0.0
 40
0.0
 40
0.0
 40
0.0056614974
 40
0.0120285659
 40
0.0191383728
 40
0.0270128797
 40
0.0356631839
 40
0.0450924251
 40
0.0552979538
 40
0.0662722429
 40
0.0780041308
 40
0.090479213
 40
0.1036803111
 40
0.1175879927
 40
0.1321805073
 40
0.1474343334
 40
0.1633241083
 40
0.1798228408
 40
0.2145315287
 40
0.2513175769
 40
0.289918576
 40
0.3300561871
 40
0.3714388803
 40
0.4137645968
 40
0.4567233766
 40
0.5
 40
0.5432766234
 40
0.5862354032
 40
0.6285611197
 40
0.6699438129
 40
0.710081424
 40
0.7486824231
 40
0.7854684713
 40
0.8201771592
 40
0.8366758917
 40
0.8525656666
 40
0.8678194927
 40
0.8824120073
 40
0.8963196889
 40
0.909520787
 40
0.9219958692
 40
0.9337277571
 40
0.9447020462
 40
0.9549075749
 40
0.9643368161
 40
0.9729871203
 40
0.9808616272
 40
0.9879714341
 40
0.9943385026
 40
1.0
 40
1.0
 40
1.0
 40
1.0
 10
9.2165718635
 20
10.0818354737
 30
0.0
 10
9.2180484545
 20
10.0832616916
 30
0.0
 10
9.2213851451
 20
10.0860873911
 30
0.0
 10
9.227096419
 20
10.0900428177
 30
0.0
 10
9.2337874482
 20
10.0939506536
 30
0.0
 10
9.2414472361
 20
10.097804265
 30
0.0
 10
9.2500638276
 20
10.1015975698
 30
0.0
 10
9.2596223065
 20
10.1053236262
 30
0.0
 10
9.2701057193
 20
10.1089752919
 30
0.0
 10
9.2814949443
 20
10.1125456676
 30
0.0
 10
9.2937689722
 20
10.1160277729
 30
0.0
 10
9.3069049452
 20
10.119414878
 30
0.0
 10
9.3208782728
 20
10.1227004829
 30
0.0
 10
9.3356627026
 20
10.1258781461
 30
0.0
 10
9.3512303931
 20
10.1289418425
 30
0.0
 10
9.3675519725
 20
10.1318855902
 30
0.0
 10
9.3845966305
 20
10.1347038182
 30
0.0
 10
9.4086526987
 20
10.1383485039
 30
0.0
 10
9.4402885204
 20
10.1425259143
 30
0.0
 10
9.4799746142
 20
10.1468810715
 30
0.0
 10
9.52169971
 20
10.1506249197
 30
0.0
 10
9.5651481819
 20
10.1537284936
 30
0.0
 10
9.6099915082
 20
10.1561676424
 30
0.0
 10
9.6558903928
 20
10.1579234831
 30
0.0
 10
9.702497495
 20
10.158982437
 30
0.0
 10
9.7494600593
 20
10.1593363321
 30
0.0
 10
9.7964226236
 20
10.158982437
 30
0.0
 10
9.8430297257
 20
10.1579234831
 30
0.0
 10
9.8889286103
 20
10.1561676424
 30
0.0
 10
9.9337719367
 20
10.1537284936
 30
0.0
 10
9.9772204086
 20
10.1506249197
 30
0.0
 10
10.0189455043
 20
10.1468810715
 30
0.0
 10
10.0586315981
 20
10.1425259143
 30
0.0
 10
10.0902674198
 20
10.1383485039
 30
0.0
 10
10.114323488
 20
10.1347038182
 30
0.0
 10
10.1313681461
 20
10.1318855902
 30
0.0
 10
10.1476897255
 20
10.1289418425
 30
0.0
 10
10.1632574159
 20
10.1258781461
 30
0.0
 10
10.1780418458
 20
10.1227004829
 30
0.0
 10
10.1920151733
 20
10.119414878
 30
0.0
 10
10.2051511463
 20
10.1160277729
 30
0.0
 10
10.2174251743
 20
10.1125456676
 30
0.0
 10
10.2288143992
 20
10.1089752919
 30
0.0
 10
10.239297812
 20
10.1053236262
 30
0.0
 10
10.2488562909
 20
10.1015975698
 30
0.0
 10
10.2574728824
 20
10.097804265
 30
0.0
 10
10.2651326703
 20
10.0939506536
 30
0.0
 10
10.2718236996
 20
10.0900428177
 30
0.0
 10
10.2775349735
 20
10.0860873911
 30
0.0
 10
10.280871664
 20
10.0832616916
 30
0.0
 10
10.282348255
 20
10.0818354737
 30
0.0
  0
SPLINE
  5
418
100
AcDbEntity
  8
0
100
AcDbSpline
 62
7
  6
CONTINUOUS
 70
0
 71
3
 72
10
 73
6
 74
0
 42
0.0000001
 43
0.0000001
 44
0.0000000001
 40
0.0
 40
0.0
 40
0.0
 40
0.0
 40
0.509498444
 40
0.756032378
 40
1.0
 40
1.0
 40
1.0
 40
1.0
 10
10.2698016425
 20
10.0910647903
 30
0.0
 10
10.2702292464
 20
10.0900292571
 30
0.0
 10
10.2707338897
 20
10.0884316152
 30
0.0
 10
10.2710764471
 20
10.0862568633
 30
0.0
 10
10.2711358039
 20
10.0851775713
 30
0.0
 10
10.271137707
 20
10.0846411097
 30
0.0
  0
SPLINE
  5
419
100
AcDbEntity
  8
0
100
AcDbSpline
 62
7
  6
CONTINUOUS
 70
0
 71
3
 72
10
 73
6
 74
0
 42
0.0000001
 43
0.0000001
 44
0.0000000001
 40
0.0
 40
0.0
 40
0.0
 40
0.0
 40
0.2439676227
 40
0.4905015566
 40
1.0
 40
1.0
 40
1.0
 40
1.0
 10
9.2277824115
 20
10.0846411097
 30
0.0
 10
9.2277843147
 20
10.0851775713
 30
0.0
 10
9.2278436714
 20
10.0862568633
 30
0.0
 10
9.2281862289
 20
10.0884316152
 30
0.0
 10
9.2286908722
 20
10.0900292571
 30
0.0
 10
9.2291184761
 20
10.0910647904
 30
0.0
  0
SPLINE
  5
41A
100
AcDbEntity
  8
0
100
AcDbSpline
 62
7
  6
CONTINUOUS
 70
0
 71
3
 72
44
 73
40
 74
0
 42
0.0000001
 43
0.0000001
 44
0.0000000001
 40
0.0
 40
0.0
 40
0.0
 40
0.0
 40
0.0039798982
 40
0.0078916468
 40
0.0117602356
 40
0.0156061831
 40
0.0194317263
 40
0.0232292201
 40
0.0269884321
 40
0.0307068311
 40
0.0380656019
 40
0.0417280088
 40
0.0453894951
 40
0.0602230369
 40
0.0678870671
 40
0.075792659
 40
0.0839903414
 40
0.0925174418
 40
0.1014034562
 40
0.1106741973
 40
0.1304339426
 40
0.1518950403
 40
0.1751017257
 40
0.2000631217
 40
0.226762188
 40
0.2551618129
 40
0.2852094056
 40
0.316840016
 40
0.3499783355
 40
0.3845401296
 40
0.4204335786
 40
0.4575603595
 40
0.4958164327
 40
0.5752742751
 40
0.6578867836
 40
0.7426807672
 40
0.8286484973
 40
0.914763712
 40
1.0
 40
1.0
 40
1.0
 40
1.0
 10
10.3009743993
 20
12.8380242295
 30
0.0
 10
10.300958178
 20
12.838944377
 30
0.0
 10
10.3008567517
 20
12.8407684991
 30
0.0
 10
10.3004982264
 20
12.8434666477
 30
0.0
 10
10.2999443457
 20
12.8460999311
 30
0.0
 10
10.2992058022
 20
12.8486664822
 30
0.0
 10
10.2982980619
 20
12.8511604376
 30
0.0
 10
10.2972374705
 20
12.8535711991
 30
0.0
 10
10.2960392487
 20
12.8558886719
 30
0.0
 10
10.2942815437
 20
12.8588368202
 30
0.0
 10
10.2922885753
 20
12.861611048
 30
0.0
 10
10.2901110768
 20
12.8642169835
 30
0.0
 10
10.2866534526
 20
12.8679998227
 30
0.0
 10
10.2821000139
 20
12.8720227835
 30
0.0
 10
10.2764254626
 20
12.8761751506
 30
0.0
 10
10.2718159321
 20
12.8791732531
 30
0.0
 10
10.2669001469
 20
12.8820526863
 30
0.0
 10
10.2616699233
 20
12.8848337388
 30
0.0
 10
10.2561183202
 20
12.8875293708
 30
0.0
 10
10.2481111293
 20
12.8911039712
 30
0.0
 10
10.2372456284
 20
12.8953928201
 30
0.0
 10
10.2231463521
 20
12.9002174708
 30
0.0
 10
10.2077207519
 20
12.9048426249
 30
0.0
 10
10.1909834805
 20
12.9092757935
 30
0.0
 10
10.172960987
 20
12.9135167057
 30
0.0
 10
10.1536903319
 20
12.9175609787
 30
0.0
 10
10.1332169747
 20
12.9214019071
 30
0.0
 10
10.1115934112
 20
12.9250315275
 30
0.0
 10
10.0888781506
 20
12.9284412703
 30
0.0
 10
10.0651349728
 20
12.9316224446
 30
0.0
 10
10.0404322856
 20
12.9345664977
 30
0.0
 10
10.01484251
 20
12.9372653126
 30
0.0
 10
9.9791898118
 20
12.9405678922
 30
0.0
 10
9.9329904184
 20
12.9440025482
 30
0.0
 10
9.8759813188
 20
12.94699573
 30
0.0
 10
9.8174185805
 20
12.9488732042
 30
0.0
 10
9.7580205504
 20
12.949611992
 30
0.0
 10
9.6985173176
 20
12.9492027939
 30
0.0
 10
9.6589055907
 20
12.948158616
 30
0.0
 10
9.6392091548
 20
12.9474387842
 30
0.0
  0
LINE
  5
41B
100
AcDbEntity
  8
0
100
AcDbLine
 62
7
  6
CONTINUOUS
 10
9.6392091548
 20
12.9474387842
 11
9.6384999836
 21
12.9474127795
  0
SPLINE
  5
41C
100
AcDbEntity
  8
0
100
AcDbSpline
 62
7
  6
CONTINUOUS
 70
0
 71
3
 72
11
 73
7
 74
0
 42
0.0000001
 43
0.0000001
 44
0.0000000001
 40
0.0
 40
0.0
 40
0.0
 40
0.0
 40
0.2430280932
 40
0.488903226
 40
0.7403738865
 40
1.0
 40
1.0
 40
1.0
 40
1.0
 10
10.3006411207
 20
12.8567805235
 30
0.0
 10
10.3006411193
 20
12.8561679283
 30
0.0
 10
10.3005726592
 20
12.8549345075
 30
0.0
 10
10.3002653408
 20
12.8530902098
 30
0.0
 10
10.2997537461
 20
12.8512485656
 30
0.0
 10
10.2992857687
 20
12.8500457546
 30
0.0
 10
10.2990209384
 20
12.8494472999
 30
0.0
  0
SPLINE
  5
41D
100
AcDbEntity
  8
0
100
AcDbSpline
 62
7
  6
CONTINUOUS
 70
0
 71
3
 72
9
 73
5
 74
0
 42
0.0000001
 43
0.0000001
 44
0.0000000001
 40
0.0
 40
0.0
 40
0.0
 40
0.0
 40
0.4694090535
 40
1.0
 40
1.0
 40
1.0
 40
1.0
 10
10.0926804486
 20
9.9825285659
 30
0.0
 10
10.0922053258
 20
9.981569611
 30
0.0
 10
10.0909627317
 20
9.9796385873
 30
0.0
 10
10.0894191752
 20
9.9779492049
 30
0.0
 10
10.0885506256
 20
9.9771071972
 30
0.0
  0
SPLINE
  5
41E
100
AcDbEntity
  8
0
100
AcDbSpline
 62
7
  6
CONTINUOUS
 70
0
 71
3
 72
15
 73
11
 74
0
 42
0.0000001
 43
0.0000001
 44
0.0000000001
 40
0.0
 40
0.0
 40
0.0
 40
0.0
 40
0.0797176733
 40
0.1713271882
 40
0.2757372501
 40
0.3934697438
 40
0.5247698071
 40
0.6696950745
 40
0.8281648962
 40
1.0
 40
1.0
 40
1.0
 40
1.0
 10
10.0238637247
 20
9.9754479639
 30
0.0
 10
10.0231179369
 20
9.9763076102
 30
0.0
 10
10.0213488657
 20
9.9780121275
 30
0.0
 10
10.0181886015
 20
9.980370305
 30
0.0
 10
10.014354131
 20
9.9826962245
 30
0.0
 10
10.0098534172
 20
9.9849852852
 30
0.0
 10
10.0046950577
 20
9.9872332756
 30
0.0
 10
9.9988906168
 20
9.9894344264
 30
0.0
 10
9.9924538752
 20
9.9915832959
 30
0.0
 10
9.9879319596
 20
9.9929237103
 30
0.0
 10
9.985570406
 20
9.9935877979
 30
0.0
  0
SPLINE
  5
41F
100
AcDbEntity
  8
0
100
AcDbSpline
 62
7
  6
CONTINUOUS
 70
0
 71
3
 72
18
 73
14
 74
0
 42
0.0000001
 43
0.0000001
 44
0.0000000001
 40
0.0
 40
0.0
 40
0.0
 40
0.0
 40
0.0442962876
 40
0.0916703277
 40
0.1420160803
 40
0.1952145898
 40
0.2511350523
 40
0.3096371138
 40
0.4337736396
 40
0.5663304394
 40
0.7058986091
 40
0.8509760287
 40
1.0
 40
1.0
 40
1.0
 40
1.0
 10
9.9825691236
 20
9.9944129686
 30
0.0
 10
9.9798122315
 20
9.9951542071
 30
0.0
 10
9.9740836667
 20
9.9966025743
 30
0.0
 10
9.9651559026
 20
9.9986224517
 30
0.0
 10
9.9556233822
 20
10.0005582437
 30
0.0
 10
9.9455127879
 20
10.0024043295
 30
0.0
 10
9.9348523215
 20
10.0041555433
 30
0.0
 10
9.9196420889
 20
10.0064016226
 30
0.0
 10
9.8994814955
 20
10.0089141804
 30
0.0
 10
9.8740648016
 20
10.0114260436
 30
0.0
 10
9.847251967
 20
10.0134612954
 30
0.0
 10
9.8193432977
 20
10.0149965171
 30
0.0
 10
9.8003996337
 20
10.0156681299
 30
0.0
 10
9.790798642
 20
10.0159192908
 30
0.0
  0
LINE
  5
420
100
AcDbEntity
  8
0
100
AcDbLine
 62
7
  6
CONTINUOUS
 10
10.0926797891
 20
9.9927859259
 11
10.0847702089
 21
9.9850285888
  0
SPLINE
  5
421
100
AcDbEntity
  8
0
100
AcDbSpline
 62
7
  6
CONTINUOUS
 70
0
 71
3
 72
18
 73
14
 74
0
 42
0.0000001
 43
0.0000001
 44
0.0000000001
 40
0.0
 40
0.0
 40
0.0
 40
0.0
 40
0.149023972
 40
0.2941013923
 40
0.4336695624
 40
0.5662263625
 40
0.6903628882
 40
0.7488649497
 40
0.8047854119
 40
0.8579839212
 40
0.9083296733
 40
0.955703713
 40
1.0
 40
1.0
 40
1.0
 40
1.0
 10
9.7081214766
 20
10.0159192908
 30
0.0
 10
9.6985204847
 20
10.0156681299
 30
0.0
 10
9.6795768204
 20
10.0149965171
 30
0.0
 10
9.6516681506
 20
10.0134612954
 30
0.0
 10
9.6248553157
 20
10.0114260435
 30
0.0
 10
9.5994386214
 20
10.0089141802
 30
0.0
 10
9.5792780279
 20
10.0064016223
 30
0.0
 10
9.5640677951
 20
10.004155543
 30
0.0
 10
9.5534073286
 20
10.0024043291
 30
0.0
 10
9.5432967343
 20
10.0005582433
 30
0.0
 10
9.5337642138
 20
9.9986224513
 30
0.0
 10
9.5248364497
 20
9.9966025738
 30
0.0
 10
9.519107885
 20
9.9951542066
 30
0.0
 10
9.5163509928
 20
9.994412968
 30
0.0
  0
SPLINE
  5
422
100
AcDbEntity
  8
0
100
AcDbSpline
 62
7
  6
CONTINUOUS
 70
0
 71
3
 72
15
 73
11
 74
0
 42
0.0000001
 43
0.0000001
 44
0.0000000001
 40
0.0
 40
0.0
 40
0.0
 40
0.0
 40
0.1718351038
 40
0.3303049256
 40
0.4752301929
 40
0.6065302563
 40
0.72426275
 40
0.8286728118
 40
0.9202823267
 40
1.0
 40
1.0
 40
1.0
 40
1.0
 10
9.5133497126
 20
9.9935877979
 30
0.0
 10
9.5109881591
 20
9.9929237104
 30
0.0
 10
9.5064662434
 20
9.9915832959
 30
0.0
 10
9.5000295018
 20
9.9894344264
 30
0.0
 10
9.4942250608
 20
9.9872332756
 30
0.0
 10
9.4890667014
 20
9.9849852852
 30
0.0
 10
9.4845659876
 20
9.9826962245
 30
0.0
 10
9.480731517
 20
9.9803703051
 30
0.0
 10
9.4775712528
 20
9.9780121275
 30
0.0
 10
9.4758021816
 20
9.9763076102
 30
0.0
 10
9.4750563939
 20
9.9754479639
 30
0.0
  0
LINE
  5
423
100
AcDbEntity
  8
0
100
AcDbLine
 62
7
  6
CONTINUOUS
 10
9.4141432086
 20
9.9850285888
 11
9.4062396033
 21
9.9927828972
  0
SPLINE
  5
424
100
AcDbEntity
  8
0
100
AcDbSpline
 62
7
  6
CONTINUOUS
 70
0
 71
3
 72
15
 73
11
 74
0
 42
0.0000001
 43
0.0000001
 44
0.0000000001
 40
0.0
 40
0.0
 40
0.0
 40
0.0
 40
0.123976101
 40
0.2484651774
 40
0.3734713142
 40
0.4988825036
 40
0.6245089402
 40
0.7500927585
 40
0.8753380892
 40
1.0
 40
1.0
 40
1.0
 40
1.0
 10
9.7789876183
 20
10.0278149823
 30
0.0
 10
9.7789876183
 20
10.0270500999
 30
0.0
 10
9.7791421942
 20
10.0255128618
 30
0.0
 10
9.7798252177
 20
10.0232972789
 30
0.0
 10
9.7809314612
 20
10.0212489904
 30
0.0
 10
9.7824161227
 20
10.0194475038
 30
0.0
 10
9.7842193455
 20
10.0179597822
 30
0.0
 10
9.7862702912
 20
10.0168401079
 30
0.0
 10
9.7884884466
 20
10.0161275583
 30
0.0
 10
9.7900297914
 20
10.0159394039
 30
0.0
 10
9.790798642
 20
10.0159192908
 30
0.0
  0
LINE
  5
425
100
AcDbEntity
  8
0
100
AcDbLine
 62
7
  6
CONTINUOUS
 10
9.9674819486
 20
9.9980617005
 11
9.9618413126
 21
9.9958923745
  0
SPLINE
  5
426
100
AcDbEntity
  8
0
100
AcDbSpline
 62
7
  6
CONTINUOUS
 70
0
 71
3
 72
15
 73
11
 74
0
 42
0.0000001
 43
0.0000001
 44
0.0000000001
 40
0.0
 40
0.0
 40
0.0
 40
0.0
 40
0.1246618827
 40
0.249907174
 40
0.3754909963
 40
0.5011174189
 40
0.6265286282
 40
0.7515347689
 40
0.876023876
 40
1.0
 40
1.0
 40
1.0
 40
1.0
 10
9.7081214766
 20
10.0159192908
 30
0.0
 10
9.708890327
 20
10.0159394039
 30
0.0
 10
9.7104316713
 20
10.0161275582
 30
0.0
 10
9.7126498264
 20
10.0168401077
 30
0.0
 10
9.714700772
 20
10.0179597814
 30
0.0
 10
9.716503995
 20
10.0194475029
 30
0.0
 10
9.7179886567
 20
10.0212489894
 30
0.0
 10
9.7190949006
 20
10.0232972781
 30
0.0
 10
9.7197779243
 20
10.0255128614
 30
0.0
 10
9.7199325002
 20
10.0270500997
 30
0.0
 10
9.7199325002
 20
10.0278149823
 30
0.0
  0
SPLINE
  5
427
100
AcDbEntity
  8
0
100
AcDbSpline
 62
7
  6
CONTINUOUS
 70
0
 71
3
 72
16
 73
12
 74
0
 42
0.0000001
 43
0.0000001
 44
0.0000000001
 40
0.0
 40
0.0
 40
0.0
 40
0.0
 40
0.1668046884
 40
0.3199903918
 40
0.457750805
 40
0.5214064696
 40
0.5819723878
 40
0.6952245506
 40
0.8006681653
 40
0.9012905701
 40
1.0
 40
1.0
 40
1.0
 40
1.0
 10
9.790798642
 20
9.9123269707
 30
0.0
 10
9.7898690578
 20
9.9123062565
 30
0.0
 10
9.7880765866
 20
9.9124385263
 30
0.0
 10
9.78560064
 20
9.9131121881
 30
0.0
 10
9.7838136794
 20
9.9139875591
 30
0.0
 10
9.7826087554
 20
9.9148162733
 30
0.0
 10
9.7815936236
 20
9.9156684444
 30
0.0
 10
9.7805488941
 20
9.9168370804
 30
0.0
 10
9.7796457544
 20
9.918385209
 30
0.0
 10
9.7791072262
 20
9.9200091767
 30
0.0
 10
9.7789876183
 20
9.9211238793
 30
0.0
 10
9.7789876183
 20
9.9216741126
 30
0.0
  0
SPLINE
  5
428
100
AcDbEntity
  8
0
100
AcDbSpline
 62
7
  6
CONTINUOUS
 70
0
 71
3
 72
29
 73
25
 74
0
 42
0.0000001
 43
0.0000001
 44
0.0000000001
 40
0.0
 40
0.0
 40
0.0
 40
0.0
 40
0.0889272048
 40
0.1764365149
 40
0.2619977054
 40
0.3450963231
 40
0.4252338377
 40
0.501933276
 40
0.5747424511
 40
0.6432382692
 40
0.7070311665
 40
0.7657703819
 40
0.793148666
 40
0.8191529988
 40
0.8437541515
 40
0.8669264009
 40
0.8886495997
 40
0.9089084264
 40
0.9276952282
 40
0.9450097579
 40
0.9608630359
 40
0.9752790499
 40
0.9883017751
 40
1.0
 40
1.0
 40
1.0
 40
1.0
 10
9.7081214766
 20
9.9123267077
 30
0.0
 10
9.699675734
 20
9.9125149095
 30
0.0
 10
9.6829212451
 20
9.9130043826
 30
0.0
 10
9.6580548827
 20
9.9140864924
 30
0.0
 10
9.633759965
 20
9.9155052299
 30
0.0
 10
9.6101884849
 20
9.9172515219
 30
0.0
 10
9.5874876527
 20
9.9193142355
 30
0.0
 10
9.5657992693
 20
9.9216801438
 30
0.0
 10
9.5452586935
 20
9.9243340642
 30
0.0
 10
9.5259938616
 20
9.9272588065
 30
0.0
 10
9.5081248399
 20
9.9304355573
 30
0.0
 10
9.4941800828
 20
9.9333392774
 30
0.0
 10
9.4838143362
 20
9.9357913587
 30
0.0
 10
9.4766392584
 20
9.9376374836
 30
0.0
 10
9.469890542
 20
9.9395308975
 30
0.0
 10
9.4635786077
 20
9.94146878
 30
0.0
 10
9.4577131324
 20
9.9434478746
 30
0.0
 10
9.4523030484
 20
9.9454652134
 30
0.0
 10
9.4473564425
 20
9.9475174441
 30
0.0
 10
9.4428806034
 20
9.9496016143
 30
0.0
 10
9.4388818736
 20
9.951714346
 30
0.0
 10
9.4353654799
 20
9.9538531302
 30
0.0
 10
9.4323362223
 20
9.956014927
 30
0.0
 10
9.4305521332
 20
9.9575496122
 30
0.0
 10
9.4297541895
 20
9.9583230924
 30
0.0
  0
SPLINE
  5
429
100
AcDbEntity
  8
0
100
AcDbSpline
 62
7
  6
CONTINUOUS
 70
0
 71
3
 72
16
 73
12
 74
0
 42
0.0000001
 43
0.0000001
 44
0.0000000001
 40
0.0
 40
0.0
 40
0.0
 40
0.0
 40
0.1668045901
 40
0.3199902125
 40
0.4577505885
 40
0.5214062502
 40
0.5819721737
 40
0.6952243668
 40
0.8006680306
 40
0.9012904977
 40
1.0
 40
1.0
 40
1.0
 40
1.0
 10
9.7081214766
 20
9.9123267077
 30
0.0
 10
9.7090510602
 20
9.9123059932
 30
0.0
 10
9.7108435306
 20
9.9124382625
 30
0.0
 10
9.7133194764
 20
9.9131119234
 30
0.0
 10
9.7151064368
 20
9.9139872937
 30
0.0
 10
9.7163113609
 20
9.9148160075
 30
0.0
 10
9.7173264932
 20
9.9156681786
 30
0.0
 10
9.7183712232
 20
9.9168368149
 30
0.0
 10
9.7192743635
 20
9.9183849442
 30
0.0
 10
9.7198128922
 20
9.9200089129
 30
0.0
 10
9.7199325002
 20
9.9211236164
 30
0.0
 10
9.7199325002
 20
9.9216738501
 30
0.0
  0
LINE
  5
42A
100
AcDbEntity
  8
0
100
AcDbLine
 62
7
  6
CONTINUOUS
 10
10.0929826398
 20
10.0139511872
 11
10.0938076121
 21
10.0247183969
  0
LINE
  5
42B
100
AcDbEntity
  8
0
100
AcDbLine
 62
7
  6
CONTINUOUS
 10
9.4051125064
 20
10.0247183969
 11
9.4059374777
 21
10.0139512086
  0
SPLINE
  5
42C
100
AcDbEntity
  8
0
100
AcDbSpline
 62
7
  6
CONTINUOUS
 70
0
 71
3
 72
31
 73
27
 74
0
 42
0.0000001
 43
0.0000001
 44
0.0000000001
 40
0.0
 40
0.0
 40
0.0
 40
0.0
 40
0.0192751224
 40
0.0416202115
 40
0.0669241711
 40
0.0950512967
 40
0.1590772016
 40
0.2320155239
 40
0.3118475741
 40
0.3963176429
 40
0.4830189385
 40
0.5694717097
 40
0.6532057318
 40
0.7318381444
 40
0.8031559952
 40
0.86519788
 40
0.8922258346
 40
0.916365254
 40
0.9374984106
 40
0.9555524377
 40
0.9705362291
 40
0.9825825634
 40
0.9876230215
 40
0.9921111976
 40
0.9961776182
 40
1.0
 40
1.0
 40
1.0
 40
1.0
 10
9.3917204795
 20
10.0401010484
 30
0.0
 10
9.3914897472
 20
10.0402002159
 30
0.0
 10
9.3909813292
 20
10.0403906635
 30
0.0
 10
9.3901467655
 20
10.0406445573
 30
0.0
 10
9.3891890027
 20
10.0408856476
 30
0.0
 10
9.387691206
 20
10.0412011623
 30
0.0
 10
9.3855658419
 20
10.0415403983
 30
0.0
 10
9.3827582496
 20
10.0418569564
 30
0.0
 10
9.3796751328
 20
10.0420874764
 30
0.0
 10
9.3764071079
 20
10.042224768
 30
0.0
 10
9.3730501956
 20
10.0422643789
 30
0.0
 10
9.3697031604
 20
10.042205084
 30
0.0
 10
9.3664644718
 20
10.0420487413
 30
0.0
 10
9.363429191
 20
10.041800434
 30
0.0
 10
9.3606864488
 20
10.0414679445
 30
0.0
 10
9.3586251323
 20
10.0411162338
 30
0.0
 10
9.3571859798
 20
10.0407913449
 30
0.0
 10
9.3562763854
 20
10.0405449055
 30
0.0
 10
9.3554922698
 20
10.0402866035
 30
0.0
 10
9.3548385023
 20
10.0400181549
 30
0.0
 10
9.3543190535
 20
10.0397417836
 30
0.0
 10
9.3539803542
 20
10.0394918316
 30
0.0
 10
9.3537888762
 20
10.0392848429
 30
0.0
 10
9.3536897777
 20
10.0391369197
 30
0.0
 10
9.3536272499
 20
10.0389869991
 30
0.0
 10
9.3536105607
 20
10.038884356
 30
0.0
 10
9.3536088539
 20
10.0388345824
 30
0.0
  0
SPLINE
  5
42D
100
AcDbEntity
  8
0
100
AcDbSpline
 62
7
  6
CONTINUOUS
 70
0
 71
3
 72
37
 73
33
 74
0
 42
0.0000001
 43
0.0000001
 44
0.0000000001
 40
0.0
 40
0.0
 40
0.0
 40
0.0
 40
0.0042778491
 40
0.00903098
 40
0.0144429673
 40
0.020634709
 40
0.0356141406
 40
0.0542837194
 40
0.0766850424
 40
0.1027316363
 40
0.1322544594
 40
0.1650323461
 40
0.2392287817
 40
0.3227708942
 40
0.4126803758
 40
0.5057122408
 40
0.598492271
 40
0.6876574142
 40
0.7699934848
 40
0.8076734696
 40
0.8425813394
 40
0.8744196815
 40
0.9029333753
 40
0.9279132898
 40
0.9492131417
 40
0.9667781036
 40
0.9741854309
 40
0.9807159023
 40
0.9864321516
 40
0.9914347578
 40
0.9958815632
 40
1.0
 40
1.0
 40
1.0
 40
1.0
 10
9.3638605337
 20
10.0628612436
 30
0.0
 10
9.3638490102
 20
10.0629185457
 30
0.0
 10
9.3638073671
 20
10.0630363651
 30
0.0
 10
9.3637002158
 20
10.0632035422
 30
0.0
 10
9.3635478373
 20
10.0633682633
 30
0.0
 10
9.3632667116
 20
10.0635995329
 30
0.0
 10
9.3627941225
 20
10.0638753953
 30
0.0
 10
9.36208992
 20
10.0641785629
 30
0.0
 10
9.3612194003
 20
10.0644697289
 30
0.0
 10
9.3601900243
 20
10.0647458717
 30
0.0
 10
9.3590105362
 20
10.0650043075
 30
0.0
 10
9.3571748124
 20
10.0653352906
 30
0.0
 10
9.3545926928
 20
10.0656758337
 30
0.0
 10
9.3512207329
 20
10.0659669143
 30
0.0
 10
9.3475831317
 20
10.0661425056
 30
0.0
 10
9.3438155731
 20
10.0661956392
 30
0.0
 10
9.3400584478
 20
10.0661240958
 30
0.0
 10
9.3364519667
 20
10.0659306795
 30
0.0
 10
9.3336049819
 20
10.065667789
 30
0.0
 10
9.3315055177
 20
10.0653960367
 30
0.0
 10
9.3300958996
 20
10.0651739134
 30
0.0
 10
9.3288171828
 20
10.0649296374
 30
0.0
 10
9.3276811804
 20
10.0646656947
 30
0.0
 10
9.3266979739
 20
10.0643848133
 30
0.0
 10
9.3258763848
 20
10.0640897077
 30
0.0
 10
9.325301977
 20
10.0638214308
 30
0.0
 10
9.324934694
 20
10.0635960806
 30
0.0
 10
9.3247195395
 20
10.0634345625
 30
0.0
 10
9.324548904
 20
10.0632709351
 30
0.0
 10
9.3244232556
 20
10.0631047164
 30
0.0
 10
9.3243436341
 20
10.0629355465
 30
0.0
 10
9.3243223062
 20
10.0628187218
 30
0.0
 10
9.3243202619
 20
10.0627624877
 30
0.0
  0
SPLINE
  5
42E
100
AcDbEntity
  8
0
100
AcDbSpline
 62
7
  6
CONTINUOUS
 70
0
 71
3
 72
11
 73
7
 74
0
 42
0.0000001
 43
0.0000001
 44
0.0000000001
 40
0.0
 40
0.0
 40
0.0
 40
0.0
 40
0.3291370833
 40
0.5979418443
 40
0.8153083031
 40
1.0
 40
1.0
 40
1.0
 40
1.0
 10
9.3448926548
 20
10.0880258774
 30
0.0
 10
9.344749793
 20
10.0879495272
 30
0.0
 10
9.3444963861
 20
10.0877981508
 30
0.0
 10
9.3441857538
 20
10.0875407538
 30
0.0
 10
9.3439841571
 20
10.0872735635
 30
0.0
 10
9.343928841
 20
10.0870764615
 30
0.0
 10
9.3439256814
 20
10.0869856209
 30
0.0
  0
SPLINE
  5
42F
100
AcDbEntity
  8
0
100
AcDbSpline
 62
7
  6
CONTINUOUS
 70
0
 71
3
 72
17
 73
13
 74
0
 42
0.0000001
 43
0.0000001
 44
0.0000000001
 40
0.0
 40
0.0
 40
0.0
 40
0.0
 40
0.1995531732
 40
0.3778152805
 40
0.5338328441
 40
0.6672548749
 40
0.7782784808
 40
0.8680753786
 40
0.9059135972
 40
0.9398269201
 40
0.970768608
 40
1.0
 40
1.0
 40
1.0
 40
1.0
 10
9.4142502586
 20
10.1106770112
 30
0.0
 10
9.4139333714
 20
10.11060658
 30
0.0
 10
9.4133355768
 20
10.1104630561
 30
0.0
 10
9.4125004314
 20
10.1102237734
 30
0.0
 10
9.4117813219
 20
10.1099739051
 30
0.0
 10
9.4111824156
 20
10.1097153169
 30
0.0
 10
9.4107069831
 20
10.1094495024
 30
0.0
 10
9.4103977452
 20
10.1092099813
 30
0.0
 10
9.4102234356
 20
10.1090122359
 30
0.0
 10
9.4101331225
 20
10.1088707113
 30
0.0
 10
9.4100762271
 20
10.1087275038
 30
0.0
 10
9.4100611316
 20
10.1086297193
 30
0.0
 10
9.4100596209
 20
10.1085821916
 30
0.0
  0
SPLINE
  5
430
100
AcDbEntity
  8
0
100
AcDbSpline
 62
7
  6
CONTINUOUS
 70
0
 71
3
 72
21
 73
17
 74
0
 42
0.0000001
 43
0.0000001
 44
0.0000000001
 40
0.0
 40
0.0
 40
0.0
 40
0.0
 40
0.2028396724
 40
0.3868267344
 40
0.5492272164
 40
0.6216731887
 40
0.6879811006
 40
0.7479748458
 40
0.8015593107
 40
0.8487023526
 40
0.8698848378
 40
0.8895047158
 40
0.9242085158
 40
0.9533702113
 40
0.9780401432
 40
1.0
 40
1.0
 40
1.0
 40
1.0
 10
9.5240391115
 20
10.127842885
 30
0.0
 10
9.5233635811
 20
10.1277695849
 30
0.0
 10
9.5220771653
 20
10.1276113586
 30
0.0
 10
9.5202596828
 20
10.1273227579
 30
0.0
 10
9.5188841325
 20
10.1270428034
 30
0.0
 10
9.5179054324
 20
10.1267973844
 30
0.0
 10
9.5172654619
 20
10.1266132145
 30
0.0
 10
9.5166935785
 20
10.1264225774
 30
0.0
 10
9.5161919325
 20
10.1262263292
 30
0.0
 10
9.5158216388
 20
10.1260530758
 30
0.0
 10
9.5155635583
 20
10.1259107386
 30
0.0
 10
9.5153484554
 20
10.1257775461
 30
0.0
 10
9.5151229587
 20
10.125610656
 30
0.0
 10
9.5149147131
 20
10.1253969815
 30
0.0
 10
9.5147819843
 20
10.125177007
 30
0.0
 10
9.5147472939
 20
10.1250207981
 30
0.0
 10
9.5147453058
 20
10.1249472613
 30
0.0
  0
SPLINE
  5
431
100
AcDbEntity
  8
0
100
AcDbSpline
 62
7
  6
CONTINUOUS
 70
0
 71
3
 72
21
 73
17
 74
0
 42
0.0000001
 43
0.0000001
 44
0.0000000001
 40
0.0
 40
0.0
 40
0.0
 40
0.0
 40
0.1954034886
 40
0.3784302498
 40
0.5440702909
 40
0.6878963272
 40
0.7504730907
 40
0.8063296025
 40
0.8551962061
 40
0.8969324343
 40
0.9315678382
 40
0.9594450025
 40
0.9711309704
 40
0.981564172
 40
0.991050127
 40
1.0
 40
1.0
 40
1.0
 40
1.0
 10
9.6610170576
 20
10.137453041
 30
0.0
 10
9.6599471384
 20
10.1374135502
 30
0.0
 10
9.6578760456
 20
10.1373060793
 30
0.0
 10
9.654905157
 20
10.1370523302
 30
0.0
 10
9.6522268625
 20
10.1367173193
 30
0.0
 10
9.6502175271
 20
10.1363657712
 30
0.0
 10
9.6488170972
 20
10.1360423258
 30
0.0
 10
9.6479332936
 20
10.1357977084
 30
0.0
 10
9.6471722931
 20
10.1355416024
 30
0.0
 10
9.6465385955
 20
10.1352759234
 30
0.0
 10
9.6460359822
 20
10.1350024794
 30
0.0
 10
9.6457091626
 20
10.1347555077
 30
0.0
 10
9.6455254482
 20
10.1345511399
 30
0.0
 10
9.6454307855
 20
10.1344050611
 30
0.0
 10
9.6453717082
 20
10.1342570877
 30
0.0
 10
9.6453567934
 20
10.1341560003
 30
0.0
 10
9.6453557511
 20
10.1341069735
 30
0.0
  0
SPLINE
  5
432
100
AcDbEntity
  8
0
100
AcDbSpline
 62
7
  6
CONTINUOUS
 70
0
 71
3
 72
24
 73
20
 74
0
 42
0.0000001
 43
0.0000001
 44
0.0000000001
 40
0.0
 40
0.0
 40
0.0
 40
0.0
 40
0.1806959819
 40
0.3586174245
 40
0.4440959754
 40
0.5259844765
 40
0.6033946703
 40
0.6754981066
 40
0.7415336549
 40
0.8008314607
 40
0.8528320775
 40
0.8971078108
 40
0.9334315587
 40
0.9486342647
 40
0.961927869
 40
0.973428522
 40
0.9833475582
 40
0.9920300282
 40
1.0
 40
1.0
 40
1.0
 40
1.0
 10
9.808662535
 20
10.1383483525
 30
0.0
 10
9.8072591756
 20
10.138382601
 30
0.0
 10
9.8044725012
 20
10.13839803
 30
0.0
 10
9.8010232173
 20
10.1382912214
 30
0.0
 10
9.7983455994
 20
10.1381274249
 30
0.0
 10
9.7964503148
 20
10.1379704941
 30
0.0
 10
9.794662574
 20
10.1377797531
 30
0.0
 10
9.7930026154
 20
10.1375575063
 30
0.0
 10
9.7914891649
 20
10.1373064068
 30
0.0
 10
9.7901392374
 20
10.1370295014
 30
0.0
 10
9.7889675342
 20
10.1367303731
 30
0.0
 10
9.7879869293
 20
10.1364125555
 30
0.0
 10
9.787300107
 20
10.1361209046
 30
0.0
 10
9.7868606208
 20
10.1358739885
 30
0.0
 10
9.7866044196
 20
10.1356971688
 30
0.0
 10
9.7864020155
 20
10.1355176564
 30
0.0
 10
9.7862537871
 20
10.135334965
 30
0.0
 10
9.7861609795
 20
10.1351482355
 30
0.0
 10
9.7861380994
 20
10.1350185334
 30
0.0
 10
9.7861371623
 20
10.134956624
 30
0.0
  0
SPLINE
  5
433
100
AcDbEntity
  8
0
100
AcDbSpline
 62
7
  6
CONTINUOUS
 70
0
 71
3
 72
26
 73
22
 74
0
 42
0.0000001
 43
0.0000001
 44
0.0000000001
 40
0.0
 40
0.0
 40
0.0
 40
0.0
 40
0.1593825582
 40
0.3284384719
 40
0.496404628
 40
0.5766155159
 40
0.6525915616
 40
0.7231386008
 40
0.787165315
 40
0.8437170814
 40
0.8689407998
 40
0.8920162325
 40
0.9128845165
 40
0.9315044347
 40
0.9478619964
 40
0.9552022641
 40
0.9619926453
 40
0.9739744838
 40
0.9840089017
 40
0.992469587
 40
1.0
 40
1.0
 40
1.0
 40
1.0
 10
9.94916732
 20
10.1304208318
 30
0.0
 10
9.9475880383
 20
10.1305666475
 30
0.0
 10
9.9443245534
 20
10.1307722437
 30
0.0
 10
9.9393842706
 20
10.1308580053
 30
0.0
 10
9.9352322255
 20
10.1307494845
 30
0.0
 10
9.9320125619
 20
10.1305489593
 30
0.0
 10
9.9297648813
 20
10.1303496716
 30
0.0
 10
9.9276839372
 20
10.1301028596
 30
0.0
 10
9.9258039003
 20
10.1298127593
 30
0.0
 10
9.92438019
 20
10.1295297456
 30
0.0
 10
9.9233667897
 20
10.129280816
 30
0.0
 10
9.9227042857
 20
10.1290936399
 30
0.0
 10
9.9221124621
 20
10.1288997102
 30
0.0
 10
9.9215936468
 20
10.1286998246
 30
0.0
 10
9.9212109292
 20
10.1285231081
 30
0.0
 10
9.9209444418
 20
10.1283778411
 30
0.0
 10
9.9207228385
 20
10.1282420341
 30
0.0
 10
9.9204910719
 20
10.1280718057
 30
0.0
 10
9.92027775
 20
10.1278536221
 30
0.0
 10
9.9201430308
 20
10.1276286073
 30
0.0
 10
9.9201098975
 20
10.1274687923
 30
0.0
 10
9.9201091954
 20
10.1273938613
 30
0.0
  0
SPLINE
  5
434
100
AcDbEntity
  8
0
100
AcDbSpline
 62
7
  6
CONTINUOUS
 70
0
 71
3
 72
27
 73
23
 74
0
 42
0.0000001
 43
0.0000001
 44
0.0000000001
 40
0.0
 40
0.0
 40
0.0
 40
0.0
 40
0.0617054491
 40
0.1311204661
 40
0.2067729253
 40
0.2870398478
 40
0.3701695331
 40
0.45434356
 40
0.537716664
 40
0.6184643674
 40
0.6948270092
 40
0.7651575913
 40
0.8279659019
 40
0.8819747218
 40
0.9053586209
 40
0.9262002218
 40
0.9444398021
 40
0.9600658725
 40
0.9731339541
 40
0.9838182659
 40
0.9925148107
 40
1.0
 40
1.0
 40
1.0
 40
1.0
 10
10.065584462
 20
10.1146266549
 30
0.0
 10
10.0648711419
 20
10.1147642229
 30
0.0
 10
10.0633466961
 20
10.1150118844
 30
0.0
 10
10.0609291925
 20
10.1153019704
 30
0.0
 10
10.0582854096
 20
10.1155271793
 30
0.0
 10
10.0554749607
 20
10.1156821597
 30
0.0
 10
10.052561067
 20
10.1157631251
 30
0.0
 10
10.0496094983
 20
10.1157681661
 30
0.0
 10
10.0466868227
 20
10.1156971516
 30
0.0
 10
10.0438589444
 20
10.1155518014
 30
0.0
 10
10.0411895797
 20
10.1153355857
 30
0.0
 10
10.0387386452
 20
10.1150538671
 30
0.0
 10
10.0365611682
 20
10.1147133701
 30
0.0
 10
10.0349445064
 20
10.1143740989
 30
0.0
 10
10.0338280295
 20
10.1140711631
 30
0.0
 10
10.0331277247
 20
10.1138455861
 30
0.0
 10
10.0325269939
 20
10.1136119544
 30
0.0
 10
10.0320286516
 20
10.1133715521
 30
0.0
 10
10.0316342739
 20
10.1131253807
 30
0.0
 10
10.0313446041
 20
10.1128728898
 30
0.0
 10
10.0311596588
 20
10.1126106206
 30
0.0
 10
10.0311134571
 20
10.1124190937
 30
0.0
 10
10.0311130491
 20
10.1123309708
 30
0.0
  0
SPLINE
  5
435
100
AcDbEntity
  8
0
100
AcDbSpline
 62
7
  6
CONTINUOUS
 70
0
 71
3
 72
32
 73
28
 74
0
 42
0.0000001
 43
0.0000001
 44
0.0000000001
 40
0.0
 40
0.0
 40
0.0
 40
0.0
 40
0.0193085165
 40
0.0416979763
 40
0.0670565551
 40
0.0952476745
 40
0.1594244997
 40
0.2325343896
 40
0.3125451279
 40
0.3971863466
 40
0.4840362222
 40
0.570600474
 40
0.6543955088
 40
0.7330272164
 40
0.8042741367
 40
0.8365049327
 40
0.866177067
 40
0.8931040928
 40
0.9171248209
 40
0.9381230309
 40
0.9560290523
 40
0.9708570931
 40
0.9827516867
 40
0.9877251226
 40
0.9921582251
 40
0.9961883918
 40
1.0
 40
1.0
 40
1.0
 40
1.0
 10
10.1438723356
 20
10.0928708326
 30
0.0
 10
10.143641087
 20
10.092970222
 30
0.0
 10
10.1431314409
 20
10.0931610714
 30
0.0
 10
10.1422947566
 20
10.0934154406
 30
0.0
 10
10.1413343926
 20
10.0936569474
 30
0.0
 10
10.1398323185
 20
10.0939729525
 30
0.0
 10
10.137700805
 20
10.0943125399
 30
0.0
 10
10.1348852049
 20
10.0946291261
 30
0.0
 10
10.1317936767
 20
10.0948592563
 30
0.0
 10
10.1285174612
 20
10.0949957207
 30
0.0
 10
10.1251532142
 20
10.0950340793
 30
0.0
 10
10.1218003397
 20
10.0949731231
 30
0.0
 10
10.1185578302
 20
10.094814837
 30
0.0
 10
10.1155214362
 20
10.0945641641
 30
0.0
 10
10.1131640718
 20
10.0942765911
 30
0.0
 10
10.1114502965
 20
10.0940002167
 30
0.0
 10
10.1103128082
 20
10.0937823222
 30
0.0
 10
10.1092878893
 20
10.0935487374
 30
0.0
 10
10.1083829
 20
10.0933011439
 30
0.0
 10
10.1076042214
 20
10.0930417137
 30
0.0
 10
10.1069566541
 20
10.0927722139
 30
0.0
 10
10.1064440974
 20
10.092494858
 30
0.0
 10
10.1061118182
 20
10.0922438512
 30
0.0
 10
10.1059262183
 20
10.0920360851
 30
0.0
 10
10.1058315223
 20
10.0918875863
 30
0.0
 10
10.1057736834
 20
10.0917370757
 30
0.0
 10
10.1057604336
 20
10.0916344778
 30
0.0
 10
10.1057603599
 20
10.0915847903
 30
0.0
  0
SPLINE
  5
436
100
AcDbEntity
  8
0
100
AcDbSpline
 62
7
  6
CONTINUOUS
 70
0
 71
3
 72
37
 73
33
 74
0
 42
0.0000001
 43
0.0000001
 44
0.0000000001
 40
0.0
 40
0.0
 40
0.0
 40
0.0
 40
0.0042844991
 40
0.0090463495
 40
0.014469919
 40
0.0206765023
 40
0.0356958432
 40
0.0544189041
 40
0.0768862711
 40
0.1030101962
 40
0.1326200105
 40
0.1654926291
 40
0.23989347
 40
0.323644349
 40
0.4137470517
 40
0.5069363944
 40
0.5998190323
 40
0.689014964
 40
0.7712967399
 40
0.8089148471
 40
0.8437369587
 40
0.8754658571
 40
0.9038467878
 40
0.9286727441
 40
0.9498000582
 40
0.9671801021
 40
0.9744940151
 40
0.9809339429
 40
0.9865665213
 40
0.9914987245
 40
0.9958974685
 40
1.0
 40
1.0
 40
1.0
 40
1.0
 10
10.1745882678
 20
10.0677774382
 30
0.0
 10
10.1745767205
 20
10.0678348588
 30
0.0
 10
10.1745349482
 20
10.0679529321
 30
0.0
 10
10.1744274306
 20
10.068120439
 30
0.0
 10
10.174274513
 20
10.0682854764
 30
0.0
 10
10.1739923444
 20
10.0685172023
 30
0.0
 10
10.1735180025
 20
10.068793564
 30
0.0
 10
10.1728112159
 20
10.069097234
 30
0.0
 10
10.1719375076
 20
10.069388837
 30
0.0
 10
10.1709043999
 20
10.0696653313
 30
0.0
 10
10.1697207078
 20
10.0699240182
 30
0.0
 10
10.1678786807
 20
10.0702551775
 30
0.0
 10
10.165288193
 20
10.0705955927
 30
0.0
 10
10.1619061125
 20
10.0708860074
 30
0.0
 10
10.1582589246
 20
10.0710603761
 30
0.0
 10
10.15448321
 20
10.0711117522
 30
0.0
 10
10.1507202197
 20
10.07103798
 30
0.0
 10
10.1471109372
 20
10.0708419641
 30
0.0
 10
10.1442638714
 20
10.0705765858
 30
0.0
 10
10.1421663766
 20
10.0703026545
 30
0.0
 10
10.1407598133
 20
10.0700790121
 30
0.0
 10
10.1394852617
 20
10.0698332492
 30
0.0
 10
10.1383545366
 20
10.0695678638
 30
0.0
 10
10.1373776842
 20
10.0692856336
 30
0.0
 10
10.1365634912
 20
10.0689892726
 30
0.0
 10
10.1359959922
 20
10.0687198475
 30
0.0
 10
10.1356349646
 20
10.0684935145
 30
0.0
 10
10.1354246324
 20
10.0683314292
 30
0.0
 10
10.1352590245
 20
10.0681672011
 30
0.0
 10
10.1351386684
 20
10.0680002951
 30
0.0
 10
10.1350647187
 20
10.0678303752
 30
0.0
 10
10.1350476514
 20
10.0677136412
 30
0.0
 10
10.1350476029
 20
10.0676575586
 30
0.0
  0
SPLINE
  5
437
100
AcDbEntity
  8
0
100
AcDbSpline
 62
7
  6
CONTINUOUS
 70
0
 71
3
 72
12
 73
8
 74
0
 42
0.0000001
 43
0.0000001
 44
0.0000000001
 40
0.0
 40
0.0
 40
0.0
 40
0.0
 40
0.3300066057
 40
0.5983783238
 40
0.8146303309
 40
0.9094853491
 40
1.0
 40
1.0
 40
1.0
 40
1.0
 10
10.1164105371
 20
10.0444955167
 30
0.0
 10
10.1162652229
 20
10.0444178559
 30
0.0
 10
10.116008062
 20
10.0442637734
 30
0.0
 10
10.1156942007
 20
10.0440020395
 30
0.0
 10
10.1155205551
 20
10.0437637919
 30
0.0
 10
10.1154540949
 20
10.0435731705
 30
0.0
 10
10.1154432485
 20
10.0434803271
 30
0.0
 10
10.1154432038
 20
10.0434351352
 30
0.0
  0
LINE
  5
438
100
AcDbEntity
  8
0
100
AcDbLine
 62
7
  6
CONTINUOUS
 10
9.5372082971
 20
9.9958462682
 11
9.5314380297
 21
9.9980617589
  0
SPLINE
  5
439
100
AcDbEntity
  8
0
100
AcDbSpline
 62
7
  6
CONTINUOUS
 70
0
 71
3
 72
33
 73
29
 74
0
 42
0.0000001
 43
0.0000001
 44
0.0000000001
 40
0.0
 40
0.0
 40
0.0
 40
0.0
 40
0.0038494409
 40
0.0079018386
 40
0.0123582553
 40
0.0173689281
 40
0.029415055
 40
0.0445155735
 40
0.0628268301
 40
0.0843527801
 40
0.109019586
 40
0.1366922926
 40
0.1671989989
 40
0.2003307044
 40
0.2735050625
 40
0.3540830339
 40
0.4396553101
 40
0.527638559
 40
0.6153660771
 40
0.7001796432
 40
0.7795210596
 40
0.8510235524
 40
0.8831754764
 40
0.9126181424
 40
0.9391527523
 40
0.9626276226
 40
0.9829319749
 40
1.0
 40
1.0
 40
1.0
 40
1.0
 10
9.3439256814
 20
10.0869856209
 30
0.0
 10
9.3439239128
 20
10.0869347724
 30
0.0
 10
9.3439340095
 20
10.086829465
 30
0.0
 10
9.3439896886
 20
10.0866744427
 30
0.0
 10
9.3440843202
 20
10.0865216121
 30
0.0
 10
9.3442730045
 20
10.0863075317
 30
0.0
 10
9.3446152273
 20
10.0860495223
 30
0.0
 10
9.3451455362
 20
10.0857648853
 30
0.0
 10
9.3458182387
 20
10.0854887767
 30
0.0
 10
9.3466289085
 20
10.0852232119
 30
0.0
 10
9.3475723334
 20
10.0849704691
 30
0.0
 10
9.3486414533
 20
10.0847325995
 30
0.0
 10
9.3498281535
 20
10.084511662
 30
0.0
 10
9.351615025
 20
10.0842328137
 30
0.0
 10
9.3540693568
 20
10.0839460299
 30
0.0
 10
9.3572237718
 20
10.0837019425
 30
0.0
 10
9.360580168
 20
10.0835563091
 30
0.0
 10
9.3640338935
 20
10.0835139115
 30
0.0
 10
9.3674772901
 20
10.0835762505
 30
0.0
 10
9.3708030244
 20
10.0837411535
 30
0.0
 10
9.3739073798
 20
10.0840032036
 30
0.0
 10
9.3763082878
 20
10.0843042761
 30
0.0
 10
9.3780436703
 20
10.0845940329
 30
0.0
 10
9.3791862734
 20
10.0848216831
 30
0.0
 10
9.3802080081
 20
10.0850655141
 30
0.0
 10
9.3811013514
 20
10.0853234601
 30
0.0
 10
9.3818594781
 20
10.085593359
 30
0.0
 10
9.3823106199
 20
10.0857971341
 30
0.0
 10
9.3825095815
 20
10.0859034659
 30
0.0
  0
SPLINE
  5
43A
100
AcDbEntity
  8
0
100
AcDbSpline
 62
7
  6
CONTINUOUS
 70
0
 71
3
 72
36
 73
32
 74
0
 42
0.0000001
 43
0.0000001
 44
0.0000000001
 40
0.0
 40
0.0
 40
0.0
 40
0.0
 40
0.0979847804
 40
0.195057121
 40
0.2902278331
 40
0.3826099854
 40
0.4713101587
 40
0.5554728143
 40
0.6342889589
 40
0.7069992379
 40
0.7729039404
 40
0.8313659669
 40
0.8576262694
 40
0.8818202664
 40
0.903891081
 40
0.9237830014
 40
0.9414496488
 40
0.9568494737
 40
0.9699426233
 40
0.9756148296
 40
0.9807000002
 40
0.985195075
 40
0.9890970371
 40
0.9924031622
 40
0.9951121313
 40
0.997223306
 40
0.9987365678
 40
0.9992694466
 40
0.999654026
 40
0.9998928459
 40
1.0
 40
1.0
 40
1.0
 40
1.0
 10
12.9291937391
 20
7.0250129059
 30
0.0
 10
12.9292082681
 20
7.0260417942
 30
0.0
 10
12.9292343091
 20
7.0280900325
 30
0.0
 10
12.9292625453
 20
7.0311377461
 30
0.0
 10
12.9292810327
 20
7.0341266943
 30
0.0
 10
12.9292932648
 20
7.0370277521
 30
0.0
 10
12.9292986704
 20
7.0398132297
 30
0.0
 10
12.9292975211
 20
7.0424562482
 30
0.0
 10
12.9292906304
 20
7.0449313385
 30
0.0
 10
12.929279709
 20
7.0472146745
 30
0.0
 10
12.9292676913
 20
7.0492842512
 30
0.0
 10
12.9292587514
 20
7.0508660415
 30
0.0
 10
12.9292529282
 20
7.0520098156
 30
0.0
 10
12.9292492922
 20
7.0527714322
 30
0.0
 10
12.929245968
 20
7.0534661717
 30
0.0
 10
12.9292427047
 20
7.0540923634
 30
0.0
 10
12.9292394257
 20
7.0546484984
 30
0.0
 10
12.9292360915
 20
7.0551332339
 30
0.0
 10
12.9292331728
 20
7.0554920094
 30
0.0
 10
12.9292305373
 20
7.0557424627
 30
0.0
 10
12.9292284751
 20
7.0559026243
 30
0.0
 10
12.9292261764
 20
7.0560441887
 30
0.0
 10
12.9292235867
 20
7.0561670668
 30
0.0
 10
12.9292206485
 20
7.0562711606
 30
0.0
 10
12.9292173738
 20
7.0563564668
 30
0.0
 10
12.9292138392
 20
7.056422813
 30
0.0
 10
12.9292103948
 20
7.0564664974
 30
0.0
 10
12.929207389
 20
7.0564916474
 30
0.0
 10
12.9292051426
 20
7.056503941
 30
0.0
 10
12.9292034623
 20
7.056510759
 30
0.0
 10
12.9292012641
 20
7.0565147512
 30
0.0
 10
12.929200139
 20
7.056514773
 30
0.0
  0
LINE
  5
43B
100
AcDbEntity
  8
0
100
AcDbLine
 62
7
  6
CONTINUOUS
 10
10.08477691
 20
9.9747737752
 11
10.0926805153
 21
9.9825280835
  0
SPLINE
  5
43C
100
AcDbEntity
  8
0
100
AcDbSpline
 62
7
  6
CONTINUOUS
 70
0
 71
3
 72
19
 73
15
 74
0
 42
0.0000001
 43
0.0000001
 44
0.0000000001
 40
0.0
 40
0.0
 40
0.0
 40
0.0
 40
0.0096822469
 40
0.0223159817
 40
0.0557000478
 40
0.0985227036
 40
0.1491231232
 40
0.205976228
 40
0.2677958272
 40
0.4023267232
 40
0.5464698027
 40
0.6960329576
 40
0.8480367633
 40
1.0
 40
1.0
 40
1.0
 40
1.0
 10
10.0716212883
 20
9.9610912248
 30
0.0
 10
10.0716577069
 20
9.9611405055
 30
0.0
 10
10.0717449337
 20
9.9612516413
 30
0.0
 10
10.0719695659
 20
9.961523327
 30
0.0
 10
10.0723388724
 20
9.9619473886
 30
0.0
 10
10.0728748173
 20
9.9625447433
 30
0.0
 10
10.0735171891
 20
9.9632461197
 30
0.0
 10
10.0742464219
 20
9.9640309205
 30
0.0
 10
10.0753440077
 20
9.9651985132
 30
0.0
 10
10.0768315539
 20
9.966757689
 30
0.0
 10
10.0787176796
 20
9.9687039763
 30
0.0
 10
10.0806953695
 20
9.9707154189
 30
0.0
 10
10.0827221727
 20
9.9727478768
 30
0.0
 10
10.0840903455
 20
9.9741002854
 30
0.0
 10
10.08477691
 20
9.9747737752
 30
0.0
  0
LINE
  5
43D
100
AcDbEntity
  8
0
100
AcDbLine
 62
7
  6
CONTINUOUS
 10
9.790798642
 20
10.024212481
 11
9.7924040907
 21
10.0241759985
  0
LINE
  5
43E
100
AcDbEntity
  8
0
100
AcDbLine
 62
7
  6
CONTINUOUS
 10
9.7924040907
 20
10.0241759985
 11
9.7941551715
 21
10.0241345921
  0
LINE
  5
43F
100
AcDbEntity
  8
0
100
AcDbLine
 62
7
  6
CONTINUOUS
 10
9.829950396
 20
10.0229117973
 11
9.8317644544
 21
10.022830248
  0
LINE
  5
440
100
AcDbEntity
  8
0
100
AcDbLine
 62
7
  6
CONTINUOUS
 10
9.8682129504
 20
10.0207660871
 11
9.8691594653
 21
10.0207012244
  0
SPLINE
  5
441
100
AcDbEntity
  8
0
100
AcDbSpline
 62
7
  6
CONTINUOUS
 70
0
 71
3
 72
29
 73
25
 74
0
 42
0.0000001
 43
0.0000001
 44
0.0000000001
 40
0.0
 40
0.0
 40
0.0
 40
0.0
 40
0.0945945787
 40
0.1863441102
 40
0.2748612742
 40
0.3597750507
 40
0.4407334399
 40
0.5174055755
 40
0.5894847925
 40
0.6566917367
 40
0.7187780473
 40
0.7755314583
 40
0.801855023
 40
0.8267864418
 40
0.8503127038
 40
0.8724262432
 40
0.8931241439
 40
0.9124098519
 40
0.9302950394
 40
0.9468004898
 40
0.9619612147
 40
0.9758283979
 40
0.9884744244
 40
1.0
 40
1.0
 40
1.0
 40
1.0
 10
9.8691594653
 20
10.0207012244
 30
0.0
 10
9.875773185
 20
10.0202459188
 30
0.0
 10
9.8887960223
 20
10.0192635435
 30
0.0
 10
9.9079826591
 20
10.01754483
 30
0.0
 10
9.9264667012
 20
10.0156091064
 30
0.0
 10
9.9441662697
 20
10.0134651127
 30
0.0
 10
9.9610030436
 20
10.0111225623
 30
0.0
 10
9.9769025961
 20
10.0085920932
 30
0.0
 10
9.9917947331
 20
10.005885237
 30
0.0
 10
10.0056140121
 20
10.0030144592
 30
0.0
 10
10.0182996138
 20
9.9999928405
 30
0.0
 10
10.0281123218
 20
9.9972977348
 30
0.0
 10
10.0353442113
 20
9.9950606083
 30
0.0
 10
10.040314117
 20
9.993395743
 30
0.0
 10
10.0449619697
 20
9.9917033375
 30
0.0
 10
10.0492827663
 20
9.9899853189
 30
0.0
 10
10.0532718954
 20
9.9882435579
 30
0.0
 10
10.0569251418
 20
9.9864799059
 30
0.0
 10
10.0602387951
 20
9.9846963746
 30
0.0
 10
10.0632095379
 20
9.9828945656
 30
0.0
 10
10.0658346126
 20
9.9810762188
 30
0.0
 10
10.0681117049
 20
9.9792423817
 30
0.0
 10
10.0700382611
 20
9.9773946031
 30
0.0
 10
10.0711349607
 20
9.9760976126
 30
0.0
 10
10.0716149527
 20
9.9754479639
 30
0.0
  0
LINE
  5
442
100
AcDbEntity
  8
0
100
AcDbLine
 62
7
  6
CONTINUOUS
 10
10.0716149527
 20
9.9754479639
 11
10.0720522223
 21
9.9752685176
  0
LINE
  5
443
100
AcDbEntity
  8
0
100
AcDbLine
 62
7
  6
CONTINUOUS
 10
9.8300903809
 20
10.0458124057
 11
9.8318339398
 21
10.0457387619
  0
LINE
  5
444
100
AcDbEntity
  8
0
100
AcDbLine
 62
7
  6
CONTINUOUS
 10
9.8318339398
 20
10.0457387619
 11
9.8348264559
 21
10.045608446
  0
LINE
  5
445
100
AcDbEntity
  8
0
100
AcDbLine
 62
7
  6
CONTINUOUS
 10
9.8858380043
 20
10.0425876235
 11
9.8883621562
 21
10.0423966255
  0
LINE
  5
446
100
AcDbEntity
  8
0
100
AcDbLine
 62
7
  6
CONTINUOUS
 10
9.9138122817
 20
10.0402284182
 11
9.915419739
 21
10.0400759529
  0
SPLINE
  5
447
100
AcDbEntity
  8
0
100
AcDbSpline
 62
7
  6
CONTINUOUS
 70
0
 71
3
 72
28
 73
24
 74
0
 42
0.0000001
 43
0.0000001
 44
0.0000000001
 40
0.0
 40
0.0
 40
0.0
 40
0.0
 40
0.0980044876
 40
0.1924269878
 40
0.2829341234
 40
0.3692100544
 40
0.4509586005
 40
0.5279061743
 40
0.5998041703
 40
0.6664320995
 40
0.7276022256
 40
0.7831665358
 40
0.808815513
 40
0.8330304036
 40
0.8558094012
 40
0.8771561269
 40
0.8970801506
 40
0.9155998089
 40
0.9327428436
 40
0.9485517108
 40
0.9630891699
 40
0.9764399465
 40
1.0
 40
1.0
 40
1.0
 40
1.0
 10
9.915419739
 20
10.0400759529
 30
0.0
 10
9.9214937197
 20
10.039496196
 30
0.0
 10
9.9334122016
 20
10.038277405
 30
0.0
 10
9.9509082083
 20
10.0362279158
 30
0.0
 10
9.9676457242
 20
10.0339968198
 30
0.0
 10
9.9835617914
 20
10.0315926942
 30
0.0
 10
9.9985966463
 20
10.0290247787
 30
0.0
 10
10.0126939485
 20
10.0263030255
 30
0.0
 10
10.025800989
 20
10.023438006
 30
0.0
 10
10.0378690985
 20
10.0204409429
 30
0.0
 10
10.0488533682
 20
10.0173234402
 30
0.0
 10
10.0572818517
 20
10.0145668622
 30
0.0
 10
10.0634402866
 20
10.0122940434
 30
0.0
 10
10.0676392623
 20
10.0106122364
 30
0.0
 10
10.0715391114
 20
10.0089091087
 30
0.0
 10
10.0751363266
 20
10.0071861655
 30
0.0
 10
10.0784276508
 20
10.0054448258
 30
0.0
 10
10.0814102802
 20
10.0036869589
 30
0.0
 10
10.0840819287
 20
10.0019140613
 30
0.0
 10
10.0864401707
 20
10.0001275035
 30
0.0
 10
10.0884842277
 20
9.9983263155
 30
0.0
 10
10.0906928312
 20
9.9960055043
 30
0.0
 10
10.0920292045
 20
9.9940990763
 30
0.0
 10
10.0926804269
 20
9.9927847577
 30
0.0
  0
SPLINE
  5
448
100
AcDbEntity
  8
0
100
AcDbSpline
 62
9
  6
CONTINUOUS
 70
0
 71
3
 72
41
 73
37
 74
0
 42
0.0000001
 43
0.0000001
 44
0.0000000001
 40
0.0
 40
0.0
 40
0.0
 40
0.0
 40
0.0942446991
 40
0.1876078119
 40
0.2792210247
 40
0.3682309794
 40
0.4538133735
 40
0.535180879
 40
0.5740512312
 40
0.6115943839
 40
0.6477267648
 40
0.6823688693
 40
0.7154459867
 40
0.7468884805
 40
0.7766321058
 40
0.804619007
 40
0.830798351
 40
0.855127122
 40
0.8775719339
 40
0.8981109084
 40
0.9076633854
 40
0.9167381225
 40
0.9253371066
 40
0.9334640086
 40
0.9411245942
 40
0.9483267138
 40
0.9550811359
 40
0.9614022602
 40
0.9673085601
 40
0.9728239012
 40
0.9779787415
 40
0.98281111
 40
0.9873680769
 40
0.9917064635
 40
0.9958924395
 40
1.0
 40
1.0
 40
1.0
 40
1.0
 10
9.7494600593
 20
13.8732821848
 30
0.0
 10
9.7314508719
 20
13.8732821848
 30
0.0
 10
9.6956001972
 20
13.8729777802
 30
0.0
 10
9.6422589222
 20
13.8716102945
 30
0.0
 10
9.5899491033
 20
13.8693462105
 30
0.0
 10
9.539173753
 20
13.8662078907
 30
0.0
 10
9.4904214922
 20
13.8622263066
 30
0.0
 10
9.4512962232
 20
13.8581799052
 30
0.0
 10
9.4213673968
 20
13.8545262234
 30
0.0
 10
9.4000544848
 20
13.8516432383
 30
0.0
 10
9.3795828665
 20
13.848582914
 30
0.0
 10
9.3600017405
 20
13.8453526105
 30
0.0
 10
9.3413581372
 20
13.8419602785
 30
0.0
 10
9.3236967769
 20
13.8384142629
 30
0.0
 10
9.307059972
 20
13.8347232355
 30
0.0
 10
9.2914874484
 20
13.8308963186
 30
0.0
 10
9.2770162779
 20
13.8269429983
 30
0.0
 10
9.2636805651
 20
13.8228730331
 30
0.0
 10
9.2515118756
 20
13.8186964111
 30
0.0
 10
9.2421531214
 20
13.815052964
 30
0.0
 10
9.2352854176
 20
13.8120763442
 30
0.0
 10
9.2305694475
 20
13.8098775514
 30
0.0
 10
9.2261654094
 20
13.8076594728
 30
0.0
 10
9.2220758566
 20
13.805423308
 30
0.0
 10
9.2183030539
 20
13.8031704278
 30
0.0
 10
9.2148491335
 20
13.8009019948
 30
0.0
 10
9.2117160109
 20
13.7986191482
 30
0.0
 10
9.2089053058
 20
13.7963230579
 30
0.0
 10
9.2064185969
 20
13.7940145922
 30
0.0
 10
9.2042573537
 20
13.7916945044
 30
0.0
 10
9.2024229156
 20
13.7893634913
 30
0.0
 10
9.2009169991
 20
13.7870219253
 30
0.0
 10
9.1997416428
 20
13.784670397
 30
0.0
 10
9.1988991106
 20
13.7823097747
 30
0.0
 10
9.1983921578
 20
13.7799425178
 30
0.0
 10
9.1982789979
 20
13.7783555031
 30
0.0
 10
9.1982789979
 20
13.7775705908
 30
0.0
  0
SPLINE
  5
449
100
AcDbEntity
  8
0
100
AcDbSpline
 62
7
  6
CONTINUOUS
 70
0
 71
3
 72
16
 73
12
 74
0
 42
0.0000001
 43
0.0000001
 44
0.0000000001
 40
0.0
 40
0.0
 40
0.0
 40
0.0
 40
0.0707100039
 40
0.1401609172
 40
0.2742381262
 40
0.402570279
 40
0.5263516819
 40
0.6469109247
 40
0.7653991781
 40
0.8828175004
 40
1.0
 40
1.0
 40
1.0
 40
1.0
 10
9.790798642
 20
10.024212481
 30
0.0
 10
9.7903239566
 20
10.0242230587
 30
0.0
 10
9.7893831181
 20
10.0243098874
 30
0.0
 10
9.7875848105
 20
10.024726175
 30
0.0
 10
9.7855271094
 20
10.0256437934
 30
0.0
 10
9.7834455705
 20
10.0272221318
 30
0.0
 10
9.7817829887
 20
10.0291124667
 30
0.0
 10
9.7805201264
 20
10.031209664
 30
0.0
 10
9.7796328961
 20
10.0334436347
 30
0.0
 10
9.7791050221
 20
10.0357638662
 30
0.0
 10
9.7789876183
 20
10.0373416574
 30
0.0
 10
9.7789876183
 20
10.0381285139
 30
0.0
  0
SPLINE
  5
44A
100
AcDbEntity
  8
0
100
AcDbSpline
 62
7
  6
CONTINUOUS
 70
0
 71
3
 72
33
 73
29
 74
0
 42
0.0000001
 43
0.0000001
 44
0.0000000001
 40
0.0
 40
0.0
 40
0.0
 40
0.0
 40
0.0038570225
 40
0.0079449642
 40
0.0124575428
 40
0.017537777
 40
0.0297426366
 40
0.0450060824
 40
0.0634721479
 40
0.0851389073
 40
0.1099291454
 40
0.1377065143
 40
0.1682978909
 40
0.2014943708
 40
0.2747389961
 40
0.3553131438
 40
0.440816932
 40
0.5286793987
 40
0.6162484554
 40
0.700881653
 40
0.7800369916
 40
0.8513633168
 40
0.8834353785
 40
0.9128058547
 40
0.9392773196
 40
0.9626993651
 40
0.9829620132
 40
1.0
 40
1.0
 40
1.0
 40
1.0
 10
10.1154432038
 20
10.0434351352
 30
0.0
 10
10.1154431534
 20
10.0433841816
 30
0.0
 10
10.1154569061
 20
10.0432787862
 30
0.0
 10
10.1155175713
 20
10.0431243911
 30
0.0
 10
10.1156168563
 20
10.0429721638
 30
0.0
 10
10.1158117874
 20
10.0427589074
 30
0.0
 10
10.1161607932
 20
10.0425020107
 30
0.0
 10
10.1166983924
 20
10.0422183909
 30
0.0
 10
10.1173776483
 20
10.0419433827
 30
0.0
 10
10.118194058
 20
10.0416789934
 30
0.0
 10
10.1191423368
 20
10.0414274899
 30
0.0
 10
10.1202154043
 20
10.0411909145
 30
0.0
 10
10.1214051392
 20
10.04097129
 30
0.0
 10
10.123194321
 20
10.0406943673
 30
0.0
 10
10.1256493876
 20
10.0404097924
 30
0.0
 10
10.1288023503
 20
10.0401680429
 30
0.0
 10
10.1321545817
 20
10.0400244736
 30
0.0
 10
10.1356019888
 20
10.0399837787
 30
0.0
 10
10.1390375497
 20
10.0400473942
 30
0.0
 10
10.1423546168
 20
10.0402131142
 30
0.0
 10
10.1454501698
 20
10.0404755175
 30
0.0
 10
10.1478439674
 20
10.0407765206
 30
0.0
 10
10.1495741016
 20
10.0410659902
 30
0.0
 10
10.1507132665
 20
10.0412933375
 30
0.0
 10
10.1517319915
 20
10.0415367862
 30
0.0
 10
10.1526228073
 20
10.04179428
 30
0.0
 10
10.1533789355
 20
10.0420636714
 30
0.0
 10
10.1538289525
 20
10.0422670141
 30
0.0
 10
10.1540274638
 20
10.0423731053
 30
0.0
  0
SPLINE
  5
44B
100
AcDbEntity
  8
0
100
AcDbSpline
 62
9
  6
CONTINUOUS
 70
0
 71
3
 72
43
 73
39
 74
0
 42
0.0000001
 43
0.0000001
 44
0.0000000001
 40
0.0
 40
0.0
 40
0.0
 40
0.0
 40
0.000020845
 40
0.0000804168
 40
0.0001786924
 40
0.000315647
 40
0.0004912557
 40
0.0007054936
 40
0.0012497572
 40
0.0019482381
 40
0.0028007363
 40
0.0038070523
 40
0.0049669864
 40
0.0077469102
 40
0.0111389118
 40
0.0151413958
 40
0.0197527681
 40
0.0249707154
 40
0.0307900473
 40
0.0372048608
 40
0.0442092615
 40
0.0599632902
 40
0.0780051875
 40
0.0982848959
 40
0.1207394612
 40
0.145302993
 40
0.1719099908
 40
0.2004924672
 40
0.2309712967
 40
0.2972923247
 40
0.3702112832
 40
0.4490038521
 40
0.5329215288
 40
0.6211547096
 40
0.7128716909
 40
0.8071874433
 40
0.9032032068
 40
1.0
 40
1.0
 40
1.0
 40
1.0
 10
13.0513038113
 20
4.4200768751
 30
0.0
 10
13.0513026957
 20
4.420076356
 30
0.0
 10
13.0512978119
 20
4.4200761532
 30
0.0
 10
13.0512876188
 20
4.4200737467
 30
0.0
 10
13.0512703572
 20
4.4200711329
 30
0.0
 10
13.0512465008
 20
4.4200669038
 30
0.0
 10
13.0512158251
 20
4.4200617504
 30
0.0
 10
13.0511614688
 20
4.420052516
 30
0.0
 10
13.0510766562
 20
4.4200382333
 30
0.0
 10
13.0509546875
 20
4.42001774
 30
0.0
 10
13.0508058036
 20
4.419992823
 30
0.0
 10
13.0506300409
 20
4.4199634936
 30
0.0
 10
13.0503420333
 20
4.4199155745
 30
0.0
 10
13.0499150618
 20
4.4198448404
 30
0.0
 10
13.0493224735
 20
4.4197471707
 30
0.0
 10
13.048623124
 20
4.4196324801
 30
0.0
 10
13.0478173088
 20
4.4195009765
 30
0.0
 10
13.0469055305
 20
4.4193529175
 30
0.0
 10
13.0458884855
 20
4.419188957
 30
0.0
 10
13.044767083
 20
4.419009767
 30
0.0
 10
13.0430661672
 20
4.4187407238
 30
0.0
 10
13.0406863354
 20
4.418370868
 30
0.0
 10
13.0375302844
 20
4.4178929676
 30
0.0
 10
13.0339809216
 20
4.4173708655
 30
0.0
 10
13.0300478725
 20
4.4168122083
 30
0.0
 10
13.0257417379
 20
4.41622472
 30
0.0
 10
13.0210734768
 20
4.4156162089
 30
0.0
 10
13.0160548901
 20
4.4149945982
 30
0.0
 10
13.0087036813
 20
4.4141356547
 30
0.0
 10
12.9987399955
 20
4.4130867241
 30
0.0
 10
12.9859192719
 20
4.4119520346
 30
0.0
 10
12.9720436874
 20
4.4109775732
 30
0.0
 10
12.9572484811
 20
4.4102333287
 30
0.0
 10
12.9416782016
 20
4.4097750956
 30
0.0
 10
12.9254876687
 20
4.4096590577
 30
0.0
 10
12.9088391573
 20
4.409916637
 30
0.0
 10
12.891901787
 20
4.410579502
 30
0.0
 10
12.8805412141
 20
4.4112892495
 30
0.0
 10
12.8748431406
 20
4.411712874
 30
0.0
  0
SPLINE
  5
44C
100
AcDbEntity
  8
0
100
AcDbSpline
 62
9
  6
CONTINUOUS
 70
0
 71
3
 72
41
 73
37
 74
0
 42
0.0000001
 43
0.0000001
 44
0.0000000001
 40
0.0
 40
0.0
 40
0.0
 40
0.0
 40
0.0977563042
 40
0.1944528238
 40
0.289201465
 40
0.3811263064
 40
0.4693736675
 40
0.5531824798
 40
0.631803845
 40
0.704477103
 40
0.7704696628
 40
0.8007745652
 40
0.8291922205
 40
0.8556523713
 40
0.8800843015
 40
0.9024168701
 40
0.9225785474
 40
0.9405026024
 40
0.9561426456
 40
0.9694572963
 40
0.9752296362
 40
0.9804050568
 40
0.9849789511
 40
0.9889490958
 40
0.9923138631
 40
0.9950716241
 40
0.996222368
 40
0.997220749
 40
0.9980665634
 40
0.9987596071
 40
0.9992996763
 40
0.9996865669
 40
0.9998225065
 40
0.9999200752
 40
0.9999792475
 40
1.0
 40
1.0
 40
1.0
 40
1.0
 10
12.8748431041
 20
4.4117126772
 30
0.0
 10
12.8692636585
 20
4.4116687858
 30
0.0
 10
12.8581638384
 20
4.4117102791
 30
0.0
 10
12.8416615396
 20
4.4121463267
 30
0.0
 10
12.8255058847
 20
4.4129417159
 30
0.0
 10
12.8098526231
 20
4.4140555518
 30
0.0
 10
12.7948488251
 20
4.4154480806
 30
0.0
 10
12.7806301324
 20
4.4170506261
 30
0.0
 10
12.7673242703
 20
4.4187943472
 30
0.0
 10
12.7550554284
 20
4.4206108555
 30
0.0
 10
12.7455378369
 20
4.4221714934
 30
0.0
 10
12.7385261949
 20
4.4233996216
 30
0.0
 10
12.73374279
 20
4.4242702612
 30
0.0
 10
12.7292943102
 20
4.425108537
 30
0.0
 10
12.7251916539
 20
4.4259060447
 30
0.0
 10
12.7214457224
 20
4.4266543764
 30
0.0
 10
12.7180671391
 20
4.4273452325
 30
0.0
 10
12.7150650646
 20
4.4279705191
 30
0.0
 10
12.712447442
 20
4.4285249482
 30
0.0
 10
12.710509608
 20
4.4289415583
 30
0.0
 10
12.7091562987
 20
4.4292352999
 30
0.0
 10
12.7082907305
 20
4.4294241329
 30
0.0
 10
12.7075257927
 20
4.429591638
 30
0.0
 10
12.7068619222
 20
4.4297375521
 30
0.0
 10
12.706299393
 20
4.4298616617
 30
0.0
 10
12.7058940797
 20
4.429951431
 30
0.0
 10
12.7056206794
 20
4.4300121849
 30
0.0
 10
12.7054538241
 20
4.4300493398
 30
0.0
 10
12.7053124883
 20
4.4300808979
 30
0.0
 10
12.7051966847
 20
4.4301067875
 30
0.0
 10
12.7051064893
 20
4.430127103
 30
0.0
 10
12.7050472565
 20
4.4301403091
 30
0.0
 10
12.7050127887
 20
4.4301483099
 30
0.0
 10
12.7049963895
 20
4.4301517295
 30
0.0
 10
12.7049867161
 20
4.4301545221
 30
0.0
 10
12.7049820624
 20
4.4301550099
 30
0.0
 10
12.7049810069
 20
4.4301555474
 30
0.0
  0
SPLINE
  5
44D
100
AcDbEntity
  8
0
100
AcDbSpline
 62
9
  6
CONTINUOUS
 70
0
 71
3
 72
35
 73
31
 74
0
 42
0.0000001
 43
0.0000001
 44
0.0000000001
 40
0.0
 40
0.0
 40
0.0
 40
0.0
 40
0.0048513039
 40
0.009756292
 40
0.0147659417
 40
0.0199280326
 40
0.0308697452
 40
0.0428848635
 40
0.0561899006
 40
0.0709379188
 40
0.0872349478
 40
0.1051518916
 40
0.1247346524
 40
0.1460099855
 40
0.168990745
 40
0.1936785452
 40
0.2200663688
 40
0.2481399202
 40
0.2778788731
 40
0.309257782
 40
0.3422465398
 40
0.376811207
 40
0.4129139641
 40
0.450513994
 40
0.5300250434
 40
0.6149615754
 40
0.7048997711
 40
0.7993817075
 40
0.897919653
 40
1.0
 40
1.0
 40
1.0
 40
1.0
 10
9.1690961184
 20
10.0651994913
 30
0.0
 10
9.1690961184
 20
10.0658223869
 30
0.0
 10
9.1691633686
 20
10.0670760808
 30
0.0
 10
9.1694650845
 20
10.0689511327
 30
0.0
 10
9.1699673659
 20
10.0708240988
 30
0.0
 10
9.1709217533
 20
10.0733653888
 30
0.0
 10
9.1726562501
 20
10.0765535154
 30
0.0
 10
9.175486081
 20
10.0802682391
 30
0.0
 10
9.1790949793
 20
10.0839500208
 30
0.0
 10
9.1834769757
 20
10.0875987163
 30
0.0
 10
9.1886275417
 20
10.0912134125
 30
0.0
 10
9.1945410822
 20
10.0947913929
 30
0.0
 10
9.2012110127
 20
10.0983288127
 30
0.0
 10
9.2086292979
 20
10.101821476
 30
0.0
 10
9.2167866667
 20
10.1052647502
 30
0.0
 10
9.2256725699
 20
10.1086540448
 30
0.0
 10
9.2352753127
 20
10.1119846674
 30
0.0
 10
9.2455820847
 20
10.1152520103
 30
0.0
 10
9.2565790208
 20
10.1184515337
 30
0.0
 10
9.2682512434
 20
10.1215787525
 30
0.0
 10
9.2805828996
 20
10.1246293536
 30
0.0
 10
9.2935571928
 20
10.1275990206
 30
0.0
 10
9.3071564315
 20
10.1304837485
 30
0.0
 10
9.3264591066
 20
10.1342822598
 30
0.0
 10
9.3520146288
 20
10.1387639554
 30
0.0
 10
9.3843121844
 20
10.1436497588
 30
0.0
 10
9.4186103087
 20
10.1481106531
 30
0.0
 10
9.4547212931
 20
10.1521216455
 30
0.0
 10
9.492447497
 20
10.1556601573
 30
0.0
 10
9.5181298959
 20
10.1576592282
 30
0.0
 10
9.5312043331
 20
10.1585806778
 30
0.0
  0
SPLINE
  5
44E
100
AcDbEntity
  8
0
100
AcDbSpline
 62
9
  6
CONTINUOUS
 70
0
 71
3
 72
15
 73
11
 74
0
 42
0.0000001
 43
0.0000001
 44
0.0000000001
 40
0.0
 40
0.0
 40
0.0
 40
0.0
 40
0.1210259424
 40
0.245462193
 40
0.3721888262
 40
0.500062532
 40
0.6279283207
 40
0.7546312844
 40
0.8790283503
 40
1.0
 40
1.0
 40
1.0
 40
1.0
 10
9.5312043331
 20
10.1585806778
 30
0.0
 10
9.5488125867
 20
10.1598216581
 30
0.0
 10
9.5845508141
 20
10.1619869115
 30
0.0
 10
9.6387893275
 20
10.1642879577
 30
0.0
 10
9.6940580672
 20
10.165674853
 30
0.0
 10
9.7498423928
 20
10.1661343781
 30
0.0
 10
9.8056231601
 20
10.1656621097
 30
0.0
 10
9.8608812578
 20
10.1642625945
 30
0.0
 10
9.9151021452
 20
10.1619491686
 30
0.0
 10
9.9508262134
 20
10.1597756181
 30
0.0
 10
9.9684262373
 20
10.1585305122
 30
0.0
  0
SPLINE
  5
44F
100
AcDbEntity
  8
0
100
AcDbSpline
 62
9
  6
CONTINUOUS
 70
0
 71
3
 72
35
 73
31
 74
0
 42
0.0000001
 43
0.0000001
 44
0.0000000001
 40
0.0
 40
0.0
 40
0.0
 40
0.0
 40
0.1020986892
 40
0.2006475425
 40
0.2951341064
 40
0.385071796
 40
0.4700038156
 40
0.5495074454
 40
0.5871030064
 40
0.6232009712
 40
0.6577606335
 40
0.6907443135
 40
0.7221181763
 40
0.7518522493
 40
0.7799211873
 40
0.8063047931
 40
0.8309888694
 40
0.8539665238
 40
0.8752394702
 40
0.8948206846
 40
0.9127370263
 40
0.9290345162
 40
0.9437841592
 40
0.9570920762
 40
0.9691113706
 40
0.9800585064
 40
0.9852237097
 40
0.9902366826
 40
0.9951451442
 40
1.0
 40
1.0
 40
1.0
 40
1.0
 10
9.9684262373
 20
10.1585305122
 30
0.0
 10
9.9814786012
 20
10.1576071285
 30
0.0
 10
10.007116724
 20
10.1556046619
 30
0.0
 10
10.0447765585
 20
10.1520622593
 30
0.0
 10
10.0808216129
 20
10.148048751
 30
0.0
 10
10.1150550485
 20
10.14358668
 30
0.0
 10
10.1472899293
 20
10.1387009894
 30
0.0
 10
10.1727948109
 20
10.1342203963
 30
0.0
 10
10.1920585321
 20
10.1304233859
 30
0.0
 10
10.2056299268
 20
10.127540071
 30
0.0
 10
10.2185774042
 20
10.1245720834
 30
0.0
 10
10.2308833486
 20
10.1215234238
 30
0.0
 10
10.2425310363
 20
10.1183983889
 30
0.0
 10
10.2535046836
 20
10.1152012865
 30
0.0
 10
10.2637894778
 20
10.1119365806
 30
0.0
 10
10.2733716157
 20
10.1086088046
 30
0.0
 10
10.282238343
 20
10.1052225439
 30
0.0
 10
10.2903780186
 20
10.1017824827
 30
0.0
 10
10.2977801396
 20
10.0982931891
 30
0.0
 10
10.3044354792
 20
10.0947592855
 30
0.0
 10
10.310336037
 20
10.0911849455
 30
0.0
 10
10.3154752603
 20
10.087574003
 30
0.0
 10
10.3198475743
 20
10.0839291565
 30
0.0
 10
10.3234484668
 20
10.0802513166
 30
0.0
 10
10.3262719781
 20
10.0765406255
 30
0.0
 10
10.3280024994
 20
10.0733561395
 30
0.0
 10
10.3289547117
 20
10.0708177758
 30
0.0
 10
10.3294558649
 20
10.0689469085
 30
0.0
 10
10.3297569017
 20
10.0670739653
 30
0.0
 10
10.3298240001
 20
10.0658216905
 30
0.0
 10
10.3298240001
 20
10.0651994913
 30
0.0
  0
SPLINE
  5
450
100
AcDbEntity
  8
0
100
AcDbSpline
 62
7
  6
CONTINUOUS
 70
0
 71
3
 72
29
 73
25
 74
0
 42
0.0000001
 43
0.0000001
 44
0.0000000001
 40
0.0
 40
0.0
 40
0.0
 40
0.0
 40
0.0115155432
 40
0.024152793
 40
0.0380126137
 40
0.0531674538
 40
0.0696685051
 40
0.0875507312
 40
0.1068348459
 40
0.1275324504
 40
0.1496468798
 40
0.1731751345
 40
0.198109522
 40
0.2244369152
 40
0.281200081
 40
0.343298041
 40
0.4105173807
 40
0.4826085152
 40
0.5592908004
 40
0.6402562389
 40
0.7251725673
 40
0.8136863481
 40
0.9054250801
 40
1.0
 40
1.0
 40
1.0
 40
1.0
 10
9.4272988302
 20
9.9754479639
 30
0.0
 10
9.4277798746
 20
9.9760989014
 30
0.0
 10
9.4288792236
 20
9.9773984526
 30
0.0
 10
9.430810765
 20
9.9792496851
 30
0.0
 10
9.4330941456
 20
9.9810869114
 30
0.0
 10
9.435726797
 20
9.9829085783
 30
0.0
 10
9.4387063926
 20
9.9847136302
 30
0.0
 10
9.4420301553
 20
9.9865003185
 30
0.0
 10
9.4456947457
 20
9.9882670313
 30
0.0
 10
9.4496964277
 20
9.9900117426
 30
0.0
 10
9.4540309558
 20
9.9917325956
 30
0.0
 10
9.4586936875
 20
9.9934277038
 30
0.0
 10
9.4636795833
 20
9.9950951336
 30
0.0
 10
9.4709348823
 20
9.9973355831
 30
0.0
 10
9.4807793431
 20
10.0000343592
 30
0.0
 10
9.4935058156
 20
10.0030595564
 30
0.0
 10
9.5073693351
 20
10.0059331423
 30
0.0
 10
9.5223086556
 20
10.0086419743
 30
0.0
 10
9.5382578789
 20
10.0111735313
 30
0.0
 10
9.5551463268
 20
10.0135162319
 30
0.0
 10
9.5728990638
 20
10.0156593975
 30
0.0
 10
9.5914372364
 20
10.0175932824
 30
0.0
 10
9.6106784188
 20
10.0193091216
 30
0.0
 10
9.6237376797
 20
10.0202889676
 30
0.0
 10
9.6303695867
 20
10.0207428288
 30
0.0
  0
LINE
  5
451
100
AcDbEntity
  8
0
100
AcDbLine
 62
7
  6
CONTINUOUS
 10
9.6303695867
 20
10.0207428288
 11
9.6307066308
 21
10.0207658571
  0
LINE
  5
452
100
AcDbEntity
  8
0
100
AcDbLine
 62
7
  6
CONTINUOUS
 10
9.6546417698
 20
10.0222140265
 11
9.6559433297
 21
10.0222824963
  0
LINE
  5
453
100
AcDbEntity
  8
0
100
AcDbLine
 62
7
  6
CONTINUOUS
 10
9.6683391632
 20
10.0228834312
 11
9.6697131819
 21
10.0229444185
  0
SPLINE
  5
454
100
AcDbEntity
  8
0
100
AcDbSpline
 62
7
  6
CONTINUOUS
 70
0
 71
3
 72
16
 73
12
 74
0
 42
0.0000001
 43
0.0000001
 44
0.0000000001
 40
0.0
 40
0.0
 40
0.0
 40
0.0
 40
0.0707100315
 40
0.140160974
 40
0.2742382283
 40
0.4025704024
 40
0.5263518048
 40
0.6469110309
 40
0.7653992564
 40
0.8828175426
 40
1.0
 40
1.0
 40
1.0
 40
1.0
 10
9.7081214766
 20
10.0242122181
 30
0.0
 10
9.7085961621
 20
10.0242227956
 30
0.0
 10
9.7095370011
 20
10.0243096242
 30
0.0
 10
9.7113353095
 20
10.0247259117
 30
0.0
 10
9.7133930114
 20
10.0256435306
 30
0.0
 10
9.7154745504
 20
10.0272218699
 30
0.0
 10
9.7171371318
 20
10.0291122054
 30
0.0
 10
9.7183999935
 20
10.0312094029
 30
0.0
 10
9.719287223
 20
10.0334433734
 30
0.0
 10
9.7198150966
 20
10.0357636044
 30
0.0
 10
9.7199325002
 20
10.0373413952
 30
0.0
 10
9.7199325002
 20
10.0381282514
 30
0.0
  0
SPLINE
  5
455
100
AcDbEntity
  8
0
100
AcDbSpline
 62
9
  6
CONTINUOUS
 70
0
 71
3
 72
32
 73
28
 74
0
 42
0.0000001
 43
0.0000001
 44
0.0000000001
 40
0.0
 40
0.0
 40
0.0
 40
0.0
 40
0.0114180705
 40
0.0231465738
 40
0.0354685364
 40
0.0486278463
 40
0.062823405
 40
0.0782110624
 40
0.0949089079
 40
0.1130059789
 40
0.1325675436
 40
0.1536409505
 40
0.1762596344
 40
0.2004452373
 40
0.2262113123
 40
0.2535634258
 40
0.2825016324
 40
0.3130209699
 40
0.3451117623
 40
0.3787613701
 40
0.4506652542
 40
0.5285719066
 40
0.6122788485
 40
0.7015509087
 40
0.7961245611
 40
0.8957112451
 40
1.0
 40
1.0
 40
1.0
 40
1.0
 10
10.3298240001
 20
10.0651994913
 30
0.0
 10
10.3298240001
 20
10.0642117414
 30
0.0
 10
10.3296523336
 20
10.0622054991
 30
0.0
 10
10.328886312
 20
10.0592215168
 30
0.0
 10
10.3276160179
 20
10.0562514834
 30
0.0
 10
10.3258476383
 20
10.0532992328
 30
0.0
 10
10.3235861119
 20
10.0503648716
 30
0.0
 10
10.3208347609
 20
10.0474486855
 30
0.0
 10
10.3175964272
 20
10.0445509484
 30
0.0
 10
10.3138734796
 20
10.0416729205
 30
0.0
 10
10.3096687394
 20
10.0388160129
 30
0.0
 10
10.3049853
 20
10.0359820918
 30
0.0
 10
10.2998267074
 20
10.0331733177
 30
0.0
 10
10.2941970648
 20
10.0303917563
 30
0.0
 10
10.2881008479
 20
10.0276398547
 30
0.0
 10
10.2815430893
 20
10.0249198003
 30
0.0
 10
10.2745292098
 20
10.0222339641
 30
0.0
 10
10.2670650805
 20
10.0195846956
 30
0.0
 10
10.2591570002
 20
10.0169741323
 30
0.0
 10
10.2477761785
 20
10.0134703943
 30
0.0
 10
10.2324796818
 20
10.0092272641
 30
0.0
 10
10.212854002
 20
10.0044295199
 30
0.0
 10
10.1916396673
 20
9.9998368212
 30
0.0
 10
10.1689090607
 20
9.9954653134
 30
0.0
 10
10.1447395825
 20
9.9913304645
 30
0.0
 10
10.1192139464
 20
9.9874468186
 30
0.0
 10
10.1017349808
 20
9.9850861341
 30
0.0
 10
10.0927855563
 20
9.9839458932
 30
0.0
  0
SPLINE
  5
456
100
AcDbEntity
  8
0
100
AcDbSpline
 62
9
  6
CONTINUOUS
 70
0
 71
3
 72
32
 73
28
 74
0
 42
0.0000001
 43
0.0000001
 44
0.0000000001
 40
0.0
 40
0.0
 40
0.0
 40
0.0
 40
0.1042887519
 40
0.2038754377
 40
0.2984490956
 40
0.3877211639
 40
0.4714281157
 40
0.5493347788
 40
0.6212386733
 40
0.654888286
 40
0.6869790829
 40
0.7174984243
 40
0.7464366347
 40
0.773788751
 40
0.7995548284
 40
0.8237404327
 40
0.846359117
 40
0.8674325234
 40
0.8869940859
 40
0.9050911538
 40
0.9217889945
 40
0.9371766457
 40
0.9513721969
 40
0.9645314975
 40
0.9768534494
 40
0.9885819412
 40
1.0
 40
1.0
 40
1.0
 40
1.0
 10
9.4061351935
 20
9.9839458127
 30
0.0
 10
9.397185747
 20
9.9850860532
 30
0.0
 10
9.3797067378
 20
9.9874467373
 30
0.0
 10
9.3541810374
 20
9.9913303834
 30
0.0
 10
9.330011497
 20
9.9954652335
 30
0.0
 10
9.3072808309
 20
9.9998367435
 30
0.0
 10
9.2860664399
 20
10.0044294453
 30
0.0
 10
9.2664407073
 20
10.0092271934
 30
0.0
 10
9.251144169
 20
10.0134703276
 30
0.0
 10
9.2397633161
 20
10.0169740692
 30
0.0
 10
9.2318552139
 20
10.0195846353
 30
0.0
 10
9.224391064
 20
10.0222339069
 30
0.0
 10
9.2173771649
 20
10.0249197461
 30
0.0
 10
9.2108193881
 20
10.0276398038
 30
0.0
 10
9.2047231541
 20
10.0303917088
 30
0.0
 10
9.1990934956
 20
10.0331732738
 30
0.0
 10
9.1939348885
 20
10.0359820516
 30
0.0
 10
9.1892514359
 20
10.0388159763
 30
0.0
 10
9.1850466839
 20
10.0416728879
 30
0.0
 10
9.1813237258
 20
10.0445509196
 30
0.0
 10
9.178085383
 20
10.0474486607
 30
0.0
 10
9.1753340243
 20
10.0503648508
 30
0.0
 10
9.1730724914
 20
10.053299216
 30
0.0
 10
9.171304107
 20
10.0562514707
 30
0.0
 10
9.1700338091
 20
10.0592215082
 30
0.0
 10
9.1692677854
 20
10.0622054948
 30
0.0
 10
9.1690961184
 20
10.0642117399
 30
0.0
 10
9.1690961184
 20
10.0651994913
 30
0.0
  0
SPLINE
  5
457
100
AcDbEntity
  8
0
100
AcDbSpline
 62
7
  6
CONTINUOUS
 70
0
 71
3
 72
28
 73
24
 74
0
 42
0.0000001
 43
0.0000001
 44
0.0000000001
 40
0.0
 40
0.0
 40
0.0
 40
0.0
 40
0.0036879191
 40
0.0075251867
 40
0.0162050304
 40
0.0269347917
 40
0.0401372546
 40
0.0559975065
 40
0.0745686626
 40
0.095832811
 40
0.1197232254
 40
0.1749476898
 40
0.2391547023
 40
0.3109445804
 40
0.3886928902
 40
0.4706104068
 40
0.5547956763
 40
0.6392866082
 40
0.7221131543
 40
0.801348842
 40
0.8751606871
 40
0.9418707245
 40
1.0
 40
1.0
 40
1.0
 40
1.0
 10
9.4100596209
 20
10.1085821916
 30
0.0
 10
9.4100582053
 20
10.108537654
 30
0.0
 10
9.4100657187
 20
10.1084461373
 30
0.0
 10
9.4101243223
 20
10.1082578946
 30
0.0
 10
9.4102863208
 20
10.1080216383
 30
0.0
 10
9.4105855134
 20
10.1077619471
 30
0.0
 10
9.4109955456
 20
10.10750807
 30
0.0
 10
9.4115161083
 20
10.1072607664
 30
0.0
 10
9.412145296
 20
10.1070205911
 30
0.0
 10
9.4128800304
 20
10.1067891423
 30
0.0
 10
9.4140529037
 20
10.1064789927
 30
0.0
 10
9.4157512003
 20
10.1061336791
 30
0.0
 10
9.4180367027
 20
10.1057904719
 30
0.0
 10
9.420604766
 20
10.1055108772
 30
0.0
 10
9.4233940139
 20
10.1053020024
 30
0.0
 10
9.4263378099
 20
10.1051693724
 30
0.0
 10
9.4293655627
 20
10.1051163604
 30
0.0
 10
9.4324046308
 20
10.1051443413
 30
0.0
 10
9.4353820817
 20
10.1052525908
 30
0.0
 10
9.4382264426
 20
10.1054383678
 30
0.0
 10
9.4408696777
 20
10.1056968049
 30
0.0
 10
9.4432484723
 20
10.106021303
 30
0.0
 10
9.4447326442
 20
10.106296096
 30
0.0
 10
9.4454182725
 20
10.1064484834
 30
0.0
  0
SPLINE
  5
458
100
AcDbEntity
  8
0
100
AcDbSpline
 62
7
  6
CONTINUOUS
 70
0
 71
3
 72
28
 73
24
 74
0
 42
0.0000001
 43
0.0000001
 44
0.0000000001
 40
0.0
 40
0.0
 40
0.0
 40
0.0
 40
0.023480404
 40
0.0367978588
 40
0.0513122614
 40
0.0671048431
 40
0.0842352329
 40
0.1027452034
 40
0.1226631426
 40
0.1440076787
 40
0.1667880502
 40
0.1910074972
 40
0.2166637696
 40
0.27224988
 40
0.333449181
 40
0.4001107933
 40
0.4720439577
 40
0.5490249161
 40
0.6308016259
 40
0.7170970103
 40
0.807611241
 40
0.9020246601
 40
1.0
 40
1.0
 40
1.0
 40
1.0
 10
9.4062396699
 20
9.9927833793
 30
0.0
 10
9.4068942126
 20
9.9941046056
 30
0.0
 10
9.408241269
 20
9.9960198539
 30
0.0
 10
9.4104672547
 20
9.9983503625
 30
0.0
 10
9.4125282202
 20
10.0001610279
 30
0.0
 10
9.4149067808
 20
10.0019576569
 30
0.0
 10
9.4176022884
 20
10.0037402984
 30
0.0
 10
9.4206121588
 20
10.0055073028
 30
0.0
 10
9.4239339281
 20
10.0072574214
 30
0.0
 10
9.4275647103
 20
10.0089889853
 30
0.0
 10
9.4315012302
 20
10.0107005249
 30
0.0
 10
9.4357399251
 20
10.0123904235
 30
0.0
 10
9.4419570884
 20
10.0146738986
 30
0.0
 10
9.4504660036
 20
10.0174425816
 30
0.0
 10
9.4615547233
 20
10.0205725593
 30
0.0
 10
9.473737147
 20
10.0235802549
 30
0.0
 10
9.4869674363
 20
10.0264539102
 30
0.0
 10
9.501195919
 20
10.0291821469
 30
0.0
 10
9.5163688106
 20
10.0317542552
 30
0.0
 10
9.5324286354
 20
10.0341601549
 30
0.0
 10
9.5493144354
 20
10.0363904944
 30
0.0
 10
9.566962
 20
10.0384366104
 30
0.0
 10
9.5789824391
 20
10.0396515784
 30
0.0
 10
9.5851077274
 20
10.0402289665
 30
0.0
  0
LINE
  5
459
100
AcDbEntity
  8
0
100
AcDbLine
 62
7
  6
CONTINUOUS
 10
9.5851077274
 20
10.0402289665
 11
9.5860017676
 21
10.0403129449
  0
LINE
  5
45A
100
AcDbEntity
  8
0
100
AcDbLine
 62
7
  6
CONTINUOUS
 10
9.5860017676
 20
10.0403129449
 11
9.5862852037
 21
10.0403394449
  0
LINE
  5
45B
100
AcDbEntity
  8
0
100
AcDbLine
 62
7
  6
CONTINUOUS
 10
9.6077942263
 20
10.0421835157
 11
9.6105578406
 21
10.0423974785
  0
LINE
  5
45C
100
AcDbEntity
  8
0
100
AcDbLine
 62
7
  6
CONTINUOUS
 10
9.6589961957
 20
10.0453761352
 11
9.6606429999
 21
10.0454531906
  0
LINE
  5
45D
100
AcDbEntity
  8
0
100
AcDbLine
 62
7
  6
CONTINUOUS
 10
9.6606429999
 20
10.0454531906
 11
9.6608221994
 21
10.0454614839
  0
LINE
  5
45E
100
AcDbEntity
  8
0
100
AcDbLine
 62
7
  6
CONTINUOUS
 10
9.6760490919
 20
10.0461013455
 11
9.6778770549
 21
10.0461696588
  0
LINE
  5
45F
100
AcDbEntity
  8
0
100
AcDbLine
 62
7
  6
CONTINUOUS
 10
9.6918144392
 20
10.0466318883
 11
9.6948995688
 21
10.0467203501
  0
SPLINE
  5
460
100
AcDbEntity
  8
0
100
AcDbSpline
 62
9
  6
CONTINUOUS
 70
0
 71
3
 72
41
 73
37
 74
0
 42
0.0000001
 43
0.0000001
 44
0.0000000001
 40
0.0
 40
0.0
 40
0.0
 40
0.0
 40
0.0879932733
 40
0.1769204253
 40
0.265720819
 40
0.3533338276
 40
0.4387151803
 40
0.5208509308
 40
0.5603974286
 40
0.5987733892
 40
0.6358670206
 40
0.6715712225
 40
0.7057840345
 40
0.7384091625
 40
0.7693565825
 40
0.7985433174
 40
0.8258942148
 40
0.8513429345
 40
0.8748333089
 40
0.8963213079
 40
0.906305404
 40
0.9157794444
 40
0.924742994
 40
0.9331969609
 40
0.9411443846
 40
0.9485905727
 40
0.9555435591
 40
0.9620151827
 40
0.9680215117
 40
0.9735844002
 40
0.9787328862
 40
0.9835048721
 40
0.9879495352
 40
0.9921285853
 40
0.9961167297
 40
1.0
 40
1.0
 40
1.0
 40
1.0
 10
9.6351441357
 20
12.9314210928
 30
0.0
 10
9.6553003422
 20
12.9321626806
 30
0.0
 10
9.6958428007
 20
12.9332436391
 30
0.0
 10
9.7567533338
 20
12.9336880305
 30
0.0
 10
9.8175742829
 20
12.9329646478
 30
0.0
 10
9.8775573946
 20
12.9310827698
 30
0.0
 10
9.9359645988
 20
12.9280660966
 30
0.0
 10
9.9833053238
 20
12.9245968519
 30
0.0
 10
10.019842525
 20
12.9212585871
 30
0.0
 10
10.0460657523
 20
12.9185302283
 30
0.0
 10
10.0713754979
 20
12.9155543227
 30
0.0
 10
10.0956939271
 20
12.9123401049
 30
0.0
 10
10.1189462598
 20
12.9088976599
 30
0.0
 10
10.1410610412
 20
12.9052377831
 30
0.0
 10
10.1619703811
 20
12.9013719736
 30
0.0
 10
10.1816102305
 20
12.897312441
 30
0.0
 10
10.1999205575
 20
12.8930720346
 30
0.0
 10
10.2168457861
 20
12.8886642697
 30
0.0
 10
10.2323343874
 20
12.8841030557
 30
0.0
 10
10.2442823645
 20
12.8800942487
 30
0.0
 10
10.2530723353
 20
12.876801384
 30
0.0
 10
10.2591143487
 20
12.8743627082
 30
0.0
 10
10.2647644315
 20
12.8718962121
 30
0.0
 10
10.2700183567
 20
12.8694035888
 30
0.0
 10
10.2748722903
 20
12.8668867763
 30
0.0
 10
10.2793227608
 20
12.8643476395
 30
0.0
 10
10.2833665795
 20
12.8617878304
 30
0.0
 10
10.2870010473
 20
12.8592091468
 30
0.0
 10
10.2902236688
 20
12.8566129508
 30
0.0
 10
10.2930322709
 20
12.8540004908
 30
0.0
 10
10.2954249015
 20
12.8513727467
 30
0.0
 10
10.2973992144
 20
12.8487300317
 30
0.0
 10
10.2989525926
 20
12.8460727866
 30
0.0
 10
10.300081194
 20
12.8434012971
 30
0.0
 10
10.3007804378
 20
12.8407187407
 30
0.0
 10
10.300958696
 20
12.8389142153
 30
0.0
 10
10.3009743973
 20
12.8380242295
 30
0.0
  0
LINE
  5
461
100
AcDbEntity
  8
0
100
AcDbLine
 62
7
  6
CONTINUOUS
 10
9.4272988302
 20
9.9754479639
 11
9.4268615049
 21
9.9752685176
  0
LINE
  5
462
100
AcDbEntity
  8
0
100
AcDbLine
 62
7
  6
CONTINUOUS
 10
9.4051125064
 20
10.0281366682
 11
9.4052271968
 21
10.0284357368
  0
SPLINE
  5
463
100
AcDbEntity
  8
0
100
AcDbSpline
 62
7
  6
CONTINUOUS
 70
0
 71
3
 72
17
 73
13
 74
0
 42
0.0000001
 43
0.0000001
 44
0.0000000001
 40
0.0
 40
0.0
 40
0.0
 40
0.0
 40
0.0426565146
 40
0.0883021896
 40
0.1368828995
 40
0.1883429682
 40
0.2996380174
 40
0.4215783901
 40
0.5534396155
 40
0.6944052144
 40
0.8435797455
 40
1.0
 40
1.0
 40
1.0
 40
1.0
 10
9.9618413126
 20
9.9958923745
 30
0.0
 10
9.9603603142
 20
9.9953642157
 30
0.0
 10
9.9572756218
 20
9.9943234889
 30
0.0
 10
9.9524498395
 20
9.9928484345
 30
0.0
 10
9.9472756842
 20
9.9914089467
 30
0.0
 10
9.9397251324
 20
9.9894900797
 30
0.0
 10
9.9294771091
 20
9.9872185434
 30
0.0
 10
9.9162482645
 20
9.9847366226
 30
0.0
 10
9.9018758333
 20
9.9824505097
 30
0.0
 10
9.8864580601
 20
9.9803764047
 30
0.0
 10
9.8701003444
 20
9.978529136
 30
0.0
 10
9.8588840558
 20
9.977480094
 30
0.0
 10
9.8531388954
 20
9.9769927774
 30
0.0
  0
SPLINE
  5
464
100
AcDbEntity
  8
0
100
AcDbSpline
 62
7
  6
CONTINUOUS
 70
0
 71
3
 72
17
 73
13
 74
0
 42
0.0000001
 43
0.0000001
 44
0.0000000001
 40
0.0
 40
0.0
 40
0.0
 40
0.0
 40
0.1563394492
 40
0.3054565986
 40
0.446388417
 40
0.5782394062
 40
0.7001927598
 40
0.811523351
 40
0.8630093139
 40
0.9116211044
 40
0.9573028117
 40
1.0
 40
1.0
 40
1.0
 40
1.0
 10
9.6460467388
 20
9.9769702915
 30
0.0
 10
9.6402977167
 20
9.9774563903
 30
0.0
 10
9.6290731313
 20
9.9785030788
 30
0.0
 10
9.6127020797
 20
9.9803468219
 30
0.0
 10
9.5972693277
 20
9.9824176111
 30
0.0
 10
9.5828803814
 20
9.9847006435
 30
0.0
 10
9.5696336017
 20
9.9871797422
 30
0.0
 10
9.5593697298
 20
9.9894489857
 30
0.0
 10
9.5518058373
 20
9.9913661036
 30
0.0
 10
9.5466213105
 20
9.9928044784
 30
0.0
 10
9.5417849013
 20
9.9942784971
 30
0.0
 10
9.5386929674
 20
9.9953184778
 30
0.0
 10
9.5372082971
 20
9.9958462682
 30
0.0
  0
SPLINE
  5
465
100
AcDbEntity
  8
0
100
AcDbSpline
 62
7
  6
CONTINUOUS
 70
0
 71
3
 72
15
 73
11
 74
0
 42
0.0000001
 43
0.0000001
 44
0.0000000001
 40
0.0
 40
0.0
 40
0.0
 40
0.0
 40
0.1021691548
 40
0.2069338285
 40
0.3166703136
 40
0.4334446086
 40
0.5589609781
 40
0.6945739784
 40
0.8413234568
 40
1.0
 40
1.0
 40
1.0
 40
1.0
 10
10.2711378059
 20
10.0845853525
 30
0.0
 10
10.2711378059
 20
10.083728232
 30
0.0
 10
10.2709942347
 20
10.0819890604
 30
0.0
 10
10.2703531595
 20
10.0794005295
 30
0.0
 10
10.2692895346
 20
10.0768228758
 30
0.0
 10
10.2678080136
 20
10.0742594733
 30
0.0
 10
10.2659126722
 20
10.0717105873
 30
0.0
 10
10.2636061438
 20
10.0691765695
 30
0.0
 10
10.2608909305
 20
10.0666577979
 30
0.0
 10
10.2588899801
 20
10.0650537843
 30
0.0
 10
10.2578270348
 20
10.0642524282
 30
0.0
  0
SPLINE
  5
466
100
AcDbEntity
  8
0
100
AcDbSpline
 62
7
  6
CONTINUOUS
 70
0
 71
3
 72
15
 73
11
 74
0
 42
0.0000001
 43
0.0000001
 44
0.0000000001
 40
0.0
 40
0.0
 40
0.0
 40
0.0
 40
0.1586876539
 40
0.3054447797
 40
0.4410619474
 40
0.5665790537
 40
0.6833508633
 40
0.7930820682
 40
0.8978393628
 40
1.0
 40
1.0
 40
1.0
 40
1.0
 10
9.2411001844
 20
10.0642470759
 30
0.0
 10
9.2400366826
 20
10.0650486292
 30
0.0
 10
9.238034686
 20
10.0666530364
 30
0.0
 10
9.2353180273
 20
10.069172455
 30
0.0
 10
9.2330102673
 20
10.0717071302
 30
0.0
 10
9.23111391
 20
10.0742566844
 30
0.0
 10
9.2296315909
 20
10.0768207665
 30
0.0
 10
9.2285673887
 20
10.0793991126
 30
0.0
 10
9.227925963
 20
10.0819883476
 30
0.0
 10
9.2277823126
 20
10.083728001
 30
0.0
 10
9.2277823126
 20
10.0845853526
 30
0.0
  0
SPLINE
  5
467
100
AcDbEntity
  8
0
100
AcDbSpline
 62
7
  6
CONTINUOUS
 70
0
 71
3
 72
31
 73
27
 74
0
 42
0.0000001
 43
0.0000001
 44
0.0000000001
 40
0.0
 40
0.0
 40
0.0
 40
0.0
 40
0.0119006989
 40
0.0240898112
 40
0.0368321971
 40
0.0503595019
 40
0.0648642855
 40
0.0805009016
 40
0.0973889936
 40
0.1156200704
 40
0.1352637118
 40
0.1563709896
 40
0.1789796204
 40
0.2031160444
 40
0.2287972736
 40
0.2560338896
 40
0.2848297232
 40
0.3151838111
 40
0.3805394386
 40
0.4520220687
 40
0.5295019548
 40
0.6128121668
 40
0.7017544738
 40
0.7961032026
 40
0.8956086781
 40
1.0
 40
1.0
 40
1.0
 40
1.0
 10
10.2908915589
 20
10.0651994913
 30
0.0
 10
10.2908915589
 20
10.0643312808
 30
0.0
 10
10.2907497787
 20
10.0625707655
 30
0.0
 10
10.2901164195
 20
10.0599493211
 30
0.0
 10
10.2890652544
 20
10.0573381183
 30
0.0
 10
10.2876005753
 20
10.0547405546
 30
0.0
 10
10.2857263015
 20
10.0521570164
 30
0.0
 10
10.2834450283
 20
10.0495879419
 30
0.0
 10
10.2807590369
 20
10.047033652
 30
0.0
 10
10.2776702986
 20
10.0444949375
 30
0.0
 10
10.2741807989
 20
10.0419730884
 30
0.0
 10
10.2702929579
 20
10.0394693511
 30
0.0
 10
10.2660093505
 20
10.0369853932
 30
0.0
 10
10.2613329561
 20
10.0345229246
 30
0.0
 10
10.2562671317
 20
10.0320836073
 30
0.0
 10
10.2508154954
 20
10.0296693903
 30
0.0
 10
10.2449820861
 20
10.02728193
 30
0.0
 10
10.2364897476
 20
10.0240569452
 30
0.0
 10
10.2249376357
 20
10.0201294974
 30
0.0
 10
10.2099518601
 20
10.0156589182
 30
0.0
 10
10.1935645486
 20
10.0113360895
 30
0.0
 10
10.1758250602
 20
10.0071745137
 30
0.0
 10
10.1567866665
 20
10.0031873521
 30
0.0
 10
10.1365069804
 20
9.9993870804
 30
0.0
 10
10.1150475905
 20
9.9957855771
 30
0.0
 10
10.1003367071
 20
9.993575407
 30
0.0
 10
10.0927969521
 20
9.9925016778
 30
0.0
  0
SPLINE
  5
468
100
AcDbEntity
  8
0
100
AcDbSpline
 62
7
  6
CONTINUOUS
 70
0
 71
3
 72
31
 73
27
 74
0
 42
0.0000001
 43
0.0000001
 44
0.0000000001
 40
0.0
 40
0.0
 40
0.0
 40
0.0
 40
0.1043913223
 40
0.2038967957
 40
0.2982455207
 40
0.3871878227
 40
0.4704980289
 40
0.5479779089
 40
0.6194605331
 40
0.6848161555
 40
0.7151702412
 40
0.7439660729
 40
0.7712026874
 40
0.7968839156
 40
0.8210203392
 40
0.84362897
 40
0.8647362485
 40
0.8843798913
 40
0.9026109702
 40
0.9194990652
 40
0.935135685
 40
0.9496404731
 40
0.9631677832
 40
0.9759101752
 40
0.9880992942
 40
1.0
 40
1.0
 40
1.0
 40
1.0
 10
9.4061228594
 20
9.9925017216
 30
0.0
 10
9.3985831152
 20
9.9935754508
 30
0.0
 10
9.3838722533
 20
9.9957856208
 30
0.0
 10
9.362412895
 20
9.9993871236
 30
0.0
 10
9.3421332392
 20
10.0031873944
 30
0.0
 10
9.3230948745
 20
10.0071745546
 30
0.0
 10
9.3053554135
 20
10.0113361285
 30
0.0
 10
9.2889681275
 20
10.015658955
 30
0.0
 10
9.2739823756
 20
10.0201295317
 30
0.0
 10
9.2624302822
 20
10.024056977
 30
0.0
 10
9.2539379574
 20
10.0272819597
 30
0.0
 10
9.2481045575
 20
10.0296694183
 30
0.0
 10
9.2426529299
 20
10.0320836336
 30
0.0
 10
9.2375871138
 20
10.0345229491
 30
0.0
 10
9.232910727
 20
10.0369854159
 30
0.0
 10
9.2286271266
 20
10.0394693719
 30
0.0
 10
9.224739292
 20
10.0419731073
 30
0.0
 10
9.221249798
 20
10.0444949544
 30
0.0
 10
9.2181610648
 20
10.047033667
 30
0.0
 10
9.2154750779
 20
10.0495879549
 30
0.0
 10
9.2131938084
 20
10.0521570273
 30
0.0
 10
9.2113195378
 20
10.0547405633
 30
0.0
 10
9.209854861
 20
10.0573381249
 30
0.0
 10
9.2088036977
 20
10.0599493255
 30
0.0
 10
9.2081703396
 20
10.0625707678
 30
0.0
 10
9.2080285597
 20
10.0643312815
 30
0.0
 10
9.2080285597
 20
10.0651994913
 30
0.0
  0
LINE
  5
469
100
AcDbEntity
  8
0
100
AcDbLine
 62
7
  6
CONTINUOUS
 10
9.7744651353
 20
10.039006339
 11
9.771920077
 21
10.0390472106
  0
LINE
  5
46A
100
AcDbEntity
  8
0
100
AcDbLine
 62
7
  6
CONTINUOUS
 10
9.7645777483
 20
10.0391404124
 11
9.7633967267
 21
10.0391519899
  0
LINE
  5
46B
100
AcDbEntity
  8
0
100
AcDbLine
 62
7
  6
CONTINUOUS
 10
9.7316937454
 20
10.0391110125
 11
9.7304203281
 21
10.0390951835
  0
SPLINE
  5
46C
100
AcDbEntity
  8
0
100
AcDbSpline
 62
7
  6
CONTINUOUS
 70
0
 71
3
 72
33
 73
29
 74
0
 42
0.0000001
 43
0.0000001
 44
0.0000000001
 40
0.0
 40
0.0
 40
0.0
 40
0.0
 40
0.0932398944
 40
0.1856328655
 40
0.2763443831
 40
0.3645531958
 40
0.4494661989
 40
0.5303240931
 40
0.6064113961
 40
0.6770653682
 40
0.7101659007
 40
0.7416889007
 40
0.7715715013
 40
0.7997563301
 40
0.8261924232
 40
0.8508363277
 40
0.8736526401
 40
0.8946167592
 40
0.9137158433
 40
0.9225675921
 40
0.9309563284
 40
0.9463594422
 40
0.9599845931
 40
0.9719338912
 40
0.9823789829
 40
0.9915925275
 40
0.9958676301
 40
1.0
 40
1.0
 40
1.0
 40
1.0
 10
9.7494600593
 20
9.9534446752
 30
0.0
 10
9.757066568
 20
9.9534446752
 30
0.0
 10
9.7722108063
 20
9.9535714081
 30
0.0
 10
9.794748829
 20
9.9541407803
 30
0.0
 10
9.8168636429
 20
9.9550836405
 30
0.0
 10
9.838348679
 20
9.9563909731
 30
0.0
 10
9.8590031975
 20
9.9580501864
 30
0.0
 10
9.878634528
 20
9.9600452165
 30
0.0
 10
9.8970594368
 20
9.9623568626
 30
0.0
 10
9.91156491
 20
9.9645734214
 30
0.0
 10
9.9224310317
 20
9.9665046244
 30
0.0
 10
9.9299975704
 20
9.9679863219
 30
0.0
 10
9.9371421464
 20
9.9695292869
 30
0.0
 10
9.9438481701
 20
9.9711298995
 30
0.0
 10
9.9501001251
 20
9.9727843232
 30
0.0
 10
9.9558836071
 20
9.974488541
 30
0.0
 10
9.9611854666
 20
9.9762385377
 30
0.0
 10
9.9659936228
 20
9.9780300308
 30
0.0
 10
9.9696680704
 20
9.9795911975
 30
0.0
 10
9.9723455794
 20
9.9808648902
 30
0.0
 10
9.9747142981
 20
9.9820825237
 30
0.0
 10
9.9773592732
 20
9.9836123974
 30
0.0
 10
9.9801036963
 20
9.9855299905
 30
0.0
 10
9.9823181466
 20
9.9874734865
 30
0.0
 10
9.9839987488
 20
9.9894434062
 30
0.0
 10
9.9849701366
 20
9.9911570376
 30
0.0
 10
9.985438368
 20
9.9925197622
 30
0.0
 10
9.9855752065
 20
9.9931943892
 30
0.0
 10
9.9856190963
 20
9.9935286386
 30
0.0
  0
SPLINE
  5
46D
100
AcDbEntity
  8
0
100
AcDbSpline
 62
7
  6
CONTINUOUS
 70
0
 71
3
 72
14
 73
10
 74
0
 42
0.0000001
 43
0.0000001
 44
0.0000000001
 40
0.0
 40
0.0
 40
0.0
 40
0.0
 40
0.1090264007
 40
0.2197812434
 40
0.3338863132
 40
0.4528227651
 40
0.5778960982
 40
0.7102214663
 40
1.0
 40
1.0
 40
1.0
 40
1.0
 10
9.2080285597
 20
10.0651994913
 30
0.0
 10
9.2080285597
 20
10.0658976133
 30
0.0
 10
9.2081195136
 20
10.0673065401
 30
0.0
 10
9.2085270087
 20
10.0694106175
 30
0.0
 10
9.2092046856
 20
10.0715104755
 30
0.0
 10
9.2101511119
 20
10.0736039288
 30
0.0
 10
9.2113646562
 20
10.0756903179
 30
0.0
 10
9.213398396
 20
10.0785479081
 30
0.0
 10
9.2152372447
 20
10.0805463846
 30
0.0
 10
9.2165718635
 20
10.0818354737
 30
0.0
  0
LINE
  5
46E
100
AcDbEntity
  8
0
100
AcDbLine
 62
7
  6
CONTINUOUS
 10
9.9535111533
 20
9.9955047814
 11
9.9535102707
 21
10.0009225057
  0
SPLINE
  5
46F
100
AcDbEntity
  8
0
100
AcDbSpline
 62
9
  6
CONTINUOUS
 70
0
 71
3
 72
149
 73
145
 74
0
 42
0.0000001
 43
0.0000001
 44
0.0000000001
 40
0.0
 40
0.0
 40
0.0
 40
0.0
 40
0.0000038228
 40
0.0000152852
 40
0.000034383
 40
0.0000611115
 40
0.0000954666
 40
0.0001374436
 40
0.0002442461
 40
0.0003814838
 40
0.0005491213
 40
0.0007471151
 40
0.0009753756
 40
0.0012337979
 40
0.0015222768
 40
0.0021889837
 40
0.002974602
 40
0.0038779165
 40
0.0048975918
 40
0.0060322648
 40
0.0072803239
 40
0.0086400249
 40
0.0116871845
 40
0.0151580949
 40
0.0190360271
 40
0.02330328
 40
0.0279417311
 40
0.0329329655
 40
0.0382586708
 40
0.0439006956
 40
0.0560636856
 40
0.0692877517
 40
0.0834500153
 40
0.098439972
 40
0.114159416
 40
0.1305216988
 40
0.1474508308
 40
0.1648802752
 40
0.1827515944
 40
0.2196207845
 40
0.2577168145
 40
0.2771384388
 40
0.2967701501
 40
0.3165865897
 40
0.3365647479
 40
0.3466078396
 40
0.356683613
 40
0.3667897056
 40
0.3769238468
 40
0.3870838366
 40
0.3972675697
 40
0.4023677038
 40
0.4074730282
 40
0.4176981726
 40
0.4228175965
 40
0.4279412267
 40
0.4330688838
 40
0.4382003346
 40
0.4433353355
 40
0.448473774
 40
0.4536153057
 40
0.4587599416
 40
0.4639072616
 40
0.4690573313
 40
0.4716333337
 40
0.4742101265
 40
0.4793646569
 40
0.4845212088
 40
0.4896790685
 40
0.4922589614
 40
0.4948392071
 40
0.4974195194
 40
0.4999999532
 40
0.5025803797
 40
0.5051606989
 40
0.5077409387
 40
0.5103208325
 40
0.515478688
 40
0.5206352623
 40
0.525789816
 40
0.5283666017
 40
0.5309426011
 40
0.5360926916
 40
0.5412400076
 40
0.5463846508
 40
0.5515261822
 40
0.5566646259
 40
0.5617996252
 40
0.5669310804
 40
0.5720587362
 40
0.5771823683
 40
0.5823017934
 40
0.592526939
 40
0.5976322639
 40
0.6027323982
 40
0.612916133
 40
0.6230761239
 40
0.6332102666
 40
0.6433163607
 40
0.6533921357
 40
0.663435229
 40
0.6834133913
 40
0.7032298356
 40
0.7228615511
 40
0.7422831805
 40
0.7803792151
 40
0.817248406
 40
0.8351197247
 40
0.852549169
 40
0.8694783011
 40
0.885840584
 40
0.9015600279
 40
0.9165499847
 40
0.9307122483
 40
0.9439363143
 40
0.9560993044
 40
0.9617413291
 40
0.9670670345
 40
0.9720582688
 40
0.9766967199
 40
0.9809639729
 40
0.984841905
 40
0.9883128155
 40
0.9913599751
 40
0.9927196761
 40
0.9939677352
 40
0.9951024081
 40
0.9961220834
 40
0.997025398
 40
0.9978110163
 40
0.9984777232
 40
0.9987662021
 40
0.9990246244
 40
0.9992528849
 40
0.9994508787
 40
0.9996185162
 40
0.9997557539
 40
0.9998625564
 40
0.9999045334
 40
0.9999388884
 40
0.999965617
 40
0.9999847148
 40
0.9999961772
 40
1.0
 40
1.0
 40
1.0
 40
1.0
 10
10.6451293506
 20
2.4659635921
 30
0.0
 10
10.6451275783
 20
2.4659664717
 30
0.0
 10
10.6451178479
 20
2.4659760706
 30
0.0
 10
10.6450991757
 20
2.4659999916
 30
0.0
 10
10.645065904
 20
2.466038284
 30
0.0
 10
10.6450203507
 20
2.4660926123
 30
0.0
 10
10.6449613921
 20
2.4661621481
 30
0.0
 10
10.6448568375
 20
2.4662858644
 30
0.0
 10
10.6446934462
 20
2.466479011
 30
0.0
 10
10.6444583255
 20
2.4667570563
 30
0.0
 10
10.6441711036
 20
2.4670966779
 30
0.0
 10
10.6438319007
 20
2.4674977797
 30
0.0
 10
10.6434408449
 20
2.467960195
 30
0.0
 10
10.6429981104
 20
2.4684837238
 30
0.0
 10
10.642304959
 20
2.4693033722
 30
0.0
 10
10.6413107053
 20
2.4704790836
 30
0.0
 10
10.6399652993
 20
2.4720700527
 30
0.0
 10
10.6384183137
 20
2.4738994255
 30
0.0
 10
10.6366719923
 20
2.4759645658
 30
0.0
 10
10.6347288054
 20
2.4782625698
 30
0.0
 10
10.6325914573
 20
2.4807902583
 30
0.0
 10
10.6293619227
 20
2.4846097141
 30
0.0
 10
10.6248630462
 20
2.4899306439
 30
0.0
 10
10.6189263048
 20
2.4969526967
 30
0.0
 10
10.6122931444
 20
2.5047991468
 30
0.0
 10
10.6049937038
 20
2.5134346058
 30
0.0
 10
10.5970590857
 20
2.5228225469
 30
0.0
 10
10.5885207463
 20
2.5329260344
 30
0.0
 10
10.5794101678
 20
2.5437081209
 30
0.0
 10
10.5662065498
 20
2.5593365021
 30
0.0
 10
10.5484969367
 20
2.5803036408
 30
0.0
 10
10.525929565
 20
2.607032431
 30
0.0
 10
10.5017554979
 20
2.6356771931
 30
0.0
 10
10.4761658717
 20
2.6660154516
 30
0.0
 10
10.4493313809
 20
2.69784941
 30
0.0
 10
10.4214033063
 20
2.731004831
 30
0.0
 10
10.3925152904
 20
2.7653292414
 30
0.0
 10
10.362785358
 20
2.8006896318
 30
0.0
 10
10.321734124
 20
2.8495739594
 30
0.0
 10
10.2689940938
 20
2.9125127342
 30
0.0
 10
10.2155032841
 20
2.9766112983
 30
0.0
 10
10.1719046381
 20
3.0291064367
 30
0.0
 10
10.1387172737
 20
3.069230762
 30
0.0
 10
10.1053223257
 20
3.1098220069
 30
0.0
 10
10.0774340467
 20
3.1439608122
 30
0.0
 10
10.055095332
 20
3.1715076287
 30
0.0
 10
10.0383150186
 20
3.1923196291
 30
0.0
 10
10.021556014
 20
3.2132520786
 30
0.0
 10
10.0048361248
 20
3.2343110254
 30
0.0
 10
9.9881812371
 20
3.2555088659
 30
0.0
 10
9.9743872504
 20
3.2732914955
 30
0.0
 10
9.9634194985
 20
3.2876075384
 30
0.0
 10
9.9524932213
 20
3.3020012441
 30
0.0
 10
9.9416681848
 20
3.3164931309
 30
0.0
 10
9.9309786114
 20
3.331104842
 30
0.0
 10
9.9230379969
 20
3.3421406296
 30
0.0
 10
9.9151914647
 20
3.3532565868
 30
0.0
 10
9.9074574879
 20
3.3644634884
 30
0.0
 10
9.8998616577
 20
3.3757760992
 30
0.0
 10
9.8924295987
 20
3.3872078485
 30
0.0
 10
9.8852036199
 20
3.3987813137
 30
0.0
 10
9.8782261543
 20
3.4105159838
 30
0.0
 10
9.8715652868
 20
3.4224424501
 30
0.0
 10
9.8663408661
 20
3.4325630266
 30
0.0
 10
9.8624141458
 20
3.4407873786
 30
0.0
 10
9.8586741775
 20
3.4491025174
 30
0.0
 10
9.8543988569
 20
3.4596768989
 30
0.0
 10
9.8500753496
 20
3.4726692065
 30
0.0
 10
9.8473135644
 20
3.4837502843
 30
0.0
 10
9.8457098954
 20
3.4927376184
 30
0.0
 10
9.8448333565
 20
3.4995306218
 30
0.0
 10
9.8442982961
 20
3.5063596384
 30
0.0
 10
9.8441199503
 20
3.5132075561
 30
0.0
 10
9.8442982913
 20
3.5200554809
 30
0.0
 10
9.8448333594
 20
3.5268844895
 30
0.0
 10
9.845709789
 20
3.5336775098
 30
0.0
 10
9.8473135731
 20
3.5426648173
 30
0.0
 10
9.8500753132
 20
3.5537459138
 30
0.0
 10
9.8543986651
 20
3.5667383202
 30
0.0
 10
9.8586742018
 20
3.5773126504
 30
0.0
 10
9.8624140533
 20
3.5856278533
 30
0.0
 10
9.8663407969
 20
3.5938522062
 30
0.0
 10
9.8715652569
 20
3.603972774
 30
0.0
 10
9.8782260231
 20
3.6158993213
 30
0.0
 10
9.8852035122
 20
3.6276339816
 30
0.0
 10
9.8924295297
 20
3.6392074358
 30
0.0
 10
9.8998616899
 20
3.650639122
 30
0.0
 10
9.907457431
 20
3.6619518011
 30
0.0
 10
9.9151914692
 20
3.6731586619
 30
0.0
 10
9.9230378753
 20
3.6842747134
 30
0.0
 10
9.9309785504
 20
3.69531046
 30
0.0
 10
9.9416681027
 20
3.7099221909
 30
0.0
 10
9.9524931753
 20
3.7244140541
 30
0.0
 10
9.9634194451
 20
3.7388077674
 30
0.0
 10
9.9743871895
 20
3.7531238189
 30
0.0
 10
9.9881811958
 20
3.7709064368
 30
0.0
 10
10.004836072
 20
3.7921042911
 30
0.0
 10
10.0215559656
 20
3.8131632389
 30
0.0
 10
10.038314976
 20
3.8340956889
 30
0.0
 10
10.0550952887
 20
3.8549076951
 30
0.0
 10
10.0774340089
 20
3.8824545156
 30
0.0
 10
10.1053222917
 20
3.9165933295
 30
0.0
 10
10.1387172488
 20
3.9571845819
 30
0.0
 10
10.171904622
 20
3.9973089161
 30
0.0
 10
10.2155032744
 20
4.0498040652
 30
0.0
 10
10.2689940914
 20
4.1139026355
 30
0.0
 10
10.3217341241
 20
4.1768414138
 30
0.0
 10
10.3627853581
 20
4.2257257415
 30
0.0
 10
10.3925152901
 20
4.2610861316
 30
0.0
 10
10.4214033061
 20
4.2954105419
 30
0.0
 10
10.4493313808
 20
4.3285659631
 30
0.0
 10
10.4761658716
 20
4.3603999214
 30
0.0
 10
10.5017554978
 20
4.39073818
 30
0.0
 10
10.5259295649
 20
4.4193829421
 30
0.0
 10
10.5484969366
 20
4.4461117322
 30
0.0
 10
10.5662065497
 20
4.4670788709
 30
0.0
 10
10.5794101677
 20
4.4827072522
 30
0.0
 10
10.5885207462
 20
4.4934893388
 30
0.0
 10
10.5970590856
 20
4.5035928262
 30
0.0
 10
10.6049937038
 20
4.5129807673
 30
0.0
 10
10.6122931444
 20
4.5216162262
 30
0.0
 10
10.6189263048
 20
4.5294626764
 30
0.0
 10
10.6248630461
 20
4.5364847292
 30
0.0
 10
10.6293619227
 20
4.5418056591
 30
0.0
 10
10.6325914573
 20
4.5456251148
 30
0.0
 10
10.6347288054
 20
4.5481528033
 30
0.0
 10
10.6366719923
 20
4.5504508073
 30
0.0
 10
10.6384183137
 20
4.5525159476
 30
0.0
 10
10.6399652993
 20
4.5543453204
 30
0.0
 10
10.6413107053
 20
4.5559362895
 30
0.0
 10
10.642304959
 20
4.557112001
 30
0.0
 10
10.6429981104
 20
4.5579316494
 30
0.0
 10
10.6434408448
 20
4.5584551782
 30
0.0
 10
10.6438319007
 20
4.5589175935
 30
0.0
 10
10.6441711035
 20
4.5593186953
 30
0.0
 10
10.6444583257
 20
4.5596583167
 30
0.0
 10
10.6446934458
 20
4.5599363624
 30
0.0
 10
10.6448568385
 20
4.5601295081
 30
0.0
 10
10.644961391
 20
4.5602532257
 30
0.0
 10
10.6450203541
 20
4.5603227588
 30
0.0
 10
10.6450658956
 20
4.5603770943
 30
0.0
 10
10.645099194
 20
4.5604153705
 30
0.0
 10
10.6451178195
 20
4.5604393199
 30
0.0
 10
10.6451275982
 20
4.5604488893
 30
0.0
 10
10.6451293506
 20
4.5604517811
 30
0.0
  0
SPLINE
  5
470
100
AcDbEntity
  8
0
100
AcDbSpline
 62
7
  6
CONTINUOUS
 70
0
 71
3
 72
26
 73
22
 74
0
 42
0.0000001
 43
0.0000001
 44
0.0000000001
 40
0.0
 40
0.0
 40
0.0
 40
0.0
 40
0.0074644874
 40
0.0158363559
 40
0.0258217586
 40
0.0378217334
 40
0.0520412418
 40
0.0685738164
 40
0.0874406441
 40
0.1086268094
 40
0.1577298314
 40
0.2152682709
 40
0.2803687388
 40
0.3519774862
 40
0.4288987781
 40
0.5098283788
 40
0.5933822452
 40
0.6781226313
 40
0.8453155924
 40
0.9249188799
 40
1.0
 40
1.0
 40
1.0
 40
1.0
 10
9.5147453058
 20
10.1249472613
 30
0.0
 10
9.5147432161
 20
10.1248699675
 30
0.0
 10
9.5147726688
 20
10.1247038968
 30
0.0
 10
9.5149094365
 20
10.1244696475
 30
0.0
 10
9.5151308248
 20
10.1242433816
 30
0.0
 10
9.5154351813
 20
10.1240222416
 30
0.0
 10
9.515822176
 20
10.1238054565
 30
0.0
 10
9.5162909511
 20
10.1235935412
 30
0.0
 10
9.5168398998
 20
10.1233871392
 30
0.0
 10
9.5177201969
 20
10.1231068327
 30
0.0
 10
9.5190060371
 20
10.122785695
 30
0.0
 10
9.5207540015
 20
10.122451674
 30
0.0
 10
9.52274536
 20
10.122159519
 30
0.0
 10
9.5249450682
 20
10.1219147296
 30
0.0
 10
9.5273144512
 20
10.1217220492
 30
0.0
 10
9.5298115854
 20
10.1215851156
 30
0.0
 10
9.5323922743
 20
10.1215064398
 30
0.0
 10
9.5358675805
 20
10.1214815962
 30
0.0
 10
9.5393022068
 20
10.1215733892
 30
0.0
 10
9.5426298122
 20
10.1217875845
 30
0.0
 10
9.5442256894
 20
10.1219343656
 30
0.0
 10
9.5449988902
 20
10.1220182636
 30
0.0
  0
SPLINE
  5
471
100
AcDbEntity
  8
0
100
AcDbSpline
 62
7
  6
CONTINUOUS
 70
0
 71
3
 72
14
 73
10
 74
0
 42
0.0000001
 43
0.0000001
 44
0.0000000001
 40
0.0
 40
0.0
 40
0.0
 40
0.0
 40
0.2897785337
 40
0.4221039018
 40
0.5471772349
 40
0.6661136868
 40
0.7802187566
 40
0.8909735993
 40
1.0
 40
1.0
 40
1.0
 40
1.0
 10
10.282348255
 20
10.0818354737
 30
0.0
 10
10.2836828739
 20
10.0805463846
 30
0.0
 10
10.2855217225
 20
10.0785479081
 30
0.0
 10
10.2875554624
 20
10.0756903179
 30
0.0
 10
10.2887690067
 20
10.0736039288
 30
0.0
 10
10.2897154329
 20
10.0715104755
 30
0.0
 10
10.2903931098
 20
10.0694106175
 30
0.0
 10
10.290800605
 20
10.0673065401
 30
0.0
 10
10.2908915589
 20
10.0658976133
 30
0.0
 10
10.2908915589
 20
10.0651994913
 30
0.0
  0
SPLINE
  5
472
100
AcDbEntity
  8
0
100
AcDbSpline
 62
7
  6
CONTINUOUS
 70
0
 71
3
 72
29
 73
25
 74
0
 42
0.0000001
 43
0.0000001
 44
0.0000000001
 40
0.0
 40
0.0
 40
0.0
 40
0.0
 40
0.0905564719
 40
0.1795034398
 40
0.2662961879
 40
0.350409565
 40
0.4313347779
 40
0.5085871117
 40
0.5817085875
 40
0.6502728077
 40
0.713889688
 40
0.7722112979
 40
0.7992923477
 40
0.8249422019
 40
0.8491333544
 40
0.871842659
 40
0.8930527562
 40
0.9127528691
 40
0.9309399733
 40
0.9476213228
 40
0.9628170125
 40
0.9765658778
 40
0.9889291653
 40
1.0
 40
1.0
 40
1.0
 40
1.0
 10
9.790798642
 20
9.9206198979
 30
0.0
 10
9.798019218
 20
9.9208087874
 30
0.0
 10
9.8123296397
 20
9.9212833061
 30
0.0
 10
9.8335468404
 20
9.9222946905
 30
0.0
 10
9.8542335319
 20
9.9235942965
 30
0.0
 10
9.8742590495
 20
9.9251737104
 30
0.0
 10
9.8934972385
 20
9.9270227767
 30
0.0
 10
9.9118268198
 20
9.9291295049
 30
0.0
 10
9.9291323853
 20
9.9314802372
 30
0.0
 10
9.9453052262
 20
9.9340595668
 30
0.0
 10
9.9602436839
 20
9.9368507277
 30
0.0
 10
9.9718568045
 20
9.9393964892
 30
0.0
 10
9.9804513247
 20
9.941542564
 30
0.0
 10
9.9863720012
 20
9.9431539395
 30
0.0
 10
9.9919190839
 20
9.9448044154
 30
0.0
 10
9.9970839645
 20
9.9464914295
 30
0.0
 10
10.001858691
 20
9.9482122555
 30
0.0
 10
10.0062360089
 20
9.9499641432
 30
0.0
 10
10.010209355
 20
9.9517443824
 30
0.0
 10
10.0137730286
 20
9.9535501595
 30
0.0
 10
10.0169220581
 20
9.9553790134
 30
0.0
 10
10.0196526518
 20
9.9572288291
 30
0.0
 10
10.0219608163
 20
9.9590974374
 30
0.0
 10
10.0232850565
 20
9.9604242121
 30
0.0
 10
10.0238637247
 20
9.9610912248
 30
0.0
  0
SPLINE
  5
473
100
AcDbEntity
  8
0
100
AcDbSpline
 62
7
  6
CONTINUOUS
 70
0
 71
3
 72
24
 73
20
 74
0
 42
0.0000001
 43
0.0000001
 44
0.0000000001
 40
0.0
 40
0.0
 40
0.0
 40
0.0
 40
0.0078257761
 40
0.0163355136
 40
0.0261058932
 40
0.0375103575
 40
0.0507674271
 40
0.0660017391
 40
0.1025798331
 40
0.1473352121
 40
0.1999843895
 40
0.2600424066
 40
0.3268761569
 40
0.3997347508
 40
0.4777767121
 40
0.5600833038
 40
0.6456765705
 40
0.8225683763
 40
1.0
 40
1.0
 40
1.0
 40
1.0
 10
9.6453557511
 20
10.1341069735
 30
0.0
 10
9.6453543821
 20
10.1340425877
 30
0.0
 10
9.6453742295
 20
10.1339069136
 30
0.0
 10
9.6454684847
 20
10.1337111353
 30
0.0
 10
9.6456233966
 20
10.1335201714
 30
0.0
 10
9.6458372696
 20
10.1333328556
 30
0.0
 10
9.6461096277
 20
10.1331484094
 30
0.0
 10
9.6465796995
 20
10.1328907578
 30
0.0
 10
9.6473164806
 20
10.1325875342
 30
0.0
 10
9.6483696128
 20
10.1322586423
 30
0.0
 10
9.6496290084
 20
10.1319506521
 30
0.0
 10
9.6510795483
 20
10.1316676717
 30
0.0
 10
9.6527039296
 20
10.1314136591
 30
0.0
 10
9.6544821966
 20
10.1311919499
 30
0.0
 10
9.6563924418
 20
10.1310054924
 30
0.0
 10
9.6584110627
 20
10.1308567161
 30
0.0
 10
9.6612448139
 20
10.1307096135
 30
0.0
 10
9.664865146
 20
10.130632596
 30
0.0
 10
9.6677814046
 20
10.1306810045
 30
0.0
 10
9.6692405424
 20
10.1307348614
 30
0.0
  0
SPLINE
  5
474
100
AcDbEntity
  8
0
100
AcDbSpline
 62
7
  6
CONTINUOUS
 70
0
 71
3
 72
14
 73
10
 74
0
 42
0.0000001
 43
0.0000001
 44
0.0000000001
 40
0.0
 40
0.0
 40
0.0
 40
0.0
 40
0.0823557097
 40
0.1699968745
 40
0.2679539119
 40
0.3797873572
 40
0.5078294273
 40
0.6534805236
 40
1.0
 40
1.0
 40
1.0
 40
1.0
 10
9.3536088539
 20
10.0388345824
 30
0.0
 10
9.3536069324
 20
10.0387785456
 30
0.0
 10
9.3536197772
 20
10.0386617102
 30
0.0
 10
9.3536884167
 20
10.0384907643
 30
0.0
 10
9.3538040378
 20
10.0383229549
 30
0.0
 10
9.3539652985
 20
10.0381578084
 30
0.0
 10
9.354171774
 20
10.0379948492
 30
0.0
 10
9.3545279733
 20
10.0377671926
 30
0.0
 10
9.3548310355
 20
10.0376213069
 30
0.0
 10
9.3550477829
 20
10.0375281501
 30
0.0
  0
SPLINE
  5
475
100
AcDbEntity
  8
0
100
AcDbSpline
 62
7
  6
CONTINUOUS
 70
0
 71
3
 72
29
 73
25
 74
0
 42
0.0000001
 43
0.0000001
 44
0.0000000001
 40
0.0
 40
0.0
 40
0.0
 40
0.0
 40
0.0110708347
 40
0.0234341222
 40
0.0371829875
 40
0.0523786772
 40
0.0690600267
 40
0.0872471309
 40
0.1069472438
 40
0.128157341
 40
0.1508666456
 40
0.1750577981
 40
0.2007076524
 40
0.2277887021
 40
0.286110312
 40
0.3497271923
 40
0.4182914125
 40
0.4914128883
 40
0.5686652221
 40
0.649590435
 40
0.7337038121
 40
0.8204965602
 40
0.9094435281
 40
1.0
 40
1.0
 40
1.0
 40
1.0
 10
9.4750563939
 20
9.9610912248
 30
0.0
 10
9.475635062
 20
9.9604242121
 30
0.0
 10
9.4769593023
 20
9.9590974374
 30
0.0
 10
9.4792674668
 20
9.9572288291
 30
0.0
 10
9.4819980605
 20
9.9553790134
 30
0.0
 10
9.48514709
 20
9.9535501595
 30
0.0
 10
9.4887107635
 20
9.9517443824
 30
0.0
 10
9.4926841097
 20
9.9499641432
 30
0.0
 10
9.4970614275
 20
9.9482122555
 30
0.0
 10
9.501836154
 20
9.9464914295
 30
0.0
 10
9.5070010347
 20
9.9448044154
 30
0.0
 10
9.5125481174
 20
9.9431539395
 30
0.0
 10
9.5184687938
 20
9.941542564
 30
0.0
 10
9.527063314
 20
9.9393964892
 30
0.0
 10
9.5386764347
 20
9.9368507277
 30
0.0
 10
9.5536148923
 20
9.9340595668
 30
0.0
 10
9.5697877333
 20
9.9314802372
 30
0.0
 10
9.5870932987
 20
9.9291295049
 30
0.0
 10
9.6054228801
 20
9.9270227767
 30
0.0
 10
9.6246610691
 20
9.9251737104
 30
0.0
 10
9.6446865867
 20
9.9235942965
 30
0.0
 10
9.6653732781
 20
9.9222946905
 30
0.0
 10
9.6865904788
 20
9.9212833061
 30
0.0
 10
9.7009009005
 20
9.9208087874
 30
0.0
 10
9.7081214766
 20
9.9206198979
 30
0.0
  0
LINE
  5
476
100
AcDbEntity
  8
0
100
AcDbLine
 62
7
  6
CONTINUOUS
 10
9.4062403294
 20
9.9825311123
 11
9.4141499096
 21
9.9747737752
  0
SPLINE
  5
477
100
AcDbEntity
  8
0
100
AcDbSpline
 62
7
  6
CONTINUOUS
 70
0
 71
3
 72
19
 73
15
 74
0
 42
0.0000001
 43
0.0000001
 44
0.0000000001
 40
0.0
 40
0.0
 40
0.0
 40
0.0
 40
0.009681712
 40
0.0223149267
 40
0.0556980821
 40
0.0985200633
 40
0.1491200574
 40
0.2059729605
 40
0.2677925398
 40
0.4023237768
 40
0.5464674895
 40
0.6960313986
 40
0.8480359888
 40
1.0
 40
1.0
 40
1.0
 40
1.0
 10
9.4273051659
 20
9.9610912248
 30
0.0
 10
9.4272687547
 20
9.9611405058
 30
0.0
 10
9.4271815417
 20
9.9612516417
 30
0.0
 10
9.4269569367
 20
9.9615233277
 30
0.0
 10
9.4265876616
 20
9.9619473894
 30
0.0
 10
9.4260517516
 20
9.9625447442
 30
0.0
 10
9.4254094117
 20
9.963246122
 30
0.0
 10
9.4246802081
 20
9.9640309252
 30
0.0
 10
9.4235826571
 20
9.965198523
 30
0.0
 10
9.4220951481
 20
9.9667577038
 30
0.0
 10
9.4202090599
 20
9.9687039936
 30
0.0
 10
9.4182314016
 20
9.970715435
 30
0.0
 10
9.4162046252
 20
9.9727478874
 30
0.0
 10
9.4148364674
 20
9.9741002894
 30
0.0
 10
9.4141499096
 20
9.9747737752
 30
0.0
  0
SPLINE
  5
478
100
AcDbEntity
  8
0
100
AcDbSpline
 62
7
  6
CONTINUOUS
 70
0
 71
3
 72
18
 73
14
 74
0
 42
0.0000001
 43
0.0000001
 44
0.0000000001
 40
0.0
 40
0.0
 40
0.0
 40
0.0
 40
0.0221321239
 40
0.050912596
 40
0.0865677888
 40
0.1290403492
 40
0.1781051401
 40
0.2334091751
 40
0.360861825
 40
0.5069532303
 40
0.6662781536
 40
0.8327597491
 40
1.0
 40
1.0
 40
1.0
 40
1.0
 10
9.4750563939
 20
9.9610912248
 30
0.0
 10
9.474989363
 20
9.9611684892
 30
0.0
 10
9.4748630688
 20
9.9613696819
 30
0.0
 10
9.4747030762
 20
9.9617368632
 30
0.0
 10
9.4745498055
 20
9.9622072837
 30
0.0
 10
9.4744046759
 20
9.9627771778
 30
0.0
 10
9.4742687329
 20
9.9634422993
 30
0.0
 10
9.4740927234
 20
9.9644993298
 30
0.0
 10
9.4739094995
 20
9.9660087583
 30
0.0
 10
9.4737431218
 20
9.9680027023
 30
0.0
 10
9.4736238283
 20
9.9701806734
 30
0.0
 10
9.4735519538
 20
9.9724584243
 30
0.0
 10
9.4735354803
 20
9.9740008382
 30
0.0
 10
9.4735354803
 20
9.9747737752
 30
0.0
  0
SPLINE
  5
479
100
AcDbEntity
  8
0
100
AcDbSpline
 62
9
  6
CONTINUOUS
 70
0
 71
3
 72
36
 73
32
 74
0
 42
0.0000001
 43
0.0000001
 44
0.0000000001
 40
0.0
 40
0.0
 40
0.0
 40
0.0
 40
0.0044433714
 40
0.0089599532
 40
0.0136096726
 40
0.0184473864
 40
0.0235217184
 40
0.028874536
 40
0.0405436608
 40
0.0536779648
 40
0.0684183322
 40
0.0848543513
 40
0.1030404054
 40
0.123005508
 40
0.1447602332
 40
0.1683016056
 40
0.193615356
 40
0.2206788627
 40
0.2494619184
 40
0.2799280922
 40
0.3120356832
 40
0.345737754
 40
0.3809833783
 40
0.4177173196
 40
0.4558808012
 40
0.5362432646
 40
0.6215388191
 40
0.7111905566
 40
0.8045853389
 40
0.9010774064
 40
1.0
 40
1.0
 40
1.0
 40
1.0
 10
9.1979457213
 20
12.8380242295
 30
0.0
 10
9.1979577128
 20
12.8387039293
 30
0.0
 10
9.1980664855
 20
12.8400744531
 30
0.0
 10
9.1984808036
 20
12.8421196959
 30
0.0
 10
9.1991458193
 20
12.8441611251
 30
0.0
 10
9.2000603696
 20
12.8461968685
 30
0.0
 10
9.2012230099
 20
12.8482262624
 30
0.0
 10
9.2031582773
 20
12.8510026342
 30
0.0
 10
9.206247208
 20
12.8544530409
 30
0.0
 10
9.2108164054
 20
12.8584352247
 30
0.0
 10
9.2163443562
 20
12.8623746337
 30
0.0
 10
9.2228228767
 20
12.8662675111
 30
0.0
 10
9.2302434168
 20
12.8701092556
 30
0.0
 10
9.2385945421
 20
12.8738937633
 30
0.0
 10
9.2478627259
 20
12.8776146333
 30
0.0
 10
9.2580323377
 20
12.8812650841
 30
0.0
 10
9.2690857847
 20
12.8848385957
 30
0.0
 10
9.2810036971
 20
12.8883285018
 30
0.0
 10
9.2937649763
 20
12.8917284261
 30
0.0
 10
9.3073469071
 20
12.8950321291
 30
0.0
 10
9.3217252185
 20
12.8982334678
 30
0.0
 10
9.3368741514
 20
12.9013266656
 30
0.0
 10
9.352766511
 20
12.9043059527
 30
0.0
 10
9.3693737515
 20
12.9071659996
 30
0.0
 10
9.3928363508
 20
12.9108773536
 30
0.0
 10
9.4237281968
 20
12.9151548247
 30
0.0
 10
9.462531631
 20
12.9196537579
 30
0.0
 10
9.503401524
 20
12.9235691425
 30
0.0
 10
9.5460434932
 20
12.9268721039
 30
0.0
 10
9.5901507697
 20
12.9295382576
 30
0.0
 10
9.620019885
 20
12.9308646409
 30
0.0
 10
9.6351441357
 20
12.9314210928
 30
0.0
  0
SPLINE
  5
47A
100
AcDbEntity
  8
0
100
AcDbSpline
 62
7
  6
CONTINUOUS
 70
0
 71
3
 72
15
 73
11
 74
0
 42
0.0000001
 43
0.0000001
 44
0.0000000001
 40
0.0
 40
0.0
 40
0.0
 40
0.0
 40
0.1251995688
 40
0.2500416682
 40
0.3746896328
 40
0.4992902656
 40
0.6239973298
 40
0.7489496307
 40
0.8742516062
 40
1.0
 40
1.0
 40
1.0
 40
1.0
 10
9.7199325002
 20
9.9319873817
 30
0.0
 10
9.7199325002
 20
9.9312253318
 30
0.0
 10
9.7197795826
 20
9.9296989165
 30
0.0
 10
9.7190975693
 20
9.9275071198
 30
0.0
 10
9.7179911438
 20
9.9254990578
 30
0.0
 10
9.7165048361
 20
9.9237548265
 30
0.0
 10
9.7146986285
 20
9.9223417246
 30
0.0
 10
9.7126439499
 20
9.9213136315
 30
0.0
 10
9.7104222755
 20
9.9207079167
 30
0.0
 10
9.7088866052
 20
9.9205998823
 30
0.0
 10
9.7081214766
 20
9.9206198979
 30
0.0
  0
SPLINE
  5
47B
100
AcDbEntity
  8
0
100
AcDbSpline
 62
9
  6
CONTINUOUS
 70
0
 71
3
 72
33
 73
29
 74
0
 42
0.0000001
 43
0.0000001
 44
0.0000000001
 40
0.0
 40
0.0
 40
0.0
 40
0.0
 40
0.0051208041
 40
0.0102978606
 40
0.020988486
 40
0.0324110937
 40
0.0448333769
 40
0.0584608863
 40
0.0734440472
 40
0.0898910651
 40
0.1078774462
 40
0.1274550884
 40
0.1486573053
 40
0.1715038887
 40
0.1960035967
 40
0.2221567267
 40
0.2499565295
 40
0.2793903294
 40
0.3104406566
 40
0.3430854413
 40
0.3772991833
 40
0.4503113916
 40
0.5292115553
 40
0.6136894252
 40
0.7033987258
 40
0.7979615762
 40
0.8969721675
 40
1.0
 40
1.0
 40
1.0
 40
1.0
 10
10.3495032598
 20
10.0852409531
 30
0.0
 10
10.3494928175
 20
10.0858328444
 30
0.0
 10
10.3494130951
 20
10.0870229527
 30
0.0
 10
10.3490169546
 20
10.0894198949
 30
0.0
 10
10.3480579989
 20
10.0924453853
 30
0.0
 10
10.3462183148
 20
10.0960064568
 30
0.0
 10
10.3436895331
 20
10.0995392928
 30
0.0
 10
10.340478749
 20
10.1030437107
 30
0.0
 10
10.3365909636
 20
10.1065208438
 30
0.0
 10
10.3320299165
 20
10.109969449
 30
0.0
 10
10.3267999786
 20
10.1133877005
 30
0.0
 10
10.3209060539
 20
10.116772583
 30
0.0
 10
10.3143541139
 20
10.1201209125
 30
0.0
 10
10.3071509811
 20
10.1234290075
 30
0.0
 10
10.2993044563
 20
10.1266932334
 30
0.0
 10
10.2908231852
 20
10.1299098203
 30
0.0
 10
10.2817166635
 20
10.1330750382
 30
0.0
 10
10.2719951815
 20
10.1361852179
 30
0.0
 10
10.2616697995
 20
10.1392366511
 30
0.0
 10
10.2507523171
 20
10.1422258997
 30
0.0
 10
10.2350806259
 20
10.1462104995
 30
0.0
 10
10.2140954939
 20
10.1509815151
 30
0.0
 10
10.187285622
 20
10.1562904802
 30
0.0
 10
10.1584528266
 20
10.1612744808
 30
0.0
 10
10.127729984
 20
10.16590989
 30
0.0
 10
10.095258506
 20
10.1701745991
 30
0.0
 10
10.0611883319
 20
10.1740484082
 30
0.0
 10
10.0379412553
 20
10.1763164533
 30
0.0
 10
10.0260790313
 20
10.1773865193
 30
0.0
  0
SPLINE
  5
47C
100
AcDbEntity
  8
0
100
AcDbSpline
 62
9
  6
CONTINUOUS
 70
0
 71
3
 72
19
 73
15
 74
0
 42
0.0000001
 43
0.0000001
 44
0.0000000001
 40
0.0
 40
0.0
 40
0.0
 40
0.0
 40
0.058638113
 40
0.1188051102
 40
0.1802940532
 40
0.2428926899
 40
0.3705470784
 40
0.5
 40
0.6294529216
 40
0.7571073101
 40
0.8197059468
 40
0.8811948898
 40
0.941361887
 40
1.0
 40
1.0
 40
1.0
 40
1.0
 10
10.0260790313
 20
10.1773865193
 30
0.0
 10
10.015296066
 20
10.1783592276
 30
0.0
 10
9.993435698
 20
10.1801851677
 30
0.0
 10
9.9602298426
 20
10.1825457552
 30
0.0
 10
9.9262684367
 20
10.1845578895
 30
0.0
 10
9.8798399789
 20
10.1867804982
 30
0.0
 10
9.8208344676
 20
10.1886279108
 30
0.0
 10
9.7494600593
 20
10.1893660804
 30
0.0
 10
9.6780856511
 20
10.1886279108
 30
0.0
 10
9.6190801398
 20
10.1867804982
 30
0.0
 10
9.572651682
 20
10.1845578895
 30
0.0
 10
9.5386902761
 20
10.1825457552
 30
0.0
 10
9.5054844206
 20
10.1801851677
 30
0.0
 10
9.4836240527
 20
10.1783592276
 30
0.0
 10
9.4728410873
 20
10.1773865193
 30
0.0
  0
SPLINE
  5
47D
100
AcDbEntity
  8
0
100
AcDbSpline
 62
9
  6
CONTINUOUS
 70
0
 71
3
 72
33
 73
29
 74
0
 42
0.0000001
 43
0.0000001
 44
0.0000000001
 40
0.0
 40
0.0
 40
0.0
 40
0.0
 40
0.1030278325
 40
0.2020384238
 40
0.2966012742
 40
0.3863105748
 40
0.4707884447
 40
0.5496886083
 40
0.6227008167
 40
0.6569145587
 40
0.6895593434
 40
0.7206096706
 40
0.7500434705
 40
0.7778432733
 40
0.8039964033
 40
0.8284961113
 40
0.8513426947
 40
0.8725449116
 40
0.8921225538
 40
0.9101089349
 40
0.9265559528
 40
0.9415391137
 40
0.9551666231
 40
0.9675889063
 40
0.979011514
 40
0.9897021394
 40
0.9948791959
 40
1.0
 40
1.0
 40
1.0
 40
1.0
 10
9.4728410873
 20
10.1773865193
 30
0.0
 10
9.4609788634
 20
10.1763164533
 30
0.0
 10
9.4377317867
 20
10.1740484082
 30
0.0
 10
9.4036616127
 20
10.1701745991
 30
0.0
 10
9.3711901346
 20
10.16590989
 30
0.0
 10
9.3404672921
 20
10.1612744808
 30
0.0
 10
9.3116344967
 20
10.1562904802
 30
0.0
 10
9.2848246247
 20
10.1509815151
 30
0.0
 10
9.2638394927
 20
10.1462104996
 30
0.0
 10
9.2481678015
 20
10.1422258997
 30
0.0
 10
9.2372503191
 20
10.1392366511
 30
0.0
 10
9.226924937
 20
10.1361852179
 30
0.0
 10
9.2172034551
 20
10.1330750382
 30
0.0
 10
9.2080969334
 20
10.1299098203
 30
0.0
 10
9.1996156623
 20
10.1266932334
 30
0.0
 10
9.1917691374
 20
10.1234290075
 30
0.0
 10
9.1845660046
 20
10.1201209125
 30
0.0
 10
9.1780140647
 20
10.1167725831
 30
0.0
 10
9.17212014
 20
10.1133877005
 30
0.0
 10
9.1668902021
 20
10.109969449
 30
0.0
 10
9.1623291549
 20
10.1065208439
 30
0.0
 10
9.1584413695
 20
10.1030437107
 30
0.0
 10
9.1552305854
 20
10.0995392928
 30
0.0
 10
9.1527018037
 20
10.0960064568
 30
0.0
 10
9.1508621196
 20
10.0924453853
 30
0.0
 10
9.1499031639
 20
10.0894198949
 30
0.0
 10
9.1495070235
 20
10.0870229527
 30
0.0
 10
9.149427301
 20
10.0858328444
 30
0.0
 10
9.1494168587
 20
10.0852409531
 30
0.0
  0
SPLINE
  5
47E
100
AcDbEntity
  8
0
100
AcDbSpline
 62
7
  6
CONTINUOUS
 70
0
 71
3
 72
15
 73
11
 74
0
 42
0.0000001
 43
0.0000001
 44
0.0000000001
 40
0.0
 40
0.0
 40
0.0
 40
0.0
 40
0.1257483656
 40
0.2510503018
 40
0.3760026071
 40
0.5007096575
 40
0.6253103099
 40
0.7499582781
 40
0.8748004081
 40
1.0
 40
1.0
 40
1.0
 40
1.0
 10
9.790798642
 20
9.9206198979
 30
0.0
 10
9.7900335135
 20
9.9205998823
 30
0.0
 10
9.7884978436
 20
9.9207079166
 30
0.0
 10
9.7862761696
 20
9.9213136313
 30
0.0
 10
9.7842214911
 20
9.9223417238
 30
0.0
 10
9.7824152834
 20
9.9237548257
 30
0.0
 10
9.7809289754
 20
9.9254990569
 30
0.0
 10
9.7798225495
 20
9.927507119
 30
0.0
 10
9.7791405361
 20
9.9296989161
 30
0.0
 10
9.7789876183
 20
9.9312253317
 30
0.0
 10
9.7789876183
 20
9.9319873817
 30
0.0
  0
SPLINE
  5
47F
100
AcDbEntity
  8
0
100
AcDbSpline
 62
7
  6
CONTINUOUS
 70
0
 71
3
 72
18
 73
14
 74
0
 42
0.0000001
 43
0.0000001
 44
0.0000000001
 40
0.0
 40
0.0
 40
0.0
 40
0.0
 40
0.1672402197
 40
0.3337217753
 40
0.4930466996
 40
0.6391380908
 40
0.7665907652
 40
0.8218948106
 40
0.8709596045
 40
0.9134321717
 40
0.9490873889
 40
0.9778678737
 40
1.0
 40
1.0
 40
1.0
 40
1.0
 10
10.0253846382
 20
9.9747737752
 30
0.0
 10
10.0253846382
 20
9.9740008384
 30
0.0
 10
10.0253681647
 20
9.9724584248
 30
0.0
 10
10.0252962903
 20
9.9701806742
 30
0.0
 10
10.0251769969
 20
9.9680027034
 30
0.0
 10
10.0250106192
 20
9.9660087593
 30
0.0
 10
10.0248273953
 20
9.9644993306
 30
0.0
 10
10.0246513858
 20
9.9634423
 30
0.0
 10
10.0245154428
 20
9.9627771784
 30
0.0
 10
10.0243703131
 20
9.9622072842
 30
0.0
 10
10.0242170425
 20
9.9617368635
 30
0.0
 10
10.0240570497
 20
9.9613696819
 30
0.0
 10
10.0239307555
 20
9.9611684892
 30
0.0
 10
10.0238637247
 20
9.9610912248
 30
0.0
  0
SPLINE
  5
480
100
AcDbEntity
  8
0
100
AcDbSpline
 62
9
  6
CONTINUOUS
 70
0
 71
3
 72
27
 73
23
 74
0
 42
0.0000001
 43
0.0000001
 44
0.0000000001
 40
0.0
 40
0.0
 40
0.0
 40
0.0
 40
0.0653926871
 40
0.1307404139
 40
0.1959825499
 40
0.2610610766
 40
0.3259133573
 40
0.3904705949
 40
0.4226162087
 40
0.4546604561
 40
0.486593714
 40
0.5184061785
 40
0.5500869464
 40
0.5816247235
 40
0.644224963
 40
0.7061044804
 40
0.7671485205
 40
0.8272221245
 40
0.8568481978
 40
0.886173352
 40
0.9438276123
 40
1.0
 40
1.0
 40
1.0
 40
1.0
 10
12.948209575
 20
3.5132076865
 30
0.0
 10
12.9467430688
 20
3.5236783867
 30
0.0
 10
12.9437636992
 20
3.5446058741
 30
0.0
 10
12.93937534
 20
3.5759878634
 30
0.0
 10
12.9352837792
 20
3.6073588546
 30
0.0
 10
12.9313891721
 20
3.6386738544
 30
0.0
 10
12.9276046643
 20
3.6698907708
 30
0.0
 10
12.9245070094
 20
3.6958272006
 30
0.0
 10
12.9220424025
 20
3.7164970268
 30
0.0
 10
12.9201972528
 20
3.7319286012
 30
0.0
 10
12.9183468962
 20
3.7473053026
 30
0.0
 10
12.9164845097
 20
3.7626213524
 30
0.0
 10
12.9146162309
 20
3.7778722634
 30
0.0
 10
12.9121337236
 20
3.7980630052
 30
0.0
 10
12.9090519762
 20
3.8230994679
 30
0.0
 10
12.9054549849
 20
3.8528791618
 30
0.0
 10
12.9020624568
 20
3.8822718284
 30
0.0
 10
12.8995380627
 20
3.9065144437
 30
0.0
 10
12.8978004575
 20
3.9256804976
 30
0.0
 10
12.8962972084
 20
3.944473841
 30
0.0
 10
12.8948981646
 20
3.9675806629
 30
0.0
 10
12.894499257
 20
3.9859868096
 30
0.0
 10
12.8945074049
 20
3.9950689379
 30
0.0
  0
LINE
  5
481
100
AcDbEntity
  8
0
100
AcDbLine
 62
9
  6
CONTINUOUS
 10
12.8945074049
 20
3.9950689379
 11
12.8942516705
 21
4.0094258712
  0
SPLINE
  5
482
100
AcDbEntity
  8
0
100
AcDbSpline
 62
7
  6
CONTINUOUS
 70
0
 71
3
 72
39
 73
35
 74
0
 42
0.0000001
 43
0.0000001
 44
0.0000000001
 40
0.0
 40
0.0
 40
0.0
 40
0.0
 40
0.0044343424
 40
0.0089330994
 40
0.013557906
 40
0.0183652627
 40
0.0234052674
 40
0.0287211339
 40
0.0343491176
 40
0.0403192827
 40
0.0466563967
 40
0.0533804734
 40
0.0605075061
 40
0.0680503996
 40
0.0844196097
 40
0.1025473528
 40
0.122463676
 40
0.1441796398
 40
0.1676920377
 40
0.1929869213
 40
0.2200409273
 40
0.2488237262
 40
0.2792982598
 40
0.3114220594
 40
0.3451478006
 40
0.3804234063
 40
0.4171931492
 40
0.4553971637
 40
0.5358512856
 40
0.6212458145
 40
0.7109953994
 40
0.8044775452
 40
0.9010386786
 40
1.0
 40
1.0
 40
1.0
 40
1.0
 10
9.1982789979
 20
12.8567805235
 30
0.0
 10
9.1982789963
 20
12.857463616
 30
0.0
 10
9.1983643361
 20
12.8588411893
 30
0.0
 10
9.1987471786
 20
12.8608991677
 30
0.0
 10
9.1993841737
 20
12.8629533111
 30
0.0
 10
9.2002738408
 20
12.8650018756
 30
0.0
 10
9.2014148419
 20
12.8670440892
 30
0.0
 10
9.2028060237
 20
12.8690792617
 30
0.0
 10
9.204446191
 20
12.8711069901
 30
0.0
 10
9.2063343561
 20
12.8731268269
 30
0.0
 10
9.2084696609
 20
12.8751381954
 30
0.0
 10
9.2108511417
 20
12.8771404841
 30
0.0
 10
9.2134777143
 20
12.8791331414
 30
0.0
 10
9.2174135448
 20
12.8818505329
 30
0.0
 10
9.2229633885
 20
12.885200268
 30
0.0
 10
9.2304058855
 20
12.8890657355
 30
0.0
 10
9.2387912759
 20
12.8928734671
 30
0.0
 10
9.2481051612
 20
12.8966167833
 30
0.0
 10
9.2583318243
 20
12.9002889891
 30
0.0
 10
9.2694533295
 20
12.9038831774
 30
0.0
 10
9.281449928
 20
12.9073927999
 30
0.0
 10
9.2943001189
 20
12.9108111905
 30
0.0
 10
9.3079807255
 20
12.9141320469
 30
0.0
 10
9.3224669821
 20
12.9173491716
 30
0.0
 10
9.3377325941
 20
12.9204565403
 30
0.0
 10
9.3537498064
 20
12.9234484543
 30
0.0
 10
9.3704894638
 20
12.9263193351
 30
0.0
 10
9.3941417899
 20
12.9300430654
 30
0.0
 10
9.4252848263
 20
12.9343307417
 30
0.0
 10
9.4644031457
 20
12.9388335624
 30
0.0
 10
9.5056012719
 20
12.9427442759
 30
0.0
 10
9.5485787548
 20
12.9460337063
 30
0.0
 10
9.5930221269
 20
12.9486771623
 30
0.0
 10
9.6231147189
 20
12.9499827638
 30
0.0
 10
9.6383495835
 20
12.9505272303
 30
0.0
  0
SPLINE
  5
483
100
AcDbEntity
  8
0
100
AcDbSpline
 62
7
  6
CONTINUOUS
 70
0
 71
3
 72
41
 73
37
 74
0
 42
0.0000001
 43
0.0000001
 44
0.0000000001
 40
0.0
 40
0.0
 40
0.0
 40
0.0
 40
0.088296196
 40
0.1774743393
 40
0.2664727551
 40
0.3542321516
 40
0.4397099296
 40
0.5218943435
 40
0.5614481157
 40
0.599820475
 40
0.6369000762
 40
0.6725802861
 40
0.7067596195
 40
0.7393422686
 40
0.7702388095
 40
0.7993669023
 40
0.8266520235
 40
0.8520285007
 40
0.8754410111
 40
0.896846571
 40
0.9067880722
 40
0.9162188591
 40
0.9251385462
 40
0.9335485217
 40
0.9414518692
 40
0.9488543177
 40
0.9557644105
 40
0.9621942348
 40
0.9681607214
 40
0.9736863773
 40
0.9788012011
 40
0.9835444565
 40
0.987966404
 40
0.9921302522
 40
0.9961122597
 40
1.0
 40
1.0
 40
1.0
 40
1.0
 10
9.6383495835
 20
12.9505272303
 30
0.0
 10
9.6584799494
 20
12.9512466532
 30
0.0
 10
9.698957357
 20
12.9522850041
 30
0.0
 10
9.7597507184
 20
12.9526701665
 30
0.0
 10
9.8204181117
 20
12.9518919583
 30
0.0
 10
9.8802152816
 20
12.9499602883
 30
0.0
 10
9.9384088156
 20
12.9468994455
 30
0.0
 10
9.9855561035
 20
12.9433975902
 30
0.0
 10
10.0219282968
 20
12.9400361555
 30
0.0
 10
10.0480217461
 20
12.9372926088
 30
0.0
 10
10.0731985399
 20
12.9343031722
 30
0.0
 10
10.097381498
 20
12.9310770935
 30
0.0
 10
10.1204964808
 20
12.9276244644
 30
0.0
 10
10.1424726746
 20
12.9239560644
 30
0.0
 10
10.1632428402
 20
12.9200834005
 30
0.0
 10
10.1827435736
 20
12.9160186757
 30
0.0
 10
10.2009154524
 20
12.9117747125
 30
0.0
 10
10.2177034981
 20
12.9073649838
 30
0.0
 10
10.233056785
 20
12.9028033538
 30
0.0
 10
10.2448930295
 20
12.8987950048
 30
0.0
 10
10.2535947541
 20
12.8955031026
 30
0.0
 10
10.2595720777
 20
12.8930659027
 30
0.0
 10
10.2651583198
 20
12.8906011308
 30
0.0
 10
10.2703493831
 20
12.888110688
 30
0.0
 10
10.2751414402
 20
12.8855963107
 30
0.0
 10
10.2795310899
 20
12.8830598981
 30
0.0
 10
10.2835152805
 20
12.8805032157
 30
0.0
 10
10.287091224
 20
12.877927776
 30
0.0
 10
10.2902566291
 20
12.8753351825
 30
0.0
 10
10.2930092996
 20
12.872726495
 30
0.0
 10
10.2953471715
 20
12.8701025463
 30
0.0
 10
10.297268143
 20
12.8674638733
 30
0.0
 10
10.2987691708
 20
12.8648107028
 30
0.0
 10
10.2998466271
 20
12.8621436732
 30
0.0
 10
10.300495942
 20
12.8594659395
 30
0.0
 10
10.3006411227
 20
12.8576674427
 30
0.0
 10
10.3006411207
 20
12.8567805235
 30
0.0
  0
SPLINE
  5
484
100
AcDbEntity
  8
0
100
AcDbSpline
 62
9
  6
CONTINUOUS
 70
0
 71
3
 72
21
 73
17
 74
0
 42
0.0000001
 43
0.0000001
 44
0.0000000001
 40
0.0
 40
0.0
 40
0.0
 40
0.0
 40
0.0549491308
 40
0.1114414255
 40
0.2284866805
 40
0.3501442661
 40
0.4755592736
 40
0.5394353166
 40
0.6039696295
 40
0.6690739001
 40
0.7346604173
 40
0.8006391095
 40
0.8669190637
 40
0.9001437852
 40
0.9334089579
 40
1.0
 40
1.0
 40
1.0
 40
1.0
 10
13.112674758
 20
4.0284851187
 30
0.0
 10
13.1126847578
 20
4.019047008
 30
0.0
 10
13.1126861343
 20
3.9999057092
 30
0.0
 10
13.1126311208
 20
3.9606606441
 30
0.0
 10
13.1124662961
 20
3.9099578651
 30
0.0
 10
13.1121544574
 20
3.8474173917
 30
0.0
 10
13.1118357489
 20
3.7940094983
 30
0.0
 10
13.1115589062
 20
3.7504130863
 30
0.0
 10
13.1113448566
 20
3.7171755154
 30
0.0
 10
13.1111347802
 20
3.6836441198
 30
0.0
 10
13.1109435592
 20
3.649864517
 30
0.0
 10
13.1107782551
 20
3.6158828378
 30
0.0
 10
13.110667972
 20
3.5874594602
 30
0.0
 10
13.1106032723
 20
3.5646548718
 30
0.0
 10
13.1105557564
 20
3.5417968085
 30
0.0
 10
13.110533656
 20
3.5246454206
 30
0.0
 10
13.1105201591
 20
3.5132076865
 30
0.0
  0
SPLINE
  5
485
100
AcDbEntity
  8
0
100
AcDbSpline
 62
9
  6
CONTINUOUS
 70
0
 71
3
 72
23
 73
19
 74
0
 42
0.0000001
 43
0.0000001
 44
0.0000000001
 40
0.0
 40
0.0
 40
0.0
 40
0.0
 40
0.0729230161
 40
0.1473515723
 40
0.2225174558
 40
0.2977002659
 40
0.3722087819
 40
0.4452539899
 40
0.5160456504
 40
0.5838611204
 40
0.6481594446
 40
0.7087613759
 40
0.7655831131
 40
0.8185982608
 40
0.8679754635
 40
0.9142880532
 40
0.9581286696
 40
1.0
 40
1.0
 40
1.0
 40
1.0
 10
13.1126747643
 20
4.0284849041
 30
0.0
 10
13.113823154
 20
4.0284423487
 30
0.0
 10
13.1161418208
 20
4.0282955652
 30
0.0
 10
13.1196266417
 20
4.0278913471
 30
0.0
 10
13.1231195602
 20
4.0272911468
 30
0.0
 10
13.1265727338
 20
4.0264861762
 30
0.0
 10
13.1299348311
 20
4.0254689526
 30
0.0
 10
13.1331568505
 20
4.0242537064
 30
0.0
 10
13.1361880582
 20
4.0228546727
 30
0.0
 10
13.1389787891
 20
4.0212857039
 30
0.0
 10
13.1414813065
 20
4.0195568817
 30
0.0
 10
13.1436703237
 20
4.0177028556
 30
0.0
 10
13.1455280612
 20
4.0157554408
 30
0.0
 10
13.1470388647
 20
4.0137438757
 30
0.0
 10
13.1481861616
 20
4.0116919132
 30
0.0
 10
13.1489812661
 20
4.009633702
 30
0.0
 10
13.1494440051
 20
4.0075979958
 30
0.0
 10
13.1495466763
 20
4.0062453242
 30
0.0
 10
13.1495466734
 20
4.0055854831
 30
0.0
  0
SPLINE
  5
486
100
AcDbEntity
  8
0
100
AcDbSpline
 62
9
  6
CONTINUOUS
 70
0
 71
3
 72
32
 73
28
 74
0
 42
0.0000001
 43
0.0000001
 44
0.0000000001
 40
0.0
 40
0.0
 40
0.0
 40
0.0
 40
0.0327137508
 40
0.0654292486
 40
0.0817843856
 40
0.0981344002
 40
0.1308154885
 40
0.163469321
 40
0.1960914956
 40
0.261216684
 40
0.2937056017
 40
0.3261342298
 40
0.3907788512
 40
0.4550846031
 40
0.5189652011
 40
0.58232311
 40
0.61377145
 40
0.6450470975
 40
0.6761338144
 40
0.7070136216
 40
0.7376686389
 40
0.7680803674
 40
0.7982300507
 40
0.8280975562
 40
0.8868815361
 40
0.9442441717
 40
1.0
 40
1.0
 40
1.0
 40
1.0
 10
12.948209555
 20
3.5132076855
 30
0.0
 10
12.9474918911
 20
3.5186091174
 30
0.0
 10
12.9458853024
 20
3.5293899308
 30
0.0
 10
12.9435407101
 20
3.5428098892
 30
0.0
 10
12.9415169075
 20
3.5535170521
 30
0.0
 10
12.9394142386
 20
3.564203162
 30
0.0
 10
12.9366508462
 20
3.577525685
 30
0.0
 10
12.9331444428
 20
3.5934608237
 30
0.0
 10
12.9282566399
 20
3.6146240506
 30
0.0
 10
12.923099768
 20
3.6356955958
 30
0.0
 10
12.9177868652
 20
3.6566941991
 30
0.0
 10
12.9124213671
 20
3.677596858
 30
0.0
 10
12.9056531836
 20
3.703610585
 30
0.0
 10
12.8975850194
 20
3.7346992499
 30
0.0
 10
12.8897699337
 20
3.7656318945
 30
0.0
 10
12.8836268332
 20
3.7913407096
 30
0.0
 10
12.8790213172
 20
3.8118303716
 30
0.0
 10
12.8757520498
 20
3.8271102348
 30
0.0
 10
12.872668333
 20
3.8423320231
 30
0.0
 10
12.8697732699
 20
3.857485599
 30
0.0
 10
12.8670717565
 20
3.872560688
 30
0.0
 10
12.8645666842
 20
3.8875463729
 30
0.0
 10
12.86226062
 20
3.9024313123
 30
0.0
 10
12.8594700079
 20
3.9220217371
 30
0.0
 10
12.8565314845
 20
3.9461684637
 30
0.0
 10
12.8540412909
 20
3.9746978323
 30
0.0
 10
12.8532011318
 20
3.993531046
 30
0.0
 10
12.8530848601
 20
4.0028171747
 30
0.0
  0
SPLINE
  5
487
100
AcDbEntity
  8
0
100
AcDbSpline
 62
7
  6
CONTINUOUS
 70
0
 71
3
 72
18
 73
14
 74
0
 42
0.0000001
 43
0.0000001
 44
0.0000000001
 40
0.0
 40
0.0
 40
0.0
 40
0.0
 40
0.125513524
 40
0.2510312145
 40
0.3138485639
 40
0.3766368245
 40
0.4393846245
 40
0.5020800824
 40
0.6271123344
 40
0.7517869619
 40
0.814039814
 40
0.8761815447
 40
1.0
 40
1.0
 40
1.0
 40
1.0
 10
9.7396175396
 20
10.0862228576
 30
0.0
 10
9.7383303945
 20
10.086216469
 30
0.0
 10
9.7357507021
 20
10.0859511876
 30
0.0
 10
9.7326535672
 20
10.085000516
 30
0.0
 10
9.7303242216
 20
10.0838940837
 30
0.0
 10
9.7286653877
 20
10.0828983797
 30
0.0
 10
9.727112024
 20
10.0817471095
 30
0.0
 10
9.7252037795
 20
10.0800225802
 30
0.0
 10
9.7231502198
 20
10.077535366
 30
0.0
 10
9.7216215201
 20
10.074700302
 30
0.0
 10
9.7207514498
 20
10.0722947706
 30
0.0
 10
9.7201244652
 20
10.0698247078
 30
0.0
 10
9.7199324266
 20
10.0679107236
 30
0.0
 10
9.7199324266
 20
10.0666409458
 30
0.0
  0
SPLINE
  5
488
100
AcDbEntity
  8
0
100
AcDbSpline
 62
7
  6
CONTINUOUS
 70
0
 71
3
 72
18
 73
14
 74
0
 42
0.0000001
 43
0.0000001
 44
0.0000000001
 40
0.0
 40
0.0
 40
0.0
 40
0.0
 40
0.1238183764
 40
0.1859601515
 40
0.2482130481
 40
0.3728876542
 40
0.4979199207
 40
0.5606153769
 40
0.6233631777
 40
0.6861514391
 40
0.7489687862
 40
0.8744864764
 40
1.0
 40
1.0
 40
1.0
 40
1.0
 10
9.7789876164
 20
10.0666411605
 30
0.0
 10
9.7789876164
 20
10.0679109284
 30
0.0
 10
9.7787956465
 20
10.0698249073
 30
0.0
 10
9.7781686141
 20
10.0722949418
 30
0.0
 10
9.7772985279
 20
10.0747004472
 30
0.0
 10
9.7757698205
 20
10.0775354816
 30
0.0
 10
9.7737162588
 20
10.0800226637
 30
0.0
 10
9.771808019
 20
10.0817471709
 30
0.0
 10
9.7702546611
 20
10.0828984257
 30
0.0
 10
9.7685958354
 20
10.0838941162
 30
0.0
 10
9.7662665031
 20
10.0850005332
 30
0.0
 10
9.7631693887
 20
10.0859511913
 30
0.0
 10
9.7605897149
 20
10.086216469
 30
0.0
 10
9.759302579
 20
10.0862228576
 30
0.0
  0
LINE
  5
489
100
AcDbEntity
  8
0
100
AcDbLine
 62
7
  6
CONTINUOUS
 10
10.0938076121
 20
10.0281366682
 11
10.0936929218
 21
10.0284357367
  0
SPLINE
  5
48A
100
AcDbEntity
  8
0
100
AcDbSpline
 62
9
  6
CONTINUOUS
 70
0
 71
3
 72
30
 73
26
 74
0
 42
0.0000001
 43
0.0000001
 44
0.0000000001
 40
0.0
 40
0.0
 40
0.0
 40
0.0
 40
0.0120893943
 40
0.0244595839
 40
0.0373687066
 40
0.0510435978
 40
0.0656741046
 40
0.0814134859
 40
0.0983824577
 40
0.1166731727
 40
0.1363561139
 40
0.1574846819
 40
0.1800973452
 40
0.2042220531
 40
0.2298782629
 40
0.2570770425
 40
0.3161155739
 40
0.3813328767
 40
0.4526581932
 40
0.5299737467
 40
0.6131250725
 40
0.7019272901
 40
0.7961678088
 40
0.8956108053
 40
1.0
 40
1.0
 40
1.0
 40
1.0
 10
10.0939482482
 20
10.0535679037
 30
0.0
 10
10.0939482482
 20
10.0541079525
 30
0.0
 10
10.0938620969
 20
10.0552024131
 30
0.0
 10
10.0934771263
 20
10.0568327247
 30
0.0
 10
10.0928380922
 20
10.0584571384
 30
0.0
 10
10.0919473317
 20
10.0600735044
 30
0.0
 10
10.0908072005
 20
10.0616814824
 30
0.0
 10
10.0894193235
 20
10.0632808441
 30
0.0
 10
10.0877849408
 20
10.0648712749
 30
0.0
 10
10.0859053277
 20
10.0664523953
 30
0.0
 10
10.0837816729
 20
10.0680235078
 30
0.0
 10
10.0814152788
 20
10.0695836955
 30
0.0
 10
10.0788077473
 20
10.0711321264
 30
0.0
 10
10.0759607864
 20
10.0726677672
 30
0.0
 10
10.0728763043
 20
10.0741895617
 30
0.0
 10
10.0683240711
 20
10.0762556281
 30
0.0
 10
10.0620428372
 20
10.0787788984
 30
0.0
 10
10.0537917465
 20
10.0816587328
 30
0.0
 10
10.0446558965
 20
10.0844588702
 30
0.0
 10
10.034661371
 20
10.0871710311
 30
0.0
 10
10.0238365582
 20
10.0897870146
 30
0.0
 10
10.0122126138
 20
10.0922989133
 30
0.0
 10
9.9998231201
 20
10.0946992352
 30
0.0
 10
9.9867040431
 20
10.0969808205
 30
0.0
 10
9.9777070802
 20
10.0983853359
 30
0.0
 10
9.9730942643
 20
10.0990689746
 30
0.0
  0
SPLINE
  5
48B
100
AcDbEntity
  8
0
100
AcDbSpline
 62
9
  6
CONTINUOUS
 70
0
 71
3
 72
14
 73
10
 74
0
 42
0.0000001
 43
0.0000001
 44
0.0000000001
 40
0.0
 40
0.0
 40
0.0
 40
0.0
 40
0.1091890887
 40
0.2241161113
 40
0.3442069282
 40
0.4688550938
 40
0.5974262852
 40
0.7292625764
 40
1.0
 40
1.0
 40
1.0
 40
1.0
 10
9.9730942643
 20
10.0990689746
 30
0.0
 10
9.9665322738
 20
10.1000414893
 30
0.0
 10
9.9530412516
 20
10.1018897974
 30
0.0
 10
9.9322713658
 20
10.1043320933
 30
0.0
 10
9.910527638
 20
10.1065062705
 30
0.0
 10
9.8879259351
 20
10.1084004756
 30
0.0
 10
9.8645864665
 20
10.1100044948
 30
0.0
 10
9.8323643667
 20
10.1117598019
 30
0.0
 10
9.8079167658
 20
10.1125902591
 30
0.0
 10
9.7914721507
 20
10.1129411325
 30
0.0
  0
LINE
  5
48C
100
AcDbEntity
  8
0
100
AcDbLine
 62
9
  6
CONTINUOUS
 10
9.7914721507
 20
10.1129411325
 11
9.7909835145
 21
10.1129514968
  0
LINE
  5
48D
100
AcDbEntity
  8
0
100
AcDbLine
 62
9
  6
CONTINUOUS
 10
9.7909835145
 20
10.1129514968
 11
9.7894821407
 21
10.1129825721
  0
LINE
  5
48E
100
AcDbEntity
  8
0
100
AcDbLine
 62
9
  6
CONTINUOUS
 10
9.7094379778
 20
10.1129825721
 11
9.7079365879
 21
10.1129514965
  0
LINE
  5
48F
100
AcDbEntity
  8
0
100
AcDbLine
 62
9
  6
CONTINUOUS
 10
9.7079365879
 20
10.1129514965
 11
9.707447968
 21
10.1129411325
  0
SPLINE
  5
490
100
AcDbEntity
  8
0
100
AcDbSpline
 62
9
  6
CONTINUOUS
 70
0
 71
3
 72
14
 73
10
 74
0
 42
0.0000001
 43
0.0000001
 44
0.0000000001
 40
0.0
 40
0.0
 40
0.0
 40
0.0
 40
0.2707374236
 40
0.4025737147
 40
0.5311449062
 40
0.6557930718
 40
0.7758838887
 40
0.8908109113
 40
1.0
 40
1.0
 40
1.0
 40
1.0
 10
9.707447968
 20
10.1129411325
 30
0.0
 10
9.6910033529
 20
10.1125902591
 30
0.0
 10
9.666555752
 20
10.1117598019
 30
0.0
 10
9.6343336522
 20
10.1100044948
 30
0.0
 10
9.6109941836
 20
10.1084004756
 30
0.0
 10
9.5883924807
 20
10.1065062706
 30
0.0
 10
9.5666487529
 20
10.1043320933
 30
0.0
 10
9.5458788671
 20
10.1018897974
 30
0.0
 10
9.5323878449
 20
10.1000414893
 30
0.0
 10
9.5258258544
 20
10.0990689747
 30
0.0
  0
SPLINE
  5
491
100
AcDbEntity
  8
0
100
AcDbSpline
 62
9
  6
CONTINUOUS
 70
0
 71
3
 72
30
 73
26
 74
0
 42
0.0000001
 43
0.0000001
 44
0.0000000001
 40
0.0
 40
0.0
 40
0.0
 40
0.0
 40
0.1043891948
 40
0.2038321913
 40
0.2980727099
 40
0.3868749275
 40
0.4700262533
 40
0.5473418069
 40
0.6186671233
 40
0.6838844261
 40
0.7429229576
 40
0.7701217371
 40
0.7957779469
 40
0.8199026548
 40
0.8425153181
 40
0.8636438862
 40
0.8833268274
 40
0.9016175424
 40
0.9185865142
 40
0.9343258954
 40
0.9489564022
 40
0.9626312934
 40
0.9755404161
 40
0.9879106057
 40
1.0
 40
1.0
 40
1.0
 40
1.0
 10
9.5258258544
 20
10.0990689747
 30
0.0
 10
9.5212130385
 20
10.0983853359
 30
0.0
 10
9.5122160756
 20
10.0969808205
 30
0.0
 10
9.4990969985
 20
10.0946992352
 30
0.0
 10
9.4867075049
 20
10.0922989134
 30
0.0
 10
9.4750835604
 20
10.0897870147
 30
0.0
 10
9.4642587476
 20
10.0871710311
 30
0.0
 10
9.4542642221
 20
10.0844588702
 30
0.0
 10
9.4451283721
 20
10.0816587328
 30
0.0
 10
9.4368772814
 20
10.0787788984
 30
0.0
 10
9.4305960475
 20
10.0762556281
 30
0.0
 10
9.4260438142
 20
10.0741895617
 30
0.0
 10
9.4229593322
 20
10.0726677672
 30
0.0
 10
9.4201123712
 20
10.0711321264
 30
0.0
 10
9.4175048397
 20
10.0695836956
 30
0.0
 10
9.4151384456
 20
10.0680235078
 30
0.0
 10
9.4130147908
 20
10.0664523953
 30
0.0
 10
9.4111351778
 20
10.0648712749
 30
0.0
 10
9.4095007951
 20
10.0632808441
 30
0.0
 10
9.408112918
 20
10.0616814824
 30
0.0
 10
9.4069727868
 20
10.0600735044
 30
0.0
 10
9.4060820263
 20
10.0584571384
 30
0.0
 10
9.4054429923
 20
10.0568327247
 30
0.0
 10
9.4050580216
 20
10.0552024131
 30
0.0
 10
9.4049718703
 20
10.0541079525
 30
0.0
 10
9.4049718703
 20
10.0535679037
 30
0.0
  0
SPLINE
  5
492
100
AcDbEntity
  8
0
100
AcDbSpline
 62
9
  6
CONTINUOUS
 70
0
 71
3
 72
41
 73
37
 74
0
 42
0.0000001
 43
0.0000001
 44
0.0000000001
 40
0.0
 40
0.0
 40
0.0
 40
0.0
 40
0.0041075605
 40
0.0082935365
 40
0.0126319231
 40
0.01718889
 40
0.0220212585
 40
0.0271760988
 40
0.0326914399
 40
0.0385977398
 40
0.0449188641
 40
0.0516732862
 40
0.0588754058
 40
0.0665359914
 40
0.0746628934
 40
0.0832618775
 40
0.0923366146
 40
0.1018890916
 40
0.1224280661
 40
0.144872878
 40
0.169201649
 40
0.195380993
 40
0.2233678942
 40
0.2531115195
 40
0.2845540133
 40
0.3176311307
 40
0.3522732352
 40
0.3884056161
 40
0.4259487688
 40
0.464819121
 40
0.5461866265
 40
0.6317690206
 40
0.7207789753
 40
0.8123921881
 40
0.9057553009
 40
1.0
 40
1.0
 40
1.0
 40
1.0
 10
10.3006411207
 20
13.7775705908
 30
0.0
 10
10.3006411207
 20
13.7783555031
 30
0.0
 10
10.3005279607
 20
13.7799425178
 30
0.0
 10
10.300021008
 20
13.7823097747
 30
0.0
 10
10.2991784758
 20
13.784670397
 30
0.0
 10
10.2980031194
 20
13.7870219253
 30
0.0
 10
10.2964972029
 20
13.7893634913
 30
0.0
 10
10.2946627649
 20
13.7916945044
 30
0.0
 10
10.2925015217
 20
13.7940145922
 30
0.0
 10
10.2900148128
 20
13.7963230579
 30
0.0
 10
10.2872041077
 20
13.7986191482
 30
0.0
 10
10.2840709851
 20
13.8009019948
 30
0.0
 10
10.2806170646
 20
13.8031704278
 30
0.0
 10
10.2768442619
 20
13.805423308
 30
0.0
 10
10.2727547092
 20
13.8076594728
 30
0.0
 10
10.268350671
 20
13.8098775514
 30
0.0
 10
10.2636347009
 20
13.8120763442
 30
0.0
 10
10.2567669971
 20
13.815052964
 30
0.0
 10
10.247408243
 20
13.8186964111
 30
0.0
 10
10.2352395534
 20
13.8228730331
 30
0.0
 10
10.2219038406
 20
13.8269429983
 30
0.0
 10
10.2074326702
 20
13.8308963186
 30
0.0
 10
10.1918601466
 20
13.8347232355
 30
0.0
 10
10.1752233417
 20
13.8384142629
 30
0.0
 10
10.1575619813
 20
13.8419602785
 30
0.0
 10
10.138918378
 20
13.8453526105
 30
0.0
 10
10.1193372521
 20
13.848582914
 30
0.0
 10
10.0988656337
 20
13.8516432383
 30
0.0
 10
10.0775527218
 20
13.8545262234
 30
0.0
 10
10.0476238953
 20
13.8581799052
 30
0.0
 10
10.0084986263
 20
13.8622263066
 30
0.0
 10
9.9597463655
 20
13.8662078907
 30
0.0
 10
9.9089710152
 20
13.8693462105
 30
0.0
 10
9.8566611963
 20
13.8716102945
 30
0.0
 10
9.8033199214
 20
13.8729777802
 30
0.0
 10
9.7674692466
 20
13.8732821848
 30
0.0
 10
9.7494600593
 20
13.8732821848
 30
0.0
  0
SPLINE
  5
493
100
AcDbEntity
  8
0
100
AcDbSpline
 62
9
  6
CONTINUOUS
 70
0
 71
3
 72
73
 73
69
 74
0
 42
0.0000001
 43
0.0000001
 44
0.0000000001
 40
0.0
 40
0.0
 40
0.0
 40
0.0
 40
0.0020534195
 40
0.0041459666
 40
0.0063145012
 40
0.0085925577
 40
0.0110087519
 40
0.0135864422
 40
0.0163444183
 40
0.0192976712
 40
0.0224581384
 40
0.0258352617
 40
0.0294363355
 40
0.0332666516
 40
0.0373301509
 40
0.0416297073
 40
0.0461671024
 40
0.0509433514
 40
0.0612129069
 40
0.0724353639
 40
0.0845998598
 40
0.0976895866
 40
0.1116831109
 40
0.1265550571
 40
0.142276344
 40
0.1588150253
 40
0.176136193
 40
0.1942024409
 40
0.2324086235
 40
0.273092597
 40
0.3158840099
 40
0.3603892006
 40
0.4061959518
 40
0.4528781329
 40
0.5000003362
 40
0.5471225354
 40
0.5938047045
 40
0.639611435
 40
0.6841165913
 40
0.7269079579
 40
0.7675918774
 40
0.8057980032
 40
0.8238642169
 40
0.8411853579
 40
0.8577240035
 40
0.8734452639
 40
0.8883171819
 40
0.9023106713
 40
0.9154003703
 40
0.9275648284
 40
0.9387872567
 40
0.9490567884
 40
0.9538330256
 40
0.9583704075
 40
0.9626699565
 40
0.9667334485
 40
0.9705637554
 40
0.9741648245
 40
0.9775419433
 40
0.9807023949
 40
0.9836556288
 40
0.9864135896
 40
0.9889912726
 40
0.9914074637
 40
0.9936855171
 40
0.9958540427
 40
0.9979465822
 40
1.0
 40
1.0
 40
1.0
 40
1.0
 10
9.3931657906
 20
10.0651994913
 30
0.0
 10
9.3931657906
 20
10.0657067896
 30
0.0
 10
9.3932383063
 20
10.0667324653
 30
0.0
 10
9.3935639392
 20
10.0682627689
 30
0.0
 10
9.394106493
 20
10.0697891131
 30
0.0
 10
9.3948655118
 20
10.0713093436
 30
0.0
 10
9.395839062
 20
10.0728229098
 30
0.0
 10
9.3970252574
 20
10.0743296329
 30
0.0
 10
9.3984226794
 20
10.0758293032
 30
0.0
 10
9.4000302321
 20
10.0773215726
 30
0.0
 10
9.4018470544
 20
10.078805901
 30
0.0
 10
9.4038723086
 20
10.0802816284
 30
0.0
 10
9.406105009
 20
10.0817479828
 30
0.0
 10
9.4085438606
 20
10.0832043168
 30
0.0
 10
9.4111874897
 20
10.0846498326
 30
0.0
 10
9.4140344137
 20
10.0860836494
 30
0.0
 10
9.4170829583
 20
10.0875050189
 30
0.0
 10
9.4215224368
 20
10.0894292032
 30
0.0
 10
9.4275722102
 20
10.0917844174
 30
0.0
 10
9.4354384104
 20
10.094484326
 30
0.0
 10
9.4440590155
 20
10.0971152438
 30
0.0
 10
9.453413603
 20
10.0996707986
 30
0.0
 10
9.4634801423
 20
10.1021446353
 30
0.0
 10
9.4742346642
 20
10.1045305915
 30
0.0
 10
9.4856514849
 20
10.1068228721
 30
0.0
 10
9.4977032564
 20
10.1090157456
 30
0.0
 10
9.5103610751
 20
10.1111039365
 30
0.0
 10
9.528343191
 20
10.1137919188
 30
0.0
 10
9.5521058771
 20
10.1168302483
 30
0.0
 10
9.5820102648
 20
10.1199234786
 30
0.0
 10
9.6135252827
 20
10.1224971654
 30
0.0
 10
9.6463478705
 20
10.1245258893
 30
0.0
 10
9.6801625063
 20
10.1259894636
 30
0.0
 10
9.7146439034
 20
10.1268734222
 30
0.0
 10
9.7494603101
 20
10.127169043
 30
0.0
 10
9.7842767138
 20
10.1268734129
 30
0.0
 10
9.8187581015
 20
10.1259894462
 30
0.0
 10
9.8525727206
 20
10.1245258655
 30
0.0
 10
9.8853952828
 20
10.1224971338
 30
0.0
 10
9.9169102667
 20
10.1199234402
 30
0.0
 10
9.9468146147
 20
10.1168302036
 30
0.0
 10
9.9705772647
 20
10.1137918737
 30
0.0
 10
9.9885593505
 20
10.1111038869
 30
0.0
 10
10.0012171454
 20
10.1090156984
 30
0.0
 10
10.0132688938
 20
10.1068228207
 30
0.0
 10
10.024685692
 20
10.1045305416
 30
0.0
 10
10.0354401914
 20
10.1021445862
 30
0.0
 10
10.045506707
 20
10.0996707471
 30
0.0
 10
10.0548612702
 20
10.0971151976
 30
0.0
 10
10.0634818505
 20
10.0944842782
 30
0.0
 10
10.0713480284
 20
10.0917843736
 30
0.0
 10
10.0773977857
 20
10.0894291617
 30
0.0
 10
10.0818372518
 20
10.0875049788
 30
0.0
 10
10.0848857868
 20
10.0860836079
 30
0.0
 10
10.087732704
 20
10.0846497928
 30
0.0
 10
10.0903763269
 20
10.0832042779
 30
0.0
 10
10.0928151717
 20
10.0817479428
 30
0.0
 10
10.0950478676
 20
10.0802815899
 30
0.0
 10
10.0970731179
 20
10.0788058675
 30
0.0
 10
10.0988899274
 20
10.0773215384
 30
0.0
 10
10.1004974635
 20
10.0758292692
 30
0.0
 10
10.1018948713
 20
10.0743296001
 30
0.0
 10
10.103081065
 20
10.0728228841
 30
0.0
 10
10.1040546212
 20
10.0713093262
 30
0.0
 10
10.1048136551
 20
10.0697891071
 30
0.0
 10
10.105356204
 20
10.0682627653
 30
0.0
 10
10.1056818199
 20
10.0667324625
 30
0.0
 10
10.105754328
 20
10.0657067892
 30
0.0
 10
10.105754328
 20
10.0651994913
 30
0.0
  0
SPLINE
  5
494
100
AcDbEntity
  8
0
100
AcDbSpline
 62
9
  6
CONTINUOUS
 70
0
 71
3
 72
15
 73
11
 74
0
 42
0.0000001
 43
0.0000001
 44
0.0000000001
 40
0.0
 40
0.0
 40
0.0
 40
0.0
 40
0.1014443998
 40
0.2055589703
 40
0.314818842
 40
0.4313823986
 40
0.5569841713
 40
0.6929724379
 40
0.8403811735
 40
1.0
 40
1.0
 40
1.0
 40
1.0
 10
10.105754328
 20
10.0651994913
 30
0.0
 10
10.105754328
 20
10.0646007284
 30
0.0
 10
10.105652611
 20
10.0633851512
 30
0.0
 10
10.1051967993
 20
10.061576145
 30
0.0
 10
10.1044383099
 20
10.0597750977
 30
0.0
 10
10.1033797363
 20
10.0579849845
 30
0.0
 10
10.1020252102
 20
10.0562055814
 30
0.0
 10
10.1003773067
 20
10.054436849
 30
0.0
 10
10.0984379977
 20
10.0526790659
 30
0.0
 10
10.0970100925
 20
10.0515606981
 30
0.0
 10
10.0962515365
 20
10.0510019475
 30
0.0
  0
SPLINE
  5
495
100
AcDbEntity
  8
0
100
AcDbSpline
 62
9
  6
CONTINUOUS
 70
0
 71
3
 72
15
 73
11
 74
0
 42
0.0000001
 43
0.0000001
 44
0.0000000001
 40
0.0
 40
0.0
 40
0.0
 40
0.0
 40
0.1611916708
 40
0.3096874708
 40
0.4462733501
 40
0.5719907068
 40
0.6882115057
 40
0.7967227466
 40
0.8997796078
 40
1.0
 40
1.0
 40
1.0
 40
1.0
 10
9.4033986389
 20
10.0504745536
 30
0.0
 10
9.4025829536
 20
10.0510526279
 30
0.0
 10
9.4010476963
 20
10.0522095887
 30
0.0
 10
9.398959899
 20
10.0540309263
 30
0.0
 10
9.3971854724
 20
10.0558643372
 30
0.0
 10
9.3957264336
 20
10.0577094827
 30
0.0
 10
9.3945855471
 20
10.0595664989
 30
0.0
 10
9.3937674334
 20
10.0614358686
 30
0.0
 10
9.393275608
 20
10.0633145608
 30
0.0
 10
9.3931657906
 20
10.0645778962
 30
0.0
 10
9.3931657906
 20
10.0651994913
 30
0.0
  0
SPLINE
  5
496
100
AcDbEntity
  8
0
100
AcDbSpline
 62
9
  6
CONTINUOUS
 70
0
 71
3
 72
17
 73
13
 74
0
 42
0.0000001
 43
0.0000001
 44
0.0000000001
 40
0.0
 40
0.0
 40
0.0
 40
0.0
 40
0.1831818166
 40
0.3525243266
 40
0.5064436149
 40
0.6434972247
 40
0.762401021
 40
0.8620426201
 40
0.9043414461
 40
0.9414894693
 40
0.9734012164
 40
1.0
 40
1.0
 40
1.0
 40
1.0
 10
12.8942516262
 20
4.0094272283
 30
0.0
 10
12.8937097608
 20
4.0327769546
 30
0.0
 10
12.8926669856
 20
4.0777123462
 30
0.0
 10
12.8911523168
 20
4.1422670571
 30
0.0
 10
12.8897515376
 20
4.2009413878
 30
0.0
 10
12.8884708607
 20
4.2531857191
 30
0.0
 10
12.8873180913
 20
4.2985105844
 30
0.0
 10
12.8864225039
 20
4.3317566622
 30
0.0
 10
12.8857611139
 20
4.3545811907
 30
0.0
 10
12.8853249448
 20
4.3687729229
 30
0.0
 10
12.8849218141
 20
4.3809629081
 30
0.0
 10
12.8846512409
 20
4.3884182244
 30
0.0
 10
12.8845189919
 20
4.3918070379
 30
0.0
  0
SPLINE
  5
497
100
AcDbEntity
  8
0
100
AcDbSpline
 62
7
  6
CONTINUOUS
 70
0
 71
3
 72
22
 73
18
 74
0
 42
0.0000001
 43
0.0000001
 44
0.0000000001
 40
0.0
 40
0.0
 40
0.0
 40
0.0
 40
0.0086875658
 40
0.0178799619
 40
0.0280328813
 40
0.0394811688
 40
0.0670461253
 40
0.1016187682
 40
0.1435113811
 40
0.1927264628
 40
0.2490662458
 40
0.3122188775
 40
0.3817675852
 40
0.4572288768
 40
0.6236246882
 40
0.8064131229
 40
1.0
 40
1.0
 40
1.0
 40
1.0
 10
9.7861371623
 20
10.134956624
 30
0.0
 10
9.7861363813
 20
10.1349050279
 30
0.0
 10
9.7861489236
 20
10.1347981736
 30
0.0
 10
9.786209009
 20
10.1346413951
 30
0.0
 10
9.7863089524
 20
10.1344869323
 30
0.0
 10
9.7865065199
 20
10.1342705126
 30
0.0
 10
9.7868617268
 20
10.1340098585
 30
0.0
 10
9.7874100031
 20
10.1337226586
 30
0.0
 10
9.7881036977
 20
10.1334441198
 30
0.0
 10
9.7889382091
 20
10.1331767608
 30
0.0
 10
9.7899079259
 20
10.1329226122
 30
0.0
 10
9.7910054163
 20
10.1326840527
 30
0.0
 10
9.7922221413
 20
10.132463008
 30
0.0
 10
9.7940510427
 20
10.1321852094
 30
0.0
 10
9.7965582831
 20
10.1319015818
 30
0.0
 10
9.799774059
 20
10.1316641142
 30
0.0
 10
9.802008336
 20
10.1315749798
 30
0.0
 10
9.8031578523
 20
10.1315469263
 30
0.0
  0
SPLINE
  5
498
100
AcDbEntity
  8
0
100
AcDbSpline
 62
9
  6
CONTINUOUS
 70
0
 71
3
 72
28
 73
24
 74
0
 42
0.0000001
 43
0.0000001
 44
0.0000000001
 40
0.0
 40
0.0
 40
0.0
 40
0.0
 40
0.0186967854
 40
0.0340707344
 40
0.0411277697
 40
0.048081981
 40
0.0625934934
 40
0.0790168662
 40
0.0978535831
 40
0.1191369595
 40
0.1427255528
 40
0.1684011333
 40
0.1959364373
 40
0.2556501332
 40
0.3201647429
 40
0.3881948159
 40
0.4589336858
 40
0.5319106522
 40
0.6067819884
 40
0.6832692374
 40
0.8399997202
 40
0.9197756978
 40
1.0
 40
1.0
 40
1.0
 40
1.0
 10
12.8845190509
 20
4.3918079447
 30
0.0
 10
12.884657734
 20
4.3918495773
 30
0.0
 10
12.8849056644
 20
4.3919472706
 30
0.0
 10
12.8851619071
 20
4.3921470292
 30
0.0
 10
12.8852952775
 20
4.3923331367
 30
0.0
 10
12.8853871546
 20
4.3925355361
 30
0.0
 10
12.8854291025
 20
4.3928316435
 30
0.0
 10
12.8853824718
 20
4.3932166663
 30
0.0
 10
12.8852595191
 20
4.3936382584
 30
0.0
 10
12.8850714967
 20
4.394095071
 30
0.0
 10
12.8848263885
 20
4.394583761
 30
0.0
 10
12.8845316376
 20
4.3951005936
 30
0.0
 10
12.884068464
 20
4.3958426262
 30
0.0
 10
12.8834011282
 20
4.3968106407
 30
0.0
 10
12.8825280076
 20
4.3980166431
 30
0.0
 10
12.8816049455
 20
4.3992920178
 30
0.0
 10
12.8806645667
 20
4.4006355841
 30
0.0
 10
12.8797227695
 20
4.4020424327
 30
0.0
 10
12.8787925889
 20
4.4035101118
 30
0.0
 10
12.8775714913
 20
4.4055600694
 30
0.0
 10
12.8764375833
 20
4.4077064063
 30
0.0
 10
12.8754557967
 20
4.409955374
 30
0.0
 10
12.8750313546
 20
4.4111209418
 30
0.0
 10
12.8748428958
 20
4.4117129671
 30
0.0
  0
SPLINE
  5
499
100
AcDbEntity
  8
0
100
AcDbSpline
 62
9
  6
CONTINUOUS
 70
0
 71
3
 72
33
 73
29
 74
0
 42
0.0000001
 43
0.0000001
 44
0.0000000001
 40
0.0
 40
0.0
 40
0.0
 40
0.0
 40
0.0624644525
 40
0.1249316951
 40
0.1873998925
 40
0.2498684058
 40
0.3123377015
 40
0.374809518
 40
0.4060477767
 40
0.4372881148
 40
0.4685306371
 40
0.4997754149
 40
0.5310218325
 40
0.5622693641
 40
0.5935168846
 40
0.6247639909
 40
0.6560121197
 40
0.6872627915
 40
0.7185172225
 40
0.7497761944
 40
0.7810400412
 40
0.8123083256
 40
0.8435799506
 40
0.874854686
 40
0.9061329908
 40
0.9374156601
 40
0.968703951
 40
1.0
 40
1.0
 40
1.0
 40
1.0
 10
12.853084863
 20
4.0028189892
 30
0.0
 10
12.8348297254
 20
3.9986656738
 30
0.0
 10
12.7983474029
 20
3.990231618
 30
0.0
 10
12.7437258675
 20
3.9771441607
 30
0.0
 10
12.6892227328
 20
3.9635662021
 30
0.0
 10
12.6348572903
 20
3.9494438466
 30
0.0
 10
12.5806481802
 20
3.9347280611
 30
0.0
 10
12.535619955
 20
3.9219331278
 30
0.0
 10
12.4996895183
 20
3.9113737474
 30
0.0
 10
12.4727878875
 20
3.9032898307
 30
0.0
 10
12.445937172
 20
3.8950317022
 30
0.0
 10
12.4191411004
 20
3.8865917514
 30
0.0
 10
12.3924088956
 20
3.8779465422
 30
0.0
 10
12.3657508788
 20
3.869072362
 30
0.0
 10
12.3391808452
 20
3.8599370264
 30
0.0
 10
12.3127152084
 20
3.8505027789
 30
0.0
 10
12.2863547741
 20
3.8407758765
 30
0.0
 10
12.260099306
 20
3.8307629215
 30
0.0
 10
12.2339537487
 20
3.8204574039
 30
0.0
 10
12.207926117
 20
3.8098469128
 30
0.0
 10
12.1820299925
 20
3.7989083647
 30
0.0
 10
12.1562893113
 20
3.7875985473
 30
0.0
 10
12.1307479412
 20
3.7758364852
 30
0.0
 10
12.1054466756
 20
3.7635586091
 30
0.0
 10
12.0804294121
 20
3.7507029111
 30
0.0
 10
12.0557568272
 20
3.7371882734
 30
0.0
 10
12.0314807635
 20
3.7229587705
 30
0.0
 10
12.0156611311
 20
3.7128723337
 30
0.0
 10
12.00781439
 20
3.7077330574
 30
0.0
  0
SPLINE
  5
49A
100
AcDbEntity
  8
0
100
AcDbSpline
 62
7
  6
CONTINUOUS
 70
0
 71
3
 72
32
 73
28
 74
0
 42
0.0000001
 43
0.0000001
 44
0.0000000001
 40
0.0
 40
0.0
 40
0.0
 40
0.0
 40
0.0193111509
 40
0.0417041101
 40
0.0670669959
 40
0.0952631613
 40
0.1594518848
 40
0.2325752987
 40
0.3126001198
 40
0.3972548242
 40
0.484116403
 40
0.5706894305
 40
0.6544892603
 40
0.7331208969
 40
0.8043622114
 40
0.8365880066
 40
0.8662536518
 40
0.893172719
 40
0.9171840943
 40
0.9381716739
 40
0.9560660474
 40
0.9708818468
 40
0.9827645563
 40
0.9877327763
 40
0.992161636
 40
0.996189079
 40
1.0
 40
1.0
 40
1.0
 40
1.0
 10
9.3550477829
 20
10.0375281501
 30
0.0
 10
9.3552790721
 20
10.0374287433
 30
0.0
 10
9.3557888148
 20
10.0372378622
 30
0.0
 10
9.3566256658
 20
10.0369834557
 30
0.0
 10
9.3575862343
 20
10.0367419161
 30
0.0
 10
9.3590886448
 20
10.0364258726
 30
0.0
 10
9.361220642
 20
10.0360862576
 30
0.0
 10
9.3640368717
 20
10.0357696693
 30
0.0
 10
9.3671290611
 20
10.03553957
 30
0.0
 10
9.3704059202
 20
10.0354031707
 30
0.0
 10
9.373770743
 20
10.035364911
 30
0.0
 10
9.377124076
 20
10.0354259972
 30
0.0
 10
9.3803668815
 20
10.0355844393
 30
0.0
 10
9.3834033694
 20
10.0358352878
 30
0.0
 10
9.3857606679
 20
10.0361230267
 30
0.0
 10
9.3874742633
 20
10.0363995449
 30
0.0
 10
9.388611521
 20
10.0366175378
 30
0.0
 10
9.3896361422
 20
10.036851219
 30
0.0
 10
9.3905407673
 20
10.0370989053
 30
0.0
 10
9.3913190166
 20
10.0373584236
 30
0.0
 10
9.3919660948
 20
10.0376280059
 30
0.0
 10
9.3924781083
 20
10.0379054392
 30
0.0
 10
9.3928098813
 20
10.0381565293
 30
0.0
 10
9.3929950171
 20
10.0383643565
 30
0.0
 10
9.3930893656
 20
10.0385129008
 30
0.0
 10
9.3931468341
 20
10.0386634576
 30
0.0
 10
9.3931598134
 20
10.0387660508
 30
0.0
 10
9.393159759
 20
10.0388157312
 30
0.0
  0
SPLINE
  5
49B
100
AcDbEntity
  8
0
100
AcDbSpline
 62
7
  6
CONTINUOUS
 70
0
 71
3
 72
37
 73
33
 74
0
 42
0.0000001
 43
0.0000001
 44
0.0000000001
 40
0.0
 40
0.0
 40
0.0
 40
0.0
 40
0.0042845031
 40
0.0090463588
 40
0.0144699352
 40
0.0206765274
 40
0.0356958924
 40
0.0544189856
 40
0.0768863926
 40
0.1030103647
 40
0.1326202319
 40
0.1654929081
 40
0.2398938734
 40
0.3236448795
 40
0.4137476998
 40
0.5069371385
 40
0.5998198388
 40
0.689015789
 40
0.7712975316
 40
0.8089156009
 40
0.84373766
 40
0.8754664915
 40
0.9038473411
 40
0.9286732033
 40
0.9498004121
 40
0.9671803433
 40
0.9744941995
 40
0.9809340723
 40
0.9865666001
 40
0.991498761
 40
0.9958974768
 40
1.0
 40
1.0
 40
1.0
 40
1.0
 10
9.3243318508
 20
10.0626215445
 30
0.0
 10
9.3243433981
 20
10.0625641238
 30
0.0
 10
9.3243851704
 20
10.0624460503
 30
0.0
 10
9.3244926882
 20
10.0622785433
 30
0.0
 10
9.3246456062
 20
10.0621135057
 30
0.0
 10
9.3249277753
 20
10.0618817794
 30
0.0
 10
9.3254021184
 20
10.0616054174
 30
0.0
 10
9.3261089065
 20
10.0613017472
 30
0.0
 10
9.3269826167
 20
10.0610101439
 30
0.0
 10
9.3280157268
 20
10.0607336494
 30
0.0
 10
9.3291994214
 20
10.0604749623
 30
0.0
 10
9.3310414523
 20
10.0601438029
 30
0.0
 10
9.3336319451
 20
10.0598033878
 30
0.0
 10
9.3370140318
 20
10.0595129735
 30
0.0
 10
9.3406612255
 20
10.0593386056
 30
0.0
 10
9.3444369451
 20
10.0592872305
 30
0.0
 10
9.348199939
 20
10.0593610041
 30
0.0
 10
9.3518092232
 20
10.0595570216
 30
0.0
 10
9.354656289
 20
10.0598224013
 30
0.0
 10
9.3567537826
 20
10.060096334
 30
0.0
 10
9.358160344
 20
10.0603199774
 30
0.0
 10
9.3594348931
 20
10.0605657411
 30
0.0
 10
9.3605656149
 20
10.0608311274
 30
0.0
 10
9.3615424635
 20
10.0611133584
 30
0.0
 10
9.362356652
 20
10.0614097202
 30
0.0
 10
9.3629241467
 20
10.061679146
 30
0.0
 10
9.3632851705
 20
10.0619054796
 30
0.0
 10
9.3634954997
 20
10.0620675652
 30
0.0
 10
9.3636611046
 20
10.0622317938
 30
0.0
 10
9.3637814575
 20
10.0623987001
 30
0.0
 10
9.3638554036
 20
10.0625686205
 30
0.0
 10
9.3638724683
 20
10.0626853545
 30
0.0
 10
9.3638725156
 20
10.062741437
 30
0.0
  0
SPLINE
  5
49C
100
AcDbEntity
  8
0
100
AcDbSpline
 62
7
  6
CONTINUOUS
 70
0
 71
3
 72
12
 73
8
 74
0
 42
0.0000001
 43
0.0000001
 44
0.0000000001
 40
0.0
 40
0.0
 40
0.0
 40
0.0
 40
0.3300668652
 40
0.5984288884
 40
0.81463457
 40
0.9094763029
 40
1.0
 40
1.0
 40
1.0
 40
1.0
 10
9.3825095815
 20
10.0859034659
 30
0.0
 10
9.3826550215
 20
10.085981194
 30
0.0
 10
9.3829123752
 20
10.0861354063
 30
0.0
 10
9.3832263973
 20
10.0863973955
 30
0.0
 10
9.3833999905
 20
10.0866359127
 30
0.0
 10
9.3834662471
 20
10.0868267298
 30
0.0
 10
9.3834769487
 20
10.0869196545
 30
0.0
 10
9.3834769149
 20
10.0869648818
 30
0.0
  0
SPLINE
  5
49D
100
AcDbEntity
  8
0
100
AcDbSpline
 62
9
  6
CONTINUOUS
 70
0
 71
3
 72
33
 73
29
 74
0
 42
0.0000001
 43
0.0000001
 44
0.0000000001
 40
0.0
 40
0.0
 40
0.0
 40
0.0
 40
0.0003141706
 40
0.0007023642
 40
0.0012441744
 40
0.0027872778
 40
0.0049407655
 40
0.0077027963
 40
0.0110727773
 40
0.0150502135
 40
0.0196343295
 40
0.0306061285
 40
0.0439465696
 40
0.0596117601
 40
0.0775566305
 40
0.097727015
 40
0.1200623312
 40
0.1709710635
 40
0.2297384331
 40
0.2957529447
 40
0.3683682856
 40
0.4468922579
 40
0.5306113518
 40
0.618774285
 40
0.7106050256
 40
0.8053052667
 40
0.9020467502
 40
1.0
 40
1.0
 40
1.0
 40
1.0
 10
13.0697382514
 20
4.4000505598
 30
0.0
 10
13.0697189116
 20
4.4000485085
 30
0.0
 10
13.0696759952
 20
4.4000413411
 30
0.0
 10
13.0695996794
 20
4.40003102
 30
0.0
 10
13.0694481562
 20
4.4000091044
 30
0.0
 10
13.069188393
 20
4.3999722299
 30
0.0
 10
13.0687926308
 20
4.3999154611
 30
0.0
 10
13.0682849006
 20
4.3998428211
 30
0.0
 10
13.067665358
 20
4.3997544749
 30
0.0
 10
13.0669340669
 20
4.3996508046
 30
0.0
 10
13.0657366956
 20
4.3994822147
 30
0.0
 10
13.0639649654
 20
4.3992357901
 30
0.0
 10
13.0615130445
 20
4.3989004756
 30
0.0
 10
13.0586323802
 20
4.3985145425
 30
0.0
 10
13.0553312493
 20
4.3980831344
 30
0.0
 10
13.0516189424
 20
4.3976118068
 30
0.0
 10
13.0458794068
 20
4.3969066742
 30
0.0
 10
13.0377614838
 20
4.3959672123
 30
0.0
 10
13.0269447541
 20
4.3948324752
 30
0.0
 10
13.0147769035
 20
4.3937056912
 30
0.0
 10
13.0013753868
 20
4.3926500097
 30
0.0
 10
12.986865655
 20
4.391725764
 30
0.0
 10
12.9713812739
 20
4.3909926305
 30
0.0
 10
12.9550630269
 20
4.3905030712
 30
0.0
 10
12.938058721
 20
4.3903029413
 30
0.0
 10
12.9205225452
 20
4.3904297185
 30
0.0
 10
12.902613245
 20
4.390906265
 30
0.0
 10
12.8905730245
 20
4.3914657872
 30
0.0
 10
12.8845189919
 20
4.3918070379
 30
0.0
  0
SPLINE
  5
49E
100
AcDbEntity
  8
0
100
AcDbSpline
 62
9
  6
CONTINUOUS
 70
0
 71
3
 72
28
 73
24
 74
0
 42
0.0000001
 43
0.0000001
 44
0.0000000001
 40
0.0
 40
0.0
 40
0.0
 40
0.0
 40
0.0797264143
 40
0.1591026822
 40
0.3153654223
 40
0.3917972541
 40
0.4667351479
 40
0.5399064663
 40
0.6109732444
 40
0.679468916
 40
0.7445862774
 40
0.8050321758
 40
0.8329719522
 40
0.85906695
 40
0.8830737656
 40
0.9047444378
 40
0.9238882081
 40
0.9404495242
 40
0.9547861905
 40
0.9614856487
 40
0.9681707206
 40
0.9825193143
 40
1.0
 40
1.0
 40
1.0
 40
1.0
 10
12.8748432185
 20
4.4117127033
 30
0.0
 10
12.8746163782
 20
4.4111344944
 30
0.0
 10
12.8741151596
 20
4.4099993524
 30
0.0
 10
12.87298153
 20
4.4078184721
 30
0.0
 10
12.8716965026
 20
4.4057502076
 30
0.0
 10
12.870323918
 20
4.4037854194
 30
0.0
 10
12.8692804578
 20
4.4023810579
 30
0.0
 10
12.8682254866
 20
4.4010382368
 30
0.0
 10
12.8671721602
 20
4.3997585483
 30
0.0
 10
12.8661368428
 20
4.3985457351
 30
0.0
 10
12.8651519653
 20
4.3973987981
 30
0.0
 10
12.8643898956
 20
4.3964767792
 30
0.0
 10
12.8638494431
 20
4.3957671355
 30
0.0
 10
12.8634980824
 20
4.3952707639
 30
0.0
 10
12.8631966999
 20
4.3947994454
 30
0.0
 10
12.862953116
 20
4.3943565427
 30
0.0
 10
12.8627755788
 20
4.393945146
 30
0.0
 10
12.8626749677
 20
4.3935665903
 30
0.0
 10
12.8626696834
 20
4.3932684125
 30
0.0
 10
12.8627273647
 20
4.3930588101
 30
0.0
 10
12.8628265132
 20
4.3928651652
 30
0.0
 10
12.8630434987
 20
4.3926475741
 30
0.0
 10
12.8632678054
 20
4.3925347493
 30
0.0
 10
12.8633944861
 20
4.3924847676
 30
0.0
  0
SPLINE
  5
49F
100
AcDbEntity
  8
0
100
AcDbSpline
 62
7
  6
CONTINUOUS
 70
0
 71
3
 72
17
 73
13
 74
0
 42
0.0000001
 43
0.0000001
 44
0.0000000001
 40
0.0
 40
0.0
 40
0.0
 40
0.0
 40
0.2004613638
 40
0.3793129196
 40
0.535586321
 40
0.6689349889
 40
0.77958522
 40
0.8687928891
 40
0.9063194494
 40
0.939966306
 40
0.9707491264
 40
1.0
 40
1.0
 40
1.0
 40
1.0
 10
9.4454182725
 20
10.1064484834
 30
0.0
 10
9.4457379746
 20
10.1065195402
 30
0.0
 10
9.446340709
 20
10.1066643424
 30
0.0
 10
9.4471820675
 20
10.1069059789
 30
0.0
 10
9.4479051299
 20
10.1071583521
 30
0.0
 10
9.4485056695
 20
10.107419561
 30
0.0
 10
9.4489803836
 20
10.1076880623
 30
0.0
 10
9.4492872351
 20
10.1079302917
 30
0.0
 10
9.4494578754
 20
10.1081302736
 30
0.0
 10
9.4495448561
 20
10.1082733736
 30
0.0
 10
9.4495976604
 20
10.1084182126
 30
0.0
 10
9.4496093886
 20
10.1085166961
 30
0.0
 10
9.4496092063
 20
10.1085644843
 30
0.0
  0
SPLINE
  5
4A0
100
AcDbEntity
  8
0
100
AcDbSpline
 62
9
  6
CONTINUOUS
 70
0
 71
3
 72
30
 73
26
 74
0
 42
0.0000001
 43
0.0000001
 44
0.0000000001
 40
0.0
 40
0.0
 40
0.0
 40
0.0
 40
0.1963098084
 40
0.2914375681
 40
0.3834993081
 40
0.4717143059
 40
0.5553537523
 40
0.6336993793
 40
0.7060566567
 40
0.7717778563
 40
0.8302222086
 40
0.8808211089
 40
0.9030091465
 40
0.9230387256
 40
0.9408522685
 40
0.9564003605
 40
0.9696378141
 40
0.9805218552
 40
0.9890142328
 40
0.9923579277
 40
0.9950986717
 40
0.9972353716
 40
0.9987660535
 40
0.9996883768
 40
1.0
 40
1.0
 40
1.0
 40
1.0
 10
12.8633944942
 20
4.3924838612
 30
0.0
 10
12.8516729256
 20
4.3925669378
 30
0.0
 10
12.8342711983
 20
4.3930221123
 30
0.0
 10
12.8114053539
 20
4.3942720254
 30
0.0
 10
12.795003023
 20
4.3954647371
 30
0.0
 10
12.7793073817
 20
4.396881378
 30
0.0
 10
12.7644514171
 20
4.3984668864
 30
0.0
 10
12.750561402
 20
4.4001641951
 30
0.0
 10
12.7377569406
 20
4.4019127193
 30
0.0
 10
12.7261510412
 20
4.4036477284
 30
0.0
 10
12.7158484906
 20
4.4053085762
 30
0.0
 10
12.7081249082
 20
4.4066315602
 30
0.0
 10
12.7026684741
 20
4.4076027006
 30
0.0
 10
12.699141811
 20
4.4082441917
 30
0.0
 10
12.6960071633
 20
4.4088252668
 30
0.0
 10
12.6932728193
 20
4.4093406089
 30
0.0
 10
12.6909461793
 20
4.4097850801
 30
0.0
 10
12.6890341608
 20
4.4101546594
 30
0.0
 10
12.6877026824
 20
4.4104147465
 30
0.0
 10
12.6868486059
 20
4.4105825035
 30
0.0
 10
12.686366989
 20
4.410677492
 30
0.0
 10
12.6859915058
 20
4.4107511044
 30
0.0
 10
12.6857227276
 20
4.4108046935
 30
0.0
 10
12.6855605214
 20
4.4108352743
 30
0.0
 10
12.6854884524
 20
4.4108507525
 30
0.0
 10
12.6854700933
 20
4.4108537818
 30
0.0
  0
SPLINE
  5
4A1
100
AcDbEntity
  8
0
100
AcDbSpline
 62
7
  6
CONTINUOUS
 70
0
 71
3
 72
19
 73
15
 74
0
 42
0.0000001
 43
0.0000001
 44
0.0000000001
 40
0.0
 40
0.0
 40
0.0
 40
0.0
 40
0.2036086739
 40
0.3881531484
 40
0.5508623813
 40
0.6896282403
 40
0.7495321156
 40
0.8029577543
 40
0.8498772183
 40
0.8903904535
 40
0.9247847683
 40
0.9536430079
 40
0.9780866641
 40
1.0
 40
1.0
 40
1.0
 40
1.0
 10
9.5449988902
 20
10.1220182636
 30
0.0
 10
9.5456783775
 20
10.122091993
 30
0.0
 10
9.5469718238
 20
10.1222512212
 30
0.0
 10
9.5487984924
 20
10.1225417726
 30
0.0
 10
9.5503974252
 20
10.1228687735
 30
0.0
 10
9.5515712102
 20
10.1231796148
 30
0.0
 10
9.5523737068
 20
10.1234490921
 30
0.0
 10
9.5528742919
 20
10.1236468433
 30
0.0
 10
9.5533019971
 20
10.123849476
 30
0.0
 10
9.5536555306
 20
10.1240563729
 30
0.0
 10
9.5539342621
 20
10.124267089
 30
0.0
 10
9.5541376668
 20
10.1244825232
 30
0.0
 10
9.5542643781
 20
10.1247046576
 30
0.0
 10
9.5542935204
 20
10.1248615298
 30
0.0
 10
9.5542928918
 20
10.124935086
 30
0.0
  0
SPLINE
  5
4A2
100
AcDbEntity
  8
0
100
AcDbSpline
 62
9
  6
CONTINUOUS
 70
0
 71
3
 72
85
 73
81
 74
0
 42
0.0000001
 43
0.0000001
 44
0.0000000001
 40
0.0
 40
0.0
 40
0.0
 40
0.0
 40
0.0002356486
 40
0.0009392677
 40
0.0021059241
 40
0.0037306853
 40
0.0083243309
 40
0.0146284475
 40
0.022536141
 40
0.0319218047
 40
0.0426554095
 40
0.0546079465
 40
0.0816770535
 40
0.1122378263
 40
0.1455563031
 40
0.1810473197
 40
0.2182487332
 40
0.2373729049
 40
0.2567931735
 40
0.2764737752
 40
0.2963830265
 40
0.3164907978
 40
0.3367690193
 40
0.3571902209
 40
0.3777263387
 40
0.3880280889
 40
0.3983465924
 40
0.4086770001
 40
0.419012763
 40
0.4293466691
 40
0.4396693388
 40
0.4499680286
 40
0.4602164437
 40
0.4653154294
 40
0.4703898785
 40
0.4754337159
 40
0.4804383242
 40
0.4853990529
 40
0.4903061142
 40
0.4951698935
 40
0.4999999721
 40
0.5048300535
 40
0.5096938345
 40
0.5146008906
 40
0.5195616128
 40
0.5245662181
 40
0.5296100539
 40
0.5346844999
 40
0.5397834828
 40
0.5500319027
 40
0.560330607
 40
0.5706532905
 40
0.5809872064
 40
0.5913229752
 40
0.6016533858
 40
0.6119718902
 40
0.6222736406
 40
0.6428097605
 40
0.6632309642
 40
0.683509188
 40
0.7036169625
 40
0.7235262181
 40
0.7432068237
 40
0.7626270948
 40
0.7817512676
 40
0.8189526809
 40
0.8544436974
 40
0.8877621742
 40
0.918322947
 40
0.9453920539
 40
0.9573445908
 40
0.9680781955
 40
0.9774638593
 40
0.9853715526
 40
0.9916756691
 40
0.9962693148
 40
0.997894076
 40
0.9990607325
 40
0.9997643515
 40
1.0
 40
1.0
 40
1.0
 40
1.0
 10
10.8026096749
 20
2.6234439078
 30
0.0
 10
10.8024535868
 20
2.6235769671
 30
0.0
 10
10.801832393
 20
2.6241084446
 30
0.0
 10
10.8004384824
 20
2.6252987333
 30
0.0
 10
10.7981259152
 20
2.6272750952
 30
0.0
 10
10.793238958
 20
2.631450627
 30
0.0
 10
10.7849528505
 20
2.6385314627
 30
0.0
 10
10.7725098696
 20
2.6491655778
 30
0.0
 10
10.7568972678
 20
2.6625107804
 30
0.0
 10
10.7383556795
 20
2.6783629556
 30
0.0
 10
10.7171404654
 20
2.696505592
 30
0.0
 10
10.6842321753
 20
2.7246566433
 30
0.0
 10
10.6382213037
 20
2.7640387815
 30
0.0
 10
10.5781081495
 20
2.8155436979
 30
0.0
 10
10.5124670654
 20
2.8718630595
 30
0.0
 10
10.442496322
 20
2.9320124147
 30
0.0
 10
10.381964153
 20
2.984189281
 30
0.0
 10
10.3320894587
 20
3.0273059173
 30
0.0
 10
10.2937924154
 20
3.0604967253
 30
0.0
 10
10.2550295302
 20
3.0941933026
 30
0.0
 10
10.2158820571
 20
3.1283594316
 30
0.0
 10
10.1764263411
 20
3.1629632548
 30
0.0
 10
10.1367560711
 20
3.1979978574
 30
0.0
 10
10.096964009
 20
3.2334570822
 30
0.0
 10
10.0638462197
 20
3.2633531956
 30
0.0
 10
10.0374273178
 20
3.2875454873
 30
0.0
 10
10.017670484
 20
3.3058591529
 30
0.0
 10
9.9980281395
 20
3.324339007
 30
0.0
 10
9.9785625898
 20
3.3430246402
 30
0.0
 10
9.9593402437
 20
3.3619514956
 30
0.0
 10
9.9404830054
 20
3.3811979992
 30
0.0
 10
9.9221280861
 20
3.4008247174
 30
0.0
 10
9.9075103193
 20
3.4177064871
 30
0.0
 10
9.896426572
 20
3.4316058835
 30
0.0
 10
9.8885437221
 20
3.4422539263
 30
0.0
 10
9.8811933367
 20
3.4531803477
 30
0.0
 10
9.8745625072
 20
3.464447553
 30
0.0
 10
9.8688557607
 20
3.4760844107
 30
0.0
 10
9.8643912881
 20
3.4881348412
 30
0.0
 10
9.8615258739
 20
3.5005561319
 30
0.0
 10
9.8604876758
 20
3.5132076186
 30
0.0
 10
9.8615258411
 20
3.5258591095
 30
0.0
 10
9.8643912273
 20
3.5382804068
 30
0.0
 10
9.8688556931
 20
3.5503308314
 30
0.0
 10
9.874562441
 20
3.5619676741
 30
0.0
 10
9.8811932649
 20
3.5732348711
 30
0.0
 10
9.8885436298
 20
3.5841612976
 30
0.0
 10
9.8964264377
 20
3.5948093631
 30
0.0
 10
9.9075101432
 20
3.6087087921
 30
0.0
 10
9.9221279478
 20
3.6255905503
 30
0.0
 10
9.9404829414
 20
3.6452172376
 30
0.0
 10
9.9593401905
 20
3.6644637765
 30
0.0
 10
9.9785625248
 20
3.6833906807
 30
0.0
 10
9.9980280841
 20
3.7020763274
 30
0.0
 10
10.0176704422
 20
3.7205561793
 30
0.0
 10
10.0374272778
 20
3.7388698481
 30
0.0
 10
10.0638461775
 20
3.7630621462
 30
0.0
 10
10.0969639728
 20
3.7929582586
 30
0.0
 10
10.1367560396
 20
3.8284174866
 30
0.0
 10
10.1764263141
 20
3.8634520941
 30
0.0
 10
10.2158820359
 20
3.8980559237
 30
0.0
 10
10.2550295164
 20
3.9322220593
 30
0.0
 10
10.2937924089
 20
3.9659186425
 30
0.0
 10
10.3320894572
 20
3.9991094546
 30
0.0
 10
10.3819641537
 20
4.0422260928
 30
0.0
 10
10.4424963233
 20
4.0944029596
 30
0.0
 10
10.5124670665
 20
4.1545523146
 30
0.0
 10
10.5781081505
 20
4.2108716761
 30
0.0
 10
10.6382213046
 20
4.2623765924
 30
0.0
 10
10.6842321761
 20
4.3017587305
 30
0.0
 10
10.717140466
 20
4.3299097817
 30
0.0
 10
10.73835568
 20
4.348052418
 30
0.0
 10
10.7568972681
 20
4.3639045933
 30
0.0
 10
10.7725098703
 20
4.3772497953
 30
0.0
 10
10.7849528499
 20
4.3878839117
 30
0.0
 10
10.79323896
 20
4.3949647443
 30
0.0
 10
10.7981259137
 20
4.3991402804
 30
0.0
 10
10.8004384868
 20
4.4011166354
 30
0.0
 10
10.8018323868
 20
4.4023069364
 30
0.0
 10
10.8024535914
 20
4.402838401
 30
0.0
 10
10.8026096749
 20
4.4029714654
 30
0.0
  0
SPLINE
  5
4A3
100
AcDbEntity
  8
0
100
AcDbSpline
 62
7
  6
CONTINUOUS
 70
0
 71
3
 72
22
 73
18
 74
0
 42
0.0000001
 43
0.0000001
 44
0.0000000001
 40
0.0
 40
0.0
 40
0.0
 40
0.0
 40
0.1960139723
 40
0.3795301897
 40
0.5454811956
 40
0.6204479075
 40
0.6894085193
 40
0.7519337805
 40
0.8076730948
 40
0.8563588624
 40
0.897854821
 40
0.9322042588
 40
0.9597771216
 40
0.971324264
 40
0.9816436984
 40
0.991058814
 40
1.0
 40
1.0
 40
1.0
 40
1.0
 10
9.6692405424
 20
10.1307348614
 30
0.0
 10
9.6703151971
 20
10.1307745269
 30
0.0
 10
9.6723950312
 20
10.1308825475
 30
0.0
 10
9.6753773179
 20
10.1311381281
 30
0.0
 10
9.6776886838
 20
10.1314278888
 30
0.0
 10
9.6793662498
 20
10.1317048463
 30
0.0
 10
9.6804780178
 20
10.1319224037
 30
0.0
 10
9.6814787122
 20
10.1321552217
 30
0.0
 10
9.6823613242
 20
10.1324014378
 30
0.0
 10
9.6831197703
 20
10.1326591771
 30
0.0
 10
9.6837495771
 20
10.1329264917
 30
0.0
 10
9.6842470111
 20
10.1332015248
 30
0.0
 10
9.6845684077
 20
10.1334501751
 30
0.0
 10
9.6847466492
 20
10.1336558468
 30
0.0
 10
9.6848370259
 20
10.1338028636
 30
0.0
 10
9.6848913315
 20
10.1339518129
 30
0.0
 10
9.6849026238
 20
10.1340530888
 30
0.0
 10
9.6849019227
 20
10.1341021376
 30
0.0
  0
LINE
  5
4A4
100
AcDbEntity
  8
0
100
AcDbLine
 62
9
  6
CONTINUOUS
 10
12.7553066558
 20
7.0239162843
 11
12.9291937533
 21
7.0250129056
  0
SPLINE
  5
4A5
100
AcDbEntity
  8
0
100
AcDbSpline
 62
7
  6
CONTINUOUS
 70
0
 71
3
 72
24
 73
20
 74
0
 42
0.0000001
 43
0.0000001
 44
0.0000000001
 40
0.0
 40
0.0
 40
0.0
 40
0.0
 40
0.1811854107
 40
0.3595499355
 40
0.4452086383
 40
0.5272380176
 40
0.6047419207
 40
0.6768850874
 40
0.7429013362
 40
0.8021167618
 40
0.8539707011
 40
0.8980377615
 40
0.9340981476
 40
0.9491553243
 40
0.9622996287
 40
0.9736562801
 40
0.9834505682
 40
0.9920484587
 40
1.0
 40
1.0
 40
1.0
 40
1.0
 10
9.8031578523
 20
10.1315469263
 30
0.0
 10
9.8045662852
 20
10.131512554
 30
0.0
 10
9.807362738
 20
10.1314972578
 30
0.0
 10
9.8108237767
 20
10.1316051127
 30
0.0
 10
9.8135096934
 20
10.1317703157
 30
0.0
 10
9.8154098379
 20
10.1319284956
 30
0.0
 10
9.8172012069
 20
10.1321206824
 30
0.0
 10
9.8188633766
 20
10.1323445373
 30
0.0
 10
9.8203774641
 20
10.132597361
 30
0.0
 10
9.8217263287
 20
10.132876067
 30
0.0
 10
9.8228952
 20
10.1331770173
 30
0.0
 10
9.8238711598
 20
10.1334966179
 30
0.0
 10
9.8245528582
 20
10.1337899608
 30
0.0
 10
9.8249870751
 20
10.1340383474
 30
0.0
 10
9.8252388667
 20
10.1342160678
 30
0.0
 10
9.8254364457
 20
10.1343965214
 30
0.0
 10
9.825579409
 20
10.1345802698
 30
0.0
 10
9.8256662698
 20
10.1347682378
 30
0.0
 10
9.8256844299
 20
10.1348980483
 30
0.0
 10
9.8256831691
 20
10.1349598646
 30
0.0
  0
SPLINE
  5
4A6
100
AcDbEntity
  8
0
100
AcDbSpline
 62
7
  6
CONTINUOUS
 70
0
 71
3
 72
19
 73
15
 74
0
 42
0.0000001
 43
0.0000001
 44
0.0000000001
 40
0.0
 40
0.0
 40
0.0
 40
0.0
 40
0.0209696806
 40
0.0446723341
 40
0.0730752407
 40
0.1072788261
 40
0.1478407588
 40
0.19498831
 40
0.2487821302
 40
0.309150565
 40
0.448938381
 40
0.6124747169
 40
0.797224006
 40
1.0
 40
1.0
 40
1.0
 40
1.0
 10
9.9201091954
 20
10.1273938613
 30
0.0
 10
9.9201084571
 20
10.1273150759
 30
0.0
 10
9.9201421999
 20
10.1271457539
 30
0.0
 10
9.9202877486
 20
10.1269084694
 30
0.0
 10
9.9205199845
 20
10.1266791867
 30
0.0
 10
9.920837729
 20
10.1264551046
 30
0.0
 10
9.9212405927
 20
10.1262356204
 30
0.0
 10
9.9217275655
 20
10.1260211065
 30
0.0
 10
9.9222969756
 20
10.125812546
 30
0.0
 10
9.9232085576
 20
10.1255296567
 30
0.0
 10
9.9245375533
 20
10.1252065721
 30
0.0
 10
9.9263411725
 20
10.1248718974
 30
0.0
 10
9.9283916744
 20
10.1245811716
 30
0.0
 10
9.9298397578
 20
10.1244265585
 30
0.0
 10
9.9305984158
 20
10.1243565114
 30
0.0
  0
SPLINE
  5
4A7
100
AcDbEntity
  8
0
100
AcDbSpline
 62
7
  6
CONTINUOUS
 70
0
 71
3
 72
25
 73
21
 74
0
 42
0.0000001
 43
0.0000001
 44
0.0000000001
 40
0.0
 40
0.0
 40
0.0
 40
0.0
 40
0.1597679878
 40
0.3292285957
 40
0.4142147856
 40
0.4975391789
 40
0.5778629786
 40
0.6539033964
 40
0.7244584836
 40
0.7884309362
 40
0.8448623999
 40
0.8929675748
 40
0.9137193003
 40
0.9322083893
 40
0.948423947
 40
0.9624007826
 40
0.9742334543
 40
0.9841329305
 40
0.9924961151
 40
1.0
 40
1.0
 40
1.0
 40
1.0
 10
9.9305984158
 20
10.1243565114
 30
0.0
 10
9.9321826309
 20
10.1242102402
 30
0.0
 10
9.9354562471
 20
10.1240043497
 30
0.0
 10
9.939581681
 20
10.1239333158
 30
0.0
 10
9.9429449963
 20
10.123986632
 30
0.0
 10
9.9454192533
 20
10.1240823634
 30
0.0
 10
9.9478015998
 20
10.1242319971
 30
0.0
 10
9.9500525839
 20
10.1244329459
 30
0.0
 10
9.952134945
 20
10.1246816722
 30
0.0
 10
9.9540144655
 20
10.1249736718
 30
0.0
 10
9.9556602382
 20
10.1253038063
 30
0.0
 10
9.9568686739
 20
10.1256187481
 30
0.0
 10
9.9576946274
 20
10.1258923373
 30
0.0
 10
9.9582093477
 20
10.1260932546
 30
0.0
 10
9.9586486431
 20
10.1262993042
 30
0.0
 10
9.9590112102
 20
10.1265096848
 30
0.0
 10
9.9592962457
 20
10.126724191
 30
0.0
 10
9.95950338
 20
10.1269435225
 30
0.0
 10
9.9596310848
 20
10.1271700988
 30
0.0
 10
9.9596583153
 20
10.1273299859
 30
0.0
 10
9.9596563626
 20
10.1274046833
 30
0.0
  0
SPLINE
  5
4A8
100
AcDbEntity
  8
0
100
AcDbSpline
 62
9
  6
CONTINUOUS
 70
0
 71
3
 72
17
 73
13
 74
0
 42
0.0000001
 43
0.0000001
 44
0.0000000001
 40
0.0
 40
0.0
 40
0.0
 40
0.0
 40
0.0265250775
 40
0.0583729896
 40
0.095467185
 40
0.1377222938
 40
0.2373068085
 40
0.3561932734
 40
0.4932681879
 40
0.6472468229
 40
0.8166858188
 40
1.0
 40
1.0
 40
1.0
 40
1.0
 10
12.8633944942
 20
4.3924838612
 30
0.0
 10
12.8632598517
 20
4.3891040192
 30
0.0
 10
12.862985186
 20
4.3816652361
 30
0.0
 10
12.8625777636
 20
4.3694979061
 30
0.0
 10
12.8621383554
 20
4.3553246464
 30
0.0
 10
12.8614731078
 20
4.332516394
 30
0.0
 10
12.8605720682
 20
4.2992803442
 30
0.0
 10
12.8594130063
 20
4.2539553396
 30
0.0
 10
12.8581290366
 20
4.2016948582
 30
0.0
 10
12.856724482
 20
4.1429888665
 30
0.0
 10
12.8552051419
 20
4.0783874299
 30
0.0
 10
12.8541619077
 20
4.0334158455
 30
0.0
 10
12.8536204776
 20
4.0100455816
 30
0.0
  0
SPLINE
  5
4A9
100
AcDbEntity
  8
0
100
AcDbSpline
 62
7
  6
CONTINUOUS
 70
0
 71
3
 72
28
 73
24
 74
0
 42
0.0000001
 43
0.0000001
 44
0.0000000001
 40
0.0
 40
0.0
 40
0.0
 40
0.0
 40
0.061834804
 40
0.1314100348
 40
0.2072428526
 40
0.2876976221
 40
0.3710095811
 40
0.4553468587
 40
0.5388511855
 40
0.6196858994
 40
0.6960807063
 40
0.7663799277
 40
0.8290874085
 40
0.8829235154
 40
0.9061947258
 40
0.9269076386
 40
0.9450041506
 40
0.9604770116
 40
0.9733878626
 40
0.9839247591
 40
0.9925089695
 40
0.9963246601
 40
1.0
 40
1.0
 40
1.0
 40
1.0
 10
10.0361910201
 20
10.1100308868
 30
0.0
 10
10.0369062894
 20
10.1098929429
 30
0.0
 10
10.0384350941
 20
10.1096446931
 30
0.0
 10
10.0408596764
 20
10.1093541346
 30
0.0
 10
10.0435113903
 20
10.1091288087
 30
0.0
 10
10.0463301408
 20
10.1089740984
 30
0.0
 10
10.0492521925
 20
10.1088938037
 30
0.0
 10
10.0522112555
 20
10.1088898282
 30
0.0
 10
10.0551402508
 20
10.1089622782
 30
0.0
 10
10.0579727957
 20
10.1091093895
 30
0.0
 10
10.0606447439
 20
10.109327631
 30
0.0
 10
10.0630958236
 20
10.1096115553
 30
0.0
 10
10.0652707279
 20
10.1099543526
 30
0.0
 10
10.0668834001
 20
10.1102957243
 30
0.0
 10
10.0679950922
 20
10.1106004902
 30
0.0
 10
10.0686907743
 20
10.1108271882
 30
0.0
 10
10.0692861527
 20
10.111061937
 30
0.0
 10
10.0697784984
 20
10.1113032906
 30
0.0
 10
10.0701662165
 20
10.1115507092
 30
0.0
 10
10.0704489033
 20
10.1118038184
 30
0.0
 10
10.0706014201
 20
10.1120331789
 30
0.0
 10
10.0706564467
 20
10.1122156888
 30
0.0
 10
10.0706634908
 20
10.1123044791
 30
0.0
 10
10.0706621552
 20
10.1123477561
 30
0.0
  0
SPLINE
  5
4AA
100
AcDbEntity
  8
0
100
AcDbSpline
 62
7
  6
CONTINUOUS
 70
0
 71
3
 72
17
 73
13
 74
0
 42
0.0000001
 43
0.0000001
 44
0.0000000001
 40
0.0
 40
0.0
 40
0.0
 40
0.0
 40
0.0273256374
 40
0.0563815553
 40
0.0886376494
 40
0.1251497222
 40
0.2134099289
 40
0.3243451641
 40
0.4588505764
 40
0.6168407609
 40
0.7976584356
 40
1.0
 40
1.0
 40
1.0
 40
1.0
 10
10.0311130491
 20
10.1123309708
 30
0.0
 10
10.0311128043
 20
10.1122780763
 30
0.0
 10
10.0311272267
 20
10.1121683951
 30
0.0
 10
10.0311921229
 20
10.1120079829
 30
0.0
 10
10.0312986405
 20
10.1118500927
 30
0.0
 10
10.031508281
 20
10.1116285795
 30
0.0
 10
10.0318833264
 20
10.1113625386
 30
0.0
 10
10.0324602011
 20
10.1110696674
 30
0.0
 10
10.033188978
 20
10.1107862065
 30
0.0
 10
10.0340645115
 20
10.1105145962
 30
0.0
 10
10.0350803339
 20
10.1102573105
 30
0.0
 10
10.0358064289
 20
10.1101050575
 30
0.0
 10
10.0361910201
 20
10.1100308868
 30
0.0
  0
SPLINE
  5
4AB
100
AcDbEntity
  8
0
100
AcDbSpline
 62
7
  6
CONTINUOUS
 70
0
 71
3
 72
32
 73
28
 74
0
 42
0.0000001
 43
0.0000001
 44
0.0000000001
 40
0.0
 40
0.0
 40
0.0
 40
0.0
 40
0.0193447375
 40
0.0417823226
 40
0.0672001398
 40
0.0954606607
 40
0.1598011284
 40
0.2330969877
 40
0.3133013167
 40
0.3981278191
 40
0.4851383435
 40
0.5718228401
 40
0.6556832204
 40
0.7343132005
 40
0.8054821452
 40
0.8376436797
 40
0.8672260921
 40
0.8940431638
 40
0.9179348071
 40
0.938786393
 40
0.9565319354
 40
0.9711915605
 40
0.9829232295
 40
0.9878255981
 40
0.9922014688
 40
0.9961958042
 40
1.0
 40
1.0
 40
1.0
 40
1.0
 10
10.107199639
 20
10.0902979343
 30
0.0
 10
10.107431446
 20
10.0901983049
 30
0.0
 10
10.1079424207
 20
10.0900070211
 30
0.0
 10
10.1087813991
 20
10.0897521382
 30
0.0
 10
10.1097445779
 20
10.0895101815
 30
0.0
 10
10.1112512808
 20
10.0891936473
 30
0.0
 10
10.113389448
 20
10.0888536819
 30
0.0
 10
10.1162137101
 20
10.0885370688
 30
0.0
 10
10.1193143317
 20
10.0883073648
 30
0.0
 10
10.1225993947
 20
10.0881717993
 30
0.0
 10
10.1259715499
 20
10.088134804
 30
0.0
 10
10.129330715
 20
10.0881975504
 30
0.0
 10
10.132577273
 20
10.0883579855
 30
0.0
 10
10.1356149281
 20
10.0886110757
 30
0.0
 10
10.1379713561
 20
10.0889009305
 30
0.0
 10
10.1396826292
 20
10.0891792845
 30
0.0
 10
10.1408169236
 20
10.0893985312
 30
0.0
 10
10.1418377255
 20
10.0896334416
 30
0.0
 10
10.1427376817
 20
10.0898823093
 30
0.0
 10
10.1435104339
 20
10.0901429491
 30
0.0
 10
10.1441512526
 20
10.0904135811
 30
0.0
 10
10.1446563196
 20
10.0906920006
 30
0.0
 10
10.1449816161
 20
10.0909441592
 30
0.0
 10
10.1451608074
 20
10.0911527631
 30
0.0
 10
10.1452507067
 20
10.0913018914
 30
0.0
 10
10.1453034276
 20
10.0914530347
 30
0.0
 10
10.1453129563
 20
10.0915555516
 30
0.0
 10
10.1453112708
 20
10.0916051404
 30
0.0
  0
SPLINE
  5
4AC
100
AcDbEntity
  8
0
100
AcDbSpline
 62
7
  6
CONTINUOUS
 70
0
 71
3
 72
38
 73
34
 74
0
 42
0.0000001
 43
0.0000001
 44
0.0000000001
 40
0.0
 40
0.0
 40
0.0
 40
0.0
 40
0.0042911295
 40
0.009061684
 40
0.0144968256
 40
0.0207182453
 40
0.0357774964
 40
0.054554048
 40
0.0770874685
 40
0.1032887247
 40
0.1329855149
 40
0.1659528207
 40
0.2405578586
 40
0.3245170612
 40
0.4148122261
 40
0.5081579092
 40
0.601141599
 40
0.6903663382
 40
0.7325483481
 40
0.772596383
 40
0.8101513305
 40
0.8448863244
 40
0.8765044233
 40
0.9047512422
 40
0.9294219691
 40
0.9503757066
 40
0.9675701967
 40
0.9747907993
 40
0.9811406759
 40
0.9866907139
 40
0.99155466
 40
0.9959087714
 40
1.0
 40
1.0
 40
1.0
 40
1.0
 10
10.1350595849
 20
10.0675377391
 30
0.0
 10
10.135071156
 20
10.0674801999
 30
0.0
 10
10.1351130578
 20
10.0673618722
 30
0.0
 10
10.1352209426
 20
10.0671940353
 30
0.0
 10
10.1353744009
 20
10.0670286815
 30
0.0
 10
10.1356576151
 20
10.0667964988
 30
0.0
 10
10.1361337145
 20
10.0665196377
 30
0.0
 10
10.1368430919
 20
10.0662154654
 30
0.0
 10
10.1377199967
 20
10.0659234258
 30
0.0
 10
10.1387568452
 20
10.0656465806
 30
0.0
 10
10.1399447507
 20
10.0653876439
 30
0.0
 10
10.1417930928
 20
10.0650563107
 30
0.0
 10
10.1443919601
 20
10.0647160281
 30
0.0
 10
10.1477841693
 20
10.0644262846
 30
0.0
 10
10.1514409347
 20
10.0642531521
 30
0.0
 10
10.1552247995
 20
10.0642035214
 30
0.0
 10
10.1589935553
 20
10.0642796091
 30
0.0
 10
10.1620587817
 20
10.0644479244
 30
0.0
 10
10.1643955207
 20
10.0646468656
 30
0.0
 10
10.1660246894
 20
10.064821342
 30
0.0
 10
10.1675481645
 20
10.065022175
 30
0.0
 10
10.1689516187
 20
10.0652473168
 30
0.0
 10
10.1702219473
 20
10.0654945702
 30
0.0
 10
10.1713473344
 20
10.0657613947
 30
0.0
 10
10.1723177717
 20
10.0660449708
 30
0.0
 10
10.1731245093
 20
10.0663425797
 30
0.0
 10
10.1736850477
 20
10.0666131547
 30
0.0
 10
10.1740397701
 20
10.0668404693
 30
0.0
 10
10.1742452524
 20
10.0670031238
 30
0.0
 10
10.174405801
 20
10.0671679621
 30
0.0
 10
10.1745208224
 20
10.0673355678
 30
0.0
 10
10.1745890339
 20
10.067506238
 30
0.0
 10
10.1746018316
 20
10.0676228364
 30
0.0
 10
10.1745998924
 20
10.0676787599
 30
0.0
  0
SPLINE
  5
4AD
100
AcDbEntity
  8
0
100
AcDbSpline
 62
7
  6
CONTINUOUS
 70
0
 71
3
 72
33
 73
29
 74
0
 42
0.0000001
 43
0.0000001
 44
0.0000000001
 40
0.0
 40
0.0
 40
0.0
 40
0.0
 40
0.00413237
 40
0.0084074728
 40
0.0176210179
 40
0.0280661103
 40
0.0400154091
 40
0.0536405609
 40
0.0690436756
 40
0.0774324123
 40
0.0862841614
 40
0.1053832461
 40
0.1263473657
 40
0.1491636787
 40
0.1738075838
 40
0.2002436771
 40
0.2284285057
 40
0.2583111066
 40
0.2898341069
 40
0.3229346394
 40
0.3935886107
 40
0.4696759135
 40
0.5505338062
 40
0.6354468088
 40
0.7236556205
 40
0.8143671371
 40
0.906760107
 40
1.0
 40
1.0
 40
1.0
 40
1.0
 10
9.5133010225
 20
9.9935286372
 30
0.0
 10
9.5133449123
 20
9.9931943878
 30
0.0
 10
9.5134817509
 20
9.9925197608
 30
0.0
 10
9.5139499826
 20
9.9911570363
 30
0.0
 10
9.5149213707
 20
9.9894434049
 30
0.0
 10
9.5166019731
 20
9.9874734853
 30
0.0
 10
9.5188164237
 20
9.9855299894
 30
0.0
 10
9.5215608471
 20
9.9836123963
 30
0.0
 10
9.5242058224
 20
9.9820825227
 30
0.0
 10
9.5265745413
 20
9.9808648891
 30
0.0
 10
9.5292520504
 20
9.9795911965
 30
0.0
 10
9.5329264981
 20
9.9780300299
 30
0.0
 10
9.5377346544
 20
9.9762385368
 30
0.0
 10
9.5430365141
 20
9.9744885401
 30
0.0
 10
9.5488199961
 20
9.9727843224
 30
0.0
 10
9.5550719512
 20
9.9711298988
 30
0.0
 10
9.5617779749
 20
9.9695292862
 30
0.0
 10
9.5689225509
 20
9.9679863213
 30
0.0
 10
9.5764890896
 20
9.9665046239
 30
0.0
 10
9.5873552112
 20
9.964573421
 30
0.0
 10
9.6018606843
 20
9.9623568623
 30
0.0
 10
9.6202855928
 20
9.9600452162
 30
0.0
 10
9.639916923
 20
9.9580501863
 30
0.0
 10
9.6605714411
 20
9.956390973
 30
0.0
 10
9.6820564769
 20
9.9550836404
 30
0.0
 10
9.7041712904
 20
9.9541407803
 30
0.0
 10
9.7267093127
 20
9.9535714081
 30
0.0
 10
9.7418535507
 20
9.9534446752
 30
0.0
 10
9.7494600593
 20
9.9534446752
 30
0.0
  0
SPLINE
  5
4AE
100
AcDbEntity
  8
0
100
AcDbSpline
 62
7
  6
CONTINUOUS
 70
0
 71
3
 72
12
 73
8
 74
0
 42
0.0000001
 43
0.0000001
 44
0.0000000001
 40
0.0
 40
0.0
 40
0.0
 40
0.0
 40
0.3312100104
 40
0.5993591283
 40
0.814661411
 40
0.9092635636
 40
1.0
 40
1.0
 40
1.0
 40
1.0
 10
10.1540274638
 20
10.0423731053
 30
0.0
 10
10.1541753411
 20
10.042452136
 30
0.0
 10
10.1544364204
 20
10.0426088606
 30
0.0
 10
10.1547535277
 20
10.0428758118
 30
0.0
 10
10.1549260113
 20
10.0431196009
 30
0.0
 10
10.1549881952
 20
10.0433142119
 30
0.0
 10
10.1549960265
 20
10.0434086991
 30
0.0
 10
10.1549944434
 20
10.043454606
 30
0.0
  0
SPLINE
  5
4AF
100
AcDbEntity
  8
0
100
AcDbSpline
 62
9
  6
CONTINUOUS
 70
0
 71
3
 72
31
 73
27
 74
0
 42
0.0000001
 43
0.0000001
 44
0.0000000001
 40
0.0
 40
0.0
 40
0.0
 40
0.0
 40
0.0127155214
 40
0.0256874259
 40
0.0391536
 40
0.0533264555
 40
0.0683875237
 40
0.08448669
 40
0.1017447052
 40
0.1202561485
 40
0.1400951403
 40
0.1613192359
 40
0.183971537
 40
0.2080846692
 40
0.2336826339
 40
0.2607812095
 40
0.289390722
 40
0.3195167152
 40
0.3843125091
 40
0.4551394169
 40
0.5319165092
 40
0.6145268032
 40
0.7028239004
 40
0.7966350219
 40
0.8957651651
 40
1.0
 40
1.0
 40
1.0
 40
1.0
 10
10.2445951375
 20
10.0651994913
 30
0.0
 10
10.2445951375
 20
10.0644773535
 30
0.0
 10
10.2444882866
 20
10.0630163984
 30
0.0
 10
10.2440102607
 20
10.0608377986
 30
0.0
 10
10.2432160792
 20
10.0586655729
 30
0.0
 10
10.2421081517
 20
10.0565023647
 30
0.0
 10
10.2406890748
 20
10.0543488283
 30
0.0
 10
10.23896074
 20
10.052205419
 30
0.0
 10
10.2369246355
 20
10.0500725823
 30
0.0
 10
10.2345822584
 20
10.0479507801
 30
0.0
 10
10.2319349542
 20
10.0458408019
 30
0.0
 10
10.2289841621
 20
10.043743664
 30
0.0
 10
10.2257316295
 20
10.0416603042
 30
0.0
 10
10.222179195
 20
10.0395918832
 30
0.0
 10
10.2183289017
 20
10.0375396558
 30
0.0
 10
10.2141830881
 20
10.0355047686
 30
0.0
 10
10.209744241
 20
10.0334884439
 30
0.0
 10
10.2032802307
 20
10.0307599482
 30
0.0
 10
10.1944745899
 20
10.0274231695
 30
0.0
 10
10.183030192
 20
10.0236031739
 30
0.0
 10
10.1704932137
 20
10.0198858567
 30
0.0
 10
10.1568948092
 20
10.0162807998
 30
0.0
 10
10.1422686199
 20
10.0127974501
 30
0.0
 10
10.1266512017
 20
10.009444797
 30
0.0
 10
10.1100817617
 20
10.0062314977
 30
0.0
 10
10.0987052616
 20
10.0042363238
 30
0.0
 10
10.0928666046
 20
10.0032602139
 30
0.0
  0
SPLINE
  5
4B0
100
AcDbEntity
  8
0
100
AcDbSpline
 62
9
  6
CONTINUOUS
 70
0
 71
3
 72
31
 73
27
 74
0
 42
0.0000001
 43
0.0000001
 44
0.0000000001
 40
0.0
 40
0.0
 40
0.0
 40
0.0
 40
0.1042348358
 40
0.2033649802
 40
0.297176103
 40
0.3854732014
 40
0.4680834968
 40
0.5448605904
 40
0.615687499
 40
0.6804832934
 40
0.7106092868
 40
0.7392187995
 40
0.7663173751
 40
0.7919153399
 40
0.8160284722
 40
0.8386807731
 40
0.8599048685
 40
0.8797438599
 40
0.8982553026
 40
0.9155133171
 40
0.9316124826
 40
0.9466735497
 40
0.9608464039
 40
0.9743125767
 40
0.9872844799
 40
1.0
 40
1.0
 40
1.0
 40
1.0
 10
9.4060535536
 20
10.0032602073
 30
0.0
 10
9.4002148951
 20
10.0042363172
 30
0.0
 10
9.3888383922
 20
10.0062314912
 30
0.0
 10
9.3722689479
 20
10.0094447907
 30
0.0
 10
9.3566515257
 20
10.0127974439
 30
0.0
 10
9.3420253326
 20
10.0162807939
 30
0.0
 10
9.3284269245
 20
10.0198858512
 30
0.0
 10
9.3158899429
 20
10.0236031688
 30
0.0
 10
9.304445542
 20
10.0274231648
 30
0.0
 10
9.2956398989
 20
10.0307599438
 30
0.0
 10
9.2891758868
 20
10.0334884399
 30
0.0
 10
9.2847370385
 20
10.0355047648
 30
0.0
 10
9.2805912239
 20
10.0375396523
 30
0.0
 10
9.2767409295
 20
10.0395918799
 30
0.0
 10
9.273188494
 20
10.0416603011
 30
0.0
 10
9.2699359606
 20
10.0437436612
 30
0.0
 10
9.2669851677
 20
10.0458407994
 30
0.0
 10
9.2643378627
 20
10.0479507778
 30
0.0
 10
9.2619954851
 20
10.0500725803
 30
0.0
 10
9.25995938
 20
10.0522054174
 30
0.0
 10
9.2582310447
 20
10.0543488269
 30
0.0
 10
9.2568119675
 20
10.0565023636
 30
0.0
 10
9.2557040397
 20
10.0586655721
 30
0.0
 10
9.254909858
 20
10.0608377981
 30
0.0
 10
9.2544318319
 20
10.0630163981
 30
0.0
 10
9.2543249811
 20
10.0644773534
 30
0.0
 10
9.2543249811
 20
10.0651994913
 30
0.0
  0
SPLINE
  5
4B1
100
AcDbEntity
  8
0
100
AcDbSpline
 62
9
  6
CONTINUOUS
 70
0
 71
3
 72
73
 73
69
 74
0
 42
0.0000001
 43
0.0000001
 44
0.0000000001
 40
0.0
 40
0.0
 40
0.0
 40
0.0
 40
0.0020535426
 40
0.0041466016
 40
0.0063159289
 40
0.0085944975
 40
0.0110106693
 40
0.0135880245
 40
0.016345719
 40
0.019298878
 40
0.0224594116
 40
0.0258366712
 40
0.0294377396
 40
0.0332679927
 40
0.0373314891
 40
0.0416309916
 40
0.0509437344
 40
0.0612131992
 40
0.072435667
 40
0.0846000655
 40
0.0976897289
 40
0.1116832409
 40
0.1265550701
 40
0.1422763214
 40
0.1588149396
 40
0.1761360141
 40
0.1942022218
 40
0.2129738542
 40
0.2324090579
 40
0.273092891
 40
0.3158841601
 40
0.3603892216
 40
0.4061958579
 40
0.4528779143
 40
0.5000000003
 40
0.5471220864
 40
0.5938041428
 40
0.6396107792
 40
0.6841158408
 40
0.7269071099
 40
0.767590943
 40
0.7870261467
 40
0.8057977791
 40
0.8238639868
 40
0.8411850613
 40
0.8577236794
 40
0.8734449307
 40
0.8883167599
 40
0.9023102718
 40
0.9153999351
 40
0.9275643336
 40
0.9387868014
 40
0.9490562661
 40
0.9583690088
 40
0.9626685113
 40
0.9667320077
 40
0.9705622607
 40
0.9741633291
 40
0.9775405887
 40
0.9807011223
 40
0.9836542812
 40
0.9864119757
 40
0.9889893309
 40
0.9914055027
 40
0.9936840712
 40
0.9958533985
 40
0.9979464574
 40
1.0
 40
1.0
 40
1.0
 40
1.0
 10
9.2543249811
 20
10.0651994913
 30
0.0
 10
9.2543249811
 20
10.0659045082
 30
0.0
 10
9.2544267377
 20
10.0673300841
 30
0.0
 10
9.2548821187
 20
10.0694566064
 30
0.0
 10
9.2556388443
 20
10.0715773469
 30
0.0
 10
9.2566947835
 20
10.0736897967
 30
0.0
 10
9.2580475717
 20
10.0757932563
 30
0.0
 10
9.2596954237
 20
10.0778872606
 30
0.0
 10
9.2616369665
 20
10.0799713557
 30
0.0
 10
9.2638708027
 20
10.0820450937
 30
0.0
 10
9.2663956579
 20
10.0841077772
 30
0.0
 10
9.2692102354
 20
10.0861584466
 30
0.0
 10
9.2723129447
 20
10.0881962214
 30
0.0
 10
9.2757020882
 20
10.0902200574
 30
0.0
 10
9.27937582
 20
10.092228831
 30
0.0
 10
9.2847965755
 20
10.0949587429
 30
0.0
 10
9.2922866613
 20
10.0983051127
 30
0.0
 10
9.3021447243
 20
10.1021435516
 30
0.0
 10
9.3130763618
 20
10.1058953806
 30
0.0
 10
9.3250559608
 20
10.1095515277
 30
0.0
 10
9.3380556713
 20
10.1131028785
 30
0.0
 10
9.352044724
 20
10.1165406339
 30
0.0
 10
9.3669898415
 20
10.1198563538
 30
0.0
 10
9.3828553282
 20
10.1230418152
 30
0.0
 10
9.3996031884
 20
10.1260891814
 30
0.0
 10
9.4171932379
 20
10.1289910246
 30
0.0
 10
9.4355832288
 20
10.1317401766
 30
0.0
 10
9.4547289722
 20
10.134329993
 30
0.0
 10
9.4816145378
 20
10.1376121689
 30
0.0
 10
9.5167614137
 20
10.1412471079
 30
0.0
 10
9.5605563748
 20
10.1448238436
 30
0.0
 10
9.6061687015
 20
10.1476430396
 30
0.0
 10
9.6531595725
 20
10.1496769174
 30
0.0
 10
9.7010770426
 20
10.1509053336
 30
0.0
 10
9.7494600596
 20
10.1513161676
 30
0.0
 10
9.7978430766
 20
10.1509053336
 30
0.0
 10
9.8457605468
 20
10.1496769174
 30
0.0
 10
9.8927514179
 20
10.1476430396
 30
0.0
 10
9.9383637446
 20
10.1448238436
 30
0.0
 10
9.9821587057
 20
10.1412471078
 30
0.0
 10
10.0173055816
 20
10.1376121688
 30
0.0
 10
10.0441911472
 20
10.1343299929
 30
0.0
 10
10.0633368906
 20
10.1317401765
 30
0.0
 10
10.0817268815
 20
10.1289910245
 30
0.0
 10
10.099316931
 20
10.1260891813
 30
0.0
 10
10.1160647912
 20
10.123041815
 30
0.0
 10
10.1319302779
 20
10.1198563536
 30
0.0
 10
10.1468753954
 20
10.1165406337
 30
0.0
 10
10.160864448
 20
10.1131028783
 30
0.0
 10
10.1738641584
 20
10.1095515275
 30
0.0
 10
10.1858437574
 20
10.1058953804
 30
0.0
 10
10.1967753948
 20
10.1021435514
 30
0.0
 10
10.2066334577
 20
10.0983051125
 30
0.0
 10
10.2141235434
 20
10.0949587427
 30
0.0
 10
10.2195442989
 20
10.0922288308
 30
0.0
 10
10.2232180306
 20
10.0902200572
 30
0.0
 10
10.2266071741
 20
10.0881962213
 30
0.0
 10
10.2297098834
 20
10.0861584464
 30
0.0
 10
10.2325244609
 20
10.084107777
 30
0.0
 10
10.2350493161
 20
10.0820450935
 30
0.0
 10
10.2372831522
 20
10.0799713555
 30
0.0
 10
10.239224695
 20
10.0778872605
 30
0.0
 10
10.240872547
 20
10.0757932562
 30
0.0
 10
10.2422253351
 20
10.0736897966
 30
0.0
 10
10.2432812742
 20
10.0715773468
 30
0.0
 10
10.2440379999
 20
10.0694566064
 30
0.0
 10
10.2444933808
 20
10.0673300841
 30
0.0
 10
10.2445951375
 20
10.0659045082
 30
0.0
 10
10.2445951375
 20
10.0651994913
 30
0.0
  0
SPLINE
  5
4B2
100
AcDbEntity
  8
0
100
AcDbSpline
 62
7
  6
CONTINUOUS
 70
0
 71
3
 72
14
 73
10
 74
0
 42
0.0000001
 43
0.0000001
 44
0.0000000001
 40
0.0
 40
0.0
 40
0.0
 40
0.0
 40
0.0822240638
 40
0.1701970456
 40
0.2686477034
 40
0.3809062033
 40
0.5091589869
 40
0.6547171224
 40
1.0
 40
1.0
 40
1.0
 40
1.0
 10
10.1057603599
 20
10.0915847903
 30
0.0
 10
10.1057602776
 20
10.0915293433
 30
0.0
 10
10.1057766223
 20
10.0914140155
 30
0.0
 10
10.1058486402
 20
10.0912459942
 30
0.0
 10
10.1059660963
 20
10.0910809106
 30
0.0
 10
10.1061278464
 20
10.0909183296
 30
0.0
 10
10.1063335092
 20
10.0907578452
 30
0.0
 10
10.1066863333
 20
10.0905338289
 30
0.0
 10
10.1069857213
 20
10.0903898748
 30
0.0
 10
10.107199639
 20
10.0902979343
 30
0.0
  0
SPLINE
  5
4B3
100
AcDbEntity
  8
0
100
AcDbSpline
 62
9
  6
CONTINUOUS
 70
0
 71
3
 72
11
 73
7
 74
0
 42
0.0000001
 43
0.0000001
 44
0.0000000001
 40
0.0
 40
0.0
 40
0.0
 40
0.0
 40
0.2301533965
 40
0.4687550573
 40
0.7233129255
 40
1.0
 40
1.0
 40
1.0
 40
1.0
 10
10.264279907
 20
10.0844839664
 30
0.0
 10
10.264279907
 20
10.0855077756
 30
0.0
 10
10.2640701293
 20
10.0875983383
 30
0.0
 10
10.2631376943
 20
10.090695775
 30
0.0
 10
10.261596744
 20
10.0937701447
 30
0.0
 10
10.2602345728
 20
10.0957112462
 30
0.0
 10
10.2594699519
 20
10.096675738
 30
0.0
  0
SPLINE
  5
4B4
100
AcDbEntity
  8
0
100
AcDbSpline
 62
9
  6
CONTINUOUS
 70
0
 71
3
 72
11
 73
7
 74
0
 42
0.0000001
 43
0.0000001
 44
0.0000000001
 40
0.0
 40
0.0
 40
0.0
 40
0.0
 40
0.2766870752
 40
0.5312449435
 40
0.769846604
 40
1.0
 40
1.0
 40
1.0
 40
1.0
 10
9.2394501668
 20
10.0966757382
 30
0.0
 10
9.2386855458
 20
10.0957112464
 30
0.0
 10
9.2373233746
 20
10.0937701449
 30
0.0
 10
9.2357824243
 20
10.0906957751
 30
0.0
 10
9.2348499893
 20
10.0875983384
 30
0.0
 10
9.2346402116
 20
10.0855077756
 30
0.0
 10
9.2346402116
 20
10.0844839664
 30
0.0
  0
ENDSEC
  0
SECTION
  2
OBJECTS
  0
DICTIONARY
  5
C
100
AcDbDictionary
280
0
281
1
  3
ACAD_GROUP
350
D
  3
ACAD_MLINESTYLE
350
17
  3
ACAD_LAYOUT
350
1A
  3
ACAD_PLOTSETTINGS
350
19
  3
ACAD_PLOTSTYLENAME
350
E
  0
DICTIONARY
  5
D
102
{ACAD_REACTORS
330
C
102
}
100
AcDbDictionary
280
0
281
1
  0
ACDBDICTIONARYWDFLT
  5
E
102
{ACAD_REACTORS
330
C
102
}
100
AcDbDictionary
281
1
  3
Normal
350
F
100
AcDbDictionaryWithDefault
340
F
  0
DICTIONARY
  5
17
102
{ACAD_REACTORS
330
C
102
}
100
AcDbDictionary
280
0
281
1
  3
Standard
350
18
  0
DICTIONARY
  5
19
102
{ACAD_REACTORS
330
C
102
}
100
AcDbDictionary
281
1
  0
DICTIONARY
  5
1A
102
{ACAD_REACTORS
330
C
102
}
100
AcDbDictionary
281
1
  3
Model
350
4B5
  3
Layout1
350
4B6
  0
ACDBPLACEHOLDER
  5
F
102
{ACAD_REACTORS
330
E
102
}
  0
MLINESTYLE
  5
18
102
{ACAD_REACTORS
330
17
102
}
100
AcDbMlineStyle
  2
STANDARD
 70
0
  3

 62
256
 51
90.0
 52
90.0
 71
2
 49
0.5
 62
256
  6
BYLAYER
 49
-0.5
 62
256
  6
BYLAYER
  0
LAYOUT
  5
4B5
102
{ACAD_REACTORS
330
1A
102
}
100
AcDbPlotSettings
  1

  2
none_device
  4
ANSI_C_(22.00_x_17.00_Inches)
  6

 40
0.0
 41
0.0
 42
0.0
 43
0.0
 44
558.8
 45
431.8
 46
0.0
 47
0.0
 48
0.0
 49
0.0
140
0.0
141
0.0
142
1.0
143
1.0
 70
1024
 72
0
 73
0
 74
0
  7

 75
0
147
1.0
148
0.0
149
0.0
100
AcDbLayout
  1
Model
 70
0
 71
0
 10
0.0
 20
0.0
 11
22.0
 21
17.0
 12
0.0
 22
0.0
 32
0.0
 14
0.0
 24
0.0
 34
0.0
 15
0.0
 25
0.0
 35
0.0
146
0.0
 13
0.0
 23
0.0
 33
0.0
 16
1.0
 26
0.0
 36
0.0
 17
0.0
 27
1.0
 37
0.0
 76
0
330
205
345
0
346
0
  0
LAYOUT
  5
4B6
102
{ACAD_REACTORS
330
1A
102
}
100
AcDbPlotSettings
  1

  2
none_device
  4
ANSI_C_(22.00_x_17.00_Inches)
  6

 40
0.0
 41
0.0
 42
0.0
 43
0.0
 44
558.8
 45
431.8
 46
0.0
 47
0.0
 48
0.0
 49
0.0
140
0.0
141
0.0
142
1.0
143
1.0
 70
0
 72
0
 73
0
 74
0
  7

 75
0
147
1.0
148
0.0
149
0.0
100
AcDbLayout
  1
Layout1
 70
0
 71
1
 10
0.0
 20
0.0
 11
22.0
 21
17.0
 12
0.0
 22
0.0
 32
0.0
 14
0.0
 24
0.0
 34
0.0
 15
0.0
 25
0.0
 35
0.0
146
0.0
 13
0.0
 23
0.0
 33
0.0
 16
1.0
 26
0.0
 36
0.0
 17
0.0
 27
1.0
 37
0.0
 76
0
330
206
345
0
346
0
  0
ENDSEC
  0
EOF
