999
DXF file: E:\BT Custom\CADOUTPUT\_RIGHT.dxf
999
Pro/ENGINEER 2018400 by Parametric Technology Corporation
  0
SECTION
  2
HEADER
  9
$ACADVER
  1
AC1018
  9
$DWGCODEPAGE
  3
ANSI_1252
  9
$EXTMAX
 10
22.0
 20
17.0
 30
0.0
  9
$EXTMIN
 10
0.0
 20
0.0
 30
0.0
  9
$LIMMIN
 10
0.0
 20
0.0
  9
$LIMMAX
 10
22.0
 20
17.0
  9
$VIEWCTR
 10
11.0
 20
8.5
  9
$VIEWSIZE
 40
17.0
  9
$CLAYER
  8
0
  9
$LTSCALE
 40
1.21
  9
$CELTYPE
  6
BYLAYER
  9
$DIMSCALE
 40
1.0
  9
$DIMASZ
 40
0.1
  9
$DIMEXO
 40
0.0625
  9
$DIMDLI
 40
0.836
  9
$DIMEXE
 40
0.125
  9
$DIMCEN
 40
0.198
  9
$DIMLFAC
 40
1.0
  9
$DIMBLK
  1
_FILLED
  9
$DIMALT
 70
1
  9
$DIMALTD
 70
2
  9
$DIMALTTD
 70
2
  9
$DIMALTF
 40
25.4
  9
$DIMTXT
 40
0.08
  9
$DIMTOL
 70
1
  9
$DIMLIM
 70
0
  9
$DIMTFAC
 40
1.0
  9
$DIMTP
 40
0.001
  9
$DIMTM
 40
0.001
  9
$DIMGAP
 40
0.09
  9
$DIMDSEP
 70
46
  9
$AUNITS
 70
0
  9
$PDMODE
 70
3
  9
$PDSIZE
 40
0.06
  9
$HANDSEED
  5
2D6
  9
$TILEMODE
 70
1
  9
$MEASUREMENT
 70
0
  9
$INSUNITS
 70
1
  0
ENDSEC
  0
SECTION
  2
CLASSES
  0
CLASS
  1
ACDBDICTIONARYWDFLT
  2
AcDbDictionaryWithDefault
  3
AutoCAD 2000
 90
0
 91
1
280
0
281
0
  0
CLASS
  1
ACDBPLACEHOLDER
  2
AcDbPlaceHolder
  3
AutoCAD 2000
 90
0
 91
1
280
0
281
0
  0
CLASS
  1
LAYOUT
  2
AcDbLayout
  3
AutoCAD 2000
 90
0
 91
0
280
0
281
0
  0
ENDSEC
  0
SECTION
  2
TABLES
  0
TABLE
  2
VPORT
  5
8
100
AcDbSymbolTable
 70
2
  0
VPORT
  5
1F4
100
AcDbSymbolTableRecord
100
AcDbViewportTableRecord
  2
*ACTIVE
 70
0
 10
0.0
 20
0.0
 11
1.0
 21
1.0
 12
11.0
 22
8.5
 13
0.0
 23
0.0
 14
1.0
 24
1.0
 15
0.0
 25
0.0
 16
0.0
 26
0.0
 36
1.0
 17
0.0
 27
0.0
 37
0.0
 40
17.0
 41
1.2941176471
 42
50.0
 43
0.0
 44
0.0
 50
0.0
 51
0.0
 71
0
 72
100
 73
1
 74
1
 75
0
 76
0
 77
0
 78
0
  0
ENDTAB
  0
TABLE
  2
LTYPE
  5
5
100
AcDbSymbolTable
 70
6
  0
LTYPE
  5
14
100
AcDbSymbolTableRecord
100
AcDbLinetypeTableRecord
  2
BYBLOCK
 70
0
  3

 72
65
 73
0
 40
0.0
  0
LTYPE
  5
15
100
AcDbSymbolTableRecord
100
AcDbLinetypeTableRecord
  2
BYLAYER
 70
0
  3

 72
65
 73
0
 40
0.0
  0
LTYPE
  5
16
100
AcDbSymbolTableRecord
100
AcDbLinetypeTableRecord
  2
CONTINUOUS
 70
64
  3
Solid line
 72
65
 73
0
 40
0.0
  0
LTYPE
  5
1F5
100
AcDbSymbolTableRecord
100
AcDbLinetypeTableRecord
  2
CENTER
 70
64
  3
____ _ ____ _ ____ _ ____ _ ____ _ ____ _ ____
 72
65
 73
4
 40
0.6
 49
0.375
 74
0
 49
-0.075
 74
0
 49
0.075
 74
0
 49
-0.075
 74
0
  0
LTYPE
  5
1F6
100
AcDbSymbolTableRecord
100
AcDbLinetypeTableRecord
  2
HIDDEN
 70
64
  3
- - - - - - - - - - - - - - - - - - - -
 72
65
 73
2
 40
0.2
 49
0.1
 74
0
 49
-0.1
 74
0
  0
LTYPE
  5
1F7
100
AcDbSymbolTableRecord
100
AcDbLinetypeTableRecord
  2
PHANTOM
 70
64
  3
_____ _ _ _____ _ _ _____ _ _ _____
 72
65
 73
6
 40
0.8
 49
0.45
 74
0
 49
-0.05
 74
0
 49
0.1
 74
0
 49
-0.05
 74
0
 49
0.1
 74
0
 49
-0.05
 74
0
  0
LTYPE
  5
1F8
100
AcDbSymbolTableRecord
100
AcDbLinetypeTableRecord
  2
DOT
 70
64
  3
. . . . . . . . . . . . . . . . . . . .
 72
65
 73
2
 40
0.2
 49
0.1
 74
0
 49
-0.1
 74
0
  0
LTYPE
  5
1F9
100
AcDbSymbolTableRecord
100
AcDbLinetypeTableRecord
  2
DASHED
 70
64
  3
- - - - - - - - - - - - - - - - - - - -
 72
65
 73
2
 40
0.2
 49
0.1
 74
0
 49
-0.1
 74
0
  0
ENDTAB
  0
TABLE
  2
LAYER
  5
2
100
AcDbSymbolTable
 70
36
  0
LAYER
  5
10
100
AcDbSymbolTableRecord
100
AcDbLayerTableRecord
  2
0
 70
0
 62
7
  6
CONTINUOUS
370
-3
390
F
  0
LAYER
  5
1FA
100
AcDbSymbolTableRecord
100
AcDbLayerTableRecord
  2
DEFAULT_1
 70
0
 62
7
  6
CENTER
370
-3
390
F
  0
LAYER
  5
1FB
100
AcDbSymbolTableRecord
100
AcDbLayerTableRecord
  2
DEFAULT_2
 70
0
 62
8
  6
HIDDEN
370
-3
390
F
  0
LAYER
  5
1FC
100
AcDbSymbolTableRecord
100
AcDbLayerTableRecord
  2
DEFAULT_3
 70
0
 62
7
  6
PHANTOM
370
-3
390
F
  0
LAYER
  5
1FD
100
AcDbSymbolTableRecord
100
AcDbLayerTableRecord
  2
ALL_FEATURES
 70
0
 62
7
  6
CONTINUOUS
370
-3
390
F
  0
LAYER
  5
1FE
100
AcDbSymbolTableRecord
100
AcDbLayerTableRecord
  2
AXES_FEATURES
 70
0
 62
7
  6
CONTINUOUS
370
-3
390
F
  0
LAYER
  5
1FF
100
AcDbSymbolTableRecord
100
AcDbLayerTableRecord
  2
DEFAULT_COORDINATE_SYSTEM
 70
0
 62
7
  6
CONTINUOUS
370
-3
390
F
  0
LAYER
  5
200
100
AcDbSymbolTableRecord
100
AcDbLayerTableRecord
  2
DEFAULT_DATUM_AXES
 70
0
 62
7
  6
CONTINUOUS
370
-3
390
F
  0
LAYER
  5
201
100
AcDbSymbolTableRecord
100
AcDbLayerTableRecord
  2
DEFAULT_DATUM_PLANES
 70
0
 62
7
  6
CONTINUOUS
370
-3
390
F
  0
LAYER
  5
202
100
AcDbSymbolTableRecord
100
AcDbLayerTableRecord
  2
DIMENSIONS
 70
0
 62
7
  6
CONTINUOUS
370
-3
390
F
  0
ENDTAB
  0
TABLE
  2
STYLE
  5
3
100
AcDbSymbolTable
 70
1
  0
STYLE
  5
11
100
AcDbSymbolTableRecord
100
AcDbTextStyleTableRecord
  2
STANDARD
 70
0
 40
0.0
 41
0.8
 50
0.0
 71
0
 42
0.2
  3
txt
  4

  0
STYLE
  5
203
100
AcDbSymbolTableRecord
100
AcDbTextStyleTableRecord
  2
TEXTSTYLE_1
 70
0
 40
0.0
 41
0.8
 50
0.0
 71
0
 42
0.2
  3
gdt
  4

  0
ENDTAB
  0
TABLE
  2
VIEW
  5
6
100
AcDbSymbolTable
 70
0
  0
ENDTAB
  0
TABLE
  2
UCS
  5
7
100
AcDbSymbolTable
 70
0
  0
ENDTAB
  0
TABLE
  2
APPID
  5
9
100
AcDbSymbolTable
 70
1
  0
APPID
  5
204
100
AcDbSymbolTableRecord
100
AcDbRegAppTableRecord
  2
ACAD
 70
0
  0
ENDTAB
  0
TABLE
  2
BLOCK_RECORD
  5
1
100
AcDbSymbolTable
 70
0
  0
BLOCK_RECORD
  5
205
100
AcDbSymbolTableRecord
100
AcDbBlockTableRecord
  2
*Model_Space
  0
BLOCK_RECORD
  5
206
100
AcDbSymbolTableRecord
100
AcDbBlockTableRecord
  2
*Paper_Space
  0
BLOCK_RECORD
  5
207
100
AcDbSymbolTableRecord
100
AcDbBlockTableRecord
  2
_FILLED
  0
ENDTAB
  0
TABLE
  2
DIMSTYLE
  5
A
100
AcDbSymbolTable
 70
1
100
AcDbDimStyleTable
 71
0
  0
DIMSTYLE
105
208
100
AcDbSymbolTableRecord
100
AcDbDimStyleTableRecord
  2
STANDARD
 70
0
  3

  4

 40
1.0
 41
0.1
 42
0.0625
 43
0.38
 44
0.125
 45
0.0
 46
0.0
 47
0.001
 48
0.001
140
0.08
141
0.09
142
0.0
143
25.4
144
1.0
145
0.0
146
1.0
147
0.09
 71
1.0
 72
0.0
 73
1
 74
1
 75
0
 76
0
 77
0
 78
4
 79
1
170
1
171
2
172
0
173
0
174
0
175
0
176
0
177
0
178
0
270
2
179
3
271
3
272
3
273
2
274
2
275
0
280
0
281
0
282
0
283
1
284
4
285
0
286
0
287
3
288
0
340
11
278
46
341
207
342
207
343
207
344
207
  0
ENDTAB
  0
ENDSEC
  0
SECTION
  2
BLOCKS
  0
BLOCK
  5
20
100
AcDbEntity
  8
0
100
AcDbBlockBegin
  2
*Model_Space
 70
0
 10
0.0
 20
0.0
 30
0.0
  3
*Model_Space
  1

  0
ENDBLK
  5
21
100
AcDbEntity
  8
0
100
AcDbBlockEnd
  0
BLOCK
  5
1C
100
AcDbEntity
  8
0
100
AcDbBlockBegin
  2
*Paper_Space
 70
0
 10
0.0
 20
0.0
 30
0.0
  3
*Paper_Space
  1

  0
ENDBLK
  5
1D
100
AcDbEntity
  8
0
100
AcDbBlockEnd
  0
BLOCK
  5
209
100
AcDbEntity
  8
0
100
AcDbBlockBegin
  2
_FILLED
 70
64
 10
0.0
 20
0.0
  3
_FILLED
  1

  0
SOLID
  5
20A
100
AcDbEntity
  8
0
  6
BYBLOCK
 62
0
100
AcDbTrace
 10
0.0
 20
0.0
 11
-1.0
 21
0.2
 12
-1.0
 22
-0.2
 13
-1.0
 23
-0.2
  0
ENDBLK
  5
20B
100
AcDbEntity
  8
0
  6
BYBLOCK
 62
0
100
AcDbBlockEnd
  0
ENDSEC
  0
SECTION
  2
ENTITIES
  0
LINE
  5
20C
100
AcDbEntity
  8
0
100
AcDbLine
 62
7
  6
CONTINUOUS
 10
13.7028547262
 20
0.6963748704
 11
15.7500988207
 21
0.6963748704
  0
LINE
  5
20D
100
AcDbEntity
  8
0
100
AcDbLine
 62
9
  6
CONTINUOUS
 10
13.7028547262
 20
0.9719654216
 11
15.7500988207
 21
0.9719654216
  0
LINE
  5
20E
100
AcDbEntity
  8
0
100
AcDbLine
 62
7
  6
CONTINUOUS
 10
13.7422248053
 20
1.0113355003
 11
15.7107287416
 21
1.0113355003
  0
LINE
  5
20F
100
AcDbEntity
  8
0
100
AcDbLine
 62
9
  6
CONTINUOUS
 10
13.8308074821
 20
1.0900756578
 11
15.6221460648
 21
1.0900756578
  0
LINE
  5
210
100
AcDbEntity
  8
0
100
AcDbLine
 62
9
  6
CONTINUOUS
 10
15.6181369042
 20
3.2554299884
 11
15.5692173073
 21
3.2554299885
  0
LINE
  5
211
100
AcDbEntity
  8
0
100
AcDbLine
 62
9
  6
CONTINUOUS
 10
13.8837362397
 20
3.2554299886
 11
13.8348166476
 21
3.2554299885
  0
LINE
  5
212
100
AcDbEntity
  8
0
100
AcDbLine
 62
7
  6
CONTINUOUS
 10
6.203415811
 20
12.6757232663
 11
5.6702294744
 21
9.931341181
  0
LWPOLYLINE
  5
213
100
AcDbEntity
  8
0
100
AcDbPolyline
 62
7
  6
CONTINUOUS
 90
13
 70
0
 10
14.5381507888
 20
4.1346977306
 10
14.4882769052
 20
4.122498817
 10
14.4367243736
 20
4.1066286068
 10
14.3862078956
 20
4.0877028264
 10
14.3369067634
 20
4.0657978221
 10
14.288998698
 20
4.0409890125
 10
14.2426641338
 20
4.013352942
 10
14.1980837052
 20
3.9829683965
 10
14.1554211141
 20
3.9499469887
 10
14.1148149991
 20
3.9144276886
 10
14.0764021175
 20
3.8765501269
 10
14.0403173566
 20
3.8364517584
 10
14.0066971364
 20
3.7942710219
  0
LINE
  5
214
100
AcDbEntity
  8
0
100
AcDbLine
 62
7
  6
CONTINUOUS
 10
6.3694655985
 20
13.6155044867
 11
6.2071054661
 21
12.6947144194
  0
LINE
  5
215
100
AcDbEntity
  8
0
100
AcDbLine
 62
7
  6
CONTINUOUS
 10
5.9163762322
 20
9.8556099518
 11
5.9115906525
 21
9.8284695807
  0
LINE
  5
216
100
AcDbEntity
  8
0
100
AcDbLine
 62
7
  6
CONTINUOUS
 10
5.9060025004
 20
9.7894775547
 11
5.9094207617
 21
9.8088634782
  0
LINE
  5
217
100
AcDbEntity
  8
0
100
AcDbLine
 62
7
  6
CONTINUOUS
 10
6.2183480515
 20
9.7543912619
 11
6.2135624718
 21
9.7272508907
  0
LINE
  5
218
100
AcDbEntity
  8
0
100
AcDbLine
 62
7
  6
CONTINUOUS
 10
6.27172041
 20
9.7169960771
 11
6.2765059897
 21
9.7441364482
  0
LINE
  5
219
100
AcDbEntity
  8
0
100
AcDbLine
 62
7
  6
CONTINUOUS
 10
7.2896920967
 20
12.4841834486
 11
7.1941056217
 21
11.8810408514
  0
LINE
  5
21A
100
AcDbEntity
  8
0
100
AcDbLine
 62
7
  6
CONTINUOUS
 10
7.1078177677
 20
11.3365717688
 11
7.0523470044
 21
10.98655593
  0
LINE
  5
21B
100
AcDbEntity
  8
0
100
AcDbLine
 62
7
  6
CONTINUOUS
 10
6.9660591504
 20
10.4420868475
 11
6.8520894085
 21
9.7229473872
  0
LINE
  5
21C
100
AcDbEntity
  8
0
100
AcDbLine
 62
7
  6
CONTINUOUS
 10
6.5854325006
 20
9.6896643693
 11
6.5820139367
 21
9.6702767301
  0
LINE
  5
21D
100
AcDbEntity
  8
0
100
AcDbLine
 62
7
  6
CONTINUOUS
 10
6.5948855108
 20
9.7359704594
 11
6.5900999311
 21
9.7088300882
  0
LINE
  5
21E
100
AcDbEntity
  8
0
100
AcDbLine
 62
7
  6
CONTINUOUS
 10
7.292720312
 20
12.5032912314
 11
7.4550804444
 21
13.4240812987
  0
LINE
  5
21F
100
AcDbEntity
  8
0
100
AcDbLine
 62
9
  6
CONTINUOUS
 10
7.1620662
 20
11.3270063065
 11
7.257777794
 21
11.8698137295
  0
LINE
  5
220
100
AcDbEntity
  8
0
100
AcDbLine
 62
7
  6
CONTINUOUS
 10
7.2737455019
 20
11.8470094775
 11
7.1848704508
 21
11.3429740161
  0
LINE
  5
221
100
AcDbEntity
  8
0
100
AcDbLine
 62
9
  6
CONTINUOUS
 10
7.277192034
 20
11.8257455475
 11
7.1953818239
 21
11.3617767908
  0
LINE
  5
222
100
AcDbEntity
  8
0
100
AcDbLine
 62
7
  6
CONTINUOUS
 10
7.2805913826
 20
11.8178174222
 11
7.2012877454
 21
11.3680641459
  0
LINE
  5
223
100
AcDbEntity
  8
0
100
AcDbLine
 62
7
  6
CONTINUOUS
 10
7.2791165058
 20
11.7641083305
 11
7.2729637451
 21
11.7292142908
  0
LINE
  5
224
100
AcDbEntity
  8
0
100
AcDbLine
 62
7
  6
CONTINUOUS
 10
7.26544341
 20
11.686564351
 11
7.2592906712
 21
11.6516704353
  0
LINE
  5
225
100
AcDbEntity
  8
0
100
AcDbLine
 62
7
  6
CONTINUOUS
 10
7.2380972393
 20
11.5314765104
 11
7.2319445025
 21
11.4965826056
  0
LINE
  5
226
100
AcDbEntity
  8
0
100
AcDbLine
 62
7
  6
CONTINUOUS
 10
7.2244241664
 20
11.4539326603
 11
7.2182714057
 21
11.4190386206
  0
LINE
  5
227
100
AcDbEntity
  8
0
100
AcDbLine
 62
9
  6
CONTINUOUS
 10
15.6221460648
 20
5.0073984924
 11
14.8997051199
 21
5.0073984924
  0
LINE
  5
228
100
AcDbEntity
  8
0
100
AcDbLine
 62
9
  6
CONTINUOUS
 10
14.553248427
 20
5.0073984924
 11
13.8308074821
 21
5.0073984924
  0
LINE
  5
229
100
AcDbEntity
  8
0
100
AcDbLine
 62
7
  6
CONTINUOUS
 10
15.6024610255
 20
5.0270835318
 11
14.8997051199
 21
5.0270835318
  0
LINE
  5
22A
100
AcDbEntity
  8
0
100
AcDbLine
 62
7
  6
CONTINUOUS
 10
14.553248427
 20
5.0270835318
 11
13.8504925215
 21
5.0270835318
  0
LINE
  5
22B
100
AcDbEntity
  8
0
100
AcDbLine
 62
7
  6
CONTINUOUS
 10
14.1752956711
 20
5.0408630594
 11
14.553248427
 21
5.0408630594
  0
LINE
  5
22C
100
AcDbEntity
  8
0
100
AcDbLine
 62
7
  6
CONTINUOUS
 10
14.8997051199
 20
5.0408630594
 11
15.2776578758
 21
5.0408630594
  0
LINE
  5
22D
100
AcDbEntity
  8
0
100
AcDbLine
 62
7
  6
CONTINUOUS
 10
14.9148025076
 20
4.1346977949
 11
14.9148002547
 21
4.1346982699
  0
LINE
  5
22E
100
AcDbEntity
  8
0
100
AcDbLine
 62
9
  6
CONTINUOUS
 10
7.2025075697
 20
10.9600785709
 11
7.1067959757
 21
10.417271148
  0
LINE
  5
22F
100
AcDbEntity
  8
0
100
AcDbLine
 62
7
  6
CONTINUOUS
 10
7.2184752777
 20
10.937274319
 11
7.1296002263
 21
10.4332388562
  0
LINE
  5
230
100
AcDbEntity
  8
0
100
AcDbLine
 62
9
  6
CONTINUOUS
 10
7.2219218097
 20
10.916010389
 11
7.1401115997
 21
10.4520416323
  0
LINE
  5
231
100
AcDbEntity
  8
0
100
AcDbLine
 62
7
  6
CONTINUOUS
 10
7.2253212256
 20
10.9080826451
 11
7.1460174539
 21
10.458328606
  0
LINE
  5
232
100
AcDbEntity
  8
0
100
AcDbLine
 62
7
  6
CONTINUOUS
 10
7.2002602183
 20
10.7206099603
 11
7.1865872447
 21
10.6430666738
  0
LINE
  5
233
100
AcDbEntity
  8
0
100
AcDbLine
 62
7
  6
CONTINUOUS
 10
14.9148002497
 20
4.1346982035
 11
14.9141379606
 21
4.134857028
  0
LWPOLYLINE
  5
234
100
AcDbEntity
  8
0
100
AcDbPolyline
 62
7
  6
CONTINUOUS
 90
17
 70
0
 10
14.9141379606
 20
4.134857028
 10
14.912426958
 20
4.1354047362
 10
14.9108781075
 20
4.1360534046
 10
14.9093853711
 20
4.136818286
 10
14.9079327267
 20
4.1377223467
 10
14.9065910686
 20
4.1387476135
 10
14.9053783001
 20
4.1398793959
 10
14.9042907979
 20
4.1411029597
 10
14.903320656
 20
4.1423939161
 10
14.9024876925
 20
4.143690094
 10
14.9018010891
 20
4.144947751
 10
14.9012441141
 20
4.1461583095
 10
14.9007965087
 20
4.1473255313
 10
14.9004414551
 20
4.1484548454
 10
14.9001694191
 20
4.149535604
 10
14.8999671162
 20
4.150575659
 10
14.899902365
 20
4.1509887685
  0
LINE
  5
235
100
AcDbEntity
  8
0
100
AcDbLine
 62
7
  6
CONTINUOUS
 10
14.8682040425
 20
6.7987370751
 11
14.5847518565
 21
6.7987370751
  0
LINE
  5
236
100
AcDbEntity
  8
0
100
AcDbLine
 62
9
  6
CONTINUOUS
 10
14.0080444394
 20
3.7707072083
 11
14.0399722743
 21
3.7478077852
  0
LINE
  5
237
100
AcDbEntity
  8
0
100
AcDbLine
 62
7
  6
CONTINUOUS
 10
5.9233226022
 20
9.7664347829
 11
6.1998799214
 21
9.7176702658
  0
LINE
  5
238
100
AcDbEntity
  8
0
100
AcDbLine
 62
7
  6
CONTINUOUS
 10
6.2813010349
 20
9.7033135267
 11
6.5578568628
 21
9.6545492726
  0
LINE
  5
239
100
AcDbEntity
  8
0
100
AcDbLine
 62
7
  6
CONTINUOUS
 10
6.273087788
 20
9.7247508678
 11
6.5820149138
 21
9.6702786805
  0
LINE
  5
23A
100
AcDbEntity
  8
0
100
AcDbLine
 62
7
  6
CONTINUOUS
 10
5.9060029545
 20
9.7894792042
 11
6.2149298378
 21
9.7350070596
  0
LINE
  5
23B
100
AcDbEntity
  8
0
100
AcDbLine
 62
7
  6
CONTINUOUS
 10
6.2742882153
 20
9.7315588248
 11
6.2161302771
 21
9.7418136385
  0
LINE
  5
23C
100
AcDbEntity
  8
0
100
AcDbLine
 62
7
  6
CONTINUOUS
 10
6.2764186601
 20
9.7511718827
 11
6.2208363755
 21
9.7609725392
  0
LINE
  5
23D
100
AcDbEntity
  8
0
100
AcDbLine
 62
7
  6
CONTINUOUS
 10
6.2411523021
 20
9.7703589701
 11
6.2605382815
 21
9.7669406988
  0
LINE
  5
23E
100
AcDbEntity
  8
0
100
AcDbLine
 62
9
  6
CONTINUOUS
 10
6.5948855108
 20
9.7359704594
 11
5.9163762322
 21
9.8556099518
  0
LINE
  5
23F
100
AcDbEntity
  8
0
100
AcDbLine
 62
7
  6
CONTINUOUS
 10
5.6861349257
 20
9.9082009339
 11
6.8292287428
 21
9.7066426525
  0
LINE
  5
240
100
AcDbEntity
  8
0
100
AcDbLine
 62
9
  6
CONTINUOUS
 10
5.6702294744
 20
9.931341181
 11
6.8520894085
 21
9.7229473872
  0
LINE
  5
241
100
AcDbEntity
  8
0
100
AcDbLine
 62
7
  6
CONTINUOUS
 10
6.9660591504
 20
10.4420868475
 11
7.1067959757
 21
10.417271148
  0
LINE
  5
242
100
AcDbEntity
  8
0
100
AcDbLine
 62
7
  6
CONTINUOUS
 10
7.0523470044
 20
10.98655593
 11
7.2025075697
 21
10.9600785709
  0
LWPOLYLINE
  5
243
100
AcDbEntity
  8
0
100
AcDbPolyline
 62
7
  6
CONTINUOUS
 90
14
 70
0
 10
15.4759970588
 20
3.7520817125
 10
15.4463826408
 20
3.7941024788
 10
15.412772897
 20
3.8362903863
 10
15.3766978495
 20
3.8763968604
 10
15.3382939581
 20
3.9142833166
 10
15.2976961671
 20
3.9498121845
 10
15.2550413065
 20
3.9828437418
 10
15.2104680804
 20
4.0132389209
 10
15.164140072
 20
4.0408859326
 10
15.1162378043
 20
4.0657060131
 10
15.0669416041
 20
4.0876226498
 10
15.0164290692
 20
4.1065604339
 10
14.9648793482
 20
4.1224430029
 10
14.9148025076
 20
4.1346977949
  0
LWPOLYLINE
  5
244
100
AcDbEntity
  8
0
100
AcDbPolyline
 62
7
  6
CONTINUOUS
 90
3
 70
0
 10
15.4813447678
 20
3.7439060446
 10
15.4796805534
 20
3.746472587
 10
15.4759971381
 20
3.7520816346
  0
LINE
  5
245
100
AcDbEntity
  8
0
100
AcDbLine
 62
7
  6
CONTINUOUS
 10
15.4960035308
 20
3.7201112289
 11
15.4813370675
 21
3.7439179491
  0
LINE
  5
246
100
AcDbEntity
  8
0
100
AcDbLine
 62
7
  6
CONTINUOUS
 10
7.1078177677
 20
11.3365717688
 11
7.1620662
 21
11.3270063065
  0
LWPOLYLINE
  5
247
100
AcDbEntity
  8
0
100
AcDbPolyline
 62
7
  6
CONTINUOUS
 90
3
 70
0
 10
15.5222450538
 20
3.6711185836
 10
15.5130902567
 20
3.6892825301
 10
15.4960035308
 20
3.7201112289
  0
LINE
  5
248
100
AcDbEntity
  8
0
100
AcDbLine
 62
7
  6
CONTINUOUS
 10
15.5222450538
 20
3.6711185836
 11
15.5223603968
 21
3.6708813574
  0
LINE
  5
249
100
AcDbEntity
  8
0
100
AcDbLine
 62
7
  6
CONTINUOUS
 10
7.1941056217
 20
11.8810408514
 11
7.257777794
 21
11.8698137295
  0
LINE
  5
24A
100
AcDbEntity
  8
0
100
AcDbLine
 62
7
  6
CONTINUOUS
 10
13.7028547262
 20
0.9719654216
 11
13.7028547262
 21
0.6963748704
  0
LINE
  5
24B
100
AcDbEntity
  8
0
100
AcDbLine
 62
7
  6
CONTINUOUS
 10
13.8308074821
 20
5.0073984924
 11
13.8308074821
 21
1.0900756578
  0
LINE
  5
24C
100
AcDbEntity
  8
0
100
AcDbLine
 62
9
  6
CONTINUOUS
 10
6.203415811
 20
12.6757232663
 11
7.2896920967
 21
12.4841834486
  0
LINE
  5
24D
100
AcDbEntity
  8
0
100
AcDbLine
 62
7
  6
CONTINUOUS
 10
6.2071054661
 20
12.6947144194
 11
7.292720312
 21
12.5032912314
  0
LINE
  5
24E
100
AcDbEntity
  8
0
100
AcDbLine
 62
7
  6
CONTINUOUS
 10
14.1752956711
 20
12.8361386499
 11
14.1752956711
 21
5.0408630594
  0
LINE
  5
24F
100
AcDbEntity
  8
0
100
AcDbLine
 62
7
  6
CONTINUOUS
 10
14.1851381908
 20
5.0270835318
 11
14.1851381908
 21
5.0408630594
  0
LINE
  5
250
100
AcDbEntity
  8
0
100
AcDbLine
 62
7
  6
CONTINUOUS
 10
14.553248427
 20
4.1537157455
 11
14.553248427
 21
6.7672304127
  0
LINE
  5
251
100
AcDbEntity
  8
0
100
AcDbLine
 62
7
  6
CONTINUOUS
 10
13.8418790436
 20
3.3678811849
 11
13.8383792306
 21
3.3356925161
  0
LINE
  5
252
100
AcDbEntity
  8
0
100
AcDbLine
 62
9
  6
CONTINUOUS
 10
15.2776578758
 20
12.8361386499
 11
14.1752956711
 21
12.8361386499
  0
LINE
  5
253
100
AcDbEntity
  8
0
100
AcDbLine
 62
9
  6
CONTINUOUS
 10
7.4550804444
 20
13.4240812987
 11
6.3694655985
 21
13.6155044867
  0
LINE
  5
254
100
AcDbEntity
  8
0
100
AcDbLine
 62
9
  6
CONTINUOUS
 10
14.8997040654
 20
6.7672352135
 11
14.8997051199
 21
6.7672313546
  0
LINE
  5
255
100
AcDbEntity
  8
0
100
AcDbLine
 62
7
  6
CONTINUOUS
 10
14.8999015888
 20
4.1509981929
 11
14.8999028066
 21
4.1509898607
  0
LWPOLYLINE
  5
256
100
AcDbEntity
  8
0
100
AcDbPolyline
 62
7
  6
CONTINUOUS
 90
3
 70
0
 10
14.8999015888
 20
4.1509981929
 10
14.8997617249
 20
4.1522480064
 10
14.8997044519
 20
4.1537172691
  0
LINE
  5
257
100
AcDbEntity
  8
0
100
AcDbLine
 62
7
  6
CONTINUOUS
 10
15.6145743164
 20
3.3356925161
 11
15.6110745033
 21
3.3678811853
  0
LINE
  5
258
100
AcDbEntity
  8
0
100
AcDbLine
 62
9
  6
CONTINUOUS
 10
14.7264767736
 20
2.3656662097
 11
14.7264767735
 21
2.208185894
  0
LINE
  5
259
100
AcDbEntity
  8
0
100
AcDbLine
 62
9
  6
CONTINUOUS
 10
14.7264767827
 20
4.1622992517
 11
14.7264767762
 21
4.1422722517
  0
LINE
  5
25A
100
AcDbEntity
  8
0
100
AcDbLine
 62
7
  6
CONTINUOUS
 10
14.8997051199
 20
4.1537155081
 11
14.8997051199
 21
6.7672311385
  0
LINE
  5
25B
100
AcDbEntity
  8
0
100
AcDbLine
 62
7
  6
CONTINUOUS
 10
15.2678153562
 20
5.0270835318
 11
15.2678153562
 21
5.0408630594
  0
LINE
  5
25C
100
AcDbEntity
  8
0
100
AcDbLine
 62
7
  6
CONTINUOUS
 10
15.2776578758
 20
5.0408630594
 11
15.2776578758
 21
12.8361386499
  0
LWPOLYLINE
  5
25D
100
AcDbEntity
  8
0
100
AcDbPolyline
 62
7
  6
CONTINUOUS
 90
3
 70
0
 10
14.5532493011
 20
4.153716909
 10
14.5531847349
 20
4.1521574826
 10
14.5530519037
 20
4.1509964208
  0
LINE
  5
25E
100
AcDbEntity
  8
0
100
AcDbLine
 62
7
  6
CONTINUOUS
 10
14.553051531
 20
4.15099387
 11
14.5530519037
 21
4.1509964208
  0
LWPOLYLINE
  5
25F
100
AcDbEntity
  8
0
100
AcDbPolyline
 62
7
  6
CONTINUOUS
 90
19
 70
0
 10
14.5530518342
 20
4.1509927791
 10
14.5530001205
 20
4.1506580109
 10
14.5528165044
 20
4.1496835021
 10
14.5525726352
 20
4.1486740546
 10
14.5522537651
 20
4.1476104172
 10
14.5518497803
 20
4.1465010503
 10
14.5513449152
 20
4.14534243
 10
14.5507255236
 20
4.1441414373
 10
14.549981611
 20
4.1429116126
 10
14.5491162914
 20
4.1416812767
 10
14.5481443291
 20
4.1404922852
 10
14.5470693991
 20
4.1393802792
 10
14.5458822722
 20
4.1383561112
 10
14.5445863275
 20
4.1374321399
 10
14.5432056186
 20
4.1366187681
 10
14.5418021068
 20
4.1359285117
 10
14.5403334177
 20
4.1353337535
 10
14.5387092351
 20
4.1348293414
 10
14.5381526283
 20
4.1346980576
  0
LINE
  5
260
100
AcDbEntity
  8
0
100
AcDbLine
 62
9
  6
CONTINUOUS
 10
14.553248427
 20
6.7672312979
 11
14.5532494826
 21
6.7672352075
  0
LWPOLYLINE
  5
261
100
AcDbEntity
  8
0
100
AcDbPolyline
 62
7
  6
CONTINUOUS
 90
15
 70
0
 10
15.6110746917
 20
3.3678812092
 10
15.6077782401
 20
3.3917754432
 10
15.6037231103
 20
3.4168933194
 10
15.5992847148
 20
3.4407386736
 10
15.5946377428
 20
3.4628512403
 10
15.5895633791
 20
3.4845467925
 10
15.5840867964
 20
3.5057733945
 10
15.5783047196
 20
3.5262707898
 10
15.5718200907
 20
3.5474064768
 10
15.5644776584
 20
3.5694253627
 10
15.5563873482
 20
3.5917846907
 10
15.5477329968
 20
3.6139113271
 10
15.5386827191
 20
3.6354280275
 10
15.5292358571
 20
3.6564147348
 10
15.5223583749
 20
3.6708797519
  0
LINE
  5
262
100
AcDbEntity
  8
0
100
AcDbLine
 62
7
  6
CONTINUOUS
 10
15.6221460648
 20
5.0073984924
 11
15.6221460648
 21
1.0900756578
  0
LINE
  5
263
100
AcDbEntity
  8
0
100
AcDbLine
 62
7
  6
CONTINUOUS
 10
15.7500988207
 20
0.9719654216
 11
15.7500988207
 21
0.6963748704
  0
LWPOLYLINE
  5
264
100
AcDbEntity
  8
0
100
AcDbPolyline
 62
7
  6
CONTINUOUS
 90
15
 70
0
 10
13.9299872039
 20
3.6696015528
 10
13.9237105801
 20
3.6563994451
 10
13.9142645074
 20
3.6354135112
 10
13.9052149742
 20
3.6138975913
 10
13.8965613495
 20
3.5917718082
 10
13.8884718498
 20
3.5694137363
 10
13.881130218
 20
3.5473963474
 10
13.8746463406
 20
3.5262623342
 10
13.8688647402
 20
3.5057659532
 10
13.8633885784
 20
3.48454033
 10
13.8583146232
 20
3.4628459198
 10
13.8536679926
 20
3.4407344436
 10
13.8492299025
 20
3.4168902486
 10
13.8451750671
 20
3.391773836
 10
13.8418788553
 20
3.3678812088
  0
LINE
  5
265
100
AcDbEntity
  8
0
100
AcDbLine
 62
7
  6
CONTINUOUS
 10
13.9299754176
 20
3.6696071563
 11
13.9305784859
 21
3.6708511819
  0
LINE
  5
266
100
AcDbEntity
  8
0
100
AcDbLine
 62
7
  6
CONTINUOUS
 10
13.9399149594
 20
3.6893814866
 11
13.9299754176
 21
3.6696071563
  0
LWPOLYLINE
  5
267
100
AcDbEntity
  8
0
100
AcDbPolyline
 62
7
  6
CONTINUOUS
 90
3
 70
0
 10
13.9716164795
 20
3.743917949
 10
13.9571187323
 20
3.7203980345
 10
13.9399149594
 20
3.6893814866
  0
LINE
  5
268
100
AcDbEntity
  8
0
100
AcDbLine
 62
7
  6
CONTINUOUS
 10
13.9733448816
 20
3.7465829937
 11
13.9716084642
 21
3.7439055569
  0
LINE
  5
269
100
AcDbEntity
  8
0
100
AcDbLine
 62
7
  6
CONTINUOUS
 10
13.9769563979
 20
3.7520816179
 11
13.9733448816
 21
3.7465829937
  0
LINE
  5
26A
100
AcDbEntity
  8
0
100
AcDbLine
 62
7
  6
CONTINUOUS
 10
14.0066971364
 20
3.7942710219
 11
13.9769565108
 21
3.7520817467
  0
LINE
  5
26B
100
AcDbEntity
  8
0
100
AcDbLine
 62
9
  6
CONTINUOUS
 10
15.4129812727
 20
3.7478077853
 11
15.4449091075
 21
3.7707072084
  0
ARC
  5
26C
100
AcDbEntity
  8
0
100
AcDbCircle
 62
7
  6
CONTINUOUS
 10
7.2702497022
 20
12.4872646933
 40
0.0196850394
100
AcDbArc
 50
350.9946184736
 51
80.0
  0
ARC
  5
26D
100
AcDbEntity
  8
0
100
AcDbCircle
 62
7
  6
CONTINUOUS
 10
7.1654844712
 20
11.3463922859
 40
0.0196850394
100
AcDbArc
 50
260.0
 51
350.0
  0
ARC
  5
26E
100
AcDbEntity
  8
0
100
AcDbCircle
 62
7
  6
CONTINUOUS
 10
7.2543595228
 20
11.8504277501
 40
0.0196850394
100
AcDbArc
 50
350.0
 51
80.0
  0
ARC
  5
26F
100
AcDbEntity
  8
0
100
AcDbCircle
 62
7
  6
CONTINUOUS
 10
7.1808742945
 20
10.724028547
 40
0.0196850394
100
AcDbArc
 50
350.0
 51
43.0459889569
  0
ARC
  5
270
100
AcDbEntity
  8
0
100
AcDbCircle
 62
7
  6
CONTINUOUS
 10
7.1672012097
 20
10.6464846295
 40
0.0196850394
100
AcDbArc
 50
296.9540110431
 51
350.0
  0
ARC
  5
271
100
AcDbEntity
  8
0
100
AcDbCircle
 62
7
  6
CONTINUOUS
 10
7.1990892985
 20
10.9406925915
 40
0.0196850394
100
AcDbArc
 50
350.0
 51
80.0
  0
ARC
  5
272
100
AcDbEntity
  8
0
100
AcDbCircle
 62
7
  6
CONTINUOUS
 10
7.1102142469
 20
10.4366571274
 40
0.0196850394
100
AcDbArc
 50
260.0
 51
350.0
  0
ARC
  5
273
100
AcDbEntity
  8
0
100
AcDbCircle
 62
7
  6
CONTINUOUS
 10
6.832647014
 20
9.7260286319
 40
0.0196850394
100
AcDbArc
 50
260.0
 51
350.9946184736
  0
ARC
  5
274
100
AcDbEntity
  8
0
100
AcDbCircle
 62
7
  6
CONTINUOUS
 10
6.2227395335
 20
12.6719689987
 40
0.0196850394
100
AcDbArc
 50
80.0
 51
169.0053815264
  0
ARC
  5
275
100
AcDbEntity
  8
0
100
AcDbCircle
 62
7
  6
CONTINUOUS
 10
5.6895531969
 20
9.9275869133
 40
0.0196850394
100
AcDbArc
 50
169.0053815264
 51
260.0
  0
ARC
  5
276
100
AcDbEntity
  8
0
100
AcDbCircle
 62
7
  6
CONTINUOUS
 10
6.2571200103
 20
9.7475547195
 40
0.0196850394
100
AcDbArc
 50
350.0
 51
80.0
  0
ARC
  5
277
100
AcDbEntity
  8
0
100
AcDbCircle
 62
7
  6
CONTINUOUS
 10
6.2377340309
 20
9.7509729907
 40
0.0196850394
100
AcDbArc
 50
80.0
 51
170.0
  0
ARC
  5
278
100
AcDbEntity
  8
0
100
AcDbCircle
 62
7
  6
CONTINUOUS
 10
5.9047446445
 20
9.8576609146
 40
0.0118110236
100
AcDbArc
 50
350.0
 51
80.0
  0
ARC
  5
279
100
AcDbEntity
  8
0
100
AcDbCircle
 62
7
  6
CONTINUOUS
 10
6.6065170985
 20
9.7339194966
 40
0.0118110236
100
AcDbArc
 50
80.0
 51
170.0
  0
ARC
  5
27A
100
AcDbEntity
  8
0
100
AcDbCircle
 62
7
  6
CONTINUOUS
 10
7.2476590089
 20
11.6537209744
 40
0.0118110236
100
AcDbArc
 50
279.4755462056
 51
350.0
  0
ARC
  5
27B
100
AcDbEntity
  8
0
100
AcDbCircle
 62
7
  6
CONTINUOUS
 10
7.2538118971
 20
11.6886157373
 40
0.0118110236
100
AcDbArc
 50
350.0
 51
60.5244537945
  0
ARC
  5
27C
100
AcDbEntity
  8
0
100
AcDbCircle
 62
7
  6
CONTINUOUS
 10
7.2203128392
 20
11.4986331393
 40
0.0118110236
100
AcDbArc
 50
279.4755462056
 51
350.0
  0
ARC
  5
27D
100
AcDbEntity
  8
0
100
AcDbCircle
 62
7
  6
CONTINUOUS
 10
7.2264657274
 20
11.5335279022
 40
0.0118110236
100
AcDbArc
 50
350.0
 51
60.5244537944
  0
ARC
  5
27E
100
AcDbEntity
  8
0
100
AcDbCircle
 62
7
  6
CONTINUOUS
 10
7.2066397543
 20
11.4210892217
 40
0.0118110236
100
AcDbArc
 50
279.4755462055
 51
350.0
  0
ARC
  5
27F
100
AcDbEntity
  8
0
100
AcDbCircle
 62
7
  6
CONTINUOUS
 10
7.2127926425
 20
11.4559839846
 40
0.0118110236
100
AcDbArc
 50
350.0
 51
60.5244537945
  0
ARC
  5
280
100
AcDbEntity
  8
0
100
AcDbCircle
 62
7
  6
CONTINUOUS
 10
7.2837244074
 20
11.8355856886
 40
0.0118110236
100
AcDbArc
 50
170.0000000006
 51
236.4218215219
  0
ARC
  5
281
100
AcDbEntity
  8
0
100
AcDbCircle
 62
7
  6
CONTINUOUS
 10
7.1981547206
 20
11.3502958795
 40
0.0118110236
100
AcDbArc
 50
103.5781784782
 51
169.9999999994
  0
ARC
  5
282
100
AcDbEntity
  8
0
100
AcDbCircle
 62
7
  6
CONTINUOUS
 10
7.2613320937
 20
11.731264892
 40
0.0118110236
100
AcDbArc
 50
279.4755462056
 51
350.0
  0
ARC
  5
283
100
AcDbEntity
  8
0
100
AcDbCircle
 62
7
  6
CONTINUOUS
 10
7.2674849819
 20
11.7661596549
 40
0.0118110236
100
AcDbArc
 50
350.0
 51
60.5244537944
  0
ARC
  5
284
100
AcDbEntity
  8
0
100
AcDbCircle
 62
7
  6
CONTINUOUS
 10
7.2284541831
 20
10.9258505301
 40
0.0118110236
100
AcDbArc
 50
170.0
 51
236.4218215219
  0
ARC
  5
285
100
AcDbEntity
  8
0
100
AcDbCircle
 62
7
  6
CONTINUOUS
 10
7.1428844963
 20
10.440560721
 40
0.0118110236
100
AcDbArc
 50
103.578178478
 51
170.0
  0
ARC
  5
286
100
AcDbEntity
  8
0
100
AcDbCircle
 62
7
  6
CONTINUOUS
 10
6.2833519976
 20
9.7149451144
 40
0.0118110236
100
AcDbArc
 50
170.0
 51
260.0
  0
ARC
  5
287
100
AcDbEntity
  8
0
100
AcDbCircle
 62
7
  6
CONTINUOUS
 10
6.2019308842
 20
9.7293018535
 40
0.0118110236
100
AcDbArc
 50
260.0
 51
350.0000000001
  0
ARC
  5
288
100
AcDbEntity
  8
0
100
AcDbCircle
 62
7
  6
CONTINUOUS
 10
7.2728371183
 20
11.8191854535
 40
0.0078740157
100
AcDbArc
 50
349.9999999986
 51
56.4218215215
  0
ARC
  5
289
100
AcDbEntity
  8
0
100
AcDbCircle
 62
7
  6
CONTINUOUS
 10
7.1935332262
 20
11.3694307316
 40
0.0078740157
100
AcDbArc
 50
283.5781784785
 51
350.0000000014
  0
ARC
  5
28A
100
AcDbEntity
  8
0
100
AcDbCircle
 62
7
  6
CONTINUOUS
 10
7.1382630019
 20
10.4596955731
 40
0.0078740157
100
AcDbArc
 50
283.578178478
 51
350.0
  0
ARC
  5
28B
100
AcDbEntity
  8
0
100
AcDbCircle
 62
7
  6
CONTINUOUS
 10
7.2175668941
 20
10.9094502949
 40
0.0078740157
100
AcDbArc
 50
350.0
 51
56.4218215219
  0
ARC
  5
28C
100
AcDbEntity
  8
0
100
AcDbCircle
 62
9
  6
CONTINUOUS
 10
15.0636014996
 20
3.2555957863
 40
1.2277674137
100
AcDbArc
 50
174.7486548342
 51
176.1326609135
  0
ARC
  5
28D
100
AcDbEntity
  8
0
100
AcDbCircle
 62
9
  6
CONTINUOUS
 10
14.3907862151
 20
3.2557096881
 40
1.226328834
100
AcDbArc
 50
3.8673418561
 51
5.2525228136
  0
ARC
  5
28E
100
AcDbEntity
  8
0
100
AcDbCircle
 62
9
  6
CONTINUOUS
 10
14.7262762397
 20
3.2565826867
 40
0.8975331483
100
AcDbArc
 50
33.4759773393
 51
77.8551139418
  0
ARC
  5
28F
100
AcDbEntity
  8
0
100
AcDbCircle
 62
9
  6
CONTINUOUS
 10
14.7266754667
 20
3.2565844788
 40
0.8975305717
100
AcDbArc
 50
102.1447776207
 51
146.5240592971
  0
ARC
  5
290
100
AcDbEntity
  8
0
100
AcDbCircle
 62
7
  6
CONTINUOUS
 10
14.7264767735
 20
3.2554299885
 40
0.8897637795
100
AcDbArc
 50
216.5635345363
 51
323.4364626042
  0
ARC
  5
291
100
AcDbEntity
  8
0
100
AcDbCircle
 62
9
  6
CONTINUOUS
 10
14.7264767735
 20
3.2554299885
 40
0.8841129072
100
AcDbArc
 50
35.6490154877
 51
144.3509845114
  0
ARC
  5
292
100
AcDbEntity
  8
0
100
AcDbCircle
 62
9
  6
CONTINUOUS
 10
14.7264767735
 20
3.2554299885
 40
0.882109116
100
AcDbArc
 50
180.0
 51
359.9999999942
  0
ARC
  5
293
100
AcDbEntity
  8
0
100
AcDbCircle
 62
7
  6
CONTINUOUS
 10
14.745972991
 20
3.2570065945
 40
0.8721653381
100
AcDbArc
 50
355.0382832606
 51
359.8964317072
  0
ARC
  5
294
100
AcDbEntity
  8
0
100
AcDbCircle
 62
7
  6
CONTINUOUS
 10
14.706412096
 20
3.2569813954
 40
0.8715968292
100
AcDbArc
 50
180.1019866661
 51
184.9632984533
  0
ARC
  5
295
100
AcDbEntity
  8
0
100
AcDbCircle
 62
7
  6
CONTINUOUS
 10
14.7470030022
 20
3.2569735698
 40
0.8711352694
100
AcDbArc
 50
359.8984813295
 51
5.184526869
  0
ARC
  5
296
100
AcDbEntity
  8
0
100
AcDbCircle
 62
7
  6
CONTINUOUS
 10
14.7059430818
 20
3.2569739518
 40
0.8711278025
100
AcDbArc
 50
174.8154537996
 51
180.1015520011
  0
ARC
  5
297
100
AcDbEntity
  8
0
100
AcDbCircle
 62
9
  6
CONTINUOUS
 10
14.7264767735
 20
3.2554299885
 40
0.8448221668
100
AcDbArc
 50
35.6489577182
 51
144.3510422699
  0
ARC
  5
298
100
AcDbEntity
  8
0
100
AcDbCircle
 62
9
  6
CONTINUOUS
 10
14.7264767735
 20
3.2554299885
 40
0.8427405364
100
AcDbArc
 50
180.0
 51
0.0000014379
  0
ARC
  5
299
100
AcDbEntity
  8
0
100
AcDbCircle
 62
9
  6
CONTINUOUS
 10
14.6407797476
 20
3.3146313979
 40
0.7938645055
100
AcDbArc
 50
146.5991653399
 51
147.8316990612
  0
ARC
  5
29A
100
AcDbEntity
  8
0
100
AcDbCircle
 62
9
  6
CONTINUOUS
 10
14.8133213511
 20
3.3153705056
 40
0.7924996103
100
AcDbArc
 50
32.1672401255
 51
33.4018971068
  0
ARC
  5
29B
100
AcDbEntity
  8
0
100
AcDbCircle
 62
9
  6
CONTINUOUS
 10
14.3725563478
 20
3.1635100218
 40
0.7082072534
100
AcDbArc
 50
120.9771662965
 51
123.8539230144
  0
ARC
  5
29C
100
AcDbEntity
  8
0
100
AcDbCircle
 62
9
  6
CONTINUOUS
 10
15.0814842915
 20
3.1652219784
 40
0.7061799482
100
AcDbArc
 50
56.1419469353
 51
59.0269638795
  0
ARC
  5
29D
100
AcDbEntity
  8
0
100
AcDbCircle
 62
7
  6
CONTINUOUS
 10
13.7520673247
 20
1.0900756578
 40
0.0787401575
100
AcDbArc
 50
270.0
 51
360.0
  0
ARC
  5
29E
100
AcDbEntity
  8
0
100
AcDbCircle
 62
7
  6
CONTINUOUS
 10
15.7008862223
 20
1.0900756578
 40
0.0787401575
100
AcDbArc
 50
180.0
 51
270.0
  0
ARC
  5
29F
100
AcDbEntity
  8
0
100
AcDbCircle
 62
7
  6
CONTINUOUS
 10
13.742224805
 20
0.9719654216
 40
0.0393700787
100
AcDbArc
 50
90.0
 51
180.0
  0
ARC
  5
2A0
100
AcDbEntity
  8
0
100
AcDbCircle
 62
7
  6
CONTINUOUS
 10
15.710728742
 20
0.9719654216
 40
0.0393700787
100
AcDbArc
 50
0.0
 51
90.0
  0
ARC
  5
2A1
100
AcDbEntity
  8
0
100
AcDbCircle
 62
7
  6
CONTINUOUS
 10
14.5846835661
 20
6.7672301518
 40
0.0315174807
100
AcDbArc
 50
156.5671673974
 51
180.0002998265
  0
ARC
  5
2A2
100
AcDbEntity
  8
0
100
AcDbCircle
 62
7
  6
CONTINUOUS
 10
14.86820325
 20
6.7672397808
 40
0.0314972897
100
AcDbArc
 50
0.0045112247
 51
89.9985629725
  0
ARC
  5
2A3
100
AcDbEntity
  8
0
100
AcDbCircle
 62
7
  6
CONTINUOUS
 10
14.5847481464
 20
6.7672403504
 40
0.0314967774
100
AcDbArc
 50
90.0066512512
 51
180.000185024
  0
ARC
  5
2A4
100
AcDbEntity
  8
0
100
AcDbCircle
 62
7
  6
CONTINUOUS
 10
15.6024610255
 20
5.0073984924
 40
0.0196850394
100
AcDbArc
 50
0.0
 51
90.0
  0
ARC
  5
2A5
100
AcDbEntity
  8
0
100
AcDbCircle
 62
7
  6
CONTINUOUS
 10
13.8504925215
 20
5.0073984924
 40
0.0196850394
100
AcDbArc
 50
90.0
 51
180.0
  0
ARC
  5
2A6
100
AcDbEntity
  8
0
100
AcDbCircle
 62
7
  6
CONTINUOUS
 10
10.7894688995
 20
12.8361386499
 40
4.4881889764
100
AcDbArc
 50
0.0
 51
170.0
  0
ARC
  5
2A7
100
AcDbEntity
  8
0
100
AcDbCircle
 62
7
  6
CONTINUOUS
 10
10.7894688995
 20
12.8361386499
 40
3.3858267717
100
AcDbArc
 50
0.0
 51
170.0
  0
LINE
  5
2A8
100
AcDbEntity
  8
0
100
AcDbLine
 62
7
  6
CONTINUOUS
 10
6.5820139367
 20
9.6702767301
 11
6.5728635611
 21
9.6638964145
  0
LINE
  5
2A9
100
AcDbEntity
  8
0
100
AcDbLine
 62
7
  6
CONTINUOUS
 10
5.9124178323
 20
9.7803508158
 11
5.9060025004
 21
9.7894775547
  0
SPLINE
  5
2AA
100
AcDbEntity
  8
0
100
AcDbSpline
 62
7
  6
CONTINUOUS
 70
0
 71
3
 72
23
 73
19
 74
0
 42
0.0000001
 43
0.0000001
 44
0.0000000001
 40
0.0
 40
0.0
 40
0.0
 40
0.0
 40
0.0064695195
 40
0.0157894451
 40
0.0280039284
 40
0.0430033058
 40
0.0606155408
 40
0.0806505123
 40
0.1271977705
 40
0.1811216203
 40
0.2410819236
 40
0.3059637007
 40
0.3748257927
 40
0.4469317182
 40
0.5216391474
 40
0.6768805004
 40
0.8372408988
 40
1.0
 40
1.0
 40
1.0
 40
1.0
 10
5.9233226022
 20
9.7664347829
 30
0.0
 10
5.9232849513
 20
9.7664414218
 30
0.0
 10
5.9231982162
 20
9.7664806253
 30
0.0
 10
5.9230609825
 20
9.7665726544
 30
0.0
 10
5.9228936088
 20
9.7667097306
 30
0.0
 10
5.9226987938
 20
9.766889227
 30
0.0
 10
5.9224783958
 20
9.7671089383
 30
0.0
 10
5.9221361958
 20
9.7674701699
 30
0.0
 10
5.9216635114
 20
9.7680030323
 30
0.0
 10
5.9210527605
 20
9.7687282333
 30
0.0
 10
5.9203870365
 20
9.7695485614
 30
0.0
 10
5.919677724
 20
9.77044704
 30
0.0
 10
5.9189339228
 20
9.7714096457
 30
0.0
 10
5.9181631425
 20
9.7724247196
 30
0.0
 10
5.9170935639
 20
9.7738537952
 30
0.0
 10
5.9157280005
 20
9.7757127131
 30
0.0
 10
5.914075217
 20
9.7780061225
 30
0.0
 10
5.9129710559
 20
9.7795640147
 30
0.0
 10
5.9124178323
 20
9.7803508158
 30
0.0
  0
SPLINE
  5
2AB
100
AcDbEntity
  8
0
100
AcDbSpline
 62
7
  6
CONTINUOUS
 70
0
 71
3
 72
23
 73
19
 74
0
 42
0.0000001
 43
0.0000001
 44
0.0000000001
 40
0.0
 40
0.0
 40
0.0
 40
0.0
 40
0.0064694585
 40
0.015789336
 40
0.0280037826
 40
0.0430031336
 40
0.0606153506
 40
0.0806503113
 40
0.1271975646
 40
0.1811214249
 40
0.2410817472
 40
0.3059635473
 40
0.3748256632
 40
0.446931612
 40
0.5216390624
 40
0.6768804509
 40
0.8372408765
 40
1.0
 40
1.0
 40
1.0
 40
1.0
 10
6.5578568628
 20
9.6545492726
 30
0.0
 10
6.5578945134
 20
9.6545426338
 30
0.0
 10
6.5579894255
 20
9.6545498081
 30
0.0
 10
6.5581498579
 20
9.6545893507
 30
0.0
 10
6.5583540198
 20
9.6546609153
 30
0.0
 10
6.5585984768
 20
9.6547629563
 30
0.0
 10
6.5588807283
 20
9.6548940371
 30
0.0
 10
6.5593258393
 20
9.6551164448
 30
0.0
 10
6.5599522668
 20
9.6554555045
 30
0.0
 10
6.5607742182
 20
9.6559280818
 30
0.0
 10
6.5616803632
 20
9.6564712474
 30
0.0
 10
6.5626541972
 20
9.6570729421
 30
0.0
 10
6.5636823728
 20
9.6577231005
 30
0.0
 10
6.5647538457
 20
9.6584133356
 30
0.0
 10
6.5662476943
 20
9.6593904097
 30
0.0
 10
6.5681666927
 20
9.6606701702
 30
0.0
 10
6.5705041949
 20
9.6622599838
 30
0.0
 10
6.5720745985
 20
9.6633462774
 30
0.0
 10
6.5728635611
 20
9.6638964145
 30
0.0
  0
SPLINE
  5
2AC
100
AcDbEntity
  8
0
100
AcDbSpline
 62
7
  6
CONTINUOUS
 70
0
 71
3
 72
26
 73
22
 74
0
 42
0.0000001
 43
0.0000001
 44
0.0000000001
 40
0.0
 40
0.0
 40
0.0
 40
0.0
 40
0.1945582338
 40
0.3816211413
 40
0.4700955129
 40
0.55404967
 40
0.6326848766
 40
0.7052545369
 40
0.771063492
 40
0.8294878181
 40
0.8799691654
 40
0.922023559
 40
0.9397649109
 40
0.9552565946
 40
0.9684628372
 40
0.9793591874
 40
0.987925833
 40
0.9941582904
 40
0.9964106575
 40
0.9981039006
 40
1.0
 40
1.0
 40
1.0
 40
1.0
 10
6.5854326455
 20
9.6896643437
 30
0.0
 10
6.5856551077
 20
9.6909259894
 30
0.0
 10
6.5861130133
 20
9.6933969172
 30
0.0
 10
6.5867264788
 20
9.6964311113
 30
0.0
 10
6.5872257754
 20
9.6987450261
 30
0.0
 10
6.5875881908
 20
9.7003580139
 30
0.0
 10
6.5879407323
 20
9.7018658208
 30
0.0
 10
6.5882785019
 20
9.7032543201
 30
0.0
 10
6.5885966976
 20
9.7045105578
 30
0.0
 10
6.5888906418
 20
9.7056228412
 30
0.0
 10
6.5891560163
 20
9.7065808159
 30
0.0
 10
6.5893599499
 20
9.7072777743
 30
0.0
 10
6.5895067787
 20
9.7077512934
 30
0.0
 10
6.5896010698
 20
9.7080421798
 30
0.0
 10
6.5896856072
 20
9.708288866
 30
0.0
 10
6.5897598291
 20
9.7084906882
 30
0.0
 10
6.5898239069
 20
9.7086476384
 30
0.0
 10
6.5898713109
 20
9.7087488367
 30
0.0
 10
6.5899061186
 20
9.7088073395
 30
0.0
 10
6.5899277227
 20
9.708836764
 30
0.0
 10
6.589949136
 20
9.7088566775
 30
0.0
 10
6.5899614316
 20
9.7088545094
 30
0.0
  0
SPLINE
  5
2AD
100
AcDbEntity
  8
0
100
AcDbSpline
 62
7
  6
CONTINUOUS
 70
0
 71
3
 72
26
 73
22
 74
0
 42
0.0000001
 43
0.0000001
 44
0.0000000001
 40
0.0
 40
0.0
 40
0.0
 40
0.0
 40
0.1945582689
 40
0.3816212722
 40
0.4700955867
 40
0.5540497445
 40
0.6326849525
 40
0.7052545801
 40
0.7710635019
 40
0.829487814
 40
0.8799691707
 40
0.9220235547
 40
0.9397648974
 40
0.9552565737
 40
0.9684628199
 40
0.9793591798
 40
0.9879258324
 40
0.9941582915
 40
0.9964106583
 40
0.9981039009
 40
1.0
 40
1.0
 40
1.0
 40
1.0
 10
5.9094209222
 20
9.8088634624
 30
0.0
 10
5.9096433843
 20
9.8101251072
 30
0.0
 10
5.9100590207
 20
9.8126034951
 30
0.0
 10
5.91051989
 20
9.8156645876
 30
0.0
 10
5.910842198
 20
9.8180097109
 30
0.0
 10
5.9110532978
 20
9.8196493776
 30
0.0
 10
5.9112377147
 20
9.8211868277
 30
0.0
 10
5.9113952121
 20
9.8226071125
 30
0.0
 10
5.9115258642
 20
9.8238964176
 30
0.0
 10
5.9116300697
 20
9.8250421558
 30
0.0
 10
5.911708346
 20
9.8260331201
 30
0.0
 10
5.9117550849
 20
9.8267577956
 30
0.0
 10
5.9117790639
 20
9.8272529758
 30
0.0
 10
5.9117899482
 20
9.8275585688
 30
0.0
 10
5.9117948807
 20
9.8278192913
 30
0.0
 10
5.9117941622
 20
9.8280343274
 30
0.0
 10
5.9117876289
 20
9.8282037282
 30
0.0
 10
5.9117776956
 20
9.8283150367
 30
0.0
 10
5.9117649962
 20
9.8283819162
 30
0.0
 10
5.9117547587
 20
9.8284169552
 30
0.0
 10
5.9117414476
 20
9.8284429914
 30
0.0
 10
5.911729152
 20
9.8284451595
 30
0.0
  0
SPLINE
  5
2AE
100
AcDbEntity
  8
0
100
AcDbSpline
 62
9
  6
CONTINUOUS
 70
0
 71
3
 72
35
 73
31
 74
0
 42
0.0000001
 43
0.0000001
 44
0.0000000001
 40
0.0
 40
0.0
 40
0.0
 40
0.0
 40
0.0977197431
 40
0.1945029199
 40
0.2894219539
 40
0.3815671643
 40
0.4700555014
 40
0.5540390321
 40
0.632713097
 40
0.7053240656
 40
0.7711766279
 40
0.8013686797
 40
0.8296406259
 40
0.8559241073
 40
0.8801571809
 40
0.9022812602
 40
0.9222446198
 40
0.9399991639
 40
0.955504143
 40
0.9687228823
 40
0.9796269071
 40
0.9881933171
 40
0.9915963465
 40
0.9944121028
 40
0.9966423977
 40
0.9975400129
 40
0.9982945632
 40
0.9989089876
 40
0.9993888974
 40
1.0
 40
1.0
 40
1.0
 40
1.0
 10
14.7264767735
 20
6.7638864027
 30
0.0
 10
14.7321240264
 20
6.7638864027
 30
0.0
 10
14.7433644108
 20
6.7638970403
 30
0.0
 10
14.760090133
 20
6.7639448286
 30
0.0
 10
14.7764935799
 20
6.7640239514
 30
0.0
 10
14.7924174796
 20
6.7641336257
 30
0.0
 10
14.8077091596
 20
6.7642727611
 30
0.0
 10
14.8222220099
 20
6.7644399702
 30
0.0
 10
14.8358168914
 20
6.7646335543
 30
0.0
 10
14.8483634655
 20
6.7648515717
 30
0.0
 10
14.8581079857
 20
6.7650571486
 30
0.0
 10
14.8652900975
 20
6.7652343607
 30
0.0
 10
14.8701858588
 20
6.7653681302
 30
0.0
 10
14.8747369808
 20
6.7655062991
 30
0.0
 10
14.8789325057
 20
6.7656484963
 30
0.0
 10
14.8827624247
 20
6.7657943602
 30
0.0
 10
14.8862175123
 20
6.7659434624
 30
0.0
 10
14.8892895521
 20
6.7660953703
 30
0.0
 10
14.8919711454
 20
6.7662495876
 30
0.0
 10
14.8942560109
 20
6.7664054134
 30
0.0
 10
14.8961386571
 20
6.7665623325
 30
0.0
 10
14.8974534757
 20
6.76670104
 30
0.0
 10
14.8983000652
 20
6.7668171792
 30
0.0
 10
14.8987818017
 20
6.7668973851
 30
0.0
 10
14.8991181558
 20
6.7669676829
 30
0.0
 10
14.8993349812
 20
6.7670261618
 30
0.0
 10
14.8994593733
 20
6.7670664525
 30
0.0
 10
14.8995592192
 20
6.7671072238
 30
0.0
 10
14.8996438438
 20
6.7671529249
 30
0.0
 10
14.8996978122
 20
6.7672004557
 30
0.0
 10
14.8997040654
 20
6.7672352135
 30
0.0
  0
SPLINE
  5
2AF
100
AcDbEntity
  8
0
100
AcDbSpline
 62
9
  6
CONTINUOUS
 70
0
 71
3
 72
35
 73
31
 74
0
 42
0.0000001
 43
0.0000001
 44
0.0000000001
 40
0.0
 40
0.0
 40
0.0
 40
0.0
 40
0.0977196363
 40
0.1945027094
 40
0.2894216461
 40
0.3815667682
 40
0.470055029
 40
0.5540384981
 40
0.6327125184
 40
0.7053234616
 40
0.7711760195
 40
0.8013680774
 40
0.8296400355
 40
0.8559235347
 40
0.880156632
 40
0.9022807411
 40
0.9222441366
 40
0.9399987223
 40
0.9555037498
 40
0.9687225441
 40
0.979626628
 40
0.9881931001
 40
0.9915961646
 40
0.9944119605
 40
0.9966422998
 40
0.9975399374
 40
0.9982945092
 40
0.9989089531
 40
0.9993888794
 40
1.0
 40
1.0
 40
1.0
 40
1.0
 10
14.7264767735
 20
6.7638864027
 30
0.0
 10
14.7208295269
 20
6.7638864027
 30
0.0
 10
14.7095891551
 20
6.7638970403
 30
0.0
 10
14.6928634512
 20
6.7639448285
 30
0.0
 10
14.6764600214
 20
6.764023951
 30
0.0
 10
14.6605361373
 20
6.7641336252
 30
0.0
 10
14.6452444708
 20
6.7642727602
 30
0.0
 10
14.6307316314
 20
6.764439969
 30
0.0
 10
14.6171367579
 20
6.7646335527
 30
0.0
 10
14.6045901884
 20
6.7648515697
 30
0.0
 10
14.5948456699
 20
6.7650571462
 30
0.0
 10
14.5876635575
 20
6.7652343579
 30
0.0
 10
14.5827677942
 20
6.7653681272
 30
0.0
 10
14.5782166692
 20
6.7655062958
 30
0.0
 10
14.5740211403
 20
6.7656484927
 30
0.0
 10
14.5701912162
 20
6.7657943564
 30
0.0
 10
14.5667361225
 20
6.7659434584
 30
0.0
 10
14.5636640755
 20
6.766095366
 30
0.0
 10
14.5609824739
 20
6.7662495831
 30
0.0
 10
14.558697599
 20
6.7664054087
 30
0.0
 10
14.5568149426
 20
6.7665623275
 30
0.0
 10
14.555500115
 20
6.7667010349
 30
0.0
 10
14.5546535175
 20
6.7668171739
 30
0.0
 10
14.554171774
 20
6.7668973798
 30
0.0
 10
14.5538354137
 20
6.7669676775
 30
0.0
 10
14.5536185829
 20
6.7670261562
 30
0.0
 10
14.5534941869
 20
6.7670664469
 30
0.0
 10
14.5533943374
 20
6.767107218
 30
0.0
 10
14.5533097094
 20
6.7671529192
 30
0.0
 10
14.5532557376
 20
6.767200449
 30
0.0
 10
14.5532494826
 20
6.7672352075
 30
0.0
  0
SPLINE
  5
2B0
100
AcDbEntity
  8
0
100
AcDbSpline
 62
9
  6
CONTINUOUS
 70
0
 71
3
 72
36
 73
32
 74
0
 42
0.0000001
 43
0.0000001
 44
0.0000000001
 40
0.0
 40
0.0
 40
0.0
 40
0.0
 40
0.0005674528
 40
0.0010109079
 40
0.0015847008
 40
0.0022959367
 40
0.0031482444
 40
0.005283193
 40
0.0079985094
 40
0.0112967786
 40
0.0151782334
 40
0.0196421698
 40
0.0303113568
 40
0.0432840785
 40
0.0585338674
 40
0.0760270435
 40
0.0957248955
 40
0.1175832126
 40
0.1415523743
 40
0.1675785277
 40
0.1956019891
 40
0.2255598091
 40
0.2910000289
 40
0.3633036991
 40
0.4418123587
 40
0.5258108442
 40
0.6145334905
 40
0.7071719127
 40
0.8028803149
 40
0.9007883127
 40
1.0
 40
1.0
 40
1.0
 40
1.0
 10
14.8682090569
 20
6.7987370751
 30
0.0
 10
14.8682090569
 20
6.7987113747
 30
0.0
 10
14.8681739302
 20
6.7986708496
 30
0.0
 10
14.8681138653
 20
6.7986349443
 30
0.0
 10
14.8680419003
 20
6.7986021889
 30
0.0
 10
14.8679507179
 20
6.7985701506
 30
0.0
 10
14.8677897192
 20
6.798523326
 30
0.0
 10
14.867537464
 20
6.7984672308
 30
0.0
 10
14.8671739259
 20
6.7984032454
 30
0.0
 10
14.8667303242
 20
6.7983391715
 30
0.0
 10
14.8662068632
 20
6.7982750046
 30
0.0
 10
14.8653504587
 20
6.7981841101
 30
0.0
 10
14.8640821713
 20
6.79807424
 30
0.0
 10
14.8623251219
 20
6.7979494669
 30
0.0
 10
14.860258269
 20
6.7978260098
 30
0.0
 10
14.8578862867
 20
6.7977042125
 30
0.0
 10
14.8552145575
 20
6.7975845198
 30
0.0
 10
14.8522491678
 20
6.7974672622
 30
0.0
 10
14.8489968643
 20
6.797352756
 30
0.0
 10
14.8454650812
 20
6.7972413026
 30
0.0
 10
14.841661847
 20
6.7971331627
 30
0.0
 10
14.8360738262
 20
6.7969895094
 30
0.0
 10
14.828480295
 20
6.7968221643
 30
0.0
 10
14.8186876495
 20
6.796643572
 30
0.0
 10
14.8080540621
 20
6.7964835797
 30
0.0
 10
14.7966765052
 20
6.7963437182
 30
0.0
 10
14.7846587247
 20
6.7962253394
 30
0.0
 10
14.7721103764
 20
6.7961295686
 30
0.0
 10
14.7591458525
 20
6.7960573087
 30
0.0
 10
14.7458835068
 20
6.7960092432
 30
0.0
 10
14.7369558014
 20
6.7959936829
 30
0.0
 10
14.732462424
 20
6.7959899982
 30
0.0
  0
SPLINE
  5
2B1
100
AcDbEntity
  8
0
100
AcDbSpline
 62
9
  6
CONTINUOUS
 70
0
 71
3
 72
37
 73
33
 74
0
 42
0.0000001
 43
0.0000001
 44
0.0000000001
 40
0.0
 40
0.0
 40
0.0
 40
0.0
 40
0.0966027609
 40
0.1926362858
 40
0.2871260151
 40
0.3791122012
 40
0.4676609756
 40
0.5518735196
 40
0.6308953421
 40
0.7039247084
 40
0.7702207767
 40
0.8006307114
 40
0.8291114561
 40
0.8555900571
 40
0.8800004113
 40
0.9022799767
 40
0.9223735507
 40
0.9402297743
 40
0.9558051803
 40
0.969060614
 40
0.9799657097
 40
0.9845288431
 40
0.9884962522
 40
0.9918669684
 40
0.9946408853
 40
0.9958045777
 40
0.9968201678
 40
0.9976887949
 40
0.9984123531
 40
0.9989942286
 40
0.9994411376
 40
1.0
 40
1.0
 40
1.0
 40
1.0
 10
14.732462424
 20
6.7959899982
 30
0.0
 10
14.7277017298
 20
6.7959860944
 30
0.0
 10
14.7182083839
 20
6.7959875901
 30
0.0
 10
14.7040585046
 20
6.79601747
 30
0.0
 10
14.6901362205
 20
6.7960746745
 30
0.0
 10
14.6765829353
 20
6.7961586041
 30
0.0
 10
14.6635363222
 20
6.7962683742
 30
0.0
 10
14.6511288731
 20
6.7964028252
 30
0.0
 10
14.6394865743
 20
6.7965605108
 30
0.0
 10
14.6287276433
 20
6.7967397564
 30
0.0
 10
14.6203645917
 20
6.7969099146
 30
0.0
 10
14.6141969973
 20
6.7970572296
 30
0.0
 10
14.6099913719
 20
6.7971687008
 30
0.0
 10
14.6060816363
 20
6.7972840646
 30
0.0
 10
14.6024777601
 20
6.7974029921
 30
0.0
 10
14.5991888497
 20
6.7975251667
 30
0.0
 10
14.5962232961
 20
6.7976502006
 30
0.0
 10
14.5935885775
 20
6.7977777381
 30
0.0
 10
14.5912913972
 20
6.7979072567
 30
0.0
 10
14.5893375227
 20
6.7980383819
 30
0.0
 10
14.5879266131
 20
6.7981539857
 30
0.0
 10
14.5869735727
 20
6.7982497266
 30
0.0
 10
14.5863909393
 20
6.7983173167
 30
0.0
 10
14.5858971756
 20
6.7983849308
 30
0.0
 10
14.5855417966
 20
6.7984439809
 30
0.0
 10
14.585302532
 20
6.7984925231
 30
0.0
 10
14.5851562703
 20
6.7985266947
 30
0.0
 10
14.5850322498
 20
6.7985609186
 30
0.0
 10
14.5849307929
 20
6.7985946673
 30
0.0
 10
14.5848506219
 20
6.7986292518
 30
0.0
 10
14.5847844835
 20
6.79866665
 30
0.0
 10
14.5847444901
 20
6.7987095337
 30
0.0
 10
14.58474449
 20
6.7987370751
 30
0.0
  0
SPLINE
  5
2B2
100
AcDbEntity
  8
0
100
AcDbSpline
 62
9
  6
CONTINUOUS
 70
0
 71
3
 72
31
 73
27
 74
0
 42
0.0000001
 43
0.0000001
 44
0.0000000001
 40
0.0
 40
0.0
 40
0.0
 40
0.0
 40
0.0938721572
 40
0.1869337453
 40
0.2782665982
 40
0.3670812525
 40
0.4526331125
 40
0.5341982412
 40
0.6110640423
 40
0.6825727539
 40
0.7481067437
 40
0.8070941865
 40
0.8590118162
 40
0.882169483
 40
0.9033933845
 40
0.9226365463
 40
0.9398545821
 40
0.9550157392
 40
0.9681021178
 40
0.9791049695
 40
0.9838275471
 40
0.9880351502
 40
0.9917364602
 40
0.9949463697
 40
0.9976882181
 40
1.0
 40
1.0
 40
1.0
 40
1.0
 10
14.7264767741
 20
4.162299177
 30
0.0
 10
14.7210545271
 20
4.1622986062
 30
0.0
 10
14.7102566872
 20
4.1622118993
 30
0.0
 10
14.6941872139
 20
4.1618366192
 30
0.0
 10
14.6784173711
 20
4.1612246128
 30
0.0
 10
14.6630911627
 20
4.1604103539
 30
0.0
 10
14.648340221
 20
4.1594293725
 30
0.0
 10
14.6342899329
 20
4.1583302282
 30
0.0
 10
14.6210592671
 20
4.1571641582
 30
0.0
 10
14.6087595444
 20
4.1559876794
 30
0.0
 10
14.5974926282
 20
4.154860954
 30
0.0
 10
14.5873522177
 20
4.1538421803
 30
0.0
 10
14.579643541
 20
4.1531048408
 30
0.0
 10
14.5741014036
 20
4.152629408
 30
0.0
 10
14.5704370279
 20
4.1523480978
 30
0.0
 10
14.5671118076
 20
4.152133696
 30
0.0
 10
14.5641331818
 20
4.151992108
 30
0.0
 10
14.5615074496
 20
4.1519275364
 30
0.0
 10
14.5592399275
 20
4.1519428238
 30
0.0
 10
14.5575768161
 20
4.1520271236
 30
0.0
 10
14.5564313426
 20
4.1521462003
 30
0.0
 10
14.5557093096
 20
4.1522531828
 30
0.0
 10
14.5550797953
 20
4.152382422
 30
0.0
 10
14.5545424723
 20
4.1525339326
 30
0.0
 10
14.5540970227
 20
4.1527076887
 30
0.0
 10
14.5538404251
 20
4.152850214
 30
0.0
 10
14.5537310836
 20
4.1529268662
 30
0.0
  0
SPLINE
  5
2B3
100
AcDbEntity
  8
0
100
AcDbSpline
 62
9
  6
CONTINUOUS
 70
0
 71
3
 72
11
 73
7
 74
0
 42
0.0000001
 43
0.0000001
 44
0.0000000001
 40
0.0
 40
0.0
 40
0.0
 40
0.0
 40
0.2852331478
 40
0.5374908106
 40
0.7701298376
 40
1.0
 40
1.0
 40
1.0
 40
1.0
 10
14.5537310836
 20
4.1529268662
 30
0.0
 10
14.5536562646
 20
4.1529793169
 30
0.0
 10
14.5535219419
 20
4.1530886926
 30
0.0
 10
14.55336498
 20
4.153281851
 30
0.0
 10
14.5532696142
 20
4.1534931542
 30
0.0
 10
14.5532494839
 20
4.1536422849
 30
0.0
 10
14.5532493733
 20
4.1537159222
 30
0.0
  0
SPLINE
  5
2B4
100
AcDbEntity
  8
0
100
AcDbSpline
 62
9
  6
CONTINUOUS
 70
0
 71
3
 72
12
 73
8
 74
0
 42
0.0000001
 43
0.0000001
 44
0.0000000001
 40
0.0
 40
0.0
 40
0.0
 40
0.0
 40
0.3368724135
 40
0.5987214672
 40
0.8062109407
 40
0.9019416876
 40
1.0
 40
1.0
 40
1.0
 40
1.0
 10
14.915103651
 20
4.1340297991
 30
0.0
 10
14.9151057114
 20
4.1341188207
 30
0.0
 10
14.9151004607
 20
4.1342776943
 30
0.0
 10
14.9150517107
 20
4.1344873065
 30
0.0
 10
14.9149664659
 20
4.1346165558
 30
0.0
 10
14.91487698
 20
4.1346757966
 30
0.0
 10
14.9148278444
 20
4.1346922829
 30
0.0
 10
14.9148025029
 20
4.1346977272
 30
0.0
  0
SPLINE
  5
2B5
100
AcDbEntity
  8
0
100
AcDbSpline
 62
7
  6
CONTINUOUS
 70
0
 71
3
 72
17
 73
13
 74
0
 42
0.0000001
 43
0.0000001
 44
0.0000000001
 40
0.0
 40
0.0
 40
0.0
 40
0.0
 40
0.0955384997
 40
0.1901387522
 40
0.2829206009
 40
0.3730753543
 40
0.4598737505
 40
0.5426428612
 40
0.6934937327
 40
0.8203504075
 40
0.9174475671
 40
1.0
 40
1.0
 40
1.0
 40
1.0
 10
6.940954782
 20
10.7263554046
 30
0.0
 10
6.939542128
 20
10.7173045554
 30
0.0
 10
6.9372129169
 20
10.6992127388
 30
0.0
 10
6.9351657944
 20
10.6721516377
 30
0.0
 10
6.9344915289
 20
10.6455386812
 30
0.0
 10
6.935047919
 20
10.6196732969
 30
0.0
 10
6.936649801
 20
10.5948150843
 30
0.0
 10
6.9398056207
 20
10.5642491932
 30
0.0
 10
6.9450593704
 20
10.5300640013
 30
0.0
 10
6.9523384303
 20
10.4948608611
 30
0.0
 10
6.9593385415
 20
10.4663139336
 30
0.0
 10
6.9638850499
 20
10.4496975885
 30
0.0
 10
6.9660591504
 20
10.4420868475
 30
0.0
  0
SPLINE
  5
2B6
100
AcDbEntity
  8
0
100
AcDbSpline
 62
9
  6
CONTINUOUS
 70
0
 71
3
 72
18
 73
14
 74
0
 42
0.0000001
 43
0.0000001
 44
0.0000000001
 40
0.0
 40
0.0
 40
0.0
 40
0.0
 40
0.0628760661
 40
0.1256800132
 40
0.1883823376
 40
0.2509920412
 40
0.3135303779
 40
0.3760222245
 40
0.500919961
 40
0.6258067553
 40
0.7506895021
 40
0.8754615721
 40
1.0
 40
1.0
 40
1.0
 40
1.0
 10
15.4841704558
 20
3.7372912458
 30
0.0
 10
15.4897955508
 20
3.7283401877
 30
0.0
 10
15.5006162577
 20
3.7101787861
 30
0.0
 10
15.5155785035
 20
3.6822503457
 30
0.0
 10
15.5293060778
 20
3.6537448751
 30
0.0
 10
15.5418398061
 20
3.624744586
 30
0.0
 10
15.5532206503
 20
3.5953110539
 30
0.0
 10
15.5669039046
 20
3.5555706052
 30
0.0
 10
15.5813053677
 20
3.5050301104
 30
0.0
 10
15.5944411163
 20
3.4433743723
 30
0.0
 10
15.6035880794
 20
3.3810253228
 30
0.0
 10
15.60890811
 20
3.3182994369
 30
0.0
 10
15.6100280841
 20
3.2763695203
 30
0.0
 10
15.6100019363
 20
3.2554299884
 30
0.0
  0
SPLINE
  5
2B7
100
AcDbEntity
  8
0
100
AcDbSpline
 62
7
  6
CONTINUOUS
 70
0
 71
3
 72
44
 73
40
 74
0
 42
0.0000001
 43
0.0000001
 44
0.0000000001
 40
0.0
 40
0.0
 40
0.0
 40
0.0
 40
0.095403248
 40
0.1898686954
 40
0.2825194677
 40
0.3725536685
 40
0.4592511614
 40
0.5419484249
 40
0.620007802
 40
0.6927866857
 40
0.7596146688
 40
0.7905771339
 40
0.8197822655
 40
0.8471352633
 40
0.872540145
 40
0.8959002957
 40
0.9171202698
 40
0.9361065057
 40
0.9527700662
 40
0.9602045317
 40
0.9670279345
 40
0.973230787
 40
0.9788047431
 40
0.9837423851
 40
0.9880363349
 40
0.991680263
 40
0.9932569591
 40
0.9946693614
 40
0.9959168832
 40
0.9969989404
 40
0.9979150937
 40
0.9986651241
 40
0.9992488307
 40
0.9994782499
 40
0.9996660128
 40
0.9998120944
 40
0.9999164695
 40
0.9999791131
 40
1.0
 40
1.0
 40
1.0
 40
1.0
 10
7.0805524673
 20
11.6212213566
 30
0.0
 10
7.0791398402
 20
11.6121610713
 30
0.0
 10
7.0768292073
 20
11.5940474719
 30
0.0
 10
7.0748631354
 20
11.5669519116
 30
0.0
 10
7.0743155808
 20
11.5403076385
 30
0.0
 10
7.0750340939
 20
11.5144165389
 30
0.0
 10
7.0768224191
 20
11.4895382805
 30
0.0
 10
7.0794623438
 20
11.4658955299
 30
0.0
 10
7.082729221
 20
11.443684084
 30
0.0
 10
7.086401434
 20
11.4230849699
 30
0.0
 10
7.0897004387
 20
11.4070241932
 30
0.0
 10
7.0923608898
 20
11.3951112053
 30
0.0
 10
7.094278024
 20
11.3869203289
 30
0.0
 10
7.0961446888
 20
11.3792666404
 30
0.0
 10
7.0979381323
 20
11.3721736465
 30
0.0
 10
7.0996363958
 20
11.3656648381
 30
0.0
 10
7.1012189479
 20
11.3597635871
 30
0.0
 10
7.1026661246
 20
11.3544925359
 30
0.0
 10
7.1037832345
 20
11.3505049685
 30
0.0
 10
7.1045947574
 20
11.3476458727
 30
0.0
 10
7.1051356166
 20
11.3457551117
 30
0.0
 10
7.1056304026
 20
11.3440371715
 30
0.0
 10
7.1060775366
 20
11.3424941282
 30
0.0
 10
7.1064756493
 20
11.341127905
 30
0.0
 10
7.1068233719
 20
11.339940221
 30
0.0
 10
7.1070812402
 20
11.3390628305
 30
0.0
 10
7.1072614712
 20
11.3384512985
 30
0.0
 10
7.1073767566
 20
11.3380607531
 30
0.0
 10
7.1074787124
 20
11.3377158435
 30
0.0
 10
7.1075672365
 20
11.3374167014
 30
0.0
 10
7.1076422376
 20
11.3371634231
 30
0.0
 10
7.1077037012
 20
11.3369560939
 30
0.0
 10
7.1077463934
 20
11.336812039
 30
0.0
 10
7.1077738137
 20
11.336719835
 30
0.0
 10
7.1077891218
 20
11.3366678919
 30
0.0
 10
7.1078013764
 20
11.3366276292
 30
0.0
 10
7.1078093558
 20
11.3365985249
 30
0.0
 10
7.107815541
 20
11.3365816637
 30
0.0
 10
7.1078167535
 20
11.3365735014
 30
0.0
 10
7.1078177677
 20
11.3365717688
 30
0.0
  0
SPLINE
  5
2B8
100
AcDbEntity
  8
0
100
AcDbSpline
 62
9
  6
CONTINUOUS
 70
0
 71
3
 72
16
 73
12
 74
0
 42
0.0000001
 43
0.0000001
 44
0.0000000001
 40
0.0
 40
0.0
 40
0.0
 40
0.0
 40
0.1249972587
 40
0.2499939798
 40
0.3749920259
 40
0.4999900131
 40
0.624988065
 40
0.7499858736
 40
0.8124960992
 40
0.8750060824
 40
1.0
 40
1.0
 40
1.0
 40
1.0
 10
15.6085858895
 20
3.2554299884
 30
0.0
 10
15.6085856759
 20
3.2783064765
 30
0.0
 10
15.6067214064
 20
3.3240788765
 30
0.0
 10
15.5985916211
 20
3.3922890109
 30
0.0
 10
15.5853308307
 20
3.4596916183
 30
0.0
 10
15.5670906807
 20
3.5259188959
 30
0.0
 10
15.5439754525
 20
3.5906052611
 30
0.0
 10
15.520691977
 20
3.6429116956
 30
0.0
 10
15.4996654005
 20
3.6835642062
 30
0.0
 10
15.4770362054
 20
3.7233426738
 30
0.0
 10
15.4582404173
 20
3.752117714
 30
0.0
 10
15.4449089465
 20
3.7707074322
 30
0.0
  0
SPLINE
  5
2B9
100
AcDbEntity
  8
0
100
AcDbSpline
 62
7
  6
CONTINUOUS
 70
0
 71
3
 72
45
 73
41
 74
0
 42
0.0000001
 43
0.0000001
 44
0.0000000001
 40
0.0
 40
0.0
 40
0.0
 40
0.0
 40
0.0000205798
 40
0.000082304
 40
0.0001851494
 40
0.0003290928
 40
0.0005141108
 40
0.0007401803
 40
0.0013153808
 40
0.0020545083
 40
0.0029573771
 40
0.0040237902
 40
0.0052533638
 40
0.0066455593
 40
0.0081998332
 40
0.0117924442
 40
0.016026783
 40
0.0208971414
 40
0.0263966926
 40
0.0325185724
 40
0.0392552171
 40
0.0465978554
 40
0.063065383
 40
0.0818444989
 40
0.1028525226
 40
0.1260022375
 40
0.1512042329
 40
0.1783675109
 40
0.2074012261
 40
0.2382151583
 40
0.2707206199
 40
0.3048307314
 40
0.3775248304
 40
0.4556390442
 40
0.5385287071
 40
0.6255413007
 40
0.7159871065
 40
0.8091127103
 40
0.9040835361
 40
1.0
 40
1.0
 40
1.0
 40
1.0
 10
7.0523470044
 20
10.98655593
 30
0.0
 10
7.0523485011
 20
10.9865571933
 30
0.0
 10
7.0523376821
 20
10.9865437585
 30
0.0
 10
7.0523337936
 20
10.9865360288
 30
0.0
 10
7.0523135805
 20
10.9865080364
 30
0.0
 10
7.0522917413
 20
10.9864759477
 30
0.0
 10
7.0522610867
 20
10.9864318514
 30
0.0
 10
7.0522079729
 20
10.9863549718
 30
0.0
 10
7.0521244082
 20
10.9862341883
 30
0.0
 10
7.0520045184
 20
10.9860606953
 30
0.0
 10
7.0518579875
 20
10.9858485891
 30
0.0
 10
7.0516850228
 20
10.9855980855
 30
0.0
 10
7.0514856718
 20
10.9853091859
 30
0.0
 10
7.0512600876
 20
10.9849819862
 30
0.0
 10
7.0509070885
 20
10.9844694743
 30
0.0
 10
7.0504012528
 20
10.9837337993
 30
0.0
 10
7.0497177213
 20
10.9827373157
 30
0.0
 10
7.0489330671
 20
10.9815901255
 30
0.0
 10
7.048049062
 20
10.9802932568
 30
0.0
 10
7.0470675285
 20
10.9788479209
 30
0.0
 10
7.0459904944
 20
10.9772554163
 30
0.0
 10
7.0443671178
 20
10.9748438046
 30
0.0
 10
7.0421159951
 20
10.9714732383
 30
0.0
 10
7.0391671272
 20
10.9670048646
 30
0.0
 10
7.0358995603
 20
10.9619850046
 30
0.0
 10
7.0323383632
 20
10.9564271124
 30
0.0
 10
7.0285097259
 20
10.9503451084
 30
0.0
 10
7.0244414429
 20
10.9437526091
 30
0.0
 10
7.0201620654
 20
10.9366632184
 30
0.0
 10
7.0157011598
 20
10.9290901055
 30
0.0
 10
7.0110890358
 20
10.9210460333
 30
0.0
 10
7.0046410987
 20
10.9094613879
 30
0.0
 10
6.996406373
 20
10.8939053503
 30
0.0
 10
6.9866265006
 20
10.8739256397
 30
0.0
 10
6.9770173414
 20
10.8523604872
 30
0.0
 10
6.9678528096
 20
10.8293326696
 30
0.0
 10
6.9594045393
 20
10.8049970111
 30
0.0
 10
6.9519282549
 20
10.7795529812
 30
0.0
 10
6.9456439562
 20
10.753252497
 30
0.0
 10
6.9423624712
 20
10.7353744437
 30
0.0
 10
6.940954782
 20
10.7263554046
 30
0.0
  0
SPLINE
  5
2BA
100
AcDbEntity
  8
0
100
AcDbSpline
 62
7
  6
CONTINUOUS
 70
0
 71
3
 72
45
 73
41
 74
0
 42
0.0000001
 43
0.0000001
 44
0.0000000001
 40
0.0
 40
0.0
 40
0.0
 40
0.0
 40
0.000020678
 40
0.0000826961
 40
0.0001860303
 40
0.0003306566
 40
0.0005165511
 40
0.0007436899
 40
0.001321604
 40
0.0020642072
 40
0.0029713079
 40
0.0040427018
 40
0.0052779887
 40
0.0066766125
 40
0.008238013
 40
0.011846904
 40
0.0161001039
 40
0.0209917005
 40
0.0265146578
 40
0.0326619035
 40
0.0394256196
 40
0.0467967758
 40
0.0633246538
 40
0.0821666999
 40
0.1032380666
 40
0.1264494251
 40
0.1517093906
 40
0.1789252015
 40
0.2080044734
 40
0.2388557219
 40
0.2713892953
 40
0.305517624
 40
0.3782172744
 40
0.4562968651
 40
0.5391165694
 40
0.6260319503
 40
0.7163629337
 40
0.8093650174
 40
0.9042097269
 40
1.0
 40
1.0
 40
1.0
 40
1.0
 10
7.1941056217
 20
11.8810408514
 30
0.0
 10
7.1941071066
 20
11.8810421494
 30
0.0
 10
7.1940961522
 20
11.8810286369
 30
0.0
 10
7.1940920664
 20
11.8810209966
 30
0.0
 10
7.1940714528
 20
11.880992976
 30
0.0
 10
7.1940490868
 20
11.8809609311
 30
0.0
 10
7.1940177418
 20
11.8809168579
 30
0.0
 10
7.193963409
 20
11.8808400377
 30
0.0
 10
7.1938779381
 20
11.8807193398
 30
0.0
 10
7.1937553079
 20
11.8805459759
 30
0.0
 10
7.1936054311
 20
11.8803340283
 30
0.0
 10
7.1934285181
 20
11.8800837163
 30
0.0
 10
7.1932246202
 20
11.8797950422
 30
0.0
 10
7.1929938948
 20
11.8794681048
 30
0.0
 10
7.1926328644
 20
11.8789560254
 30
0.0
 10
7.1921155371
 20
11.8782210023
 30
0.0
 10
7.1914164993
 20
11.8772254464
 30
0.0
 10
7.19061409
 20
11.8760793985
 30
0.0
 10
7.1897101339
 20
11.8747839156
 30
0.0
 10
7.1887065107
 20
11.8733402419
 30
0.0
 10
7.187605317
 20
11.8717497054
 30
0.0
 10
7.1859457763
 20
11.869341482
 30
0.0
 10
7.1836447981
 20
11.8659761958
 30
0.0
 10
7.1806309179
 20
11.8615154386
 30
0.0
 10
7.1772918497
 20
11.8565051765
 30
0.0
 10
7.1736533106
 20
11.8509590445
 30
0.0
 10
7.1697421292
 20
11.8448911027
 30
0.0
 10
7.1655867334
 20
11.8383150336
 30
0.0
 10
7.1612163055
 20
11.8312444299
 30
0.0
 10
7.1566610208
 20
11.8236923716
 30
0.0
 10
7.1519518141
 20
11.8156714305
 30
0.0
 10
7.1453697932
 20
11.8041226005
 30
0.0
 10
7.1369644464
 20
11.7886143932
 30
0.0
 10
7.1269820785
 20
11.7686898272
 30
0.0
 10
7.1171765201
 20
11.7471761123
 30
0.0
 10
7.1078297743
 20
11.7241904308
 30
0.0
 10
7.0992231401
 20
11.6998825814
 30
0.0
 10
7.0916229967
 20
11.6744488815
 30
0.0
 10
7.0852594911
 20
11.6481412575
 30
0.0
 10
7.0819599886
 20
11.6302488943
 30
0.0
 10
7.0805524673
 20
11.6212213566
 30
0.0
  0
SPLINE
  5
2BB
100
AcDbEntity
  8
0
100
AcDbSpline
 62
9
  6
CONTINUOUS
 70
0
 71
3
 72
15
 73
11
 74
0
 42
0.0000001
 43
0.0000001
 44
0.0000000001
 40
0.0
 40
0.0
 40
0.0
 40
0.0
 40
0.1248125936
 40
0.2497718781
 40
0.3747996264
 40
0.4998741952
 40
0.624963352
 40
0.7500363174
 40
0.8750654515
 40
1.0
 40
1.0
 40
1.0
 40
1.0
 10
15.4129818416
 20
3.747807153
 30
0.0
 10
15.4257013536
 20
3.730072735
 30
0.0
 10
15.4496148745
 20
3.6934526958
 30
0.0
 10
15.480848379
 20
3.6357639216
 30
0.0
 10
15.5075198848
 20
3.5757794059
 30
0.0
 10
15.5295803819
 20
3.5139307116
 30
0.0
 10
15.5470033099
 20
3.450611881
 30
0.0
 10
15.5596640227
 20
3.3861776141
 30
0.0
 10
15.5674380887
 20
3.3210019813
 30
0.0
 10
15.5692173152
 20
3.277275531
 30
0.0
 10
15.5692173098
 20
3.2554300096
 30
0.0
  0
SPLINE
  5
2BC
100
AcDbEntity
  8
0
100
AcDbSpline
 62
9
  6
CONTINUOUS
 70
0
 71
3
 72
15
 73
11
 74
0
 42
0.0000001
 43
0.0000001
 44
0.0000000001
 40
0.0
 40
0.0
 40
0.0
 40
0.0
 40
0.1249340944
 40
0.2499626822
 40
0.3750355108
 40
0.5001247543
 40
0.6251993903
 40
0.7502273843
 40
0.8751872142
 40
1.0
 40
1.0
 40
1.0
 40
1.0
 10
13.8837362371
 20
3.2554299885
 30
0.0
 10
13.8837362313
 20
3.2772754313
 30
0.0
 10
13.8855154293
 20
3.3210017089
 30
0.0
 10
13.8932894594
 20
3.3861771485
 30
0.0
 10
13.9059501277
 20
3.4506113195
 30
0.0
 10
13.9233729967
 20
3.5139301715
 30
0.0
 10
13.945433461
 20
3.5757789551
 30
0.0
 10
13.9721050113
 20
3.6357636194
 30
0.0
 10
14.0033385982
 20
3.6934525471
 30
0.0
 10
14.0272521722
 20
3.730072708
 30
0.0
 10
14.0399717052
 20
3.7478071534
 30
0.0
  0
SPLINE
  5
2BD
100
AcDbEntity
  8
0
100
AcDbSpline
 62
9
  6
CONTINUOUS
 70
0
 71
3
 72
18
 73
14
 74
0
 42
0.0000001
 43
0.0000001
 44
0.0000000001
 40
0.0
 40
0.0
 40
0.0
 40
0.0
 40
0.1245542582
 40
0.2493106365
 40
0.3741898097
 40
0.4990926826
 40
0.6239877889
 40
0.6864743003
 40
0.7490083236
 40
0.8116176211
 40
0.8743217321
 40
0.9371255289
 40
1.0
 40
1.0
 40
1.0
 40
1.0
 10
13.8429511945
 20
3.2554299884
 30
0.0
 10
13.8429255975
 20
3.2763721808
 30
0.0
 10
13.8440459422
 20
3.3183020889
 30
0.0
 10
13.8493649955
 20
3.38102742
 30
0.0
 10
13.8585102444
 20
3.443376261
 30
0.0
 10
13.8716506826
 20
3.5050327395
 30
0.0
 10
13.8860527047
 20
3.5555743754
 30
0.0
 10
13.8997340834
 20
3.5953132782
 30
0.0
 10
13.9111132018
 20
3.6247456692
 30
0.0
 10
13.9236470085
 20
3.6537454087
 30
0.0
 10
13.9373758763
 20
3.6822504867
 30
0.0
 10
13.9523387421
 20
3.7101785784
 30
0.0
 10
13.9631586878
 20
3.7283400626
 30
0.0
 10
13.9687830876
 20
3.7372912398
 30
0.0
  0
SPLINE
  5
2BE
100
AcDbEntity
  8
0
100
AcDbSpline
 62
9
  6
CONTINUOUS
 70
0
 71
3
 72
17
 73
13
 74
0
 42
0.0000001
 43
0.0000001
 44
0.0000000001
 40
0.0
 40
0.0
 40
0.0
 40
0.0
 40
0.103333071
 40
0.1797930467
 40
0.2134530428
 40
0.2479315949
 40
0.2861978551
 40
0.3304644572
 40
0.4420727728
 40
0.5893386226
 40
0.7748862481
 40
1.0
 40
1.0
 40
1.0
 40
1.0
 10
15.4759971839
 20
3.7520815235
 30
0.0
 10
15.4760259519
 20
3.752038072
 30
0.0
 10
15.4760711363
 20
3.7519587273
 30
0.0
 10
15.4760896842
 20
3.7518477897
 30
0.0
 10
15.4760668807
 20
3.7517771107
 30
0.0
 10
15.4760345359
 20
3.7517332785
 30
0.0
 10
15.4759874774
 20
3.751696739
 30
0.0
 10
15.4758989541
 20
3.75165376
 30
0.0
 10
15.4757481859
 20
3.7516203152
 30
0.0
 10
15.475524289
 20
3.7516058457
 30
0.0
 10
15.475242691
 20
3.7516148259
 30
0.0
 10
15.4750364613
 20
3.7516346734
 30
0.0
 10
15.4749237067
 20
3.7516478918
 30
0.0
  0
SPLINE
  5
2BF
100
AcDbEntity
  8
0
100
AcDbSpline
 62
9
  6
CONTINUOUS
 70
0
 71
3
 72
11
 73
7
 74
0
 42
0.0000001
 43
0.0000001
 44
0.0000000001
 40
0.0
 40
0.0
 40
0.0
 40
0.0
 40
0.3077373477
 40
0.5754165491
 40
0.80501563
 40
1.0
 40
1.0
 40
1.0
 40
1.0
 10
15.4813445199
 20
3.7439061897
 30
0.0
 10
15.4817479844
 20
3.7432812219
 30
0.0
 10
15.4824684324
 20
3.7420898883
 30
0.0
 10
15.483337776
 20
3.7403456134
 30
0.0
 10
15.4839189044
 20
3.7387724649
 30
0.0
 10
15.4841279633
 20
3.7377606578
 30
0.0
 10
15.4841704645
 20
3.7372912461
 30
0.0
  0
SPLINE
  5
2C0
100
AcDbEntity
  8
0
100
AcDbSpline
 62
9
  6
CONTINUOUS
 70
0
 71
3
 72
16
 73
12
 74
0
 42
0.0000001
 43
0.0000001
 44
0.0000000001
 40
0.0
 40
0.0
 40
0.0
 40
0.0
 40
0.124993953
 40
0.1875039376
 40
0.2500141597
 40
0.3750119748
 40
0.50001004
 40
0.6250079863
 40
0.7500060351
 40
0.8750027702
 40
1.0
 40
1.0
 40
1.0
 40
1.0
 10
14.0080445922
 20
3.7707074207
 30
0.0
 10
13.9947131197
 20
3.7521176964
 30
0.0
 10
13.9759173368
 20
3.7233426462
 30
0.0
 10
13.9532881269
 20
3.6835641814
 30
0.0
 10
13.9322615472
 20
3.6429116727
 30
0.0
 10
13.9089780818
 20
3.5906052295
 30
0.0
 10
13.8858629191
 20
3.5259188516
 30
0.0
 10
13.8676225914
 20
3.4596916284
 30
0.0
 10
13.8543619252
 20
3.3922889972
 30
0.0
 10
13.8462321977
 20
3.3240788642
 30
0.0
 10
13.8443678931
 20
3.2783064707
 30
0.0
 10
13.8443676575
 20
3.2554299884
 30
0.0
  0
SPLINE
  5
2C1
100
AcDbEntity
  8
0
100
AcDbSpline
 62
9
  6
CONTINUOUS
 70
0
 71
3
 72
23
 73
19
 74
0
 42
0.0000001
 43
0.0000001
 44
0.0000000001
 40
0.0
 40
0.0
 40
0.0
 40
0.0
 40
0.0631302165
 40
0.1258951096
 40
0.1883663678
 40
0.2506007097
 40
0.3126604857
 40
0.3746132852
 40
0.4365222605
 40
0.4984481509
 40
0.5604524671
 40
0.6225991757
 40
0.6849421498
 40
0.7475131389
 40
0.8103215887
 40
0.8733516414
 40
0.9365839917
 40
1.0
 40
1.0
 40
1.0
 40
1.0
 10
13.8429535685
 20
3.2554299899
 30
0.0
 10
13.8429480137
 20
3.2644102476
 30
0.0
 10
13.8431394175
 20
3.2823196569
 30
0.0
 10
13.8440570628
 20
3.3091014581
 30
0.0
 10
13.8456126489
 20
3.3357263144
 30
0.0
 10
13.8478040194
 20
3.362205749
 30
0.0
 10
13.8506391114
 20
3.3885499508
 30
0.0
 10
13.8541285311
 20
3.4147689066
 30
0.0
 10
13.8582859692
 20
3.4408710939
 30
0.0
 10
13.8631251509
 20
3.4668631096
 30
0.0
 10
13.8686685977
 20
3.492748933
 30
0.0
 10
13.8749526846
 20
3.518526392
 30
0.0
 10
13.8820084849
 20
3.5441872656
 30
0.0
 10
13.8898624209
 20
3.5697140073
 30
0.0
 10
13.8985422869
 20
3.5950755688
 30
0.0
 10
13.9080821293
 20
3.620227552
 30
0.0
 10
13.9185057978
 20
3.645119995
 30
0.0
 10
13.9260481975
 20
3.6614860155
 30
0.0
 10
13.9299754932
 20
3.6696071745
 30
0.0
  0
SPLINE
  5
2C2
100
AcDbEntity
  8
0
100
AcDbSpline
 62
9
  6
CONTINUOUS
 70
0
 71
3
 72
29
 73
25
 74
0
 42
0.0000001
 43
0.0000001
 44
0.0000000001
 40
0.0
 40
0.0
 40
0.0
 40
0.0
 40
0.0359486328
 40
0.0715291922
 40
0.1067045606
 40
0.1414514392
 40
0.1757586265
 40
0.2096249701
 40
0.2430572291
 40
0.2760680489
 40
0.3086741528
 40
0.340895104
 40
0.3727525283
 40
0.4042686995
 40
0.4663558699
 40
0.5273496118
 40
0.587423185
 40
0.6467432414
 40
0.705474894
 40
0.7637948158
 40
0.8219167146
 40
0.8801491295
 40
0.9390565763
 40
1.0
 40
1.0
 40
1.0
 40
1.0
 10
14.8997545585
 20
4.2826633903
 30
0.0
 10
14.9141714667
 20
4.2793010724
 30
0.0
 10
14.942672304
 20
4.2717858734
 30
0.0
 10
14.9844823109
 20
4.2581966389
 30
0.0
 10
15.0250199709
 20
4.2425065127
 30
0.0
 10
15.0641799069
 20
4.2248851781
 30
0.0
 10
15.1018908775
 20
4.2055002124
 30
0.0
 10
15.1381081595
 20
4.1845128357
 30
0.0
 10
15.1728094472
 20
4.1620747144
 30
0.0
 10
15.2059898133
 20
4.1383262114
 30
0.0
 10
15.2376576305
 20
4.1133956251
 30
0.0
 10
15.2678310484
 20
4.0873995391
 30
0.0
 10
15.2965354099
 20
4.0604418479
 30
0.0
 10
15.332703211
 20
4.0235306116
 30
0.0
 10
15.3744924872
 20
3.9754073642
 30
0.0
 10
15.4195093954
 20
3.9148076564
 30
0.0
 10
15.4594199436
 20
3.8520818784
 30
0.0
 10
15.4944666443
 20
3.7875799801
 30
0.0
 10
15.5248685651
 20
3.7215622512
 30
0.0
 10
15.5508155446
 20
3.6542020897
 30
0.0
 10
15.5724699557
 20
3.5855602052
 30
0.0
 10
15.5899684881
 20
3.5154942453
 30
0.0
 10
15.6034266036
 20
3.4433616166
 30
0.0
 10
15.6095119593
 20
3.3943455942
 30
0.0
 10
15.6118377035
 20
3.3693568338
 30
0.0
  0
LINE
  5
2C3
100
AcDbEntity
  8
0
100
AcDbLine
 62
9
  6
CONTINUOUS
 10
15.6118377035
 20
3.3693568338
 11
15.6119655689
 21
3.3679745318
  0
LINE
  5
2C4
100
AcDbEntity
  8
0
100
AcDbLine
 62
9
  6
CONTINUOUS
 10
15.615036188
 20
3.1837721036
 11
15.6149033572
 21
3.1815299915
  0
SPLINE
  5
2C5
100
AcDbEntity
  8
0
100
AcDbSpline
 62
9
  6
CONTINUOUS
 70
0
 71
3
 72
33
 73
29
 74
0
 42
0.0000001
 43
0.0000001
 44
0.0000000001
 40
0.0
 40
0.0
 40
0.0
 40
0.0
 40
0.0616800106
 40
0.1198806481
 40
0.1770916598
 40
0.2341494814
 40
0.2914577941
 40
0.3492850844
 40
0.3784694599
 40
0.4078664453
 40
0.4375030879
 40
0.4674069745
 40
0.4976060917
 40
0.5281294438
 40
0.5590064838
 40
0.5902666596
 40
0.6219390902
 40
0.6540514721
 40
0.6866285413
 40
0.7196900371
 40
0.7532481352
 40
0.7873042567
 40
0.8218454326
 40
0.8568406847
 40
0.8922380323
 40
0.9279633513
 40
0.9639209316
 40
1.0
 40
1.0
 40
1.0
 40
1.0
 10
15.6149033572
 20
3.1815299915
 30
0.0
 10
15.613112697
 20
3.1517650916
 30
0.0
 10
15.6075239665
 20
3.0940179229
 30
0.0
 10
15.5932163039
 20
3.009542405
 30
0.0
 10
15.5735987533
 20
2.92843414
 30
0.0
 10
15.5484788181
 20
2.8493087945
 30
0.0
 10
15.5176398762
 20
2.7719091384
 30
0.0
 10
15.4870455953
 20
2.709122797
 30
0.0
 10
15.4595010002
 20
2.6600337576
 30
0.0
 10
15.4371651873
 20
2.6236880498
 30
0.0
 10
15.4131728615
 20
2.5879938361
 30
0.0
 10
15.387475629
 20
2.5530230534
 30
0.0
 10
15.3600228343
 20
2.5188599369
 30
0.0
 10
15.3307632856
 20
2.4856001935
 30
0.0
 10
15.299645327
 20
2.4533538541
 30
0.0
 10
15.2666191847
 20
2.4222467355
 30
0.0
 10
15.2316398606
 20
2.3924219158
 30
0.0
 10
15.1946703966
 20
2.3640417371
 30
0.0
 10
15.1556868665
 20
2.3372892602
 30
0.0
 10
15.1146847081
 20
2.3123689503
 30
0.0
 10
15.0716865523
 20
2.2895059958
 30
0.0
 10
15.0267513901
 20
2.2689434844
 30
0.0
 10
14.9799843577
 20
2.2509369902
 30
0.0
 10
14.9315461005
 20
2.2357452322
 30
0.0
 10
14.881660056
 20
2.2236165889
 30
0.0
 10
14.8306133598
 20
2.2147729193
 30
0.0
 10
14.7787564524
 20
2.2093901276
 30
0.0
 10
14.7439189144
 20
2.2081859112
 30
0.0
 10
14.7264767735
 20
2.208185894
 30
0.0
  0
SPLINE
  5
2C6
100
AcDbEntity
  8
0
100
AcDbSpline
 62
9
  6
CONTINUOUS
 70
0
 71
3
 72
11
 73
7
 74
0
 42
0.0000001
 43
0.0000001
 44
0.0000000001
 40
0.0
 40
0.0
 40
0.0
 40
0.0
 40
0.2299035742
 40
0.4625671953
 40
0.714818165
 40
1.0
 40
1.0
 40
1.0
 40
1.0
 10
14.8997044107
 20
4.1537157057
 30
0.0
 10
14.8997042952
 20
4.1536421195
 30
0.0
 10
14.8996841844
 20
4.1534930986
 30
0.0
 10
14.8995889497
 20
4.1532819363
 30
0.0
 10
14.8994322084
 20
4.1530888845
 30
0.0
 10
14.8992980643
 20
4.1529795499
 30
0.0
 10
14.8992233457
 20
4.1529271184
 30
0.0
  0
SPLINE
  5
2C7
100
AcDbEntity
  8
0
100
AcDbSpline
 62
9
  6
CONTINUOUS
 70
0
 71
3
 72
31
 73
27
 74
0
 42
0.0000001
 43
0.0000001
 44
0.0000000001
 40
0.0
 40
0.0
 40
0.0
 40
0.0
 40
0.0023112165
 40
0.0050524599
 40
0.0082617697
 40
0.0119625076
 40
0.0161695777
 40
0.0208916746
 40
0.0318937682
 40
0.0449797094
 40
0.0601407851
 40
0.0773591196
 40
0.0966029873
 40
0.1178280213
 40
0.1409872656
 40
0.1929094278
 40
0.2519028038
 40
0.317443349
 40
0.3889602425
 40
0.4658385562
 40
0.5474186113
 40
0.6329792903
 40
0.7217914773
 40
0.813112887
 40
0.9061558061
 40
1.0
 40
1.0
 40
1.0
 40
1.0
 10
14.8992233457
 20
4.1529271184
 30
0.0
 10
14.8991140654
 20
4.1528504343
 30
0.0
 10
14.8988575757
 20
4.1527078456
 30
0.0
 10
14.8984122613
 20
4.1525340129
 30
0.0
 10
14.8978750595
 20
4.1523824349
 30
0.0
 10
14.897245653
 20
4.1522531383
 30
0.0
 10
14.8965237145
 20
4.1521461098
 30
0.0
 10
14.8953783416
 20
4.1520269845
 30
0.0
 10
14.8937153174
 20
4.1519426565
 30
0.0
 10
14.8914478552
 20
4.1519273643
 30
0.0
 10
14.88882212
 20
4.151991947
 30
0.0
 10
14.8858434234
 20
4.152133548
 30
0.0
 10
14.8825180599
 20
4.1523479626
 30
0.0
 10
14.8788534652
 20
4.1526292901
 30
0.0
 10
14.8733108773
 20
4.15310476
 30
0.0
 10
14.8656014617
 20
4.1538421742
 30
0.0
 10
14.8554600125
 20
4.1548610644
 30
0.0
 10
14.8441918407
 20
4.1559879247
 30
0.0
 10
14.831890475
 20
4.157164546
 30
0.0
 10
14.8186576726
 20
4.1583307305
 30
0.0
 10
14.8046052021
 20
4.15942993
 30
0.0
 10
14.7898529346
 20
4.1604108542
 30
0.0
 10
14.7745269171
 20
4.1612249169
 30
0.0
 10
14.7587588604
 20
4.1618368467
 30
0.0
 10
14.7426926512
 20
4.1622123541
 30
0.0
 10
14.731897438
 20
4.1622991154
 30
0.0
 10
14.7264767732
 20
4.1622996106
 30
0.0
  0
SPLINE
  5
2C8
100
AcDbEntity
  8
0
100
AcDbSpline
 62
9
  6
CONTINUOUS
 70
0
 71
3
 72
15
 73
11
 74
0
 42
0.0000001
 43
0.0000001
 44
0.0000000001
 40
0.0
 40
0.0
 40
0.0
 40
0.0
 40
0.0635682468
 40
0.1314106402
 40
0.267526022
 40
0.3968951849
 40
0.5191029707
 40
0.6380437211
 40
0.7568026804
 40
1.0
 40
1.0
 40
1.0
 40
1.0
 10
14.5378500186
 20
4.1340302466
 30
0.0
 10
14.5383564355
 20
4.1341196039
 30
0.0
 10
14.5393945439
 20
4.1343577799
 30
0.0
 10
14.5414508883
 20
4.1350408694
 30
0.0
 10
14.5438764154
 20
4.1362595667
 30
0.0
 10
14.5463904583
 20
4.1381601445
 30
0.0
 10
14.5484615947
 20
4.1403428829
 30
0.0
 10
14.5501451107
 20
4.1427304533
 30
0.0
 10
14.551943803
 20
4.146188372
 30
0.0
 10
14.552767076
 20
4.149046909
 30
0.0
 10
14.5530515266
 20
4.1509935994
 30
0.0
  0
SPLINE
  5
2C9
100
AcDbEntity
  8
0
100
AcDbSpline
 62
9
  6
CONTINUOUS
 70
0
 71
3
 72
15
 73
11
 74
0
 42
0.0000001
 43
0.0000001
 44
0.0000000001
 40
0.0
 40
0.0
 40
0.0
 40
0.0
 40
0.2431912763
 40
0.3619639037
 40
0.4809129005
 40
0.6031358277
 40
0.7325103535
 40
0.8686150223
 40
0.936447639
 40
1.0
 40
1.0
 40
1.0
 40
1.0
 10
14.8999028176
 20
4.1509895822
 30
0.0
 10
14.9001875618
 20
4.1490433239
 30
0.0
 10
14.9010110669
 20
4.1461853322
 30
0.0
 10
14.9028100191
 20
4.1427281481
 30
0.0
 10
14.9044937702
 20
4.1403409853
 30
0.0
 10
14.906565096
 20
4.1381588088
 30
0.0
 10
14.9090790734
 20
4.1362589155
 30
0.0
 10
14.9115042
 20
4.1350407545
 30
0.0
 10
14.9135599556
 20
4.1343580066
 30
0.0
 10
14.9145976915
 20
4.134119955
 30
0.0
 10
14.915103898
 20
4.1340306504
 30
0.0
  0
SPLINE
  5
2CA
100
AcDbEntity
  8
0
100
AcDbSpline
 62
9
  6
CONTINUOUS
 70
0
 71
3
 72
33
 73
29
 74
0
 42
0.0000001
 43
0.0000001
 44
0.0000000001
 40
0.0
 40
0.0
 40
0.0
 40
0.0
 40
0.096369321
 40
0.1917945047
 40
0.2853444725
 40
0.3761238616
 40
0.4632843539
 40
0.5460326345
 40
0.6236241482
 40
0.6953813847
 40
0.760675515
 40
0.8189508836
 40
0.8696976533
 40
0.8921119556
 40
0.9124927302
 40
0.9307970935
 40
0.9391593753
 40
0.9469900932
 40
0.96104473
 40
0.9729522846
 40
0.9781037125
 40
0.982723116
 40
0.9868149532
 40
0.9903872954
 40
0.9934545018
 40
0.9960431893
 40
0.9981989512
 40
1.0
 40
1.0
 40
1.0
 40
1.0
 10
14.7264767735
 20
4.1422728617
 30
0.0
 10
14.7203980374
 20
4.1422727222
 30
0.0
 10
14.7082999374
 20
4.1421869468
 30
0.0
 10
14.690304645
 20
4.1418036325
 30
0.0
 10
14.6726686463
 20
4.1411878979
 30
0.0
 10
14.6555628417
 20
4.140370231
 30
0.0
 10
14.639148019
 20
4.1393929029
 30
0.0
 10
14.6235739878
 20
4.138305823
 30
0.0
 10
14.608978217
 20
4.1371658035
 30
0.0
 10
14.5954865359
 20
4.1360327645
 30
0.0
 10
14.5832118478
 20
4.1349686397
 30
0.0
 10
14.5722562323
 20
4.1340338555
 30
0.0
 10
14.5639907564
 20
4.1333852186
 30
0.0
 10
14.5581033149
 20
4.1329933023
 30
0.0
 10
14.5542552224
 20
4.1327784407
 30
0.0
 10
14.5512899627
 20
4.1326557051
 30
0.0
 10
14.5491146536
 20
4.1325988719
 30
0.0
 10
14.5472068683
 20
4.132571368
 30
0.0
 10
14.5450750329
 20
4.1325825745
 30
0.0
 10
14.5431134107
 20
4.1326662087
 30
0.0
 10
14.5417508749
 20
4.1327842395
 30
0.0
 10
14.5408827024
 20
4.1328904839
 30
0.0
 10
14.5401182577
 20
4.133018797
 30
0.0
 10
14.539457798
 20
4.1331693851
 30
0.0
 10
14.5389012634
 20
4.1333425065
 30
0.0
 10
14.5384477936
 20
4.1335387379
 30
0.0
 10
14.5380961256
 20
4.133758632
 30
0.0
 10
14.5379163901
 20
4.1339369987
 30
0.0
 10
14.5378502133
 20
4.1340293398
 30
0.0
  0
SPLINE
  5
2CB
100
AcDbEntity
  8
0
100
AcDbSpline
 62
9
  6
CONTINUOUS
 70
0
 71
3
 72
12
 73
8
 74
0
 42
0.0000001
 43
0.0000001
 44
0.0000000001
 40
0.0
 40
0.0
 40
0.0
 40
0.0
 40
0.0979928555
 40
0.1936465035
 40
0.4010365491
 40
0.6629345286
 40
1.0
 40
1.0
 40
1.0
 40
1.0
 10
14.5381507817
 20
4.1346976661
 30
0.0
 10
14.5381254528
 20
4.1346922259
 30
0.0
 10
14.538076345
 20
4.134675745
 30
0.0
 10
14.5379869286
 20
4.134616476
 30
0.0
 10
14.5379018487
 20
4.134487119
 30
0.0
 10
14.537853317
 20
4.1342773939
 30
0.0
 10
14.537848153
 20
4.1341184325
 30
0.0
 10
14.5378502451
 20
4.1340293466
 30
0.0
  0
SPLINE
  5
2CC
100
AcDbEntity
  8
0
100
AcDbSpline
 62
9
  6
CONTINUOUS
 70
0
 71
3
 72
11
 73
7
 74
0
 42
0.0000001
 43
0.0000001
 44
0.0000000001
 40
0.0
 40
0.0
 40
0.0
 40
0.0
 40
0.3077342786
 40
0.5754123632
 40
0.8050123968
 40
1.0
 40
1.0
 40
1.0
 40
1.0
 10
13.9716087058
 20
3.7439056785
 30
0.0
 10
13.9712052813
 20
3.743280766
 30
0.0
 10
13.9704849054
 20
3.7420895334
 30
0.0
 10
13.9696156557
 20
3.7403453981
 30
0.0
 10
13.9690345978
 20
3.7387723613
 30
0.0
 10
13.9688255759
 20
3.7377606221
 30
0.0
 10
13.9687830878
 20
3.7372912401
 30
0.0
  0
SPLINE
  5
2CD
100
AcDbEntity
  8
0
100
AcDbSpline
 62
9
  6
CONTINUOUS
 70
0
 71
3
 72
17
 73
13
 74
0
 42
0.0000001
 43
0.0000001
 44
0.0000000001
 40
0.0
 40
0.0
 40
0.0
 40
0.0
 40
0.1032265801
 40
0.1796593904
 40
0.2133290684
 40
0.2478246733
 40
0.2861085777
 40
0.3303896553
 40
0.4420152952
 40
0.5892904129
 40
0.774852504
 40
1.0
 40
1.0
 40
1.0
 40
1.0
 10
13.9769565126
 20
3.7520816654
 30
0.0
 10
13.976927805
 20
3.7520382645
 30
0.0
 10
13.976882716
 20
3.7519589807
 30
0.0
 10
13.9768642938
 20
3.7518481382
 30
0.0
 10
13.9768871284
 20
3.7517775056
 30
0.0
 10
13.9769194764
 20
3.7517336789
 30
0.0
 10
13.9769665249
 20
3.7516971285
 30
0.0
 10
13.9770550151
 20
3.7516541196
 30
0.0
 10
13.9772057247
 20
3.7516206128
 30
0.0
 10
13.9774295448
 20
3.7516060686
 30
0.0
 10
13.9777110564
 20
3.7516149812
 30
0.0
 10
13.9779172264
 20
3.7516348013
 30
0.0
 10
13.9780299513
 20
3.7516480102
 30
0.0
  0
SPLINE
  5
2CE
100
AcDbEntity
  8
0
100
AcDbSpline
 62
9
  6
CONTINUOUS
 70
0
 71
3
 72
33
 73
29
 74
0
 42
0.0000001
 43
0.0000001
 44
0.0000000001
 40
0.0
 40
0.0
 40
0.0
 40
0.0
 40
0.0360790637
 40
0.0720366384
 40
0.1077619497
 40
0.1431592867
 40
0.178154525
 40
0.212695684
 40
0.2467517856
 40
0.2803098614
 40
0.3133713327
 40
0.3459483759
 40
0.3780607306
 40
0.4097331333
 40
0.440993281
 40
0.4718702928
 40
0.502393617
 40
0.5325927075
 40
0.5624965684
 40
0.5921331853
 40
0.6215301457
 40
0.6507144965
 40
0.7085417343
 40
0.7658500061
 40
0.8229078041
 40
0.8801188308
 40
0.938319575
 40
1.0
 40
1.0
 40
1.0
 40
1.0
 10
14.7264767735
 20
2.208185894
 30
0.0
 10
14.709034547
 20
2.2081859112
 30
0.0
 10
14.6741968383
 20
2.2093901396
 30
0.0
 10
14.6223396806
 20
2.2147729834
 30
0.0
 10
14.5712927456
 20
2.2236167384
 30
0.0
 10
14.5214064784
 20
2.2357454962
 30
0.0
 10
14.4729680174
 20
2.2509373936
 30
0.0
 10
14.4262008027
 20
2.2689440499
 30
0.0
 10
14.3812654797
 20
2.2895067398
 30
0.0
 10
14.3382671848
 20
2.3123698871
 30
0.0
 10
14.2972649088
 20
2.3372904013
 30
0.0
 10
14.2582812809
 20
2.3640430906
 30
0.0
 10
14.2213117384
 20
2.3924234885
 30
0.0
 10
14.1863323535
 20
2.4222485322
 30
0.0
 10
14.1533061673
 20
2.4533558782
 30
0.0
 10
14.1221881807
 20
2.4856024478
 30
0.0
 10
14.0929286189
 20
2.5188624238
 30
0.0
 10
14.0654758241
 20
2.5530257737
 30
0.0
 10
14.0397786051
 20
2.587996791
 30
0.0
 10
14.0157863065
 20
2.6236912396
 30
0.0
 10
13.9934505332
 20
2.6600371813
 30
0.0
 10
13.965906008
 20
2.7091265286
 30
0.0
 10
13.935311842
 20
2.7719132543
 30
0.0
 10
13.9044730853
 20
2.8493133754
 30
0.0
 10
13.8793533691
 20
2.9284392046
 30
0.0
 10
13.8597360802
 20
3.0095480149
 30
0.0
 10
13.8454287145
 20
3.0940242849
 30
0.0
 10
13.8398402574
 20
3.1517720285
 30
0.0
 10
13.8380497496
 20
3.1815372887
 30
0.0
  0
LINE
  5
2CF
100
AcDbEntity
  8
0
100
AcDbLine
 62
9
  6
CONTINUOUS
 10
13.840987297
 20
3.367967196
 11
13.8410642761
 21
3.3688014862
  0
SPLINE
  5
2D0
100
AcDbEntity
  8
0
100
AcDbSpline
 62
9
  6
CONTINUOUS
 70
0
 71
3
 72
29
 73
25
 74
0
 42
0.0000001
 43
0.0000001
 44
0.0000000001
 40
0.0
 40
0.0
 40
0.0
 40
0.0
 40
0.0609666179
 40
0.1198813365
 40
0.1781155802
 40
0.2362369409
 40
0.2945550825
 40
0.3532842003
 40
0.4126012222
 40
0.4726714269
 40
0.5336615968
 40
0.5957451263
 40
0.6272595018
 40
0.6591151676
 40
0.6913344249
 40
0.7239389239
 40
0.7569482504
 40
0.7903791562
 40
0.8242443129
 40
0.8585505022
 40
0.8932965879
 40
0.9284713754
 40
0.9640515597
 40
1.0
 40
1.0
 40
1.0
 40
1.0
 10
13.8410642761
 20
3.3688014862
 30
0.0
 10
13.8433805809
 20
3.3938120942
 30
0.0
 10
13.8494490758
 20
3.4428653837
 30
0.0
 10
13.8628874074
 20
3.5150489657
 30
0.0
 10
13.8803690453
 20
3.5851564053
 30
0.0
 10
13.9020095524
 20
3.653836551
 30
0.0
 10
13.9279456693
 20
3.7212336881
 30
0.0
 10
13.9583398585
 20
3.7872877806
 30
0.0
 10
13.9933820843
 20
3.8518256495
 30
0.0
 10
14.0332915855
 20
3.9145870217
 30
0.0
 10
14.0783111164
 20
3.9752218272
 30
0.0
 10
14.120105855
 20
4.0233735549
 30
0.0
 10
14.1562801163
 20
4.060306969
 30
0.0
 10
14.1849905055
 20
4.0872810508
 30
0.0
 10
14.2151711429
 20
4.1132931112
 30
0.0
 10
14.2468474317
 20
4.1382391609
 30
0.0
 10
14.2800375766
 20
4.1620025035
 30
0.0
 10
14.3147499973
 20
4.1844547103
 30
0.0
 10
14.350979805
 20
4.2054552638
 30
0.0
 10
14.3887047122
 20
4.2248523188
 30
0.0
 10
14.4278799835
 20
4.2424844549
 30
0.0
 10
14.4684343262
 20
4.2581838774
 30
0.0
 10
14.5102622588
 20
4.271780673
 30
0.0
 10
14.5387756517
 20
4.2792995731
 30
0.0
 10
14.5531989889
 20
4.2826633904
 30
0.0
  0
SPLINE
  5
2D1
100
AcDbEntity
  8
0
100
AcDbSpline
 62
9
  6
CONTINUOUS
 70
0
 71
3
 72
33
 73
29
 74
0
 42
0.0000001
 43
0.0000001
 44
0.0000000001
 40
0.0
 40
0.0
 40
0.0
 40
0.0
 40
0.0018009925
 40
0.0039566405
 40
0.006544824
 40
0.0096108641
 40
0.0131813521
 40
0.0172711225
 40
0.0218888139
 40
0.0270394499
 40
0.0389478246
 40
0.0530025298
 40
0.0608320996
 40
0.0691929428
 40
0.0874955566
 40
0.1078766717
 40
0.1302909336
 40
0.1810357002
 40
0.2393113793
 40
0.3046054287
 40
0.3763628731
 40
0.4539555188
 40
0.5367054566
 40
0.6238678296
 40
0.7146492223
 40
0.8082018052
 40
0.9036286593
 40
1.0
 40
1.0
 40
1.0
 40
1.0
 10
14.9151037124
 20
4.134029786
 30
0.0
 10
14.915037518
 20
4.1339374615
 30
0.0
 10
14.9148577733
 20
4.1337591264
 30
0.0
 10
14.9145061672
 20
4.1335392196
 30
0.0
 10
14.9140528458
 20
4.1333429303
 30
0.0
 10
14.9134965722
 20
4.1331697158
 30
0.0
 10
14.9128364658
 20
4.1330190119
 30
0.0
 10
14.9120723959
 20
4.1328905943
 30
0.0
 10
14.9112045204
 20
4.1327842702
 30
0.0
 10
14.9098420903
 20
4.1326661935
 30
0.0
 10
14.9078804521
 20
4.1325826381
 30
0.0
 10
14.9057486295
 20
4.1325714209
 30
0.0
 10
14.9038409968
 20
4.1325988496
 30
0.0
 10
14.9016659531
 20
4.1326555911
 30
0.0
 10
14.8987008622
 20
4.1327782641
 30
0.0
 10
14.8948528522
 20
4.1329931497
 30
0.0
 10
14.8889655015
 20
4.1333850449
 30
0.0
 10
14.8807001056
 20
4.1340335868
 30
0.0
 10
14.8697445759
 20
4.134968406
 30
0.0
 10
14.8574698264
 20
4.1360325197
 30
0.0
 10
14.843978031
 20
4.1371655764
 30
0.0
 10
14.8293820351
 20
4.1383056406
 30
0.0
 10
14.8138076707
 20
4.1393927726
 30
0.0
 10
14.7973924568
 20
4.1403701491
 30
0.0
 10
14.780286197
 20
4.1411878273
 30
0.0
 10
14.7626497571
 20
4.1418036505
 30
0.0
 10
14.7446540172
 20
4.1421868657
 30
0.0
 10
14.7325556531
 20
4.1422727275
 30
0.0
 10
14.7264767735
 20
4.1422728617
 30
0.0
  0
SPLINE
  5
2D2
100
AcDbEntity
  8
0
100
AcDbSpline
 62
9
  6
CONTINUOUS
 70
0
 71
3
 72
23
 73
19
 74
0
 42
0.0000001
 43
0.0000001
 44
0.0000000001
 40
0.0
 40
0.0
 40
0.0
 40
0.0
 40
0.0634415003
 40
0.1267031797
 40
0.1897516112
 40
0.2525598604
 40
0.3151269226
 40
0.377466247
 40
0.4396087652
 40
0.5016029826
 40
0.5635170276
 40
0.6254159183
 40
0.6873631783
 40
0.7494218902
 40
0.8116575861
 40
0.8741287626
 40
0.9368811815
 40
1.0
 40
1.0
 40
1.0
 40
1.0
 10
15.5223605793
 20
3.6708811038
 30
0.0
 10
15.5263183083
 20
3.6627374031
 30
0.0
 10
15.5339188827
 20
3.6463237273
 30
0.0
 10
15.5444214991
 20
3.6213559606
 30
0.0
 10
15.5540328018
 20
3.5961283826
 30
0.0
 10
15.562774984
 20
3.5706919798
 30
0.0
 10
15.5706824531
 20
3.5450901589
 30
0.0
 10
15.5777867431
 20
3.5193528039
 30
0.0
 10
15.5841145881
 20
3.4934980551
 30
0.0
 10
15.589696123
 20
3.4675343599
 30
0.0
 10
15.5945648933
 20
3.4414632747
 30
0.0
 10
15.5987495702
 20
3.4152806221
 30
0.0
 10
15.6022623836
 20
3.3889786615
 30
0.0
 10
15.6051173621
 20
3.3625489436
 30
0.0
 10
15.6073234714
 20
3.3359822423
 30
0.0
 10
15.6088891402
 20
3.3092709493
 30
0.0
 10
15.6098129616
 20
3.2824038236
 30
0.0
 10
15.6100051105
 20
3.2644384074
 30
0.0
 10
15.6099995831
 20
3.2554299898
 30
0.0
  0
ELLIPSE
  5
2D3
100
AcDbEntity
  8
0
100
AcDbEllipse
 62
7
  6
CONTINUOUS
 10
14.7264767735
 20
3.2587406231
 30
0.0
 11
-0.0
 21
0.8917445743
 31
0.0
 40
0.9999931085
 41
-4.6257449658
 42
-1.6574403413
  0
ENDSEC
  0
SECTION
  2
OBJECTS
  0
DICTIONARY
  5
C
100
AcDbDictionary
280
0
281
1
  3
ACAD_GROUP
350
D
  3
ACAD_MLINESTYLE
350
17
  3
ACAD_LAYOUT
350
1A
  3
ACAD_PLOTSETTINGS
350
19
  3
ACAD_PLOTSTYLENAME
350
E
  0
DICTIONARY
  5
D
102
{ACAD_REACTORS
330
C
102
}
100
AcDbDictionary
280
0
281
1
  0
ACDBDICTIONARYWDFLT
  5
E
102
{ACAD_REACTORS
330
C
102
}
100
AcDbDictionary
281
1
  3
Normal
350
F
100
AcDbDictionaryWithDefault
340
F
  0
DICTIONARY
  5
17
102
{ACAD_REACTORS
330
C
102
}
100
AcDbDictionary
280
0
281
1
  3
Standard
350
18
  0
DICTIONARY
  5
19
102
{ACAD_REACTORS
330
C
102
}
100
AcDbDictionary
281
1
  0
DICTIONARY
  5
1A
102
{ACAD_REACTORS
330
C
102
}
100
AcDbDictionary
281
1
  3
Model
350
2D4
  3
Layout1
350
2D5
  0
ACDBPLACEHOLDER
  5
F
102
{ACAD_REACTORS
330
E
102
}
  0
MLINESTYLE
  5
18
102
{ACAD_REACTORS
330
17
102
}
100
AcDbMlineStyle
  2
STANDARD
 70
0
  3

 62
256
 51
90.0
 52
90.0
 71
2
 49
0.5
 62
256
  6
BYLAYER
 49
-0.5
 62
256
  6
BYLAYER
  0
LAYOUT
  5
2D4
102
{ACAD_REACTORS
330
1A
102
}
100
AcDbPlotSettings
  1

  2
none_device
  4
ANSI_C_(22.00_x_17.00_Inches)
  6

 40
0.0
 41
0.0
 42
0.0
 43
0.0
 44
558.8
 45
431.8
 46
0.0
 47
0.0
 48
0.0
 49
0.0
140
0.0
141
0.0
142
1.0
143
1.0
 70
1024
 72
0
 73
0
 74
0
  7

 75
0
147
1.0
148
0.0
149
0.0
100
AcDbLayout
  1
Model
 70
0
 71
0
 10
0.0
 20
0.0
 11
22.0
 21
17.0
 12
0.0
 22
0.0
 32
0.0
 14
0.0
 24
0.0
 34
0.0
 15
0.0
 25
0.0
 35
0.0
146
0.0
 13
0.0
 23
0.0
 33
0.0
 16
1.0
 26
0.0
 36
0.0
 17
0.0
 27
1.0
 37
0.0
 76
0
330
205
345
0
346
0
  0
LAYOUT
  5
2D5
102
{ACAD_REACTORS
330
1A
102
}
100
AcDbPlotSettings
  1

  2
none_device
  4
ANSI_C_(22.00_x_17.00_Inches)
  6

 40
0.0
 41
0.0
 42
0.0
 43
0.0
 44
558.8
 45
431.8
 46
0.0
 47
0.0
 48
0.0
 49
0.0
140
0.0
141
0.0
142
1.0
143
1.0
 70
0
 72
0
 73
0
 74
0
  7

 75
0
147
1.0
148
0.0
149
0.0
100
AcDbLayout
  1
Layout1
 70
0
 71
1
 10
0.0
 20
0.0
 11
22.0
 21
17.0
 12
0.0
 22
0.0
 32
0.0
 14
0.0
 24
0.0
 34
0.0
 15
0.0
 25
0.0
 35
0.0
146
0.0
 13
0.0
 23
0.0
 33
0.0
 16
1.0
 26
0.0
 36
0.0
 17
0.0
 27
1.0
 37
0.0
 76
0
330
206
345
0
346
0
  0
ENDSEC
  0
EOF
