999
DXF file: E:\BT Custom\CADOUTPUT\_TOP.dxf
999
Pro/ENGINEER 2018400 by Parametric Technology Corporation
  0
SECTION
  2
HEADER
  9
$ACADVER
  1
AC1018
  9
$DWGCODEPAGE
  3
ANSI_1252
  9
$EXTMAX
 10
22.0
 20
17.0
 30
0.0
  9
$EXTMIN
 10
0.0
 20
0.0
 30
0.0
  9
$LIMMIN
 10
0.0
 20
0.0
  9
$LIMMAX
 10
22.0
 20
17.0
  9
$VIEWCTR
 10
11.0
 20
8.5
  9
$VIEWSIZE
 40
17.0
  9
$CLAYER
  8
0
  9
$LTSCALE
 40
1.21
  9
$CELTYPE
  6
BYLAYER
  9
$DIMSCALE
 40
1.0
  9
$DIMASZ
 40
0.1
  9
$DIMEXO
 40
0.0625
  9
$DIMDLI
 40
0.836
  9
$DIMEXE
 40
0.125
  9
$DIMCEN
 40
0.198
  9
$DIMLFAC
 40
1.0
  9
$DIMBLK
  1
_FILLED
  9
$DIMALT
 70
1
  9
$DIMALTD
 70
2
  9
$DIMALTTD
 70
2
  9
$DIMALTF
 40
25.4
  9
$DIMTXT
 40
0.08
  9
$DIMTOL
 70
1
  9
$DIMLIM
 70
0
  9
$DIMTFAC
 40
1.0
  9
$DIMTP
 40
0.001
  9
$DIMTM
 40
0.001
  9
$DIMGAP
 40
0.09
  9
$DIMDSEP
 70
46
  9
$AUNITS
 70
0
  9
$PDMODE
 70
3
  9
$PDSIZE
 40
0.06
  9
$HANDSEED
  5
25A
  9
$TILEMODE
 70
1
  9
$MEASUREMENT
 70
0
  9
$INSUNITS
 70
1
  0
ENDSEC
  0
SECTION
  2
CLASSES
  0
CLASS
  1
ACDBDICTIONARYWDFLT
  2
AcDbDictionaryWithDefault
  3
AutoCAD 2000
 90
0
 91
1
280
0
281
0
  0
CLASS
  1
ACDBPLACEHOLDER
  2
AcDbPlaceHolder
  3
AutoCAD 2000
 90
0
 91
1
280
0
281
0
  0
CLASS
  1
LAYOUT
  2
AcDbLayout
  3
AutoCAD 2000
 90
0
 91
0
280
0
281
0
  0
ENDSEC
  0
SECTION
  2
TABLES
  0
TABLE
  2
VPORT
  5
8
100
AcDbSymbolTable
 70
2
  0
VPORT
  5
1F4
100
AcDbSymbolTableRecord
100
AcDbViewportTableRecord
  2
*ACTIVE
 70
0
 10
0.0
 20
0.0
 11
1.0
 21
1.0
 12
11.0
 22
8.5
 13
0.0
 23
0.0
 14
1.0
 24
1.0
 15
0.0
 25
0.0
 16
0.0
 26
0.0
 36
1.0
 17
0.0
 27
0.0
 37
0.0
 40
17.0
 41
1.2941176471
 42
50.0
 43
0.0
 44
0.0
 50
0.0
 51
0.0
 71
0
 72
100
 73
1
 74
1
 75
0
 76
0
 77
0
 78
0
  0
ENDTAB
  0
TABLE
  2
LTYPE
  5
5
100
AcDbSymbolTable
 70
6
  0
LTYPE
  5
14
100
AcDbSymbolTableRecord
100
AcDbLinetypeTableRecord
  2
BYBLOCK
 70
0
  3

 72
65
 73
0
 40
0.0
  0
LTYPE
  5
15
100
AcDbSymbolTableRecord
100
AcDbLinetypeTableRecord
  2
BYLAYER
 70
0
  3

 72
65
 73
0
 40
0.0
  0
LTYPE
  5
16
100
AcDbSymbolTableRecord
100
AcDbLinetypeTableRecord
  2
CONTINUOUS
 70
64
  3
Solid line
 72
65
 73
0
 40
0.0
  0
LTYPE
  5
1F5
100
AcDbSymbolTableRecord
100
AcDbLinetypeTableRecord
  2
CENTER
 70
64
  3
____ _ ____ _ ____ _ ____ _ ____ _ ____ _ ____
 72
65
 73
4
 40
0.6
 49
0.375
 74
0
 49
-0.075
 74
0
 49
0.075
 74
0
 49
-0.075
 74
0
  0
LTYPE
  5
1F6
100
AcDbSymbolTableRecord
100
AcDbLinetypeTableRecord
  2
HIDDEN
 70
64
  3
- - - - - - - - - - - - - - - - - - - -
 72
65
 73
2
 40
0.2
 49
0.1
 74
0
 49
-0.1
 74
0
  0
LTYPE
  5
1F7
100
AcDbSymbolTableRecord
100
AcDbLinetypeTableRecord
  2
PHANTOM
 70
64
  3
_____ _ _ _____ _ _ _____ _ _ _____
 72
65
 73
6
 40
0.8
 49
0.45
 74
0
 49
-0.05
 74
0
 49
0.1
 74
0
 49
-0.05
 74
0
 49
0.1
 74
0
 49
-0.05
 74
0
  0
LTYPE
  5
1F8
100
AcDbSymbolTableRecord
100
AcDbLinetypeTableRecord
  2
DOT
 70
64
  3
. . . . . . . . . . . . . . . . . . . .
 72
65
 73
2
 40
0.2
 49
0.1
 74
0
 49
-0.1
 74
0
  0
LTYPE
  5
1F9
100
AcDbSymbolTableRecord
100
AcDbLinetypeTableRecord
  2
DASHED
 70
64
  3
- - - - - - - - - - - - - - - - - - - -
 72
65
 73
2
 40
0.2
 49
0.1
 74
0
 49
-0.1
 74
0
  0
ENDTAB
  0
TABLE
  2
LAYER
  5
2
100
AcDbSymbolTable
 70
36
  0
LAYER
  5
10
100
AcDbSymbolTableRecord
100
AcDbLayerTableRecord
  2
0
 70
0
 62
7
  6
CONTINUOUS
370
-3
390
F
  0
LAYER
  5
1FA
100
AcDbSymbolTableRecord
100
AcDbLayerTableRecord
  2
DEFAULT_1
 70
0
 62
7
  6
CENTER
370
-3
390
F
  0
LAYER
  5
1FB
100
AcDbSymbolTableRecord
100
AcDbLayerTableRecord
  2
DEFAULT_2
 70
0
 62
8
  6
HIDDEN
370
-3
390
F
  0
LAYER
  5
1FC
100
AcDbSymbolTableRecord
100
AcDbLayerTableRecord
  2
DEFAULT_3
 70
0
 62
7
  6
PHANTOM
370
-3
390
F
  0
LAYER
  5
1FD
100
AcDbSymbolTableRecord
100
AcDbLayerTableRecord
  2
ALL_FEATURES
 70
0
 62
7
  6
CONTINUOUS
370
-3
390
F
  0
LAYER
  5
1FE
100
AcDbSymbolTableRecord
100
AcDbLayerTableRecord
  2
AXES_FEATURES
 70
0
 62
7
  6
CONTINUOUS
370
-3
390
F
  0
LAYER
  5
1FF
100
AcDbSymbolTableRecord
100
AcDbLayerTableRecord
  2
DIMENSIONS
 70
0
 62
7
  6
CONTINUOUS
370
-3
390
F
  0
ENDTAB
  0
TABLE
  2
STYLE
  5
3
100
AcDbSymbolTable
 70
1
  0
STYLE
  5
11
100
AcDbSymbolTableRecord
100
AcDbTextStyleTableRecord
  2
STANDARD
 70
0
 40
0.0
 41
0.8
 50
0.0
 71
0
 42
0.2
  3
txt
  4

  0
STYLE
  5
200
100
AcDbSymbolTableRecord
100
AcDbTextStyleTableRecord
  2
TEXTSTYLE_1
 70
0
 40
0.0
 41
0.8
 50
0.0
 71
0
 42
0.2
  3
gdt
  4

  0
ENDTAB
  0
TABLE
  2
VIEW
  5
6
100
AcDbSymbolTable
 70
0
  0
ENDTAB
  0
TABLE
  2
UCS
  5
7
100
AcDbSymbolTable
 70
0
  0
ENDTAB
  0
TABLE
  2
APPID
  5
9
100
AcDbSymbolTable
 70
1
  0
APPID
  5
201
100
AcDbSymbolTableRecord
100
AcDbRegAppTableRecord
  2
ACAD
 70
0
  0
ENDTAB
  0
TABLE
  2
BLOCK_RECORD
  5
1
100
AcDbSymbolTable
 70
0
  0
BLOCK_RECORD
  5
202
100
AcDbSymbolTableRecord
100
AcDbBlockTableRecord
  2
*Model_Space
  0
BLOCK_RECORD
  5
203
100
AcDbSymbolTableRecord
100
AcDbBlockTableRecord
  2
*Paper_Space
  0
BLOCK_RECORD
  5
204
100
AcDbSymbolTableRecord
100
AcDbBlockTableRecord
  2
_FILLED
  0
ENDTAB
  0
TABLE
  2
DIMSTYLE
  5
A
100
AcDbSymbolTable
 70
1
100
AcDbDimStyleTable
 71
0
  0
DIMSTYLE
105
205
100
AcDbSymbolTableRecord
100
AcDbDimStyleTableRecord
  2
STANDARD
 70
0
  3

  4

 40
1.0
 41
0.1
 42
0.0625
 43
0.38
 44
0.125
 45
0.0
 46
0.0
 47
0.001
 48
0.001
140
0.08
141
0.09
142
0.0
143
25.4
144
1.0
145
0.0
146
1.0
147
0.09
 71
1.0
 72
0.0
 73
1
 74
1
 75
0
 76
0
 77
0
 78
4
 79
1
170
1
171
2
172
0
173
0
174
0
175
0
176
0
177
0
178
0
270
2
179
3
271
3
272
3
273
2
274
2
275
0
280
0
281
0
282
0
283
1
284
4
285
0
286
0
287
3
288
0
340
11
278
46
341
204
342
204
343
204
344
204
  0
ENDTAB
  0
ENDSEC
  0
SECTION
  2
BLOCKS
  0
BLOCK
  5
20
100
AcDbEntity
  8
0
100
AcDbBlockBegin
  2
*Model_Space
 70
0
 10
0.0
 20
0.0
 30
0.0
  3
*Model_Space
  1

  0
ENDBLK
  5
21
100
AcDbEntity
  8
0
100
AcDbBlockEnd
  0
BLOCK
  5
1C
100
AcDbEntity
  8
0
100
AcDbBlockBegin
  2
*Paper_Space
 70
0
 10
0.0
 20
0.0
 30
0.0
  3
*Paper_Space
  1

  0
ENDBLK
  5
1D
100
AcDbEntity
  8
0
100
AcDbBlockEnd
  0
BLOCK
  5
206
100
AcDbEntity
  8
0
100
AcDbBlockBegin
  2
_FILLED
 70
64
 10
0.0
 20
0.0
  3
_FILLED
  1

  0
SOLID
  5
207
100
AcDbEntity
  8
0
  6
BYBLOCK
 62
0
100
AcDbTrace
 10
0.0
 20
0.0
 11
-1.0
 21
0.2
 12
-1.0
 22
-0.2
 13
-1.0
 23
-0.2
  0
ENDBLK
  5
208
100
AcDbEntity
  8
0
  6
BYBLOCK
 62
0
100
AcDbBlockEnd
  0
ENDSEC
  0
SECTION
  2
ENTITIES
  0
LINE
  5
209
100
AcDbEntity
  8
0
100
AcDbLine
 62
7
  6
CONTINUOUS
 10
4.8819640076
 20
10.5230610817
 11
4.8819640076
 21
10.1293767571
  0
LINE
  5
20A
100
AcDbEntity
  8
0
100
AcDbLine
 62
9
  6
CONTINUOUS
 10
4.9016490469
 20
10.5427543525
 11
4.9016490469
 21
10.1096834863
  0
LWPOLYLINE
  5
20B
100
AcDbEntity
  8
0
100
AcDbPolyline
 62
7
  6
CONTINUOUS
 90
5
 70
0
 10
6.3355578153
 20
10.5563237342
 10
6.3320780044
 20
10.5499688949
 10
6.3265529513
 20
10.5453136
 10
6.3197099376
 20
10.5429636733
 10
6.3168468692
 20
10.5427543525
  0
LINE
  5
20C
100
AcDbEntity
  8
0
100
AcDbLine
 62
9
  6
CONTINUOUS
 10
11.0471296633
 20
2.8274212169
 11
11.0473183383
 21
2.8274211794
  0
LINE
  5
20D
100
AcDbEntity
  8
0
100
AcDbLine
 62
7
  6
CONTINUOUS
 10
10.9292085303
 20
12.1372422073
 11
10.9095234518
 21
12.1175570016
  0
LINE
  5
20E
100
AcDbEntity
  8
0
100
AcDbLine
 62
7
  6
CONTINUOUS
 10
10.5748773934
 20
3.2980643438
 11
10.5748773934
 21
10.3262189194
  0
LINE
  5
20F
100
AcDbEntity
  8
0
100
AcDbLine
 62
7
  6
CONTINUOUS
 10
10.9095230627
 20
11.0397563104
 11
10.9095230627
 21
12.1175566126
  0
LINE
  5
210
100
AcDbEntity
  8
0
100
AcDbLine
 62
7
  6
CONTINUOUS
 10
11.1851136139
 20
11.0397563104
 11
11.1851136139
 21
12.1175566126
  0
LINE
  5
211
100
AcDbEntity
  8
0
100
AcDbLine
 62
7
  6
CONTINUOUS
 10
11.5197592832
 20
3.2980643438
 11
11.5197592832
 21
10.3262189194
  0
LINE
  5
212
100
AcDbEntity
  8
0
100
AcDbLine
 62
7
  6
CONTINUOUS
 10
6.3168468692
 20
10.1096834863
 11
4.9016490469
 21
10.1096834863
  0
LINE
  5
213
100
AcDbEntity
  8
0
100
AcDbLine
 62
7
  6
CONTINUOUS
 10
15.7777898074
 20
10.1096834863
 11
17.1929876296
 21
10.1096834863
  0
LWPOLYLINE
  5
214
100
AcDbEntity
  8
0
100
AcDbPolyline
 62
7
  6
CONTINUOUS
 90
5
 70
0
 10
6.3168468692
 20
10.1096834863
 10
6.3197099859
 20
10.1094741584
 10
6.3265530389
 20
10.1071241891
 10
6.332078102
 20
10.1024688247
 10
6.3355578796
 20
10.0961139081
  0
LWPOLYLINE
  5
215
100
AcDbEntity
  8
0
100
AcDbPolyline
 62
7
  6
CONTINUOUS
 90
5
 70
0
 10
15.7590788612
 20
10.0961141046
 10
15.7625586722
 20
10.1024689439
 10
15.7680837253
 20
10.1071242388
 10
15.774926739
 20
10.1094741655
 10
15.7777898074
 20
10.1096834863
  0
LINE
  5
216
100
AcDbEntity
  8
0
100
AcDbLine
 62
9
  6
CONTINUOUS
 10
15.7953494979
 20
10.3262189095
 11
15.8150344737
 21
10.3262189223
  0
LINE
  5
217
100
AcDbEntity
  8
0
100
AcDbLine
 62
9
  6
CONTINUOUS
 10
6.2992871786
 20
10.3262189293
 11
6.2796022028
 21
10.3262189165
  0
LINE
  5
218
100
AcDbEntity
  8
0
100
AcDbLine
 62
7
  6
CONTINUOUS
 10
6.3168468692
 20
10.5427543525
 11
4.9016490469
 21
10.5427543525
  0
LINE
  5
219
100
AcDbEntity
  8
0
100
AcDbLine
 62
7
  6
CONTINUOUS
 10
15.7777898074
 20
10.5427543525
 11
17.1929876296
 21
10.5427543525
  0
LWPOLYLINE
  5
21A
100
AcDbEntity
  8
0
100
AcDbPolyline
 62
7
  6
CONTINUOUS
 90
5
 70
0
 10
15.7777898074
 20
10.5427543525
 10
15.7749266907
 20
10.5429636804
 10
15.7680836377
 20
10.5453136497
 10
15.7625585746
 20
10.5499690141
 10
15.759078797
 20
10.5563239307
  0
LINE
  5
21B
100
AcDbEntity
  8
0
100
AcDbLine
 62
7
  6
CONTINUOUS
 10
11.1654281463
 20
12.1372422073
 11
11.1851132248
 21
12.1175570016
  0
LINE
  5
21C
100
AcDbEntity
  8
0
100
AcDbLine
 62
7
  6
CONTINUOUS
 10
11.1851136139
 20
12.1175570016
 11
10.9095230627
 21
12.1175570016
  0
LINE
  5
21D
100
AcDbEntity
  8
0
100
AcDbLine
 62
7
  6
CONTINUOUS
 10
11.1654279238
 20
12.1372425414
 11
10.9292087527
 21
12.1372425414
  0
LINE
  5
21E
100
AcDbEntity
  8
0
100
AcDbLine
 62
9
  6
CONTINUOUS
 10
17.1929876296
 20
10.1096834863
 11
17.1929876296
 21
10.5427543525
  0
LINE
  5
21F
100
AcDbEntity
  8
0
100
AcDbLine
 62
7
  6
CONTINUOUS
 10
17.212672669
 20
10.1293685257
 11
17.212672669
 21
10.5230693131
  0
ARC
  5
220
100
AcDbEntity
  8
0
100
AcDbCircle
 62
9
  6
CONTINUOUS
 10
11.0472758876
 20
3.3022782443
 40
0.4748570668
100
AcDbArc
 50
270.0051220609
 51
277.7012538736
  0
ARC
  5
221
100
AcDbEntity
  8
0
100
AcDbCircle
 62
7
  6
CONTINUOUS
 10
11.0473124457
 20
3.3650770533
 40
0.4741780779
100
AcDbArc
 50
281.4276314024
 51
284.0004690286
  0
ARC
  5
222
100
AcDbEntity
  8
0
100
AcDbCircle
 62
7
  6
CONTINUOUS
 10
11.0473118085
 20
3.3650426679
 40
0.4741419122
100
AcDbArc
 50
258.516514065
 51
270.0007890655
  0
ARC
  5
223
100
AcDbEntity
  8
0
100
AcDbCircle
 62
7
  6
CONTINUOUS
 10
11.0472129689
 20
3.3646212831
 40
0.4737089371
100
AcDbArc
 50
244.6994105606
 51
255.9792189112
  0
ARC
  5
224
100
AcDbEntity
  8
0
100
AcDbCircle
 62
7
  6
CONTINUOUS
 10
11.0465882668
 20
3.3634574983
 40
0.472383211
100
AcDbArc
 50
230.5452375592
 51
244.696123919
  0
ARC
  5
225
100
AcDbEntity
  8
0
100
AcDbCircle
 62
7
  6
CONTINUOUS
 10
11.0461058264
 20
3.3628623035
 40
0.4716170695
100
AcDbArc
 50
219.39147085
 51
230.5445423277
  0
ARC
  5
226
100
AcDbEntity
  8
0
100
AcDbCircle
 62
7
  6
CONTINUOUS
 10
11.0458087651
 20
3.362569393
 40
0.4712016081
100
AcDbArc
 50
217.0321786544
 51
219.3868685147
  0
ARC
  5
227
100
AcDbEntity
  8
0
100
AcDbCircle
 62
7
  6
CONTINUOUS
 10
11.0451074456
 20
3.3620601831
 40
0.4703350684
100
AcDbArc
 50
206.7147738067
 51
217.0341129057
  0
ARC
  5
228
100
AcDbEntity
  8
0
100
AcDbCircle
 62
7
  6
CONTINUOUS
 10
11.0444994956
 20
3.361616121
 40
0.4696205844
100
AcDbArc
 50
180.0088088248
 51
187.7264456643
  0
ARC
  5
229
100
AcDbEntity
  8
0
100
AcDbCircle
 62
7
  6
CONTINUOUS
 10
11.0443901155
 20
3.3616698684
 40
0.4695246516
100
AcDbArc
 50
191.3630642252
 51
206.7146112366
  0
ARC
  5
22A
100
AcDbEntity
  8
0
100
AcDbCircle
 62
9
  6
CONTINUOUS
 10
11.0439714966
 20
3.410311098
 40
0.4690941051
100
AcDbArc
 50
180.0051682547
 51
185.9287949448
  0
ARC
  5
22B
100
AcDbEntity
  8
0
100
AcDbCircle
 62
9
  6
CONTINUOUS
 10
11.0439331706
 20
3.2980716545
 40
0.4690553472
100
AcDbArc
 50
180.0008930081
 51
185.6471493851
  0
ARC
  5
22C
100
AcDbEntity
  8
0
100
AcDbCircle
 62
7
  6
CONTINUOUS
 10
11.0437219611
 20
3.3615417255
 40
0.4688443467
100
AcDbArc
 50
179.9997317921
 51
191.36379896
  0
ARC
  5
22D
100
AcDbEntity
  8
0
100
AcDbCircle
 62
7
  6
CONTINUOUS
 10
7.0473183383
 20
10.3262189194
 40
1.1
100
AcDbArc
 50
191.3794782603
 51
168.6206446997
  0
CIRCLE
  5
22E
100
AcDbEntity
  8
0
100
AcDbCircle
 62
7
  6
CONTINUOUS
 10
7.0473183383
 20
10.3262189194
 40
0.7480314961
  0
CIRCLE
  5
22F
100
AcDbEntity
  8
0
100
AcDbCircle
 62
9
  6
CONTINUOUS
 10
7.0473183383
 20
10.3262189194
 40
0.7289520831
  0
ARC
  5
230
100
AcDbEntity
  8
0
100
AcDbCircle
 62
7
  6
CONTINUOUS
 10
4.9016490469
 20
10.1293685257
 40
0.0196850394
100
AcDbArc
 50
180.0
 51
270.0
  0
ARC
  5
231
100
AcDbEntity
  8
0
100
AcDbCircle
 62
7
  6
CONTINUOUS
 10
4.9016490469
 20
10.5230693131
 40
0.0196850394
100
AcDbArc
 50
90.0
 51
180.0
  0
ARC
  5
232
100
AcDbEntity
  8
0
100
AcDbCircle
 62
9
  6
CONTINUOUS
 10
11.0473609748
 20
3.3022778024
 40
0.4748566419
100
AcDbArc
 50
262.2868016608
 51
269.9720901562
  0
ARC
  5
233
100
AcDbEntity
  8
0
100
AcDbCircle
 62
7
  6
CONTINUOUS
 10
11.047323009
 20
3.3650718947
 40
0.4741727838
100
AcDbArc
 50
255.9795100802
 51
258.5158908557
  0
ARC
  5
234
100
AcDbEntity
  8
0
100
AcDbCircle
 62
7
  6
CONTINUOUS
 10
11.0473244985
 20
3.3650464037
 40
0.4741456479
100
AcDbArc
 50
269.9992556002
 51
281.426937634
  0
ARC
  5
235
100
AcDbEntity
  8
0
100
AcDbCircle
 62
7
  6
CONTINUOUS
 10
11.0474293289
 20
3.3646061666
 40
0.473692902
100
AcDbArc
 50
284.0005307812
 51
295.2229567164
  0
ARC
  5
236
100
AcDbEntity
  8
0
100
AcDbCircle
 62
7
  6
CONTINUOUS
 10
11.0479982573
 20
3.3635207866
 40
0.4724639542
100
AcDbArc
 50
295.2258522492
 51
309.3123727812
  0
ARC
  5
237
100
AcDbEntity
  8
0
100
AcDbCircle
 62
7
  6
CONTINUOUS
 10
11.0485320161
 20
3.3628621724
 40
0.4716162204
100
AcDbArc
 50
309.3128942889
 51
320.4133679039
  0
ARC
  5
238
100
AcDbEntity
  8
0
100
AcDbCircle
 62
7
  6
CONTINUOUS
 10
11.0488594447
 20
3.3625444687
 40
0.4711614302
100
AcDbArc
 50
320.4177688228
 51
322.6418874522
  0
ARC
  5
239
100
AcDbEntity
  8
0
100
AcDbCircle
 62
7
  6
CONTINUOUS
 10
11.0494844885
 20
3.3620877181
 40
0.4703874552
100
AcDbArc
 50
322.6399116076
 51
332.8176203046
  0
ARC
  5
23A
100
AcDbEntity
  8
0
100
AcDbCircle
 62
7
  6
CONTINUOUS
 10
11.0499171963
 20
3.3618615287
 40
0.4698992082
100
AcDbArc
 50
332.818051568
 51
334.5473297834
  0
ARC
  5
23B
100
AcDbEntity
  8
0
100
AcDbCircle
 62
7
  6
CONTINUOUS
 10
11.0502303947
 20
3.361610305
 40
0.4695273697
100
AcDbArc
 50
352.2744213908
 51
359.9918991617
  0
ARC
  5
23C
100
AcDbEntity
  8
0
100
AcDbCircle
 62
9
  6
CONTINUOUS
 10
11.0507005355
 20
3.2980718071
 40
0.4690583177
100
AcDbArc
 50
354.3406030689
 51
359.9990883551
  0
ARC
  5
23D
100
AcDbEntity
  8
0
100
AcDbCircle
 62
7
  6
CONTINUOUS
 10
11.0507769807
 20
3.3615555491
 40
0.4689820817
100
AcDbArc
 50
334.5459608237
 51
359.9985792975
  0
ARC
  5
23E
100
AcDbEntity
  8
0
100
AcDbCircle
 62
7
  6
CONTINUOUS
 10
11.0473183383
 20
10.3262189194
 40
1.1023622047
100
AcDbArc
 50
97.1980595245
 51
244.5762163281
  0
ARC
  5
23F
100
AcDbEntity
  8
0
100
AcDbCircle
 62
7
  6
CONTINUOUS
 10
11.0473183383
 20
10.3262189194
 40
1.1023622047
100
AcDbArc
 50
295.4195858593
 51
82.8019223491
  0
ARC
  5
240
100
AcDbEntity
  8
0
100
AcDbCircle
 62
9
  6
CONTINUOUS
 10
11.0473183383
 20
10.3262189194
 40
1.0826771654
100
AcDbArc
 50
97.3283869778
 51
244.0875941926
  0
ARC
  5
241
100
AcDbEntity
  8
0
100
AcDbCircle
 62
9
  6
CONTINUOUS
 10
11.0473183383
 20
10.3262189194
 40
1.0826771654
100
AcDbArc
 50
295.9130066855
 51
82.6706828941
  0
ARC
  5
242
100
AcDbEntity
  8
0
100
AcDbCircle
 62
7
  6
CONTINUOUS
 10
11.0473183383
 20
10.3262189194
 40
0.7283464567
100
AcDbArc
 50
310.5447741646
 51
229.4552258354
  0
ARC
  5
243
100
AcDbEntity
  8
0
100
AcDbCircle
 62
9
  6
CONTINUOUS
 10
11.0473183383
 20
10.3262189194
 40
0.7086614173
100
AcDbArc
 50
311.9438346379
 51
228.1499613742
  0
ARC
  5
244
100
AcDbEntity
  8
0
100
AcDbCircle
 62
9
  6
CONTINUOUS
 10
11.0473183383
 20
10.3262189194
 40
0.4921259788
100
AcDbArc
 50
344.3627125251
 51
195.5901316154
  0
ARC
  5
245
100
AcDbEntity
  8
0
100
AcDbCircle
 62
7
  6
CONTINUOUS
 10
11.0473183383
 20
10.3262189194
 40
0.4803149606
100
AcDbArc
 50
349.8935209649
 51
190.3390781008
  0
ARC
  5
246
100
AcDbEntity
  8
0
100
AcDbCircle
 62
7
  6
CONTINUOUS
 10
11.0473183383
 20
10.3262189194
 40
0.4724409449
100
AcDbArc
 50
0.0
 51
180.0
  0
ARC
  5
247
100
AcDbEntity
  8
0
100
AcDbCircle
 62
7
  6
CONTINUOUS
 10
17.1929876296
 20
10.1293685257
 40
0.0196850394
100
AcDbArc
 50
270.0
 51
360.0
  0
ARC
  5
248
100
AcDbEntity
  8
0
100
AcDbCircle
 62
7
  6
CONTINUOUS
 10
15.0473183383
 20
10.3262189194
 40
1.1
100
AcDbArc
 50
11.3794782603
 51
348.6206446997
  0
CIRCLE
  5
249
100
AcDbEntity
  8
0
100
AcDbCircle
 62
7
  6
CONTINUOUS
 10
15.0473183383
 20
10.3262189194
 40
0.7480314961
  0
CIRCLE
  5
24A
100
AcDbEntity
  8
0
100
AcDbCircle
 62
9
  6
CONTINUOUS
 10
15.0473183383
 20
10.3262189194
 40
0.7289520831
  0
ARC
  5
24B
100
AcDbEntity
  8
0
100
AcDbCircle
 62
7
  6
CONTINUOUS
 10
17.1929876296
 20
10.5230693131
 40
0.0196850394
100
AcDbArc
 50
0.0
 51
90.0
  0
SPLINE
  5
24C
100
AcDbEntity
  8
0
100
AcDbSpline
 62
7
  6
CONTINUOUS
 70
0
 71
3
 72
15
 73
11
 74
0
 42
0.0000001
 43
0.0000001
 44
0.0000000001
 40
0.0
 40
0.0
 40
0.0
 40
0.0
 40
0.124787766
 40
0.2496033432
 40
0.374481718
 40
0.4994391005
 40
0.624481879
 40
0.7496034263
 40
0.8747829245
 40
1.0
 40
1.0
 40
1.0
 40
1.0
 10
11.5197592832
 20
3.2980643438
 30
0.0
 10
11.5197592832
 20
3.2673013937
 30
0.0
 10
11.5136653625
 20
3.205596953
 30
0.0
 10
11.4865972127
 20
3.116739205
 30
0.0
 10
11.4426445665
 20
3.0348211346
 30
0.0
 10
11.3835018508
 20
2.9630351404
 30
0.0
 10
11.3114464289
 20
2.9041283978
 30
0.0
 10
11.2292402232
 20
2.8603613267
 30
0.0
 10
11.1400852783
 20
2.833412264
 30
0.0
 10
11.0781871227
 20
2.8273462718
 30
0.0
 10
11.0473183383
 20
2.8273462718
 30
0.0
  0
SPLINE
  5
24D
100
AcDbEntity
  8
0
100
AcDbSpline
 62
7
  6
CONTINUOUS
 70
0
 71
3
 72
15
 73
11
 74
0
 42
0.0000001
 43
0.0000001
 44
0.0000000001
 40
0.0
 40
0.0
 40
0.0
 40
0.0
 40
0.1252172568
 40
0.2503967182
 40
0.3755181948
 40
0.5005609065
 40
0.625518245
 40
0.7503966071
 40
0.8752121976
 40
1.0
 40
1.0
 40
1.0
 40
1.0
 10
11.0471255856
 20
2.8273463111
 30
0.0
 10
11.0162647658
 20
2.8273588918
 30
0.0
 10
10.9543851862
 20
2.8334468341
 30
0.0
 10
10.8652625421
 20
2.8604183145
 30
0.0
 10
10.7830902346
 20
2.9041968879
 30
0.0
 10
10.7110672943
 20
2.9631046617
 30
0.0
 10
10.6519529693
 20
3.0348823458
 30
0.0
 10
10.6080223498
 20
3.1167845006
 30
0.0
 10
10.5809681352
 20
3.2056210046
 30
0.0
 10
10.5748773934
 20
3.267309364
 30
0.0
 10
10.5748773934
 20
3.2980643438
 30
0.0
  0
SPLINE
  5
24E
100
AcDbEntity
  8
0
100
AcDbSpline
 62
9
  6
CONTINUOUS
 70
0
 71
3
 72
15
 73
11
 74
0
 42
0.0000001
 43
0.0000001
 44
0.0000000001
 40
0.0
 40
0.0
 40
0.0
 40
0.0
 40
0.1252215938
 40
0.2503997169
 40
0.3755126869
 40
0.5005501924
 40
0.6255084032
 40
0.7503926547
 40
0.8752164435
 40
1.0
 40
1.0
 40
1.0
 40
1.0
 10
11.1109104727
 20
2.8317042613
 30
0.0
 10
11.1369635836
 20
2.8352290165
 30
0.0
 10
11.1885753802
 20
2.8466475076
 30
0.0
 10
11.2619831033
 20
2.8763469475
 30
0.0
 10
11.3294306683
 20
2.9178076869
 30
0.0
 10
11.3890097346
 20
2.9698699447
 30
0.0
 10
11.4390652905
 20
3.0310836423
 30
0.0
 10
11.478199068
 20
3.0997498141
 30
0.0
 10
11.5053172913
 20
3.1739249877
 30
0.0
 10
11.5148878097
 20
3.2257451392
 30
0.0
 10
11.517472524
 20
3.2518158221
 30
0.0
  0
SPLINE
  5
24F
100
AcDbEntity
  8
0
100
AcDbSpline
 62
9
  6
CONTINUOUS
 70
0
 71
3
 72
15
 73
11
 74
0
 42
0.0000001
 43
0.0000001
 44
0.0000000001
 40
0.0
 40
0.0
 40
0.0
 40
0.0
 40
0.1247835899
 40
0.2496073831
 40
0.3744916175
 40
0.4994497992
 40
0.6244872749
 40
0.7496002247
 40
0.8747783456
 40
1.0
 40
1.0
 40
1.0
 40
1.0
 10
10.5771542611
 20
3.25191574
 30
0.0
 10
10.5797334
 20
3.2258444291
 30
0.0
 10
10.5892928627
 20
3.1740220865
 30
0.0
 10
10.6163953445
 20
3.0998409319
 30
0.0
 10
10.655514634
 20
3.0311662731
 30
0.0
 10
10.7055573604
 20
2.9699418357
 30
0.0
 10
10.7651255945
 20
2.9178668904
 30
0.0
 10
10.8325646186
 20
2.8763918785
 30
0.0
 10
10.9059663259
 20
2.8466769939
 30
0.0
 10
10.9575758894
 20
2.8352477005
 30
0.0
 10
10.9836283474
 20
2.8317175167
 30
0.0
  0
SPLINE
  5
250
100
AcDbEntity
  8
0
100
AcDbSpline
 62
9
  6
CONTINUOUS
 70
0
 71
3
 72
17
 73
13
 74
0
 42
0.0000001
 43
0.0000001
 44
0.0000000001
 40
0.0
 40
0.0
 40
0.0
 40
0.0
 40
0.3791962713
 40
0.5506200662
 40
0.7017432906
 40
0.8269219553
 40
0.8782182642
 40
0.9211593802
 40
0.9551627111
 40
0.9798537657
 40
0.9949085527
 40
1.0
 40
1.0
 40
1.0
 40
1.0
 10
6.279602156
 20
10.3262189212
 30
0.0
 10
6.2796047608
 20
10.2983223141
 30
0.0
 10
6.2822247481
 20
10.2577457694
 30
0.0
 10
6.2904375435
 20
10.2067597544
 30
0.0
 10
6.2973960222
 20
10.1745490322
 30
0.0
 10
6.3035968448
 20
10.1512518514
 30
0.0
 10
6.3082152029
 20
10.1357839202
 30
0.0
 10
6.3110615413
 20
10.1267889201
 30
0.0
 10
6.313379292
 20
10.1196799326
 30
0.0
 10
6.3151474583
 20
10.1145502469
 30
0.0
 10
6.3161887057
 20
10.1114206585
 30
0.0
 10
6.3167388905
 20
10.1100421399
 30
0.0
 10
6.3168469063
 20
10.1096834863
 30
0.0
  0
SPLINE
  5
251
100
AcDbEntity
  8
0
100
AcDbSpline
 62
9
  6
CONTINUOUS
 70
0
 71
3
 72
18
 73
14
 74
0
 42
0.0000001
 43
0.0000001
 44
0.0000000001
 40
0.0
 40
0.0
 40
0.0
 40
0.0
 40
0.005090443
 40
0.0201422506
 40
0.0448284005
 40
0.0788249511
 40
0.1217574753
 40
0.1730435057
 40
0.2981971009
 40
0.449290107
 40
0.6206794784
 40
0.8065578096
 40
1.0
 40
1.0
 40
1.0
 40
1.0
 10
6.3168469088
 20
10.5427543525
 30
0.0
 10
6.3166971196
 20
10.5424110398
 30
0.0
 10
6.3162477782
 20
10.540995483
 30
0.0
 10
6.3151104207
 20
10.5379011887
 30
0.0
 10
6.3133960292
 20
10.5327517511
 30
0.0
 10
6.3110550256
 20
10.5256513067
 30
0.0
 10
6.3082174661
 20
10.516653085
 30
0.0
 10
6.3035951172
 20
10.5011866739
 30
0.0
 10
6.2973967277
 20
10.4778882389
 30
0.0
 10
6.2904376128
 20
10.4456798066
 30
0.0
 10
6.28448568
 20
10.4087283284
 30
0.0
 10
6.2805281029
 20
10.368372766
 30
0.0
 10
6.2796035808
 20
10.3404528587
 30
0.0
 10
6.2796022028
 20
10.326218921
 30
0.0
  0
SPLINE
  5
252
100
AcDbEntity
  8
0
100
AcDbSpline
 62
9
  6
CONTINUOUS
 70
0
 71
3
 72
17
 73
13
 74
0
 42
0.0000001
 43
0.0000001
 44
0.0000000001
 40
0.0
 40
0.0
 40
0.0
 40
0.0
 40
0.3791962713
 40
0.5506200662
 40
0.7017432906
 40
0.8269219553
 40
0.8782182642
 40
0.9211593802
 40
0.9551627111
 40
0.9798537657
 40
0.9949085527
 40
1.0
 40
1.0
 40
1.0
 40
1.0
 10
15.8150345206
 20
10.3262189176
 30
0.0
 10
15.8150319158
 20
10.3541155247
 30
0.0
 10
15.8124119285
 20
10.3946920694
 30
0.0
 10
15.8041991331
 20
10.4456780844
 30
0.0
 10
15.7972406544
 20
10.4778888066
 30
0.0
 10
15.7910398317
 20
10.5011859874
 30
0.0
 10
15.7864214737
 20
10.5166539186
 30
0.0
 10
15.7835751352
 20
10.5256489187
 30
0.0
 10
15.7812573845
 20
10.5327579062
 30
0.0
 10
15.7794892183
 20
10.5378875919
 30
0.0
 10
15.7784479708
 20
10.5410171803
 30
0.0
 10
15.7778977861
 20
10.5423956989
 30
0.0
 10
15.7777897702
 20
10.5427543525
 30
0.0
  0
SPLINE
  5
253
100
AcDbEntity
  8
0
100
AcDbSpline
 62
9
  6
CONTINUOUS
 70
0
 71
3
 72
18
 73
14
 74
0
 42
0.0000001
 43
0.0000001
 44
0.0000000001
 40
0.0
 40
0.0
 40
0.0
 40
0.0
 40
0.005090443
 40
0.0201422506
 40
0.0448284005
 40
0.0788249511
 40
0.1217574753
 40
0.1730435057
 40
0.2981971009
 40
0.449290107
 40
0.6206794784
 40
0.8065578096
 40
1.0
 40
1.0
 40
1.0
 40
1.0
 10
15.7777897678
 20
10.1096834863
 30
0.0
 10
15.777939557
 20
10.110026799
 30
0.0
 10
15.7783888983
 20
10.1114423558
 30
0.0
 10
15.7795262559
 20
10.1145366502
 30
0.0
 10
15.7812406474
 20
10.1196860877
 30
0.0
 10
15.783581651
 20
10.1267865321
 30
0.0
 10
15.7864192105
 20
10.1357847538
 30
0.0
 10
15.7910415594
 20
10.1512511649
 30
0.0
 10
15.7972399489
 20
10.1745495999
 30
0.0
 10
15.8041990637
 20
10.2067580322
 30
0.0
 10
15.8101509966
 20
10.2437095104
 30
0.0
 10
15.8141085737
 20
10.2840650728
 30
0.0
 10
15.8150330958
 20
10.3119849801
 30
0.0
 10
15.8150344737
 20
10.3262189178
 30
0.0
  0
SPLINE
  5
254
100
AcDbEntity
  8
0
100
AcDbSpline
 62
7
  6
CONTINUOUS
 70
0
 71
3
 72
11
 73
7
 74
0
 42
0.0000001
 43
0.0000001
 44
0.0000000001
 40
0.0
 40
0.0
 40
0.0
 40
0.0
 40
0.2504149059
 40
0.5005846236
 40
0.7504291681
 40
1.0
 40
1.0
 40
1.0
 40
1.0
 10
11.0473183383
 20
2.8909007558
 30
0.0
 10
11.1035631567
 20
2.8909007558
 30
0.0
 10
11.2170227409
 20
2.9113180042
 30
0.0
 10
11.3648354751
 20
2.9994218958
 30
0.0
 10
11.4723764251
 20
3.1335337209
 30
0.0
 10
11.50796045
 20
3.2429459887
 30
0.0
 10
11.5154959985
 20
3.2984924085
 30
0.0
  0
SPLINE
  5
255
100
AcDbEntity
  8
0
100
AcDbSpline
 62
7
  6
CONTINUOUS
 70
0
 71
3
 72
11
 73
7
 74
0
 42
0.0000001
 43
0.0000001
 44
0.0000000001
 40
0.0
 40
0.0
 40
0.0
 40
0.0
 40
0.2495652661
 40
0.4994090179
 40
0.7495826571
 40
1.0
 40
1.0
 40
1.0
 40
1.0
 10
10.5791424787
 20
3.2984786516
 30
0.0
 10
10.5866789121
 20
3.2429347757
 30
0.0
 10
10.6222654638
 20
3.133527568
 30
0.0
 10
10.7298040221
 20
2.9994195453
 30
0.0
 10
10.8776155674
 20
2.9113178413
 30
0.0
 10
10.9910741282
 20
2.8909007558
 30
0.0
 10
11.0473183383
 20
2.8909007558
 30
0.0
  0
SPLINE
  5
256
100
AcDbEntity
  8
0
100
AcDbSpline
 62
9
  6
CONTINUOUS
 70
0
 71
3
 72
15
 73
11
 74
0
 42
0.0000001
 43
0.0000001
 44
0.0000000001
 40
0.0
 40
0.0
 40
0.0
 40
0.0
 40
0.1247667931
 40
0.24956883
 40
0.3744364148
 40
0.4993887667
 40
0.6244376478
 40
0.7495614611
 40
0.8747774772
 40
1.0
 40
1.0
 40
1.0
 40
1.0
 10
11.5197592832
 20
3.4102687843
 30
0.0
 10
11.5197592832
 20
3.3795135539
 30
0.0
 10
11.5136657235
 20
3.3178227559
 30
0.0
 10
11.4865997993
 20
3.2289839594
 30
0.0
 10
11.4426501674
 20
3.147081424
 30
0.0
 10
11.3835112609
 20
3.0753050432
 30
0.0
 10
11.3114566716
 20
3.0164088922
 30
0.0
 10
11.2292496991
 20
2.972635784
 30
0.0
 10
11.140088417
 20
2.9456954773
 30
0.0
 10
11.0781859068
 20
2.9396256198
 30
0.0
 10
11.0473183383
 20
2.9396256198
 30
0.0
  0
SPLINE
  5
257
100
AcDbEntity
  8
0
100
AcDbSpline
 62
9
  6
CONTINUOUS
 70
0
 71
3
 72
11
 73
7
 74
0
 42
0.0000001
 43
0.0000001
 44
0.0000000001
 40
0.0
 40
0.0
 40
0.0
 40
0.0
 40
0.2504210592
 40
0.5005934203
 40
0.7504350502
 40
1.0
 40
1.0
 40
1.0
 40
1.0
 10
11.0473183383
 20
2.9396256198
 30
0.0
 10
10.9898614904
 20
2.9396256198
 30
0.0
 10
10.8739114258
 20
2.9609510828
 30
0.0
 10
10.7238480779
 20
3.0528064455
 30
0.0
 10
10.6165866935
 20
3.1920513356
 30
0.0
 10
10.5832999306
 20
3.3049029673
 30
0.0
 10
10.5773865611
 20
3.3618572288
 30
0.0
  0
ENDSEC
  0
SECTION
  2
OBJECTS
  0
DICTIONARY
  5
C
100
AcDbDictionary
280
0
281
1
  3
ACAD_GROUP
350
D
  3
ACAD_MLINESTYLE
350
17
  3
ACAD_LAYOUT
350
1A
  3
ACAD_PLOTSETTINGS
350
19
  3
ACAD_PLOTSTYLENAME
350
E
  0
DICTIONARY
  5
D
102
{ACAD_REACTORS
330
C
102
}
100
AcDbDictionary
280
0
281
1
  0
ACDBDICTIONARYWDFLT
  5
E
102
{ACAD_REACTORS
330
C
102
}
100
AcDbDictionary
281
1
  3
Normal
350
F
100
AcDbDictionaryWithDefault
340
F
  0
DICTIONARY
  5
17
102
{ACAD_REACTORS
330
C
102
}
100
AcDbDictionary
280
0
281
1
  3
Standard
350
18
  0
DICTIONARY
  5
19
102
{ACAD_REACTORS
330
C
102
}
100
AcDbDictionary
281
1
  0
DICTIONARY
  5
1A
102
{ACAD_REACTORS
330
C
102
}
100
AcDbDictionary
281
1
  3
Model
350
258
  3
Layout1
350
259
  0
ACDBPLACEHOLDER
  5
F
102
{ACAD_REACTORS
330
E
102
}
  0
MLINESTYLE
  5
18
102
{ACAD_REACTORS
330
17
102
}
100
AcDbMlineStyle
  2
STANDARD
 70
0
  3

 62
256
 51
90.0
 52
90.0
 71
2
 49
0.5
 62
256
  6
BYLAYER
 49
-0.5
 62
256
  6
BYLAYER
  0
LAYOUT
  5
258
102
{ACAD_REACTORS
330
1A
102
}
100
AcDbPlotSettings
  1

  2
none_device
  4
ANSI_C_(22.00_x_17.00_Inches)
  6

 40
0.0
 41
0.0
 42
0.0
 43
0.0
 44
558.8
 45
431.8
 46
0.0
 47
0.0
 48
0.0
 49
0.0
140
0.0
141
0.0
142
1.0
143
1.0
 70
1024
 72
0
 73
0
 74
0
  7

 75
0
147
1.0
148
0.0
149
0.0
100
AcDbLayout
  1
Model
 70
0
 71
0
 10
0.0
 20
0.0
 11
22.0
 21
17.0
 12
0.0
 22
0.0
 32
0.0
 14
0.0
 24
0.0
 34
0.0
 15
0.0
 25
0.0
 35
0.0
146
0.0
 13
0.0
 23
0.0
 33
0.0
 16
1.0
 26
0.0
 36
0.0
 17
0.0
 27
1.0
 37
0.0
 76
0
330
202
345
0
346
0
  0
LAYOUT
  5
259
102
{ACAD_REACTORS
330
1A
102
}
100
AcDbPlotSettings
  1

  2
none_device
  4
ANSI_C_(22.00_x_17.00_Inches)
  6

 40
0.0
 41
0.0
 42
0.0
 43
0.0
 44
558.8
 45
431.8
 46
0.0
 47
0.0
 48
0.0
 49
0.0
140
0.0
141
0.0
142
1.0
143
1.0
 70
0
 72
0
 73
0
 74
0
  7

 75
0
147
1.0
148
0.0
149
0.0
100
AcDbLayout
  1
Layout1
 70
0
 71
1
 10
0.0
 20
0.0
 11
22.0
 21
17.0
 12
0.0
 22
0.0
 32
0.0
 14
0.0
 24
0.0
 34
0.0
 15
0.0
 25
0.0
 35
0.0
146
0.0
 13
0.0
 23
0.0
 33
0.0
 16
1.0
 26
0.0
 36
0.0
 17
0.0
 27
1.0
 37
0.0
 76
0
330
203
345
0
346
0
  0
ENDSEC
  0
EOF
