999
DXF file: 8203_front.dxf
999
Pro/ENGINEER 2018400 by Parametric Technology Corporation
  0
SECTION
  2
HEADER
  9
$ACADVER
  1
AC1027
  9
$DWGCODEPAGE
  3
ANSI_1252
  9
$EXTMAX
 10
11.0
 20
8.5
 30
0.0
  9
$EXTMIN
 10
0.0
 20
0.0
 30
0.0
  9
$LIMMIN
 10
0.0
 20
0.0
  9
$LIMMAX
 10
11.0
 20
8.5
  9
$VIEWCTR
 10
5.5
 20
4.25
  9
$VIEWSIZE
 40
8.5
  9
$CLAYER
  8
0
  9
$LTSCALE
 40
0.605
  9
$CELTYPE
  6
BYLAYER
  9
$DIMSCALE
 40
1.0
  9
$DIMASZ
 40
0.1
  9
$DIMEXO
 40
0.0625
  9
$DIMDLI
 40
0.418
  9
$DIMEXE
 40
0.125
  9
$DIMCEN
 40
0.099
  9
$DIMLFAC
 40
1.0
  9
$DIMBLK
  1
_FILLED
  9
$DIMALT
 70
1
  9
$DIMALTD
 70
2
  9
$DIMALTTD
 70
2
  9
$DIMALTF
 40
25.4
  9
$DIMTXT
 40
0.08
  9
$DIMTOL
 70
1
  9
$DIMLIM
 70
0
  9
$DIMTFAC
 40
1.0
  9
$DIMTP
 40
0.001
  9
$DIMTM
 40
0.001
  9
$DIMGAP
 40
0.09
  9
$DIMDSEP
 70
46
  9
$AUNITS
 70
0
  9
$PDMODE
 70
3
  9
$PDSIZE
 40
0.3125
  9
$HANDSEED
  5
25F
  9
$TILEMODE
 70
1
  9
$MEASUREMENT
 70
0
  9
$INSUNITS
 70
1
  0
ENDSEC
  0
SECTION
  2
CLASSES
  0
CLASS
  1
ACDBDICTIONARYWDFLT
  2
AcDbDictionaryWithDefault
  3
AutoCAD 2000
 90
0
 91
1
280
0
281
0
  0
CLASS
  1
ACDBPLACEHOLDER
  2
AcDbPlaceHolder
  3
AutoCAD 2000
 90
0
 91
1
280
0
281
0
  0
CLASS
  1
LAYOUT
  2
AcDbLayout
  3
AutoCAD 2000
 90
0
 91
0
280
0
281
0
  0
ENDSEC
  0
SECTION
  2
TABLES
  0
TABLE
  2
VPORT
  5
8
100
AcDbSymbolTable
 70
2
  0
VPORT
  5
1F4
100
AcDbSymbolTableRecord
100
AcDbViewportTableRecord
  2
*ACTIVE
 70
0
 10
0.0
 20
0.0
 11
1.0
 21
1.0
 12
5.5
 22
4.25
 13
0.0
 23
0.0
 14
1.0
 24
1.0
 15
0.0
 25
0.0
 16
0.0
 26
0.0
 36
1.0
 17
0.0
 27
0.0
 37
0.0
 40
8.5
 41
1.2941176471
 42
50.0
 43
0.0
 44
0.0
 50
0.0
 51
0.0
 71
0
 72
100
 73
1
 74
1
 75
0
 76
0
 77
0
 78
0
  0
ENDTAB
  0
TABLE
  2
LTYPE
  5
5
100
AcDbSymbolTable
 70
6
  0
LTYPE
  5
14
100
AcDbSymbolTableRecord
100
AcDbLinetypeTableRecord
  2
BYBLOCK
 70
0
  3

 72
65
 73
0
 40
0.0
  0
LTYPE
  5
15
100
AcDbSymbolTableRecord
100
AcDbLinetypeTableRecord
  2
BYLAYER
 70
0
  3

 72
65
 73
0
 40
0.0
  0
LTYPE
  5
16
100
AcDbSymbolTableRecord
100
AcDbLinetypeTableRecord
  2
CONTINUOUS
 70
64
  3
Solid line
 72
65
 73
0
 40
0.0
  0
LTYPE
  5
1F5
100
AcDbSymbolTableRecord
100
AcDbLinetypeTableRecord
  2
CENTER
 70
64
  3
____ _ ____ _ ____ _ ____ _ ____ _ ____ _ ____
 72
65
 73
4
 40
0.6
 49
0.375
 74
0
 49
-0.075
 74
0
 49
0.075
 74
0
 49
-0.075
 74
0
  0
LTYPE
  5
1F6
100
AcDbSymbolTableRecord
100
AcDbLinetypeTableRecord
  2
HIDDEN
 70
64
  3
- - - - - - - - - - - - - - - - - - - -
 72
65
 73
2
 40
0.2
 49
0.1
 74
0
 49
-0.1
 74
0
  0
LTYPE
  5
1F7
100
AcDbSymbolTableRecord
100
AcDbLinetypeTableRecord
  2
PHANTOM
 70
64
  3
_____ _ _ _____ _ _ _____ _ _ _____
 72
65
 73
6
 40
0.8
 49
0.45
 74
0
 49
-0.05
 74
0
 49
0.1
 74
0
 49
-0.05
 74
0
 49
0.1
 74
0
 49
-0.05
 74
0
  0
LTYPE
  5
1F8
100
AcDbSymbolTableRecord
100
AcDbLinetypeTableRecord
  2
DOT
 70
64
  3
. . . . . . . . . . . . . . . . . . . .
 72
65
 73
2
 40
0.2
 49
0.1
 74
0
 49
-0.1
 74
0
  0
LTYPE
  5
1F9
100
AcDbSymbolTableRecord
100
AcDbLinetypeTableRecord
  2
DASHED
 70
64
  3
- - - - - - - - - - - - - - - - - - - -
 72
65
 73
2
 40
0.2
 49
0.1
 74
0
 49
-0.1
 74
0
  0
ENDTAB
  0
TABLE
  2
LAYER
  5
2
100
AcDbSymbolTable
 70
36
  0
LAYER
  5
10
100
AcDbSymbolTableRecord
100
AcDbLayerTableRecord
  2
0
 70
0
 62
7
  6
CONTINUOUS
370
-3
390
F
  0
LAYER
  5
1FA
100
AcDbSymbolTableRecord
100
AcDbLayerTableRecord
  2
DEFAULT_1
 70
0
 62
7
  6
CENTER
370
-3
390
F
  0
LAYER
  5
1FB
100
AcDbSymbolTableRecord
100
AcDbLayerTableRecord
  2
DEFAULT_2
 70
0
 62
8
  6
HIDDEN
370
-3
390
F
  0
LAYER
  5
1FC
100
AcDbSymbolTableRecord
100
AcDbLayerTableRecord
  2
DEFAULT_3
 70
0
 62
7
  6
PHANTOM
370
-3
390
F
  0
LAYER
  5
1FD
100
AcDbSymbolTableRecord
100
AcDbLayerTableRecord
  2
DEFAULT_COORDINATE_SYSTEM
 70
0
 62
7
  6
CONTINUOUS
370
-3
390
F
  0
LAYER
  5
1FE
100
AcDbSymbolTableRecord
100
AcDbLayerTableRecord
  2
DEFAULT_DATUM_AXES
 70
0
 62
7
  6
CONTINUOUS
370
-3
390
F
  0
LAYER
  5
1FF
100
AcDbSymbolTableRecord
100
AcDbLayerTableRecord
  2
DEFAULT_DATUM_PLANES
 70
0
 62
7
  6
CONTINUOUS
370
-3
390
F
  0
ENDTAB
  0
TABLE
  2
STYLE
  5
3
100
AcDbSymbolTable
 70
1
  0
STYLE
  5
11
100
AcDbSymbolTableRecord
100
AcDbTextStyleTableRecord
  2
STANDARD
 70
0
 40
0.0
 41
0.8
 50
0.0
 71
0
 42
0.2
  3
txt
  4

  0
STYLE
  5
200
100
AcDbSymbolTableRecord
100
AcDbTextStyleTableRecord
  2
TEXTSTYLE_1
 70
0
 40
0.0
 41
0.8
 50
0.0
 71
0
 42
0.2
  3
gdt
  4

  0
ENDTAB
  0
TABLE
  2
VIEW
  5
6
100
AcDbSymbolTable
 70
0
  0
ENDTAB
  0
TABLE
  2
UCS
  5
7
100
AcDbSymbolTable
 70
0
  0
ENDTAB
  0
TABLE
  2
APPID
  5
9
100
AcDbSymbolTable
 70
1
  0
APPID
  5
201
100
AcDbSymbolTableRecord
100
AcDbRegAppTableRecord
  2
ACAD
 70
0
  0
ENDTAB
  0
TABLE
  2
BLOCK_RECORD
  5
1
100
AcDbSymbolTable
 70
0
  0
BLOCK_RECORD
  5
202
100
AcDbSymbolTableRecord
100
AcDbBlockTableRecord
  2
*Model_Space
  0
BLOCK_RECORD
  5
203
100
AcDbSymbolTableRecord
100
AcDbBlockTableRecord
  2
*Paper_Space
  0
BLOCK_RECORD
  5
204
100
AcDbSymbolTableRecord
100
AcDbBlockTableRecord
  2
_FILLED
  0
ENDTAB
  0
TABLE
  2
DIMSTYLE
  5
A
100
AcDbSymbolTable
 70
1
100
AcDbDimStyleTable
 71
0
  0
DIMSTYLE
105
205
100
AcDbSymbolTableRecord
100
AcDbDimStyleTableRecord
  2
STANDARD
 70
0
  3

  4

 40
1.0
 41
0.1
 42
0.0625
 43
0.38
 44
0.125
 45
0.0
 46
0.0
 47
0.001
 48
0.001
140
0.08
141
0.09
142
0.0
143
25.4
144
1.0
145
0.0
146
1.0
147
0.09
 71
1.0
 72
0.0
 73
1
 74
1
 75
0
 76
0
 77
0
 78
4
 79
1
170
1
171
2
172
0
173
0
174
0
175
0
176
0
177
0
178
0
270
2
179
3
271
3
272
3
273
2
274
2
275
0
280
0
281
0
282
0
283
1
284
4
285
0
286
0
287
3
288
0
340
11
278
46
341
204
342
204
343
204
344
204
  0
ENDTAB
  0
ENDSEC
  0
SECTION
  2
BLOCKS
  0
BLOCK
  5
20
100
AcDbEntity
  8
0
100
AcDbBlockBegin
  2
*Model_Space
 70
0
 10
0.0
 20
0.0
 30
0.0
  3
*Model_Space
  1

  0
ENDBLK
  5
21
100
AcDbEntity
  8
0
100
AcDbBlockEnd
  0
BLOCK
  5
1C
100
AcDbEntity
  8
0
100
AcDbBlockBegin
  2
*Paper_Space
 70
0
 10
0.0
 20
0.0
 30
0.0
  3
*Paper_Space
  1

  0
ENDBLK
  5
1D
100
AcDbEntity
  8
0
100
AcDbBlockEnd
  0
BLOCK
  5
206
100
AcDbEntity
  8
0
100
AcDbBlockBegin
  2
_FILLED
 70
64
 10
0.0
 20
0.0
  3
_FILLED
  1

  0
SOLID
  5
207
100
AcDbEntity
  8
0
  6
BYBLOCK
 62
0
100
AcDbTrace
 10
0.0
 20
0.0
 11
-1.0
 21
0.2
 12
-1.0
 22
-0.2
 13
-1.0
 23
-0.2
  0
ENDBLK
  5
208
100
AcDbEntity
  8
0
  6
BYBLOCK
 62
0
100
AcDbBlockEnd
  0
ENDSEC
  0
SECTION
  2
ENTITIES
  0
MTEXT
  5
209
100
AcDbEntity
  8
0
100
AcDbMText
 62
2
  6
CONTINUOUS
  7
STANDARD
 71
3
 72
1
 10
4.7275232919
 20
0.7291121864
 30
0.0
 11
1.0
 21
0.0
 31
0.0
 73
2
 44
0.9
  1
SCALE  .500
 40
0.08
 41
0.704
  0
LINE
  5
20A
100
AcDbEntity
  8
0
100
AcDbLine
 62
7
  6
CONTINUOUS
 10
0.0
 20
0.0
 11
0.0
 21
8.5
  0
LINE
  5
20B
100
AcDbEntity
  8
0
100
AcDbLine
 62
7
  6
CONTINUOUS
 10
0.0
 20
0.0
 11
11.0
 21
0.0
  0
LINE
  5
20C
100
AcDbEntity
  8
0
100
AcDbLine
 62
7
  6
CONTINUOUS
 10
0.0
 20
8.5
 11
11.0
 21
8.5
  0
LINE
  5
20D
100
AcDbEntity
  8
0
100
AcDbLine
 62
7
  6
CONTINUOUS
 10
11.0
 20
0.0
 11
11.0
 21
8.5
  0
LINE
  5
20E
100
AcDbEntity
  8
0
100
AcDbLine
 62
7
  6
CONTINUOUS
 10
3.7327217929
 20
1.6772954162
 11
4.8350839977
 21
1.6772954162
  0
LINE
  5
20F
100
AcDbEntity
  8
0
100
AcDbLine
 62
7
  6
CONTINUOUS
 10
4.8350839977
 20
1.8150906918
 11
3.7327217929
 21
1.8150906918
  0
LINE
  5
210
100
AcDbEntity
  8
0
100
AcDbLine
 62
7
  6
CONTINUOUS
 10
4.8153989506
 20
1.8347757312
 11
3.75240684
 21
1.8347757312
  0
LINE
  5
211
100
AcDbEntity
  8
0
100
AcDbLine
 62
7
  6
CONTINUOUS
 10
5.9928219859
 20
2.4104542062
 11
5.5594934465
 21
2.4066726053
  0
LINE
  5
212
100
AcDbEntity
  8
0
100
AcDbLine
 62
7
  6
CONTINUOUS
 10
4.8449265131
 20
2.4056418729
 11
5.3075249425
 21
2.4056418729
  0
LINE
  5
213
100
AcDbEntity
  8
0
100
AcDbLine
 62
7
  6
CONTINUOUS
 10
4.5053548382
 20
2.8780750572
 11
4.5087933784
 21
2.8780821234
  0
LINE
  5
214
100
AcDbEntity
  8
0
100
AcDbLine
 62
7
  6
CONTINUOUS
 10
6.0220918717
 20
2.8780828188
 11
5.4413832103
 21
2.8780828178
  0
LINE
  5
215
100
AcDbEntity
  8
0
100
AcDbLine
 62
7
  6
CONTINUOUS
 10
4.3611554678
 20
2.8780828178
 11
4.5002275924
 21
2.8780828178
  0
LINE
  5
216
100
AcDbEntity
  8
0
100
AcDbLine
 62
7
  6
CONTINUOUS
 10
4.5002275924
 20
2.8780828178
 11
4.5018173653
 21
2.8780753981
  0
LINE
  5
217
100
AcDbEntity
  8
0
100
AcDbLine
 62
7
  6
CONTINUOUS
 10
5.4413832103
 20
3.3505237627
 11
5.7565162918
 21
3.3532738874
  0
LINE
  5
218
100
AcDbEntity
  8
0
100
AcDbLine
 62
7
  6
CONTINUOUS
 10
4.8449265131
 20
3.3505237627
 11
5.3075249425
 21
3.3505237627
  0
LINE
  5
219
100
AcDbEntity
  8
0
100
AcDbLine
 62
7
  6
CONTINUOUS
 10
3.7327217929
 20
1.8150906918
 11
3.7327217929
 21
1.6772954162
  0
LINE
  5
21A
100
AcDbEntity
  8
0
100
AcDbLine
 62
7
  6
CONTINUOUS
 10
3.8016194307
 20
3.7412757312
 11
3.8016194307
 21
1.8347757312
  0
LINE
  5
21B
100
AcDbEntity
  8
0
100
AcDbLine
 62
7
  6
CONTINUOUS
 10
5.9942139014
 20
3.3469655212
 11
5.9717788874
 21
3.3482208378
  0
LINE
  5
21C
100
AcDbEntity
  8
0
100
AcDbLine
 62
7
  6
CONTINUOUS
 10
4.0476824228
 20
3.7540670697
 11
4.0476824228
 21
7.3820198256
  0
LINE
  5
21D
100
AcDbEntity
  8
0
100
AcDbLine
 62
7
  6
CONTINUOUS
 10
4.7661863599
 20
3.7412757312
 11
3.8016194307
 21
3.7412757312
  0
LINE
  5
21E
100
AcDbEntity
  8
0
100
AcDbLine
 62
7
  6
CONTINUOUS
 10
3.8213045487
 20
3.7540670697
 11
4.7465012499
 21
3.7540670697
  0
LINE
  5
21F
100
AcDbEntity
  8
0
100
AcDbLine
 62
7
  6
CONTINUOUS
 10
4.5201233677
 20
3.7540670697
 11
4.5201233677
 21
7.3820198256
  0
LINE
  5
220
100
AcDbEntity
  8
0
100
AcDbLine
 62
7
  6
CONTINUOUS
 10
5.7760288795
 20
4.4135158886
 11
5.9531942339
 21
4.4135158886
  0
LINE
  5
221
100
AcDbEntity
  8
0
100
AcDbLine
 62
7
  6
CONTINUOUS
 10
5.795713969
 20
4.433200928
 11
5.9335091444
 21
4.433200928
  0
LINE
  5
222
100
AcDbEntity
  8
0
100
AcDbLine
 62
7
  6
CONTINUOUS
 10
4.7661863599
 20
2.3269017295
 11
4.7661863599
 21
1.8347757312
  0
LINE
  5
223
100
AcDbEntity
  8
0
100
AcDbLine
 62
7
  6
CONTINUOUS
 10
4.7661863599
 20
3.429263906
 11
4.7661863599
 21
3.7412757312
  0
LINE
  5
224
100
AcDbEntity
  8
0
100
AcDbLine
 62
7
  6
CONTINUOUS
 10
4.8350839977
 20
1.8150906918
 11
4.8350839977
 21
1.6772954162
  0
LINE
  5
225
100
AcDbEntity
  8
0
100
AcDbLine
 62
7
  6
CONTINUOUS
 10
5.4413832103
 20
2.838712739
 11
5.5594933307
 21
2.406673029
  0
LINE
  5
226
100
AcDbEntity
  8
0
100
AcDbLine
 62
7
  6
CONTINUOUS
 10
5.3075249425
 20
2.4056418729
 11
5.3075249425
 21
3.3505237626
  0
LINE
  5
227
100
AcDbEntity
  8
0
100
AcDbLine
 62
7
  6
CONTINUOUS
 10
5.317198838
 20
2.432933762
 11
5.317198838
 21
3.3232318735
  0
LINE
  5
228
100
AcDbEntity
  8
0
100
AcDbLine
 62
7
  6
CONTINUOUS
 10
5.4413832103
 20
3.3505237627
 11
5.4413832103
 21
2.838712739
  0
LINE
  5
229
100
AcDbEntity
  8
0
100
AcDbLine
 62
7
  6
CONTINUOUS
 10
4.0575249425
 20
5.1083977784
 11
4.5102805724
 21
5.1083977784
  0
LINE
  5
22A
100
AcDbEntity
  8
0
100
AcDbLine
 62
7
  6
CONTINUOUS
 10
4.5201233677
 20
5.1182402981
 11
4.0476824228
 21
5.1182402981
  0
LINE
  5
22B
100
AcDbEntity
  8
0
100
AcDbLine
 62
7
  6
CONTINUOUS
 10
5.7760288795
 20
3.3729581714
 11
5.7760288795
 21
4.4135158886
  0
LINE
  5
22C
100
AcDbEntity
  8
0
100
AcDbLine
 62
7
  6
CONTINUOUS
 10
5.9531942339
 20
3.3678750976
 11
5.9531942339
 21
4.4135158886
  0
LINE
  5
22D
100
AcDbEntity
  8
0
100
AcDbLine
 62
7
  6
CONTINUOUS
 10
5.9928219859
 20
2.4104542062
 11
5.9928219859
 21
2.8780828178
  0
LINE
  5
22E
100
AcDbEntity
  8
0
100
AcDbLine
 62
7
  6
CONTINUOUS
 10
5.9942139049
 20
3.1498993823
 11
5.9942139014
 21
3.3469655212
  0
LINE
  5
22F
100
AcDbEntity
  8
0
100
AcDbLine
 62
7
  6
CONTINUOUS
 10
6.0220918717
 20
2.4399806599
 11
6.0220918717
 21
3.3174833592
  0
LINE
  5
230
100
AcDbEntity
  8
0
100
AcDbLine
 62
7
  6
CONTINUOUS
 10
4.5201233677
 20
5.8465867548
 11
4.0476824228
 21
5.8465867548
  0
ARC
  5
231
100
AcDbEntity
  8
0
100
AcDbCircle
 62
7
  6
CONTINUOUS
 10
6.9405118458
 20
-5.931864272
 40
9.1309316191
100
AcDbArc
 50
95.948616198
 51
96.7030838647
  0
ARC
  5
232
100
AcDbEntity
  8
0
100
AcDbCircle
 62
7
  6
CONTINUOUS
 10
4.928841432
 20
2.7264475069
 40
0.9891061797
100
AcDbArc
 50
8.818527739
 51
9.2113186191
  0
ARC
  5
233
100
AcDbEntity
  8
0
100
AcDbCircle
 62
7
  6
CONTINUOUS
 10
5.8742745557
 20
3.8908262945
 40
0.7541750384
100
AcDbArc
 50
268.4972541646
 51
270.0331786039
  0
ARC
  5
234
100
AcDbEntity
  8
0
100
AcDbCircle
 62
7
  6
CONTINUOUS
 10
5.3251163958
 20
2.8948991467
 40
0.4620332286
100
AcDbArc
 50
269.0181120705
 51
297.4518093695
  0
ARC
  5
235
100
AcDbEntity
  8
0
100
AcDbCircle
 62
7
  6
CONTINUOUS
 10
5.3251163958
 20
2.8612664888
 40
0.4620332286
100
AcDbArc
 50
75.4237138883
 51
90.9818879295
  0
ARC
  5
236
100
AcDbEntity
  8
0
100
AcDbCircle
 62
7
  6
CONTINUOUS
 10
5.9413059523
 20
3.4528872659
 40
0.3315786033
100
AcDbArc
 50
254.7702934081
 51
258.4362326844
  0
ARC
  5
237
100
AcDbEntity
  8
0
100
AcDbCircle
 62
7
  6
CONTINUOUS
 10
4.2839028953
 20
7.3820198256
 40
0.2362204724
100
AcDbArc
 50
0.0
 51
180.0
  0
ARC
  5
238
100
AcDbEntity
  8
0
100
AcDbCircle
 62
7
  6
CONTINUOUS
 10
5.859502444
 20
3.121832325
 40
0.2208858721
100
AcDbArc
 50
86.9616771142
 51
90.3883765302
  0
ARC
  5
239
100
AcDbEntity
  8
0
100
AcDbCircle
 62
7
  6
CONTINUOUS
 10
4.844926611
 20
3.4292640138
 40
0.0787401533
100
AcDbArc
 50
180.0001280395
 51
270.0000270174
  0
ARC
  5
23A
100
AcDbEntity
  8
0
100
AcDbCircle
 62
7
  6
CONTINUOUS
 10
4.8449266127
 20
2.32690162
 40
0.0787401533
100
AcDbArc
 50
89.9999741851
 51
179.9998700364
  0
ARC
  5
23B
100
AcDbEntity
  8
0
100
AcDbCircle
 62
7
  6
CONTINUOUS
 10
5.9925643126
 20
2.4399806409
 40
0.0295275591
100
AcDbArc
 50
270.5
 51
360.0
  0
ARC
  5
23C
100
AcDbEntity
  8
0
100
AcDbCircle
 62
7
  6
CONTINUOUS
 10
5.9925643126
 20
3.3174840762
 40
0.0295275591
100
AcDbArc
 50
0.0
 51
86.797442446
  0
ARC
  5
23D
100
AcDbEntity
  8
0
100
AcDbCircle
 62
7
  6
CONTINUOUS
 10
5.7563357972
 20
3.3729669396
 40
0.0196946005
100
AcDbArc
 50
270.5231758019
 51
359.9731763309
  0
ARC
  5
23E
100
AcDbEntity
  8
0
100
AcDbCircle
 62
7
  6
CONTINUOUS
 10
5.9728863468
 20
3.3678825321
 40
0.0196931676
100
AcDbArc
 50
180.0226782978
 51
266.7781028472
  0
ARC
  5
23F
100
AcDbEntity
  8
0
100
AcDbCircle
 62
7
  6
CONTINUOUS
 10
3.8213044701
 20
3.7343820304
 40
0.0196850394
100
AcDbArc
 50
90.0
 51
159.5004515074
  0
ARC
  5
240
100
AcDbEntity
  8
0
100
AcDbCircle
 62
7
  6
CONTINUOUS
 10
4.7465013205
 20
3.7343820304
 40
0.0196850394
100
AcDbArc
 50
20.4995484926
 51
90.0
  0
ARC
  5
241
100
AcDbEntity
  8
0
100
AcDbCircle
 62
7
  6
CONTINUOUS
 10
4.8153989583
 20
1.8150906918
 40
0.0196850394
100
AcDbArc
 50
0.0
 51
90.0000223786
  0
ARC
  5
242
100
AcDbEntity
  8
0
100
AcDbCircle
 62
7
  6
CONTINUOUS
 10
3.7524068323
 20
1.8150906918
 40
0.0196850394
100
AcDbArc
 50
89.9999776214
 51
180.0
  0
ARC
  5
243
100
AcDbEntity
  8
0
100
AcDbCircle
 62
7
  6
CONTINUOUS
 10
5.9335091945
 20
4.4135158886
 40
0.0196850394
100
AcDbArc
 50
0.0
 51
90.0001456898
  0
ARC
  5
244
100
AcDbEntity
  8
0
100
AcDbCircle
 62
7
  6
CONTINUOUS
 10
5.7957139189
 20
4.4135158886
 40
0.0196850394
100
AcDbArc
 50
89.9998543102
 51
180.0
  0
ARC
  5
245
100
AcDbEntity
  8
0
100
AcDbCircle
 62
7
  6
CONTINUOUS
 10
4.510280848
 20
5.1182402981
 40
0.0098425197
100
AcDbArc
 50
270.0
 51
360.0
  0
ARC
  5
246
100
AcDbEntity
  8
0
100
AcDbCircle
 62
7
  6
CONTINUOUS
 10
4.0575249425
 20
5.1182402981
 40
0.0098425197
100
AcDbArc
 50
180.0
 51
270.0
  0
ARC
  5
247
100
AcDbEntity
  8
0
100
AcDbCircle
 62
7
  6
CONTINUOUS
 10
5.3173674622
 20
3.3133907984
 40
0.0098425197
100
AcDbArc
 50
90.981893066
 51
180.0
  0
ARC
  5
248
100
AcDbEntity
  8
0
100
AcDbCircle
 62
7
  6
CONTINUOUS
 10
5.3173674622
 20
2.4427748371
 40
0.0098425197
100
AcDbArc
 50
180.0
 51
269.018106934
  0
LINE
  5
249
100
AcDbEntity
  8
0
100
AcDbLine
 62
7
  6
CONTINUOUS
 10
5.8748382315
 20
3.1280390579
 11
5.8747112836
 21
3.1366512633
  0
SPLINE
  5
24A
100
AcDbEntity
  8
0
100
AcDbSpline
 62
7
  6
CONTINUOUS
 70
0
 71
3
 72
20
 73
16
 74
0
 42
0.0000001
 43
0.0000001
 44
0.0000000001
 40
0.0
 40
0.0
 40
0.0
 40
0.0
 40
0.1116004074
 40
0.2287567634
 40
0.3504734946
 40
0.4759028619
 40
0.5397694046
 40
0.6042835922
 40
0.6693566578
 40
0.7349003066
 40
0.8008279271
 40
0.8339090959
 40
0.8670542249
 40
0.9334834599
 40
1.0
 40
1.0
 40
1.0
 40
1.0
 10
5.9942138984
 20
3.1498990334
 30
0.0
 10
5.9942322161
 20
3.1397872872
 30
0.0
 10
5.9942173143
 20
3.1190602925
 30
0.0
 10
5.9940977872
 20
3.0873051893
 30
0.0
 10
5.993902065
 20
3.0542974473
 30
0.0
 10
5.9936953786
 20
3.0261183215
 30
0.0
 10
5.99351487
 20
3.0031220932
 30
0.0
 10
5.9933740495
 20
2.9855944173
 30
0.0
 10
5.9932357104
 20
2.9679147592
 30
0.0
 10
5.9931066795
 20
2.9501069595
 30
0.0
 10
5.9930146449
 20
2.9351976581
 30
0.0
 10
5.9929553113
 20
2.9232237516
 30
0.0
 10
5.9929077335
 20
2.9112043419
 30
0.0
 10
5.9928677586
 20
2.8961554159
 30
0.0
 10
5.9928398811
 20
2.8841096488
 30
0.0
 10
5.9928230457
 20
2.8780828173
 30
0.0
  0
SPLINE
  5
24B
100
AcDbEntity
  8
0
100
AcDbSpline
 62
7
  6
CONTINUOUS
 70
0
 71
3
 72
37
 73
33
 74
0
 42
0.0000001
 43
0.0000001
 44
0.0000000001
 40
0.0
 40
0.0
 40
0.0
 40
0.0
 40
0.0653850886
 40
0.1307194766
 40
0.1959351284
 40
0.2609845596
 40
0.3258183037
 40
0.3581364038
 40
0.390378581
 40
0.4225370353
 40
0.4546020393
 40
0.5184042312
 40
0.5501195995
 40
0.5816949562
 40
0.6131170251
 40
0.6443723244
 40
0.6754453332
 40
0.7063202592
 40
0.7369806351
 40
0.7674056899
 40
0.782524207
 40
0.797577223
 40
0.8274761246
 40
0.8570791368
 40
0.8717626908
 40
0.8863652401
 40
0.900885109
 40
0.9153204601
 40
0.9439283439
 40
0.9580964401
 40
0.9721694285
 40
1.0
 40
1.0
 40
1.0
 40
1.0
 10
5.9051929074
 20
2.8847789496
 30
0.0
 10
5.9042428946
 20
2.8902290382
 30
0.0
 10
5.9021782128
 20
2.9010966376
 30
0.0
 10
5.898668196
 20
2.9173003754
 30
0.0
 10
5.8948260139
 20
2.9333989572
 30
0.0
 10
5.8907450235
 20
2.9493943946
 30
0.0
 10
5.8872217869
 20
2.9626584991
 30
0.0
 10
5.8843711497
 20
2.9732289646
 30
0.0
 10
5.8822291885
 20
2.9811270942
 30
0.0
 10
5.8800899862
 20
2.9890037891
 30
0.0
 10
5.8772633322
 20
2.9994607784
 30
0.0
 10
5.8745002943
 20
3.009896323
 30
0.0
 10
5.8718731062
 20
3.0203239939
 30
0.0
 10
5.8699802734
 20
3.0281110407
 30
0.0
 10
5.8681625119
 20
3.0358759815
 30
0.0
 10
5.8664210645
 20
3.0436148416
 30
0.0
 10
5.8647628506
 20
3.0513246437
 30
0.0
 10
5.8631962639
 20
3.0590022429
 30
0.0
 10
5.8617295845
 20
3.0666437833
 30
0.0
 10
5.8606073553
 20
3.0729933521
 30
0.0
 10
5.8597828476
 20
3.0780538043
 30
0.0
 10
5.8590141183
 20
3.0830779967
 30
0.0
 10
5.8581444454
 20
3.0893262246
 30
0.0
 10
5.8573763874
 20
3.0955561525
 30
0.0
 10
5.856816219
 20
3.1005072308
 30
0.0
 10
5.8564223509
 20
3.1041927148
 30
0.0
 10
5.8560517251
 20
3.1078594973
 30
0.0
 10
5.8555866572
 20
3.1127077005
 30
0.0
 10
5.8551636502
 20
3.117530002
 30
0.0
 10
5.8547925208
 20
3.1223257437
 30
0.0
 10
5.8544635081
 20
3.1270585482
 30
0.0
 10
5.854279635
 20
3.1306000255
 30
0.0
 10
5.8542037404
 20
3.1329535621
 30
0.0
  0
SPLINE
  5
24C
100
AcDbEntity
  8
0
100
AcDbSpline
 62
7
  6
CONTINUOUS
 70
0
 71
3
 72
73
 73
69
 74
0
 42
0.0000001
 43
0.0000001
 44
0.0000000001
 40
0.0
 40
0.0
 40
0.0
 40
0.0
 40
0.0419909176
 40
0.0839691625
 40
0.1259194956
 40
0.1678186596
 40
0.2096267679
 40
0.2513210003
 40
0.2928288343
 40
0.3341127171
 40
0.3751081819
 40
0.4157679801
 40
0.4560440623
 40
0.4958787225
 40
0.5351905653
 40
0.5738867141
 40
0.6118682286
 40
0.6490203371
 40
0.6852198093
 40
0.7203272814
 40
0.7541947955
 40
0.7866582354
 40
0.8175456161
 40
0.8466717149
 40
0.8738458301
 40
0.8866393582
 40
0.8988706173
 40
0.9105147835
 40
0.9215476311
 40
0.931945053
 40
0.9416829015
 40
0.950737612
 40
0.9590880702
 40
0.9667137556
 40
0.9735941231
 40
0.976748525
 40
0.9797097162
 40
0.9824759562
 40
0.9850455044
 40
0.987416619
 40
0.9895875578
 40
0.9915565781
 40
0.9933219364
 40
0.9948820769
 40
0.9962361961
 40
0.9968358054
 40
0.9973836787
 40
0.9978797389
 40
0.9983239093
 40
0.9987161127
 40
0.9990562723
 40
0.9993443111
 40
0.9994687612
 40
0.9995801522
 40
0.9996784746
 40
0.9997637186
 40
0.9998358748
 40
0.9998949334
 40
0.9999195481
 40
0.9999408848
 40
0.9999589423
 40
0.9999737195
 40
0.999985215
 40
0.9999934277
 40
0.9999963027
 40
0.9999983565
 40
0.999999589
 40
1.0
 40
1.0
 40
1.0
 40
1.0
 10
4.3611554777
 20
2.8780828178
 30
0.0
 10
4.3611554764
 20
2.8682598776
 30
0.0
 10
4.36210896
 20
2.8486021944
 30
0.0
 10
4.3664913216
 20
2.81942512
 30
0.0
 10
4.3737551953
 20
2.7908515841
 30
0.0
 10
4.3836630513
 20
2.7631340685
 30
0.0
 10
4.3958754013
 20
2.7364276815
 30
0.0
 10
4.4099609284
 20
2.7107747939
 30
0.0
 10
4.4255262773
 20
2.6861451636
 30
0.0
 10
4.4421895292
 20
2.6624515555
 30
0.0
 10
4.4596000582
 20
2.6395552488
 30
0.0
 10
4.4774727228
 20
2.61732306
 30
0.0
 10
4.4955284979
 20
2.5955928013
 30
0.0
 10
4.513671052
 20
2.5743478819
 30
0.0
 10
4.5318585521
 20
2.5536308012
 30
0.0
 10
4.5500275698
 20
2.5334775968
 30
0.0
 10
4.5681098253
 20
2.5139294255
 30
0.0
 10
4.5860298415
 20
2.4950295605
 30
0.0
 10
4.6037061608
 20
2.4768277114
 30
0.0
 10
4.6210475759
 20
2.459374014
 30
0.0
 10
4.6379567077
 20
2.4427249298
 30
0.0
 10
4.6543270387
 20
2.4269375306
 30
0.0
 10
4.6700463723
 20
2.4120745081
 30
0.0
 10
4.6849948809
 20
2.3981985687
 30
0.0
 10
4.6969352408
 20
2.3873045219
 30
0.0
 10
4.7060052938
 20
2.3791289064
 30
0.0
 10
4.7123984264
 20
2.3734096567
 30
0.0
 10
4.7185040281
 20
2.3679868326
 30
0.0
 10
4.7243062752
 20
2.3628685355
 30
0.0
 10
4.7297894815
 20
2.3580627418
 30
0.0
 10
4.7349381034
 20
2.3535773121
 30
0.0
 10
4.7397371391
 20
2.3494196229
 30
0.0
 10
4.7441726038
 20
2.3455968937
 30
0.0
 10
4.748231066
 20
2.342115876
 30
0.0
 10
4.7513726511
 20
2.3394329284
 30
0.0
 10
4.7536872626
 20
2.3374618711
 30
0.0
 10
4.7552703228
 20
2.3361161832
 30
0.0
 10
4.7567502042
 20
2.3348603582
 30
0.0
 10
4.7581257755
 20
2.3336949533
 30
0.0
 10
4.7593959059
 20
2.3326205263
 30
0.0
 10
4.7605594649
 20
2.3316376353
 30
0.0
 10
4.7616153217
 20
2.330746838
 30
0.0
 10
4.7625623818
 20
2.3299486669
 30
0.0
 10
4.763399713
 20
2.3292435057
 30
0.0
 10
4.7640286481
 20
2.3287142379
 30
0.0
 10
4.7644765088
 20
2.3283375685
 30
0.0
 10
4.764770797
 20
2.3280901523
 30
0.0
 10
4.765037294
 20
2.3278661846
 30
0.0
 10
4.7652759499
 20
2.32766569
 30
0.0
 10
4.7654867146
 20
2.3274886932
 30
0.0
 10
4.7656695385
 20
2.3273352186
 30
0.0
 10
4.7658044105
 20
2.3272220411
 30
0.0
 10
4.7658982999
 20
2.3271432781
 30
0.0
 10
4.7659581933
 20
2.327093044
 30
0.0
 10
4.7660110641
 20
2.3270487089
 30
0.0
 10
4.766056906
 20
2.3270102758
 30
0.0
 10
4.7660957128
 20
2.3269777481
 30
0.0
 10
4.7661236525
 20
2.3269543338
 30
0.0
 10
4.7661424821
 20
2.3269385585
 30
0.0
 10
4.7661539604
 20
2.3269289411
 30
0.0
 10
4.7661636751
 20
2.3269208094
 30
0.0
 10
4.7661716261
 20
2.326914137
 30
0.0
 10
4.7661778104
 20
2.3269089951
 30
0.0
 10
4.7661818641
 20
2.3269055282
 30
0.0
 10
4.7661842188
 20
2.3269036583
 30
0.0
 10
4.76618533
 20
2.3269025653
 30
0.0
 10
4.7661859842
 20
2.3269023086
 30
0.0
 10
4.7661862896
 20
2.3269017541
 30
0.0
 10
4.7661863598
 20
2.3269018198
 30
0.0
  0
SPLINE
  5
24D
100
AcDbEntity
  8
0
100
AcDbSpline
 62
7
  6
CONTINUOUS
 70
0
 71
3
 72
73
 73
69
 74
0
 42
0.0000001
 43
0.0000001
 44
0.0000000001
 40
0.0
 40
0.0
 40
0.0
 40
0.0
 40
0.000000411
 40
0.0000016435
 40
0.0000036973
 40
0.0000065723
 40
0.000014785
 40
0.0000262805
 40
0.0000410577
 40
0.0000591152
 40
0.0000804519
 40
0.0001050666
 40
0.0001641252
 40
0.0002362814
 40
0.0003215254
 40
0.0004198478
 40
0.0005312388
 40
0.0006556889
 40
0.0009437277
 40
0.0012838873
 40
0.0016760907
 40
0.0021202611
 40
0.0026163213
 40
0.0031641946
 40
0.0037638039
 40
0.0051179231
 40
0.0066780636
 40
0.0084434219
 40
0.0104124422
 40
0.012583381
 40
0.0149544956
 40
0.0175240438
 40
0.0202902838
 40
0.0232514749
 40
0.0264058769
 40
0.0332862444
 40
0.0409119298
 40
0.049262388
 40
0.0583170985
 40
0.068054947
 40
0.0784523689
 40
0.0894852165
 40
0.1011293827
 40
0.1133606418
 40
0.1261541699
 40
0.1533282851
 40
0.1824543839
 40
0.2133417646
 40
0.2458052045
 40
0.2796727186
 40
0.3147801907
 40
0.3509796629
 40
0.3881317714
 40
0.4261132859
 40
0.4648094347
 40
0.5041212775
 40
0.5439559377
 40
0.5842320199
 40
0.6248918181
 40
0.6658872829
 40
0.7071711657
 40
0.7486789997
 40
0.7903732321
 40
0.8321813404
 40
0.8740805044
 40
0.9160308375
 40
0.9580090824
 40
1.0
 40
1.0
 40
1.0
 40
1.0
 10
4.7661863598
 20
3.4292638157
 30
0.0
 10
4.7661862896
 20
3.4292638814
 30
0.0
 10
4.7661859842
 20
3.4292633269
 30
0.0
 10
4.76618533
 20
3.4292630702
 30
0.0
 10
4.7661842188
 20
3.4292619772
 30
0.0
 10
4.7661818641
 20
3.4292601073
 30
0.0
 10
4.7661778104
 20
3.4292566404
 30
0.0
 10
4.7661716261
 20
3.4292514985
 30
0.0
 10
4.7661636751
 20
3.4292448261
 30
0.0
 10
4.7661539604
 20
3.4292366944
 30
0.0
 10
4.7661424821
 20
3.429227077
 30
0.0
 10
4.7661236525
 20
3.4292113017
 30
0.0
 10
4.7660957128
 20
3.4291878874
 30
0.0
 10
4.766056906
 20
3.4291553597
 30
0.0
 10
4.7660110641
 20
3.4291169266
 30
0.0
 10
4.7659581933
 20
3.4290725915
 30
0.0
 10
4.7658982999
 20
3.4290223574
 30
0.0
 10
4.7658044105
 20
3.4289435945
 30
0.0
 10
4.7656695385
 20
3.4288304169
 30
0.0
 10
4.7654867146
 20
3.4286769423
 30
0.0
 10
4.7652759499
 20
3.4284999455
 30
0.0
 10
4.765037294
 20
3.4282994509
 30
0.0
 10
4.764770797
 20
3.4280754832
 30
0.0
 10
4.7644765088
 20
3.427828067
 30
0.0
 10
4.7640286481
 20
3.4274513976
 30
0.0
 10
4.763399713
 20
3.4269221298
 30
0.0
 10
4.7625623818
 20
3.4262169686
 30
0.0
 10
4.7616153217
 20
3.4254187975
 30
0.0
 10
4.7605594649
 20
3.4245280002
 30
0.0
 10
4.7593959059
 20
3.4235451092
 30
0.0
 10
4.7581257755
 20
3.4224706822
 30
0.0
 10
4.7567502042
 20
3.4213052773
 30
0.0
 10
4.7552703228
 20
3.4200494523
 30
0.0
 10
4.7536872626
 20
3.4187037644
 30
0.0
 10
4.7513726511
 20
3.4167327071
 30
0.0
 10
4.748231066
 20
3.4140497595
 30
0.0
 10
4.7441726038
 20
3.4105687419
 30
0.0
 10
4.7397371391
 20
3.4067460126
 30
0.0
 10
4.7349381034
 20
3.4025883234
 30
0.0
 10
4.7297894815
 20
3.3981028937
 30
0.0
 10
4.7243062752
 20
3.3932971
 30
0.0
 10
4.7185040281
 20
3.388178803
 30
0.0
 10
4.7123984264
 20
3.3827559788
 30
0.0
 10
4.7060052938
 20
3.3770367291
 30
0.0
 10
4.6969352408
 20
3.3688611136
 30
0.0
 10
4.6849948809
 20
3.3579670668
 30
0.0
 10
4.6700463724
 20
3.3440911274
 30
0.0
 10
4.6543270388
 20
3.3292281049
 30
0.0
 10
4.6379567077
 20
3.3134407057
 30
0.0
 10
4.6210475759
 20
3.2967916215
 30
0.0
 10
4.6037061608
 20
3.2793379242
 30
0.0
 10
4.5860298416
 20
3.2611360751
 30
0.0
 10
4.5681098253
 20
3.24223621
 30
0.0
 10
4.5500275699
 20
3.2226880388
 30
0.0
 10
4.5318585521
 20
3.2025348344
 30
0.0
 10
4.513671052
 20
3.1818177537
 30
0.0
 10
4.4955284979
 20
3.1605728343
 30
0.0
 10
4.4774727228
 20
3.1388425755
 30
0.0
 10
4.4596000582
 20
3.1166103867
 30
0.0
 10
4.4421895293
 20
3.09371408
 30
0.0
 10
4.4255262773
 20
3.0700204719
 30
0.0
 10
4.4099609284
 20
3.0453908416
 30
0.0
 10
4.3958754013
 20
3.0197379541
 30
0.0
 10
4.3836630513
 20
2.993031567
 30
0.0
 10
4.3737551953
 20
2.9653140514
 30
0.0
 10
4.3664913216
 20
2.9367405155
 30
0.0
 10
4.36210896
 20
2.9075634412
 30
0.0
 10
4.3611554764
 20
2.8879057579
 30
0.0
 10
4.3611554777
 20
2.8780828178
 30
0.0
  0
SPLINE
  5
24E
100
AcDbEntity
  8
0
100
AcDbSpline
 62
7
  6
CONTINUOUS
 70
0
 71
3
 72
88
 73
84
 74
0
 42
0.0000001
 43
0.0000001
 44
0.0000000001
 40
0.0
 40
0.0
 40
0.0
 40
0.0
 40
0.0000018209
 40
0.0000040969
 40
0.0000072829
 40
0.000016384
 40
0.0000291218
 40
0.000045494
 40
0.0000654983
 40
0.0000891326
 40
0.0001163945
 40
0.0001817922
 40
0.0002616733
 40
0.0003560196
 40
0.0004648132
 40
0.0005880357
 40
0.0007256693
 40
0.0010440969
 40
0.0014199513
 40
0.0018530792
 40
0.0023432856
 40
0.0028903627
 40
0.0034941027
 40
0.0041542978
 40
0.0056432223
 40
0.0073553467
 40
0.0092881708
 40
0.0114389482
 40
0.01380493
 40
0.0163829804
 40
0.019169195
 40
0.0221595806
 40
0.0287370654
 40
0.0360851486
 40
0.0441738091
 40
0.0529690987
 40
0.0624356051
 40
0.0725408699
 40
0.0832540103
 40
0.094544167
 40
0.1063805368
 40
0.1315784515
 40
0.158639517
 40
0.1873744092
 40
0.2176176845
 40
0.2492251788
 40
0.282069385
 40
0.3160390401
 40
0.3510359761
 40
0.3869743707
 40
0.4237784945
 40
0.461380746
 40
0.4804626745
 40
0.4997222345
 40
0.5387465583
 40
0.5584988187
 40
0.5784037374
 40
0.5984566297
 40
0.60853714
 40
0.6186527589
 40
0.6389848773
 40
0.6594449316
 40
0.680026455
 40
0.7007240216
 40
0.7215336141
 40
0.7424507573
 40
0.7634674543
 40
0.7845812291
 40
0.8057898348
 40
0.8270902396
 40
0.8377731919
 40
0.8484773337
 40
0.869945777
 40
0.8914894746
 40
0.9131010786
 40
0.9239305077
 40
0.9347723128
 40
0.94562489
 40
0.9564874407
 40
0.9673588362
 40
0.9782370776
 40
0.9891186497
 40
1.0
 40
1.0
 40
1.0
 40
1.0
 10
4.8449265131
 20
2.4056418729
 30
0.0
 10
4.8449268461
 20
2.4056420113
 30
0.0
 10
4.8449252603
 20
2.4056426765
 30
0.0
 10
4.8449246498
 20
2.4056435239
 30
0.0
 10
4.8449221495
 20
2.4056454125
 30
0.0
 10
4.8449185525
 20
2.4056485521
 30
0.0
 10
4.8449126362
 20
2.4056534111
 30
0.0
 10
4.8449052032
 20
2.4056596316
 30
0.0
 10
4.8448960593
 20
2.4056672429
 30
0.0
 10
4.8448852792
 20
2.4056762336
 30
0.0
 10
4.8448675892
 20
2.4056909844
 30
0.0
 10
4.8448413524
 20
2.4057128748
 30
0.0
 10
4.844804921
 20
2.4057432869
 30
0.0
 10
4.844761903
 20
2.4057792188
 30
0.0
 10
4.8447123089
 20
2.4058206676
 30
0.0
 10
4.8446561506
 20
2.4058676302
 30
0.0
 10
4.8445681652
 20
2.4059412515
 30
0.0
 10
4.8444418567
 20
2.4060470374
 30
0.0
 10
4.8442707671
 20
2.4061904976
 30
0.0
 10
4.8440737058
 20
2.4063559314
 30
0.0
 10
4.8438507652
 20
2.4065432773
 30
0.0
 10
4.8436020458
 20
2.4067524668
 30
0.0
 10
4.8433276498
 20
2.4069834297
 30
0.0
 10
4.8429106707
 20
2.4073346527
 30
0.0
 10
4.842326047
 20
2.4078275778
 30
0.0
 10
4.8415491023
 20
2.4084833995
 30
0.0
 10
4.8406724522
 20
2.4092243105
 30
0.0
 10
4.8396974524
 20
2.4100494611
 30
0.0
 10
4.8386255402
 20
2.4109579026
 30
0.0
 10
4.8374583938
 20
2.4119486158
 30
0.0
 10
4.8361980866
 20
2.4130206645
 30
0.0
 10
4.83433638
 20
2.4146081648
 30
0.0
 10
4.831791964
 20
2.416787423
 30
0.0
 10
4.8284885503
 20
2.4196326338
 30
0.0
 10
4.8248604233
 20
2.4227738481
 30
0.0
 10
4.8209255708
 20
2.4262017176
 30
0.0
 10
4.8167029004
 20
2.4299071569
 30
0.0
 10
4.8122094098
 20
2.4338797677
 30
0.0
 10
4.8074609369
 20
2.438109175
 30
0.0
 10
4.8024738376
 20
2.4425860531
 30
0.0
 10
4.7953789688
 20
2.4490090723
 30
0.0
 10
4.7860260354
 20
2.4575914489
 30
0.0
 10
4.7743057577
 20
2.4685429445
 30
0.0
 10
4.7619704229
 20
2.4802986159
 30
0.0
 10
4.749111777
 20
2.4928089573
 30
0.0
 10
4.735811119
 20
2.5060305514
 30
0.0
 10
4.7221434779
 20
2.5199280754
 30
0.0
 10
4.708177399
 20
2.5344716665
 30
0.0
 10
4.6939761448
 20
2.5496368229
 30
0.0
 10
4.6795981887
 20
2.5654031329
 30
0.0
 10
4.6651003083
 20
2.5817555767
 30
0.0
 10
4.6530244575
 20
2.5957912657
 30
0.0
 10
4.6433494055
 20
2.6073067047
 30
0.0
 10
4.6335881516
 20
2.6191168782
 30
0.0
 10
4.6238952817
 20
2.6311552878
 30
0.0
 10
4.6142948293
 20
2.6434291767
 30
0.0
 10
4.6070982383
 20
2.6528126313
 30
0.0
 10
4.601142178
 20
2.6607330077
 30
0.0
 10
4.5963966623
 20
2.6671375801
 30
0.0
 10
4.591649067
 20
2.6736093205
 30
0.0
 10
4.5857511799
 20
2.6817864983
 30
0.0
 10
4.5787686575
 20
2.6917358918
 30
0.0
 10
4.5718967168
 20
2.7018497698
 30
0.0
 10
4.565160752
 20
2.7121377182
 30
0.0
 10
4.5585845231
 20
2.7226072137
 30
0.0
 10
4.552196187
 20
2.7332665246
 30
0.0
 10
4.5460580945
 20
2.7441418435
 30
0.0
 10
4.5402360226
 20
2.7552553471
 30
0.0
 10
4.5347600699
 20
2.7666058079
 30
0.0
 10
4.5305089972
 20
2.7762471213
 30
0.0
 10
4.5273261907
 20
2.7840796904
 30
0.0
 10
4.5242962135
 20
2.7920082562
 30
0.0
 10
4.5208262169
 20
2.8020687326
 30
0.0
 10
4.517212859
 20
2.8143510785
 30
0.0
 10
4.5146897459
 20
2.8247453011
 30
0.0
 10
4.5129815027
 20
2.8331460608
 30
0.0
 10
4.5118635495
 20
2.8394902654
 30
0.0
 10
4.5109192971
 20
2.8458692836
 30
0.0
 10
4.5101510709
 20
2.8522777669
 30
0.0
 10
4.5095529439
 20
2.8587093802
 30
0.0
 10
4.5091193125
 20
2.8651579482
 30
0.0
 10
4.5088536502
 20
2.8716175907
 30
0.0
 10
4.50879323
 20
2.8759278321
 30
0.0
 10
4.508793228
 20
2.8780828178
 30
0.0
  0
LINE
  5
24F
100
AcDbEntity
  8
0
100
AcDbLine
 62
7
  6
CONTINUOUS
 10
4.5053548381
 20
2.8780795157
 11
4.5017671248
 21
2.8780828178
  0
LINE
  5
250
100
AcDbEntity
  8
0
100
AcDbLine
 62
7
  6
CONTINUOUS
 10
5.8544963895
 20
3.1369106401
 11
5.8542040335
 21
3.1329544637
  0
SPLINE
  5
251
100
AcDbEntity
  8
0
100
AcDbSpline
 62
7
  6
CONTINUOUS
 70
0
 71
3
 72
33
 73
29
 74
0
 42
0.0000001
 43
0.0000001
 44
0.0000000001
 40
0.0
 40
0.0
 40
0.0
 40
0.0
 40
0.0624586658
 40
0.1249205868
 40
0.1873838332
 40
0.2498477257
 40
0.3123127999
 40
0.374781056
 40
0.4060179318
 40
0.4372571651
 40
0.4684988776
 40
0.4997430982
 40
0.5309890894
 40
0.5622362472
 40
0.5934833452
 40
0.62473015
 40
0.6559783627
 40
0.6872296096
 40
0.7184851855
 40
0.7497458916
 40
0.7810120468
 40
0.812283098
 40
0.8435578728
 40
0.8748361213
 40
0.9061183336
 40
0.9374053701
 40
0.9686985236
 40
1.0
 40
1.0
 40
1.0
 40
1.0
 10
5.8542038111
 20
3.1329544835
 30
0.0
 10
5.8452627989
 20
3.1307942262
 30
0.0
 10
5.8273958888
 20
3.1264087156
 30
0.0
 10
5.800650651
 20
3.1196079283
 30
0.0
 10
5.7739693469
 20
3.1125570559
 30
0.0
 10
5.7473623769
 20
3.1052285561
 30
0.0
 10
5.7208396289
 20
3.0975979013
 30
0.0
 10
5.6988157187
 20
3.09096927
 30
0.0
 10
5.6812455687
 20
3.085503609
 30
0.0
 10
5.6680925248
 20
3.0813214635
 30
0.0
 10
5.654966536
 20
3.0770516545
 30
0.0
 10
5.6418696418
 20
3.0726901972
 30
0.0
 10
5.628807062
 20
3.0682244233
 30
0.0
 10
5.615784446
 20
3.0636420142
 30
0.0
 10
5.6028093035
 20
3.0589262747
 30
0.0
 10
5.5898899008
 20
3.0540593904
 30
0.0
 10
5.577025529
 20
3.0490472641
 30
0.0
 10
5.5642158345
 20
3.0438935327
 30
0.0
 10
5.5514630807
 20
3.0385956265
 30
0.0
 10
5.538771206
 20
3.0331478277
 30
0.0
 10
5.5261470395
 20
3.0275391347
 30
0.0
 10
5.5136032255
 20
3.0217475739
 30
0.0
 10
5.5011625242
 20
3.0157330384
 30
0.0
 10
5.4888453839
 20
3.0094652216
 30
0.0
 10
5.4766740369
 20
3.0029143228
 30
0.0
 10
5.4646759436
 20
2.9960460666
 30
0.0
 10
5.4528826088
 20
2.9888254895
 30
0.0
 10
5.4451877422
 20
2.983745592
 30
0.0
 10
5.4413832103
 20
2.9811426169
 30
0.0
  0
SPLINE
  5
252
100
AcDbEntity
  8
0
100
AcDbSpline
 62
7
  6
CONTINUOUS
 70
0
 71
3
 72
23
 73
19
 74
0
 42
0.0000001
 43
0.0000001
 44
0.0000000001
 40
0.0
 40
0.0
 40
0.0
 40
0.0
 40
0.0728203636
 40
0.1472012066
 40
0.2223805018
 40
0.2976396303
 40
0.3722733596
 40
0.4454424323
 40
0.5163383231
 40
0.5842991548
 40
0.648793666
 40
0.7095114144
 40
0.7662907527
 40
0.8191914017
 40
0.8684496196
 40
0.9146283789
 40
0.9583089118
 40
1.0
 40
1.0
 40
1.0
 40
1.0
 10
5.9942139047
 20
3.1498993773
 30
0.0
 10
5.9950781028
 20
3.1498713454
 30
0.0
 10
5.9968238475
 20
3.1497686585
 30
0.0
 10
5.9994492845
 20
3.1494762182
 30
0.0
 10
6.0020837802
 20
3.1490370221
 30
0.0
 10
6.0046915364
 20
3.1484450115
 30
0.0
 10
6.0072337592
 20
3.1476952968
 30
0.0
 10
6.0096716424
 20
3.1467946684
 30
0.0
 10
6.0119646703
 20
3.1457494795
 30
0.0
 10
6.014077504
 20
3.1445747911
 30
0.0
 10
6.015977375
 20
3.1432837635
 30
0.0
 10
6.0176409253
 20
3.1418985118
 30
0.0
 10
6.0190478528
 20
3.140438382
 30
0.0
 10
6.0201887556
 20
3.1389287401
 30
0.0
 10
6.0210568796
 20
3.1373898129
 30
0.0
 10
6.0216605425
 20
3.1358460485
 30
0.0
 10
6.0220132113
 20
3.1343188333
 30
0.0
 10
6.0220918732
 20
3.1333036532
 30
0.0
 10
6.0220918717
 20
3.1328086226
 30
0.0
  0
SPLINE
  5
253
100
AcDbEntity
  8
0
100
AcDbSpline
 62
7
  6
CONTINUOUS
 70
0
 71
3
 72
16
 73
12
 74
0
 42
0.0000001
 43
0.0000001
 44
0.0000000001
 40
0.0
 40
0.0
 40
0.0
 40
0.0
 40
0.0271130936
 40
0.0594789766
 40
0.1396367363
 40
0.2397198602
 40
0.3587849336
 40
0.4957108476
 40
0.6492098164
 40
0.8178332387
 40
1.0
 40
1.0
 40
1.0
 40
1.0
 10
5.8580052058
 20
3.3427138561
 30
0.0
 10
5.8579639455
 20
3.3408540539
 30
0.0
 10
5.8578770047
 20
3.3367740595
 30
0.0
 10
5.8576825766
 20
3.3271953988
 30
0.0
 10
5.8574031638
 20
3.3126108823
 30
0.0
 10
5.8570286861
 20
3.2920785786
 30
0.0
 10
5.8565989404
 20
3.2676517131
 30
0.0
 10
5.8561217303
 20
3.2395601999
 30
0.0
 10
5.8556031173
 20
3.2080686502
 30
0.0
 10
5.8550515542
 20
3.1734732006
 30
0.0
 10
5.8546846412
 20
3.1494078883
 30
0.0
 10
5.8544964242
 20
3.1369106399
 30
0.0
  0
SPLINE
  5
254
100
AcDbEntity
  8
0
100
AcDbSpline
 62
7
  6
CONTINUOUS
 70
0
 71
3
 72
44
 73
40
 74
0
 42
0.0000001
 43
0.0000001
 44
0.0000000001
 40
0.0
 40
0.0
 40
0.0
 40
0.0
 40
0.0000197075
 40
0.0000776824
 40
0.000173911
 40
0.0003083786
 40
0.0004810705
 40
0.0006919718
 40
0.0012283431
 40
0.0019173738
 40
0.0027589451
 40
0.0037529381
 40
0.0048992341
 40
0.0061977142
 40
0.0076482598
 40
0.0110049053
 40
0.0149663646
 40
0.0195288563
 40
0.0246885917
 40
0.0304417868
 40
0.0367846442
 40
0.0437125411
 40
0.0593003886
 40
0.0771589508
 40
0.0972395699
 40
0.1194845128
 40
0.1438341193
 40
0.1702250606
 40
0.1985879544
 40
0.2288530473
 40
0.2947874973
 40
0.3674010914
 40
0.4460192222
 40
0.529919713
 40
0.6183324846
 40
0.7104364042
 40
0.8053531554
 40
0.902196476
 40
1.0
 40
1.0
 40
1.0
 40
1.0
 10
5.9531942339
 20
3.3678750976
 30
0.0
 10
5.9531937897
 20
3.3678747208
 30
0.0
 10
5.9531912472
 20
3.3678748332
 30
0.0
 10
5.953186496
 20
3.3678732333
 30
0.0
 10
5.9531779773
 20
3.3678718386
 30
0.0
 10
5.9531663657
 20
3.367869317
 30
0.0
 10
5.9531513333
 20
3.3678663214
 30
0.0
 10
5.9531246981
 20
3.3678608921
 30
0.0
 10
5.95308308
 20
3.3678524958
 30
0.0
 10
5.9530231977
 20
3.3678404113
 30
0.0
 10
5.9529500454
 20
3.3678256945
 30
0.0
 10
5.9528636388
 20
3.3678083412
 30
0.0
 10
5.9527639843
 20
3.3677883659
 30
0.0
 10
5.9526510917
 20
3.3677657763
 30
0.0
 10
5.9524741278
 20
3.3677304272
 30
0.0
 10
5.9522199574
 20
3.3676797807
 30
0.0
 10
5.9518755237
 20
3.3676114599
 30
0.0
 10
5.9514787291
 20
3.3675332096
 30
0.0
 10
5.9510298684
 20
3.3674452729
 30
0.0
 10
5.950529236
 20
3.3673478992
 30
0.0
 10
5.9499771534
 20
3.3672413301
 30
0.0
 10
5.9491394139
 20
3.3670809756
 30
0.0
 10
5.9479667495
 20
3.3668599571
 30
0.0
 10
5.9464108252
 20
3.3665735986
 30
0.0
 10
5.9446598786
 20
3.3662599525
 30
0.0
 10
5.9427182191
 20
3.3659230595
 30
0.0
 10
5.9405906302
 20
3.3655669747
 30
0.0
 10
5.9382822388
 20
3.3651960164
 30
0.0
 10
5.9357984461
 20
3.3648149594
 30
0.0
 10
5.9321552663
 20
3.3642843889
 30
0.0
 10
5.9272089692
 20
3.3636274646
 30
0.0
 10
5.9208314316
 20
3.3628992272
 30
0.0
 10
5.9139116431
 20
3.3622506724
 30
0.0
 10
5.9065133843
 20
3.3617209576
 30
0.0
 10
5.8987064741
 20
3.3613460701
 30
0.0
 10
5.8905670704
 20
3.361156675
 30
0.0
 10
5.8821762096
 20
3.3611774382
 30
0.0
 10
5.8736204422
 20
3.3614244903
 30
0.0
 10
5.8678754861
 20
3.361743594
 30
0.0
 10
5.8649916319
 20
3.3619423014
 30
0.0
  0
SPLINE
  5
255
100
AcDbEntity
  8
0
100
AcDbSpline
 62
7
  6
CONTINUOUS
 70
0
 71
3
 72
43
 73
39
 74
0
 42
0.0000001
 43
0.0000001
 44
0.0000000001
 40
0.0
 40
0.0
 40
0.0
 40
0.0
 40
0.0964410726
 40
0.192031287
 40
0.2858993781
 40
0.3771969235
 40
0.4650856957
 40
0.5487702373
 40
0.627467773
 40
0.7004363198
 40
0.7669467169
 40
0.7975652176
 40
0.8263122247
 40
0.8531041829
 40
0.8778666623
 40
0.9005271715
 40
0.9210127711
 40
0.9392537407
 40
0.9551945559
 40
0.9622861322
 40
0.9687831139
 40
0.9746789585
 40
0.9799671137
 40
0.9846417846
 40
0.9887002372
 40
0.992140502
 40
0.9949606086
 40
0.9961374863
 40
0.997158585
 40
0.9980236579
 40
0.9987324583
 40
0.9992847393
 40
0.9995021079
 40
0.9996802541
 40
0.999819147
 40
0.9999187559
 40
0.9999790501
 40
1.0
 40
1.0
 40
1.0
 40
1.0
 10
5.8649916214
 20
3.3619429448
 30
0.0
 10
5.8621017399
 20
3.3619079282
 30
0.0
 10
5.8563462485
 20
3.3619160841
 30
0.0
 10
5.8477809264
 20
3.3621541791
 30
0.0
 10
5.8393788036
 20
3.3626102633
 30
0.0
 10
5.8312210008
 20
3.3632594044
 30
0.0
 10
5.8233852236
 20
3.3640770059
 30
0.0
 10
5.8159448774
 20
3.3650258115
 30
0.0
 10
5.8089690821
 20
3.366069012
 30
0.0
 10
5.8025227046
 20
3.3671631511
 30
0.0
 10
5.7975130064
 20
3.3681060024
 30
0.0
 10
5.7938147119
 20
3.3688490952
 30
0.0
 10
5.791287201
 20
3.3693764658
 30
0.0
 10
5.7889348989
 20
3.3698840706
 30
0.0
 10
5.7867639283
 20
3.3703670535
 30
0.0
 10
5.7847800625
 20
3.3708206376
 30
0.0
 10
5.7829889019
 20
3.371240104
 30
0.0
 10
5.7813955074
 20
3.3716208248
 30
0.0
 10
5.7801937111
 20
3.3719132476
 30
0.0
 10
5.7793344824
 20
3.3721249323
 30
0.0
 10
5.7787677723
 20
3.3722655624
 30
0.0
 10
5.7782537057
 20
3.3723939404
 30
0.0
 10
5.7777927645
 20
3.3725096566
 30
0.0
 10
5.7773853175
 20
3.3726123207
 30
0.0
 10
5.7770316456
 20
3.3727017593
 30
0.0
 10
5.7767319208
 20
3.3727778352
 30
0.0
 10
5.7765159444
 20
3.3728328595
 30
0.0
 10
5.7763702478
 20
3.3728700941
 30
0.0
 10
5.7762813257
 20
3.3728928666
 30
0.0
 10
5.7762060015
 20
3.3729121963
 30
0.0
 10
5.7761442966
 20
3.3729280738
 30
0.0
 10
5.7761013916
 20
3.3729391305
 30
0.0
 10
5.7760738991
 20
3.3729462562
 30
0.0
 10
5.7760583848
 20
3.3729502464
 30
0.0
 10
5.7760463311
 20
3.3729534604
 30
0.0
 10
5.7760375975
 20
3.3729555562
 30
0.0
 10
5.7760324799
 20
3.3729572287
 30
0.0
 10
5.7760299964
 20
3.3729575457
 30
0.0
 10
5.776029449
 20
3.3729578531
 30
0.0
  0
SPLINE
  5
256
100
AcDbEntity
  8
0
100
AcDbSpline
 62
7
  6
CONTINUOUS
 70
0
 71
3
 72
35
 73
31
 74
0
 42
0.0000001
 43
0.0000001
 44
0.0000000001
 40
0.0
 40
0.0
 40
0.0
 40
0.0
 40
0.0653175776
 40
0.1305815282
 40
0.1631742423
 40
0.1957305975
 40
0.2282433859
 40
0.260705513
 40
0.2931097076
 40
0.3254485593
 40
0.3577145706
 40
0.3898998437
 40
0.4219954989
 40
0.4539924941
 40
0.4858817878
 40
0.5176542954
 40
0.5808079642
 40
0.6433671952
 40
0.7052382129
 40
0.735882187
 40
0.766313628
 40
0.7965163812
 40
0.8264736508
 40
0.8561692683
 40
0.8855829357
 40
0.9146924212
 40
0.929127398
 40
0.9434795041
 40
0.9719229622
 40
1.0
 40
1.0
 40
1.0
 40
1.0
 10
5.9051930402
 20
2.8847780834
 30
0.0
 10
5.904426597
 20
2.8900634764
 30
0.0
 10
5.9028379517
 20
2.9006217224
 30
0.0
 10
5.9007953287
 20
2.9138063154
 30
0.0
 10
5.8991777125
 20
2.9243461001
 30
0.0
 10
5.8979874155
 20
2.9322422008
 30
0.0
 10
5.8968270933
 20
2.9401319692
 30
0.0
 10
5.8956892388
 20
2.9480124307
 30
0.0
 10
5.8945687724
 20
2.9558810155
 30
0.0
 10
5.8934600222
 20
2.963735063
 30
0.0
 10
5.8923572642
 20
2.9715718773
 30
0.0
 10
5.8912556193
 20
2.9793887673
 30
0.0
 10
5.8901566756
 20
2.9871838246
 30
0.0
 10
5.8890614381
 20
2.9949549643
 30
0.0
 10
5.8879711741
 20
3.0027001219
 30
0.0
 10
5.8865282058
 20
3.0129682629
 30
0.0
 10
5.8847467144
 20
3.0257211985
 30
0.0
 10
5.8826702306
 20
3.040917769
 30
0.0
 10
5.88101816
 20
3.0534894003
 30
0.0
 10
5.8797716827
 20
3.063464542
 30
0.0
 10
5.8788832955
 20
3.0708748541
 30
0.0
 10
5.8780475178
 20
3.0782348008
 30
0.0
 10
5.8772747558
 20
3.0855411545
 30
0.0
 10
5.8765735665
 20
3.0927899459
 30
0.0
 10
5.8759608853
 20
3.0999772563
 30
0.0
 10
5.8755427295
 20
3.1059282967
 30
0.0
 10
5.8752762187
 20
3.1106547575
 30
0.0
 10
5.8750594547
 20
3.1153292433
 30
0.0
 10
5.8748790983
 20
3.1211217445
 30
0.0
 10
5.8748343315
 20
3.1257433492
 30
0.0
 10
5.8748382315
 20
3.1280390579
 30
0.0
  0
SPLINE
  5
257
100
AcDbEntity
  8
0
100
AcDbSpline
 62
7
  6
CONTINUOUS
 70
0
 71
3
 72
37
 73
33
 74
0
 42
0.0000001
 43
0.0000001
 44
0.0000000001
 40
0.0
 40
0.0
 40
0.0
 40
0.0
 40
0.0974782022
 40
0.1936823097
 40
0.2878077373
 40
0.3791159095
 40
0.4668639858
 40
0.550311651
 40
0.6287355241
 40
0.7014289459
 40
0.7676904804
 40
0.8268357882
 40
0.8535350347
 40
0.8782156061
 40
0.9008027646
 40
0.9212265061
 40
0.9394178245
 40
0.9553156092
 40
0.9688646777
 40
0.974741816
 40
0.9800142288
 40
0.9846779428
 40
0.9887289812
 40
0.9921633648
 40
0.9949775378
 40
0.9971696745
 40
0.9980320459
 40
0.9987383882
 40
0.9992885282
 40
0.9996822923
 40
0.9999195074
 40
1.0
 40
1.0
 40
1.0
 40
1.0
 10
5.8580052058
 20
3.3427138561
 30
0.0
 10
5.8546845421
 20
3.3427286241
 30
0.0
 10
5.8480867304
 20
3.3428242439
 30
0.0
 10
5.8382873577
 20
3.3431578206
 30
0.0
 10
5.8287060503
 20
3.3436677438
 30
0.0
 10
5.8194233232
 20
3.3443357711
 30
0.0
 10
5.8105162587
 20
3.3451357373
 30
0.0
 10
5.8020604318
 20
3.3460389846
 30
0.0
 10
5.7941290158
 20
3.3470130582
 30
0.0
 10
5.7867926292
 20
3.3480222592
 30
0.0
 10
5.7801196394
 20
3.3490300738
 30
0.0
 10
5.7750054527
 20
3.3498642159
 30
0.0
 10
5.7712943449
 20
3.3504999451
 30
0.0
 10
5.7688127932
 20
3.3509371497
 30
0.0
 10
5.7665435194
 20
3.351346994
 30
0.0
 10
5.7644932711
 20
3.3517256527
 30
0.0
 10
5.762668298
 20
3.3520692672
 30
0.0
 10
5.7610744098
 20
3.3523744729
 30
0.0
 10
5.75989316
 20
3.3526040377
 30
0.0
 10
5.7590675058
 20
3.3527659718
 30
0.0
 10
5.7585389881
 20
3.3528701921
 30
0.0
 10
5.7580715906
 20
3.3529628193
 30
0.0
 10
5.7576656793
 20
3.3530436083
 30
0.0
 10
5.7573216083
 20
3.3531123287
 30
0.0
 10
5.7570396549
 20
3.3531687373
 30
0.0
 10
5.7568436331
 20
3.3532080422
 30
0.0
 10
5.7567180162
 20
3.3532332234
 30
0.0
 10
5.7566472562
 20
3.3532474892
 30
0.0
 10
5.7565921191
 20
3.3532584218
 30
0.0
 10
5.75655272
 20
3.3532666709
 30
0.0
 10
5.7565288728
 20
3.3532708787
 30
0.0
 10
5.7565183497
 20
3.3532735978
 30
0.0
 10
5.7565156224
 20
3.3532738816
 30
0.0
  0
SPLINE
  5
258
100
AcDbEntity
  8
0
100
AcDbSpline
 62
7
  6
CONTINUOUS
 70
0
 71
3
 72
28
 73
24
 74
0
 42
0.0000001
 43
0.0000001
 44
0.0000000001
 40
0.0
 40
0.0
 40
0.0
 40
0.0
 40
0.1637253835
 40
0.2443790623
 40
0.323684968
 40
0.4012648935
 40
0.4767493773
 40
0.5497620609
 40
0.6199034896
 40
0.6867057977
 40
0.7493333555
 40
0.80669982
 40
0.8329997965
 40
0.8574972222
 40
0.8800403166
 40
0.9005229117
 40
0.9188963853
 40
0.9352948171
 40
0.9502741417
 40
0.9575887123
 40
0.965018986
 40
0.9810222753
 40
1.0
 40
1.0
 40
1.0
 40
1.0
 10
5.8649918675
 20
3.3619430508
 30
0.0
 10
5.8647294849
 20
3.3608090702
 30
0.0
 10
5.8642505505
 20
3.3591347562
 30
0.0
 10
5.8634475752
 20
3.3569777134
 30
0.0
 10
5.862793925
 20
3.3554202261
 30
0.0
 10
5.8621082455
 20
3.3539170882
 30
0.0
 10
5.86140197
 20
3.3524731843
 30
0.0
 10
5.8606859006
 20
3.3510934933
 30
0.0
 10
5.8599697975
 20
3.3497837394
 30
0.0
 10
5.859261801
 20
3.3485541784
 30
0.0
 10
5.8585957867
 20
3.3474053703
 30
0.0
 10
5.858094589
 20
3.3464937243
 30
0.0
 10
5.8577523012
 20
3.3458050127
 30
0.0
 10
5.8575382629
 20
3.3453293951
 30
0.0
 10
5.857364677
 20
3.344881532
 30
0.0
 10
5.8572364356
 20
3.3444637736
 30
0.0
 10
5.8571608429
 20
3.3440772098
 30
0.0
 10
5.8571496827
 20
3.3437214933
 30
0.0
 10
5.8572083103
 20
3.343448698
 30
0.0
 10
5.8572997821
 20
3.3432572878
 30
0.0
 10
5.8574245369
 20
3.3430766898
 30
0.0
 10
5.8576545467
 20
3.3428745154
 30
0.0
 10
5.857879711
 20
3.3427637415
 30
0.0
 10
5.8580052026
 20
3.3427142057
 30
0.0
  0
SPLINE
  5
259
100
AcDbEntity
  8
0
100
AcDbSpline
 62
7
  6
CONTINUOUS
 70
0
 71
3
 72
37
 73
33
 74
0
 42
0.0000001
 43
0.0000001
 44
0.0000000001
 40
0.0
 40
0.0
 40
0.0
 40
0.0
 40
0.0000795449
 40
0.0003143758
 40
0.0007043422
 40
0.0012492937
 40
0.0019490795
 40
0.0028035493
 40
0.0049759383
 40
0.0077652569
 40
0.0111699234
 40
0.0151866281
 40
0.0198115694
 40
0.0250409487
 40
0.0308709704
 40
0.0443149524
 40
0.0600959419
 40
0.0781617639
 40
0.098455249
 40
0.1209113031
 40
0.1454637663
 40
0.17204107
 40
0.2309704817
 40
0.2970722791
 40
0.3696794751
 40
0.4480953491
 40
0.5316182979
 40
0.6195247491
 40
0.711067796
 40
0.8054996251
 40
0.9020785211
 40
1.0
 40
1.0
 40
1.0
 40
1.0
 10
5.9717795474
 20
3.3482208009
 30
0.0
 10
5.971776876
 20
3.3482206557
 30
0.0
 10
5.9717664919
 20
3.3482184105
 30
0.0
 10
5.9717430242
 20
3.3482153538
 30
0.0
 10
5.9717041864
 20
3.3482089532
 30
0.0
 10
5.9716498467
 20
3.3482006319
 30
0.0
 10
5.9715800904
 20
3.3481897071
 30
0.0
 10
5.9714562383
 20
3.3481704614
 30
0.0
 10
5.9712629402
 20
3.3481404173
 30
0.0
 10
5.9709848682
 20
3.3480973353
 30
0.0
 10
5.9706454777
 20
3.3480448763
 30
0.0
 10
5.9702450306
 20
3.3479832653
 30
0.0
 10
5.9697838654
 20
3.3479127154
 30
0.0
 10
5.9692623357
 20
3.3478334522
 30
0.0
 10
5.968447428
 20
3.3477104845
 30
0.0
 10
5.9672812962
 20
3.3475366212
 30
0.0
 10
5.9657074737
 20
3.3473065185
 30
0.0
 10
5.9639048712
 20
3.3470488304
 30
0.0
 10
5.9618790008
 20
3.3467665999
 30
0.0
 10
5.9596357933
 20
3.3464634048
 30
0.0
 10
5.957181698
 20
3.346142759
 30
0.0
 10
5.9535089222
 20
3.3456810582
 30
0.0
 10
5.9484444659
 20
3.3450865223
 30
0.0
 10
5.9418334747
 20
3.3443913548
 30
0.0
 10
5.9345609487
 20
3.3437259535
 30
0.0
 10
5.926695087
 20
3.3431234292
 30
0.0
 10
5.9183068544
 20
3.3426163452
 30
0.0
 10
5.9094700165
 20
3.3422336168
 30
0.0
 10
5.9002608922
 20
3.3419998856
 30
0.0
 10
5.8907572593
 20
3.3419371344
 30
0.0
 10
5.8810396684
 20
3.3420592272
 30
0.0
 10
5.8745008034
 20
3.3422687752
 30
0.0
 10
5.8712102698
 20
3.3424070265
 30
0.0
  0
SPLINE
  5
25A
100
AcDbEntity
  8
0
100
AcDbSpline
 62
7
  6
CONTINUOUS
 70
0
 71
3
 72
28
 73
24
 74
0
 42
0.0000001
 43
0.0000001
 44
0.0000000001
 40
0.0
 40
0.0
 40
0.0
 40
0.0
 40
0.0186907915
 40
0.0344423325
 40
0.0417722822
 40
0.0490077303
 40
0.0638946562
 40
0.0802749666
 40
0.0986796226
 40
0.1192220514
 40
0.1418409385
 40
0.1664227431
 40
0.1928106082
 40
0.2503503495
 40
0.3131332822
 40
0.3800640992
 40
0.4503038565
 40
0.5233852706
 40
0.5989100776
 40
0.6765030646
 40
0.7557961498
 40
0.8364123105
 40
1.0
 40
1.0
 40
1.0
 40
1.0
 10
5.8712102975
 20
3.3424075092
 30
0.0
 10
5.8713359609
 20
3.3424511384
 30
0.0
 10
5.8715622316
 20
3.3425513259
 30
0.0
 10
5.8717957905
 20
3.3427430353
 30
0.0
 10
5.8719240405
 20
3.3429176954
 30
0.0
 10
5.8720198063
 20
3.3431051037
 30
0.0
 10
5.8720849319
 20
3.3433753341
 30
0.0
 10
5.8720833629
 20
3.3437309689
 30
0.0
 10
5.8720192162
 20
3.3441205214
 30
0.0
 10
5.8719041416
 20
3.3445438014
 30
0.0
 10
5.8717453634
 20
3.3449993311
 30
0.0
 10
5.8715476623
 20
3.3454844884
 30
0.0
 10
5.8712298241
 20
3.3461884443
 30
0.0
 10
5.8707623945
 20
3.3471224335
 30
0.0
 10
5.8701406504
 20
3.3483011333
 30
0.0
 10
5.8694815642
 20
3.34956244
 30
0.0
 10
5.8688189044
 20
3.3509042273
 30
0.0
 10
5.8681604165
 20
3.352315846
 30
0.0
 10
5.8675155961
 20
3.3537911217
 30
0.0
 10
5.8668950601
 20
3.3553245967
 30
0.0
 10
5.8663100429
 20
3.3569108651
 30
0.0
 10
5.8656036802
 20
3.3591027318
 30
0.0
 10
5.8652012126
 20
3.3607978562
 30
0.0
 10
5.8649914293
 20
3.3619430486
 30
0.0
  0
SPLINE
  5
25B
100
AcDbEntity
  8
0
100
AcDbSpline
 62
7
  6
CONTINUOUS
 70
0
 71
3
 72
16
 73
12
 74
0
 42
0.0000001
 43
0.0000001
 44
0.0000000001
 40
0.0
 40
0.0
 40
0.0
 40
0.0
 40
0.1821328265
 40
0.3507351752
 40
0.5042244863
 40
0.6411504014
 40
0.7602233317
 40
0.8603207478
 40
0.9404980051
 40
0.9728750254
 40
1.0
 40
1.0
 40
1.0
 40
1.0
 10
5.8747112799
 20
3.1366513839
 30
0.0
 10
5.8745216959
 20
3.1491433852
 30
0.0
 10
5.8741528521
 20
3.1731993124
 30
0.0
 10
5.8736015739
 20
3.2077823061
 30
0.0
 10
5.8730833054
 20
3.2392644494
 30
0.0
 10
5.8726064196
 20
3.2673493289
 30
0.0
 10
5.8721786396
 20
3.2917720825
 30
0.0
 10
5.8718062353
 20
3.312302519
 30
0.0
 10
5.8715282671
 20
3.3268867618
 30
0.0
 10
5.8713361031
 20
3.336466163
 30
0.0
 10
5.871250667
 20
3.3405468218
 30
0.0
 10
5.8712102698
 20
3.3424070265
 30
0.0
  0
SPLINE
  5
25C
100
AcDbEntity
  8
0
100
AcDbSpline
 62
7
  6
CONTINUOUS
 70
0
 71
3
 72
86
 73
82
 74
0
 42
0.0000001
 43
0.0000001
 44
0.0000000001
 40
0.0
 40
0.0
 40
0.0
 40
0.0
 40
0.0108812683
 40
0.0217626572
 40
0.0326406652
 40
0.0435118865
 40
0.0543743313
 40
0.065226899
 40
0.0760687812
 40
0.0868982772
 40
0.1085099164
 40
0.1300536128
 40
0.1515220968
 40
0.1622262113
 40
0.1729091959
 40
0.1835709472
 40
0.1942105385
 40
0.2154191414
 40
0.2259884332
 40
0.2365335913
 40
0.2575503478
 40
0.2784675165
 40
0.2992770206
 40
0.3199745415
 40
0.3405560554
 40
0.3610161489
 40
0.3813482831
 40
0.3914638645
 40
0.4015443097
 40
0.4215970806
 40
0.4415019167
 40
0.4612541655
 40
0.5002785382
 40
0.5195381088
 40
0.5386200225
 40
0.5762222309
 40
0.6130263551
 40
0.6489647573
 40
0.6839616703
 40
0.7179313006
 40
0.7507754727
 40
0.7823829282
 40
0.8126261697
 40
0.8413610261
 40
0.8684220592
 40
0.8936199442
 40
0.9167463685
 40
0.9274594917
 40
0.9375647359
 40
0.9470312093
 40
0.9558264852
 40
0.9639151598
 40
0.9712632168
 40
0.9778406523
 40
0.9808310329
 40
0.9836172578
 40
0.9861953279
 40
0.9885613103
 40
0.9907120294
 40
0.992644782
 40
0.9943568714
 40
0.995845789
 40
0.9965059803
 40
0.9971097164
 40
0.9976567899
 40
0.9981469932
 40
0.9985801189
 40
0.9989559688
 40
0.9992743875
 40
0.9995352319
 40
0.9996440189
 40
0.9997383586
 40
0.9998182331
 40
0.9998836245
 40
0.9999345148
 40
0.9999545164
 40
0.9999708861
 40
0.9999836215
 40
0.9999927205
 40
0.9999981807
 40
1.0
 40
1.0
 40
1.0
 40
1.0
 10
4.508793228
 20
2.8780828178
 30
0.0
 10
4.508793226
 20
2.8802377907
 30
0.0
 10
4.5088535441
 20
2.8845479866
 30
0.0
 10
4.5091187361
 20
2.8910075546
 30
0.0
 10
4.5095512053
 20
2.8974560921
 30
0.0
 10
4.5101485892
 20
2.9038876891
 30
0.0
 10
4.5109170617
 20
2.9102961103
 30
0.0
 10
4.5118631316
 20
2.9166748688
 30
0.0
 10
4.5129825656
 20
2.9230188441
 30
0.0
 10
4.5146918902
 20
2.9314194216
 30
0.0
 10
4.5172134845
 20
2.9418140134
 30
0.0
 10
4.5208253223
 20
2.9540968711
 30
0.0
 10
4.524295489
 20
2.9641573408
 30
0.0
 10
4.527326155
 20
2.9720856507
 30
0.0
 10
4.52971604
 20
2.9779661114
 30
0.0
 10
4.5322153854
 20
2.9837869108
 30
0.0
 10
4.5356774972
 20
2.9914613194
 30
0.0
 10
4.5393283049
 20
2.9990291797
 30
0.0
 10
4.5431564033
 20
3.0064860956
 30
0.0
 10
4.5470871394
 20
3.0138464471
 30
0.0
 10
4.5521967567
 20
3.0228986947
 30
0.0
 10
4.5585850304
 20
3.0335580041
 30
0.0
 10
4.5651605183
 20
3.0440279766
 30
0.0
 10
4.571896139
 20
3.0543161414
 30
0.0
 10
4.5787682271
 20
3.0644299443
 30
0.0
 10
4.5857512981
 20
3.0743789894
 30
0.0
 10
4.5916495152
 20
3.0825559512
 30
0.0
 10
4.5963970325
 20
3.0890277433
 30
0.0
 10
4.6011422866
 20
3.0954324705
 30
0.0
 10
4.6070981215
 20
3.1033529707
 30
0.0
 10
4.614294545
 20
3.1127365253
 30
0.0
 10
4.6238951393
 20
3.1250103255
 30
0.0
 10
4.6335881842
 20
3.1370486374
 30
0.0
 10
4.6433494452
 20
3.1488588487
 30
0.0
 10
4.6530244362
 20
3.1603743589
 30
0.0
 10
4.6651002465
 20
3.1744101085
 30
0.0
 10
4.6795981725
 20
3.190762551
 30
0.0
 10
4.693976187
 20
3.206528851
 30
0.0
 10
4.7081774643
 20
3.2216940213
 30
0.0
 10
4.7221435549
 20
3.2362376246
 30
0.0
 10
4.7358112013
 20
3.2501351611
 30
0.0
 10
4.7491118611
 20
3.2633567671
 30
0.0
 10
4.7619705179
 20
3.2758671092
 30
0.0
 10
4.7743058518
 20
3.2876227908
 30
0.0
 10
4.786026159
 20
3.2985742726
 30
0.0
 10
4.797026496
 20
3.3086684513
 30
0.0
 10
4.8057105692
 20
3.3164974889
 30
0.0
 10
4.8122095232
 20
3.322285955
 30
0.0
 10
4.8167030086
 20
3.3262585663
 30
0.0
 10
4.8209256694
 20
3.32996401
 30
0.0
 10
4.8248605213
 20
3.3333918836
 30
0.0
 10
4.828488667
 20
3.3365330805
 30
0.0
 10
4.831792077
 20
3.3393782878
 30
0.0
 10
4.8343364637
 20
3.3415575644
 30
0.0
 10
4.8361981701
 20
3.3431450575
 30
0.0
 10
4.8374584927
 20
3.3442171001
 30
0.0
 10
4.8386256577
 20
3.3452078045
 30
0.0
 10
4.8396975727
 20
3.3461162347
 30
0.0
 10
4.8406725418
 20
3.3469413851
 30
0.0
 10
4.8415491516
 20
3.3476822962
 30
0.0
 10
4.8423260706
 20
3.3483381161
 30
0.0
 10
4.8429106918
 20
3.3488310322
 30
0.0
 10
4.8433276746
 20
3.3491822476
 30
0.0
 10
4.8436020738
 20
3.3494132041
 30
0.0
 10
4.8438507962
 20
3.3496223877
 30
0.0
 10
4.8440737391
 20
3.3498097289
 30
0.0
 10
4.8442708006
 20
3.3499751601
 30
0.0
 10
4.8444418879
 20
3.3501186187
 30
0.0
 10
4.8445869015
 20
3.3502400709
 30
0.0
 10
4.8446914167
 20
3.350327503
 30
0.0
 10
4.8447619224
 20
3.3503864296
 30
0.0
 10
4.844804935
 20
3.3504223582
 30
0.0
 10
4.8448413697
 20
3.3504527717
 30
0.0
 10
4.844871179
 20
3.3504776491
 30
0.0
 10
4.8448919531
 20
3.3504949565
 30
0.0
 10
4.8449051595
 20
3.3505059871
 30
0.0
 10
4.8449127752
 20
3.3505122842
 30
0.0
 10
4.844918216
 20
3.3505169424
 30
0.0
 10
4.8449232122
 20
3.3505208193
 30
0.0
 10
4.844924227
 20
3.3505221626
 30
0.0
 10
4.8449268643
 20
3.3505238431
 30
0.0
 10
4.8449265131
 20
3.3505237627
 30
0.0
  0
ENDSEC
  0
SECTION
  2
OBJECTS
  0
DICTIONARY
  5
C
100
AcDbDictionary
280
0
281
1
  3
ACAD_GROUP
350
D
  3
ACAD_MLINESTYLE
350
17
  3
ACAD_LAYOUT
350
1A
  3
ACAD_PLOTSETTINGS
350
19
  3
ACAD_PLOTSTYLENAME
350
E
  0
DICTIONARY
  5
D
102
{ACAD_REACTORS
330
C
102
}
100
AcDbDictionary
280
0
281
1
  0
ACDBDICTIONARYWDFLT
  5
E
102
{ACAD_REACTORS
330
C
102
}
100
AcDbDictionary
281
1
  3
Normal
350
F
100
AcDbDictionaryWithDefault
340
F
  0
DICTIONARY
  5
17
102
{ACAD_REACTORS
330
C
102
}
100
AcDbDictionary
280
0
281
1
  3
Standard
350
18
  0
DICTIONARY
  5
19
102
{ACAD_REACTORS
330
C
102
}
100
AcDbDictionary
281
1
  0
DICTIONARY
  5
1A
102
{ACAD_REACTORS
330
C
102
}
100
AcDbDictionary
281
1
  3
Model
350
25D
  3
Layout1
350
25E
  0
ACDBPLACEHOLDER
  5
F
102
{ACAD_REACTORS
330
E
102
}
  0
MLINESTYLE
  5
18
102
{ACAD_REACTORS
330
17
102
}
100
AcDbMlineStyle
  2
STANDARD
 70
0
  3

 62
256
 51
90.0
 52
90.0
 71
2
 49
0.5
 62
256
  6
BYLAYER
 49
-0.5
 62
256
  6
BYLAYER
  0
LAYOUT
  5
25D
102
{ACAD_REACTORS
330
1A
102
}
100
AcDbPlotSettings
  1

  2
none_device
  4
ANSI_A_(11.00_x_8.50_Inches)
  6

 40
0.0
 41
0.0
 42
0.0
 43
0.0
 44
279.4
 45
215.9
 46
0.0
 47
0.0
 48
0.0
 49
0.0
140
0.0
141
0.0
142
1.0
143
1.0
 70
1024
 72
0
 73
0
 74
0
  7

 75
0
147
1.0
148
0.0
149
0.0
100
AcDbLayout
  1
Model
 70
0
 71
0
 10
0.0
 20
0.0
 11
11.0
 21
8.5
 12
0.0
 22
0.0
 32
0.0
 14
0.0
 24
0.0
 34
0.0
 15
0.0
 25
0.0
 35
0.0
146
0.0
 13
0.0
 23
0.0
 33
0.0
 16
1.0
 26
0.0
 36
0.0
 17
0.0
 27
1.0
 37
0.0
 76
0
330
202
345
0
346
0
  0
LAYOUT
  5
25E
102
{ACAD_REACTORS
330
1A
102
}
100
AcDbPlotSettings
  1

  2
none_device
  4
ANSI_A_(11.00_x_8.50_Inches)
  6

 40
0.0
 41
0.0
 42
0.0
 43
0.0
 44
279.4
 45
215.9
 46
0.0
 47
0.0
 48
0.0
 49
0.0
140
0.0
141
0.0
142
1.0
143
1.0
 70
0
 72
0
 73
0
 74
0
  7

 75
0
147
1.0
148
0.0
149
0.0
100
AcDbLayout
  1
Layout1
 70
0
 71
1
 10
0.0
 20
0.0
 11
11.0
 21
8.5
 12
0.0
 22
0.0
 32
0.0
 14
0.0
 24
0.0
 34
0.0
 15
0.0
 25
0.0
 35
0.0
146
0.0
 13
0.0
 23
0.0
 33
0.0
 16
1.0
 26
0.0
 36
0.0
 17
0.0
 27
1.0
 37
0.0
 76
0
330
203
345
0
346
0
  0
ENDSEC
  0
EOF
