999
DXF file: 8203_top.dxf
999
Pro/ENGINEER 2018400 by Parametric Technology Corporation
  0
SECTION
  2
HEADER
  9
$ACADVER
  1
AC1027
  9
$DWGCODEPAGE
  3
ANSI_1252
  9
$EXTMAX
 10
11.0
 20
8.5
 30
0.0
  9
$EXTMIN
 10
0.0
 20
0.0
 30
0.0
  9
$LIMMIN
 10
0.0
 20
0.0
  9
$LIMMAX
 10
11.0
 20
8.5
  9
$VIEWCTR
 10
5.5
 20
4.25
  9
$VIEWSIZE
 40
8.5
  9
$CLAYER
  8
0
  9
$LTSCALE
 40
0.605
  9
$CELTYPE
  6
BYLAYER
  9
$DIMSCALE
 40
1.0
  9
$DIMASZ
 40
0.1
  9
$DIMEXO
 40
0.0625
  9
$DIMDLI
 40
0.418
  9
$DIMEXE
 40
0.125
  9
$DIMCEN
 40
0.099
  9
$DIMLFAC
 40
1.0
  9
$DIMBLK
  1
_FILLED
  9
$DIMALT
 70
1
  9
$DIMALTD
 70
2
  9
$DIMALTTD
 70
2
  9
$DIMALTF
 40
25.4
  9
$DIMTXT
 40
0.08
  9
$DIMTOL
 70
1
  9
$DIMLIM
 70
0
  9
$DIMTFAC
 40
1.0
  9
$DIMTP
 40
0.001
  9
$DIMTM
 40
0.001
  9
$DIMGAP
 40
0.09
  9
$DIMDSEP
 70
46
  9
$AUNITS
 70
0
  9
$PDMODE
 70
3
  9
$PDSIZE
 40
0.3125
  9
$HANDSEED
  5
258
  9
$TILEMODE
 70
1
  9
$MEASUREMENT
 70
0
  9
$INSUNITS
 70
1
  0
ENDSEC
  0
SECTION
  2
CLASSES
  0
CLASS
  1
ACDBDICTIONARYWDFLT
  2
AcDbDictionaryWithDefault
  3
AutoCAD 2000
 90
0
 91
1
280
0
281
0
  0
CLASS
  1
ACDBPLACEHOLDER
  2
AcDbPlaceHolder
  3
AutoCAD 2000
 90
0
 91
1
280
0
281
0
  0
CLASS
  1
LAYOUT
  2
AcDbLayout
  3
AutoCAD 2000
 90
0
 91
0
280
0
281
0
  0
ENDSEC
  0
SECTION
  2
TABLES
  0
TABLE
  2
VPORT
  5
8
100
AcDbSymbolTable
 70
2
  0
VPORT
  5
1F4
100
AcDbSymbolTableRecord
100
AcDbViewportTableRecord
  2
*ACTIVE
 70
0
 10
0.0
 20
0.0
 11
1.0
 21
1.0
 12
5.5
 22
4.25
 13
0.0
 23
0.0
 14
1.0
 24
1.0
 15
0.0
 25
0.0
 16
0.0
 26
0.0
 36
1.0
 17
0.0
 27
0.0
 37
0.0
 40
8.5
 41
1.2941176471
 42
50.0
 43
0.0
 44
0.0
 50
0.0
 51
0.0
 71
0
 72
100
 73
1
 74
1
 75
0
 76
0
 77
0
 78
0
  0
ENDTAB
  0
TABLE
  2
LTYPE
  5
5
100
AcDbSymbolTable
 70
6
  0
LTYPE
  5
14
100
AcDbSymbolTableRecord
100
AcDbLinetypeTableRecord
  2
BYBLOCK
 70
0
  3

 72
65
 73
0
 40
0.0
  0
LTYPE
  5
15
100
AcDbSymbolTableRecord
100
AcDbLinetypeTableRecord
  2
BYLAYER
 70
0
  3

 72
65
 73
0
 40
0.0
  0
LTYPE
  5
16
100
AcDbSymbolTableRecord
100
AcDbLinetypeTableRecord
  2
CONTINUOUS
 70
64
  3
Solid line
 72
65
 73
0
 40
0.0
  0
LTYPE
  5
1F5
100
AcDbSymbolTableRecord
100
AcDbLinetypeTableRecord
  2
CENTER
 70
64
  3
____ _ ____ _ ____ _ ____ _ ____ _ ____ _ ____
 72
65
 73
4
 40
0.6
 49
0.375
 74
0
 49
-0.075
 74
0
 49
0.075
 74
0
 49
-0.075
 74
0
  0
LTYPE
  5
1F6
100
AcDbSymbolTableRecord
100
AcDbLinetypeTableRecord
  2
HIDDEN
 70
64
  3
- - - - - - - - - - - - - - - - - - - -
 72
65
 73
2
 40
0.2
 49
0.1
 74
0
 49
-0.1
 74
0
  0
LTYPE
  5
1F7
100
AcDbSymbolTableRecord
100
AcDbLinetypeTableRecord
  2
PHANTOM
 70
64
  3
_____ _ _ _____ _ _ _____ _ _ _____
 72
65
 73
6
 40
0.8
 49
0.45
 74
0
 49
-0.05
 74
0
 49
0.1
 74
0
 49
-0.05
 74
0
 49
0.1
 74
0
 49
-0.05
 74
0
  0
LTYPE
  5
1F8
100
AcDbSymbolTableRecord
100
AcDbLinetypeTableRecord
  2
DOT
 70
64
  3
. . . . . . . . . . . . . . . . . . . .
 72
65
 73
2
 40
0.2
 49
0.1
 74
0
 49
-0.1
 74
0
  0
LTYPE
  5
1F9
100
AcDbSymbolTableRecord
100
AcDbLinetypeTableRecord
  2
DASHED
 70
64
  3
- - - - - - - - - - - - - - - - - - - -
 72
65
 73
2
 40
0.2
 49
0.1
 74
0
 49
-0.1
 74
0
  0
ENDTAB
  0
TABLE
  2
LAYER
  5
2
100
AcDbSymbolTable
 70
36
  0
LAYER
  5
10
100
AcDbSymbolTableRecord
100
AcDbLayerTableRecord
  2
0
 70
0
 62
7
  6
CONTINUOUS
370
-3
390
F
  0
LAYER
  5
1FA
100
AcDbSymbolTableRecord
100
AcDbLayerTableRecord
  2
DEFAULT_1
 70
0
 62
7
  6
CENTER
370
-3
390
F
  0
LAYER
  5
1FB
100
AcDbSymbolTableRecord
100
AcDbLayerTableRecord
  2
DEFAULT_2
 70
0
 62
8
  6
HIDDEN
370
-3
390
F
  0
LAYER
  5
1FC
100
AcDbSymbolTableRecord
100
AcDbLayerTableRecord
  2
DEFAULT_3
 70
0
 62
7
  6
PHANTOM
370
-3
390
F
  0
LAYER
  5
1FD
100
AcDbSymbolTableRecord
100
AcDbLayerTableRecord
  2
DEFAULT_COORDINATE_SYSTEM
 70
0
 62
7
  6
CONTINUOUS
370
-3
390
F
  0
LAYER
  5
1FE
100
AcDbSymbolTableRecord
100
AcDbLayerTableRecord
  2
DEFAULT_DATUM_AXES
 70
0
 62
7
  6
CONTINUOUS
370
-3
390
F
  0
LAYER
  5
1FF
100
AcDbSymbolTableRecord
100
AcDbLayerTableRecord
  2
DEFAULT_DATUM_PLANES
 70
0
 62
7
  6
CONTINUOUS
370
-3
390
F
  0
ENDTAB
  0
TABLE
  2
STYLE
  5
3
100
AcDbSymbolTable
 70
1
  0
STYLE
  5
11
100
AcDbSymbolTableRecord
100
AcDbTextStyleTableRecord
  2
STANDARD
 70
0
 40
0.0
 41
0.8
 50
0.0
 71
0
 42
0.2
  3
txt
  4

  0
STYLE
  5
200
100
AcDbSymbolTableRecord
100
AcDbTextStyleTableRecord
  2
TEXTSTYLE_1
 70
0
 40
0.0
 41
0.8
 50
0.0
 71
0
 42
0.2
  3
gdt
  4

  0
ENDTAB
  0
TABLE
  2
VIEW
  5
6
100
AcDbSymbolTable
 70
0
  0
ENDTAB
  0
TABLE
  2
UCS
  5
7
100
AcDbSymbolTable
 70
0
  0
ENDTAB
  0
TABLE
  2
APPID
  5
9
100
AcDbSymbolTable
 70
1
  0
APPID
  5
201
100
AcDbSymbolTableRecord
100
AcDbRegAppTableRecord
  2
ACAD
 70
0
  0
ENDTAB
  0
TABLE
  2
BLOCK_RECORD
  5
1
100
AcDbSymbolTable
 70
0
  0
BLOCK_RECORD
  5
202
100
AcDbSymbolTableRecord
100
AcDbBlockTableRecord
  2
*Model_Space
  0
BLOCK_RECORD
  5
203
100
AcDbSymbolTableRecord
100
AcDbBlockTableRecord
  2
*Paper_Space
  0
BLOCK_RECORD
  5
204
100
AcDbSymbolTableRecord
100
AcDbBlockTableRecord
  2
_FILLED
  0
ENDTAB
  0
TABLE
  2
DIMSTYLE
  5
A
100
AcDbSymbolTable
 70
1
100
AcDbDimStyleTable
 71
0
  0
DIMSTYLE
105
205
100
AcDbSymbolTableRecord
100
AcDbDimStyleTableRecord
  2
STANDARD
 70
0
  3

  4

 40
1.0
 41
0.1
 42
0.0625
 43
0.38
 44
0.125
 45
0.0
 46
0.0
 47
0.001
 48
0.001
140
0.08
141
0.09
142
0.0
143
25.4
144
1.0
145
0.0
146
1.0
147
0.09
 71
1.0
 72
0.0
 73
1
 74
1
 75
0
 76
0
 77
0
 78
4
 79
1
170
1
171
2
172
0
173
0
174
0
175
0
176
0
177
0
178
0
270
2
179
3
271
3
272
3
273
2
274
2
275
0
280
0
281
0
282
0
283
1
284
4
285
0
286
0
287
3
288
0
340
11
278
46
341
204
342
204
343
204
344
204
  0
ENDTAB
  0
ENDSEC
  0
SECTION
  2
BLOCKS
  0
BLOCK
  5
20
100
AcDbEntity
  8
0
100
AcDbBlockBegin
  2
*Model_Space
 70
0
 10
0.0
 20
0.0
 30
0.0
  3
*Model_Space
  1

  0
ENDBLK
  5
21
100
AcDbEntity
  8
0
100
AcDbBlockEnd
  0
BLOCK
  5
1C
100
AcDbEntity
  8
0
100
AcDbBlockBegin
  2
*Paper_Space
 70
0
 10
0.0
 20
0.0
 30
0.0
  3
*Paper_Space
  1

  0
ENDBLK
  5
1D
100
AcDbEntity
  8
0
100
AcDbBlockEnd
  0
BLOCK
  5
206
100
AcDbEntity
  8
0
100
AcDbBlockBegin
  2
_FILLED
 70
64
 10
0.0
 20
0.0
  3
_FILLED
  1

  0
SOLID
  5
207
100
AcDbEntity
  8
0
  6
BYBLOCK
 62
0
100
AcDbTrace
 10
0.0
 20
0.0
 11
-1.0
 21
0.2
 12
-1.0
 22
-0.2
 13
-1.0
 23
-0.2
  0
ENDBLK
  5
208
100
AcDbEntity
  8
0
  6
BYBLOCK
 62
0
100
AcDbBlockEnd
  0
ENDSEC
  0
SECTION
  2
ENTITIES
  0
MTEXT
  5
209
100
AcDbEntity
  8
0
100
AcDbMText
 62
2
  6
CONTINUOUS
  7
STANDARD
 71
3
 72
1
 10
4.7275232919
 20
1.7704507691
 30
0.0
 11
1.0
 21
0.0
 31
0.0
 73
2
 44
0.9
  1
SCALE  .500
 40
0.08
 41
0.704
  0
LINE
  5
20A
100
AcDbEntity
  8
0
100
AcDbLine
 62
7
  6
CONTINUOUS
 10
0.0
 20
0.0
 11
0.0
 21
8.5
  0
LINE
  5
20B
100
AcDbEntity
  8
0
100
AcDbLine
 62
7
  6
CONTINUOUS
 10
0.0
 20
0.0
 11
11.0
 21
0.0
  0
LINE
  5
20C
100
AcDbEntity
  8
0
100
AcDbLine
 62
7
  6
CONTINUOUS
 10
0.0
 20
8.5
 11
11.0
 21
8.5
  0
LINE
  5
20D
100
AcDbEntity
  8
0
100
AcDbLine
 62
7
  6
CONTINUOUS
 10
11.0
 20
0.0
 11
11.0
 21
8.5
  0
LINE
  5
20E
100
AcDbEntity
  8
0
100
AcDbLine
 62
7
  6
CONTINUOUS
 10
4.0476824228
 20
2.9548544713
 11
4.0476824228
 21
6.025720613
  0
LINE
  5
20F
100
AcDbEntity
  8
0
100
AcDbLine
 62
7
  6
CONTINUOUS
 10
4.5201233677
 20
2.9548544713
 11
4.5201233677
 21
6.025720613
  0
LINE
  5
210
100
AcDbEntity
  8
0
100
AcDbLine
 62
7
  6
CONTINUOUS
 10
5.3075249425
 20
5.5532796682
 11
5.3075249425
 21
6.4981615579
  0
LINE
  5
211
100
AcDbEntity
  8
0
100
AcDbLine
 62
7
  6
CONTINUOUS
 10
5.3171987966
 20
5.580571558
 11
5.3171987966
 21
6.4708696681
  0
LINE
  5
212
100
AcDbEntity
  8
0
100
AcDbLine
 62
7
  6
CONTINUOUS
 10
5.4413832103
 20
6.4981615579
 11
5.4413832103
 21
5.5532796682
  0
LINE
  5
213
100
AcDbEntity
  8
0
100
AcDbLine
 62
7
  6
CONTINUOUS
 10
5.9942139049
 20
5.6436646686
 11
5.8747112799
 21
5.6265859935
  0
LINE
  5
214
100
AcDbEntity
  8
0
100
AcDbLine
 62
7
  6
CONTINUOUS
 10
5.9928219859
 20
5.5580920015
 11
5.4413832103
 21
5.5532796682
  0
LINE
  5
215
100
AcDbEntity
  8
0
100
AcDbLine
 62
7
  6
CONTINUOUS
 10
4.5201233677
 20
5.5532796682
 11
5.3075249425
 21
5.5532796682
  0
LINE
  5
216
100
AcDbEntity
  8
0
100
AcDbLine
 62
7
  6
CONTINUOUS
 10
5.9942139049
 20
5.6436646686
 11
5.9942139049
 21
6.4077765575
  0
LINE
  5
217
100
AcDbEntity
  8
0
100
AcDbLine
 62
7
  6
CONTINUOUS
 10
6.0220918717
 20
5.5876227121
 11
6.0220918717
 21
6.4638050807
  0
LINE
  5
218
100
AcDbEntity
  8
0
100
AcDbLine
 62
7
  6
CONTINUOUS
 10
4.7661863598
 20
6.0257221426
 11
4.8449266482
 21
6.0257209506
  0
LINE
  5
219
100
AcDbEntity
  8
0
100
AcDbLine
 62
7
  6
CONTINUOUS
 10
5.7760297323
 20
6.0257206062
 11
5.7565156231
 21
6.0257206069
  0
LINE
  5
21A
100
AcDbEntity
  8
0
100
AcDbLine
 62
7
  6
CONTINUOUS
 10
5.9531933878
 20
6.0257206186
 11
5.9717795406
 21
6.0257206177
  0
LINE
  5
21B
100
AcDbEntity
  8
0
100
AcDbLine
 62
7
  6
CONTINUOUS
 10
4.5053548377
 20
6.4981621157
 11
5.3075249425
 21
6.4981615579
  0
LINE
  5
21C
100
AcDbEntity
  8
0
100
AcDbLine
 62
7
  6
CONTINUOUS
 10
4.4938734262
 20
6.4981727375
 11
4.5002275924
 21
6.4981651173
  0
LINE
  5
21D
100
AcDbEntity
  8
0
100
AcDbLine
 62
7
  6
CONTINUOUS
 10
5.4413832103
 20
6.4981615579
 11
5.9928219859
 21
6.4933492246
  0
LINE
  5
21E
100
AcDbEntity
  8
0
100
AcDbLine
 62
7
  6
CONTINUOUS
 10
5.8747112799
 20
6.4248552326
 11
5.9942139049
 21
6.4077765575
  0
ARC
  5
21F
100
AcDbEntity
  8
0
100
AcDbCircle
 62
7
  6
CONTINUOUS
 10
4.2839028953
 20
2.9548544713
 40
0.2362204724
100
AcDbArc
 50
180.0
 51
360.0
  0
ARC
  5
220
100
AcDbEntity
  8
0
100
AcDbCircle
 62
7
  6
CONTINUOUS
 10
4.2839028953
 20
6.025720613
 40
0.5511811024
100
AcDbArc
 50
295.3786148931
 51
301.0008984595
  0
ARC
  5
221
100
AcDbEntity
  8
0
100
AcDbCircle
 62
7
  6
CONTINUOUS
 10
4.2839028953
 20
6.025720613
 40
0.5511811024
100
AcDbArc
 50
59.002076293
 51
244.6216209344
  0
ARC
  5
222
100
AcDbEntity
  8
0
100
AcDbCircle
 62
7
  6
CONTINUOUS
 10
4.2839028953
 20
6.025720613
 40
0.531496063
100
AcDbArc
 50
296.3887834216
 51
297.2624577171
  0
ARC
  5
223
100
AcDbEntity
  8
0
100
AcDbCircle
 62
7
  6
CONTINUOUS
 10
4.2839028953
 20
6.025720613
 40
0.531496063
100
AcDbArc
 50
62.7375457522
 51
243.611217386
  0
ARC
  5
224
100
AcDbEntity
  8
0
100
AcDbCircle
 62
7
  6
CONTINUOUS
 10
4.2839028953
 20
6.025720613
 40
0.4822834646
100
AcDbArc
 50
299.3292963276
 51
240.6707036724
  0
ARC
  5
225
100
AcDbEntity
  8
0
100
AcDbCircle
 62
7
  6
CONTINUOUS
 10
4.2839028953
 20
6.025720613
 40
0.4810369084
100
AcDbArc
 50
299.412694159
 51
240.587305841
  0
ARC
  5
226
100
AcDbEntity
  8
0
100
AcDbCircle
 62
7
  6
CONTINUOUS
 10
4.2839028953
 20
6.025720613
 40
0.4625984252
100
AcDbArc
 50
300.7087265735
 51
239.2912735774
  0
ARC
  5
227
100
AcDbEntity
  8
0
100
AcDbCircle
 62
7
  6
CONTINUOUS
 10
4.2839028953
 20
6.025720613
 40
0.2362204724
100
AcDbArc
 50
0.0
 51
180.0
  0
ARC
  5
228
100
AcDbEntity
  8
0
100
AcDbCircle
 62
7
  6
CONTINUOUS
 10
5.3251163958
 20
6.042536942
 40
0.4620332286
100
AcDbArc
 50
269.018106934
 51
284.5753426522
  0
ARC
  5
229
100
AcDbEntity
  8
0
100
AcDbCircle
 62
7
  6
CONTINUOUS
 10
5.3251163958
 20
6.0089042841
 40
0.4620332286
100
AcDbArc
 50
75.4246573478
 51
90.981893066
  0
ARC
  5
22A
100
AcDbEntity
  8
0
100
AcDbCircle
 62
7
  6
CONTINUOUS
 10
5.8624461645
 20
6.383335822
 40
0.461404213
100
AcDbArc
 50
269.4485249327
 51
271.0883635929
  0
ARC
  5
22B
100
AcDbEntity
  8
0
100
AcDbCircle
 62
7
  6
CONTINUOUS
 10
5.8624654253
 20
5.6694712318
 40
0.4600371404
100
AcDbArc
 50
88.9081672297
 51
90.5586385418
  0
ARC
  5
22C
100
AcDbEntity
  8
0
100
AcDbCircle
 62
7
  6
CONTINUOUS
 10
5.8603637419
 20
5.8405598257
 40
0.2144543146
100
AcDbArc
 50
268.4322325508
 51
273.836098535
  0
ARC
  5
22D
100
AcDbEntity
  8
0
100
AcDbCircle
 62
7
  6
CONTINUOUS
 10
5.8603647187
 20
6.2109299091
 40
0.2144058669
100
AcDbArc
 50
86.1632949844
 51
91.5683830295
  0
ARC
  5
22E
100
AcDbEntity
  8
0
100
AcDbCircle
 62
7
  6
CONTINUOUS
 10
5.8845713292
 20
6.261665049
 40
0.1688757961
100
AcDbArc
 50
93.304061577
 51
100.3593951452
  0
ARC
  5
22F
100
AcDbEntity
  8
0
100
AcDbCircle
 62
7
  6
CONTINUOUS
 10
5.8845610168
 20
5.7897058126
 40
0.1688049345
100
AcDbArc
 50
259.6397676574
 51
266.6980638411
  0
CIRCLE
  5
230
100
AcDbEntity
  8
0
100
AcDbCircle
 62
7
  6
CONTINUOUS
 10
5.8646115567
 20
6.025720613
 40
0.0885826772
  0
CIRCLE
  5
231
100
AcDbEntity
  8
0
100
AcDbCircle
 62
7
  6
CONTINUOUS
 10
5.8646115567
 20
6.025720613
 40
0.0688976378
  0
ARC
  5
232
100
AcDbEntity
  8
0
100
AcDbCircle
 62
7
  6
CONTINUOUS
 10
5.9925643126
 20
5.5876184362
 40
0.0295275591
100
AcDbArc
 50
270.5000000135
 51
0.0000013041
  0
ARC
  5
233
100
AcDbEntity
  8
0
100
AcDbCircle
 62
7
  6
CONTINUOUS
 10
5.9925643126
 20
6.4638227899
 40
0.0295275591
100
AcDbArc
 50
359.9999986959
 51
89.4999999865
  0
ARC
  5
234
100
AcDbEntity
  8
0
100
AcDbCircle
 62
7
  6
CONTINUOUS
 10
5.9061396013
 20
5.572728618
 40
0.0153522081
100
AcDbArc
 50
266.4640350795
 51
270.4316068905
  0
ARC
  5
235
100
AcDbEntity
  8
0
100
AcDbCircle
 62
7
  6
CONTINUOUS
 10
5.3173674622
 20
5.5904126324
 40
0.0098425197
100
AcDbArc
 50
180.0
 51
269.018106934
  0
ARC
  5
236
100
AcDbEntity
  8
0
100
AcDbCircle
 62
7
  6
CONTINUOUS
 10
5.3173674622
 20
6.4610285937
 40
0.0098425197
100
AcDbArc
 50
90.981893066
 51
180.0
  0
SPLINE
  5
237
100
AcDbEntity
  8
0
100
AcDbSpline
 62
7
  6
CONTINUOUS
 70
0
 71
3
 72
22
 73
18
 74
0
 42
0.0000001
 43
0.0000001
 44
0.0000000001
 40
0.0
 40
0.0
 40
0.0
 40
0.0
 40
0.0133419882
 40
0.028259759
 40
0.0447152068
 40
0.06266858
 40
0.1029046162
 40
0.148634242
 40
0.1995167731
 40
0.2552080314
 40
0.3153617443
 40
0.3796303076
 40
0.4476652309
 40
0.5191174118
 40
0.6708749122
 40
0.8321033547
 40
1.0
 40
1.0
 40
1.0
 40
1.0
 10
4.3615045875
 20
6.5017211291
 30
0.0
 10
4.3620866951
 20
6.5016302839
 30
0.0
 10
4.3633224095
 20
6.5014553666
 30
0.0
 10
4.3652828028
 20
6.5012187513
 30
0.0
 10
4.3674493085
 20
6.5009929678
 30
0.0
 10
4.3707320257
 20
6.5006947909
 30
0.0
 10
4.3753086751
 20
6.500356362
 30
0.0
 10
4.3813413849
 20
6.5000026396
 30
0.0
 10
4.3880594659
 20
6.4996865114
 30
0.0
 10
4.3954165346
 20
6.4994062598
 30
0.0
 10
4.4033662116
 20
6.4991602145
 30
0.0
 10
4.4118620623
 20
6.4989465409
 30
0.0
 10
4.4208576406
 20
6.4987633341
 30
0.0
 10
4.4337166867
 20
6.4985529698
 30
0.0
 10
4.4506916879
 20
6.4983620873
 30
0.0
 10
4.471926049
 20
6.498225704
 30
0.0
 10
4.4864594781
 20
6.4981843014
 30
0.0
 10
4.4938734262
 20
6.4981727375
 30
0.0
  0
LINE
  5
238
100
AcDbEntity
  8
0
100
AcDbLine
 62
7
  6
CONTINUOUS
 10
4.5053548375
 20
6.4981621157
 11
4.5017671246
 21
6.4981639329
  0
LINE
  5
239
100
AcDbEntity
  8
0
100
AcDbLine
 62
7
  6
CONTINUOUS
 10
4.5002275924
 20
6.4981651173
 11
4.5018173619
 21
6.4981638984
  0
SPLINE
  5
23A
100
AcDbEntity
  8
0
100
AcDbSpline
 62
7
  6
CONTINUOUS
 70
0
 71
3
 72
33
 73
29
 74
0
 42
0.0000001
 43
0.0000001
 44
0.0000000001
 40
0.0
 40
0.0
 40
0.0
 40
0.0
 40
0.0318582971
 40
0.0659478903
 40
0.0837244877
 40
0.1019343195
 40
0.1399623853
 40
0.1812700284
 40
0.2035151149
 40
0.2269577935
 40
0.2776289362
 40
0.3049492444
 40
0.3336393349
 40
0.3952266045
 40
0.4281748494
 40
0.4625883383
 40
0.5358924933
 40
0.5748373177
 40
0.6153445915
 40
0.6574411377
 40
0.7011583879
 40
0.7465347659
 40
0.7936054588
 40
0.8424152177
 40
0.8674946876
 40
0.8930367469
 40
0.9455414395
 40
1.0
 40
1.0
 40
1.0
 40
1.0
 10
5.9051930402
 20
5.5574056185
 30
0.0
 10
5.9043961444
 20
5.5574611608
 30
0.0
 10
5.9027549095
 20
5.5577274626
 30
0.0
 10
5.9007548059
 20
5.5583941078
 30
0.0
 10
5.8991627536
 20
5.5591414408
 30
0.0
 10
5.8975502105
 20
5.5600641248
 30
0.0
 10
5.8955844351
 20
5.5615362677
 30
0.0
 10
5.8937636047
 20
5.5633256051
 30
0.0
 10
5.8923269029
 20
5.5649677424
 30
0.0
 10
5.8908190713
 20
5.5668565969
 30
0.0
 10
5.8893602813
 20
5.5689436973
 30
0.0
 10
5.8879425759
 20
5.5712124421
 30
0.0
 10
5.8864624594
 20
5.5737632995
 30
0.0
 10
5.8850394895
 20
5.5765084305
 30
0.0
 10
5.8836754729
 20
5.5794403036
 30
0.0
 10
5.882278647
 20
5.5826794849
 30
0.0
 10
5.8809672523
 20
5.5861176434
 30
0.0
 10
5.8797506142
 20
5.5897499329
 30
0.0
 10
5.8788634357
 20
5.5926661685
 30
0.0
 10
5.8780290344
 20
5.5957221863
 30
0.0
 10
5.8772577721
 20
5.5989205229
 30
0.0
 10
5.8765583363
 20
5.6022629305
 30
0.0
 10
5.875947829
 20
5.6057525727
 30
0.0
 10
5.8755368944
 20
5.6087584678
 30
0.0
 10
5.8752740425
 20
5.6112379145
 30
0.0
 10
5.8750551706
 20
5.6138146379
 30
0.0
 10
5.8748755999
 20
5.6171331967
 30
0.0
 10
5.8748344279
 20
5.6198156538
 30
0.0
 10
5.8748382315
 20
5.6211811667
 30
0.0
  0
LINE
  5
23B
100
AcDbEntity
  8
0
100
AcDbLine
 62
7
  6
CONTINUOUS
 10
5.8748382315
 20
5.6211811667
 11
5.8747112836
 21
5.626585916
  0
SPLINE
  5
23C
100
AcDbEntity
  8
0
100
AcDbSpline
 62
7
  6
CONTINUOUS
 70
0
 71
3
 72
39
 73
35
 74
0
 42
0.0000001
 43
0.0000001
 44
0.0000000001
 40
0.0
 40
0.0
 40
0.0
 40
0.0
 40
0.1187958497
 40
0.2301497678
 40
0.3340570348
 40
0.430536459
 40
0.5196141936
 40
0.601292649
 40
0.6755563266
 40
0.7423772585
 40
0.8017069104
 40
0.8285461161
 40
0.853488871
 40
0.8765235474
 40
0.897638477
 40
0.916821948
 40
0.934060944
 40
0.9493393844
 40
0.9626406914
 40
0.9685447264
 40
0.9739482422
 40
0.9788491585
 40
0.9832453271
 40
0.9871343631
 40
0.9905138357
 40
0.9933813404
 40
0.9957345475
 40
0.9975713185
 40
0.9982955207
 40
0.9988901218
 40
0.9993552548
 40
0.9996915941
 40
0.9999016912
 40
1.0
 40
1.0
 40
1.0
 40
1.0
 10
5.9942138984
 20
5.6436644215
 30
0.0
 10
5.9942225255
 20
5.6402768031
 30
0.0
 10
5.994228838
 20
5.633713751
 30
0.0
 10
5.9942079969
 20
5.6241876578
 30
0.0
 10
5.9941621515
 20
5.6152980445
 30
0.0
 10
5.9940943944
 20
5.6070438274
 30
0.0
 10
5.9940073703
 20
5.5994237143
 30
0.0
 10
5.9939039491
 20
5.5924373825
 30
0.0
 10
5.9937870576
 20
5.5860860436
 30
0.0
 10
5.9936596548
 20
5.5803723569
 30
0.0
 10
5.993543804
 20
5.5760111609
 30
0.0
 10
5.9934476924
 20
5.5728441134
 30
0.0
 10
5.9933777403
 20
5.5707117576
 30
0.0
 10
5.9933083952
 20
5.5687427114
 30
0.0
 10
5.9932405489
 20
5.5669379536
 30
0.0
 10
5.9931750881
 20
5.5652984994
 30
0.0
 10
5.9931129511
 20
5.5638254848
 30
0.0
 10
5.9930554407
 20
5.5625201651
 30
0.0
 10
5.9930108097
 20
5.5615378252
 30
0.0
 10
5.9929786429
 20
5.5608368069
 30
0.0
 10
5.9929574599
 20
5.5603750856
 30
0.0
 10
5.9929384004
 20
5.5599563108
 30
0.0
 10
5.9929216224
 20
5.5595806649
 30
0.0
 10
5.9929067582
 20
5.559248362
 30
0.0
 10
5.9928934455
 20
5.5589596279
 30
0.0
 10
5.9928813358
 20
5.5587146743
 30
0.0
 10
5.9928700817
 20
5.5585137487
 30
0.0
 10
5.9928605723
 20
5.558373895
 30
0.0
 10
5.9928527399
 20
5.5582842974
 30
0.0
 10
5.9928472332
 20
5.5582336132
 30
0.0
 10
5.9928420174
 20
5.558194421
 30
0.0
 10
5.9928361159
 20
5.5581654733
 30
0.0
 10
5.9928317648
 20
5.5581489255
 30
0.0
 10
5.992825849
 20
5.5581398426
 30
0.0
 10
5.9928230457
 20
5.5581398159
 30
0.0
  0
SPLINE
  5
23D
100
AcDbEntity
  8
0
100
AcDbSpline
 62
7
  6
CONTINUOUS
 70
0
 71
3
 72
40
 73
36
 74
0
 42
0.0000001
 43
0.0000001
 44
0.0000000001
 40
0.0
 40
0.0
 40
0.0
 40
0.0
 40
0.016375943
 40
0.0341408073
 40
0.0532419549
 40
0.0736190489
 40
0.0952061434
 40
0.1179263825
 40
0.1664335906
 40
0.2185340057
 40
0.2737875701
 40
0.3025054056
 40
0.331880488
 40
0.392298353
 40
0.4232720332
 40
0.4548044992
 40
0.4869861752
 40
0.5199046172
 40
0.5536298466
 40
0.5882304079
 40
0.6237686829
 40
0.6602693382
 40
0.678894227
 40
0.6977819409
 40
0.7364463909
 40
0.7764635283
 40
0.8179721159
 40
0.8393091409
 40
0.8610424937
 40
0.8831759599
 40
0.9057129915
 40
0.9286578767
 40
0.9520149999
 40
0.975790771
 40
1.0
 40
1.0
 40
1.0
 40
1.0
 10
5.9051929074
 20
5.557407471
 30
0.0
 10
5.9046964403
 20
5.5574363748
 30
0.0
 10
5.9036634484
 20
5.5575351309
 30
0.0
 10
5.902065455
 20
5.5577865465
 30
0.0
 10
5.9003643147
 20
5.5581480556
 30
0.0
 10
5.8985703353
 20
5.5586202393
 30
0.0
 10
5.8966939304
 20
5.5592034925
 30
0.0
 10
5.8940387429
 20
5.5601512787
 30
0.0
 10
5.8905905682
 20
5.5616237925
 30
0.0
 10
5.8863880052
 20
5.5638107658
 30
0.0
 10
5.8828756088
 20
5.5659961548
 30
0.0
 10
5.8800627085
 20
5.5679814722
 30
0.0
 10
5.877208935
 20
5.5701754714
 30
0.0
 10
5.8744531874
 20
5.572605785
 30
0.0
 10
5.8718515957
 20
5.575284848
 30
0.0
 10
5.8699567913
 20
5.5774495158
 30
0.0
 10
5.8681375557
 20
5.5797536527
 30
0.0
 10
5.8663954668
 20
5.5821989143
 30
0.0
 10
5.864736996
 20
5.5847893772
 30
0.0
 10
5.8631705756
 20
5.5875285998
 30
0.0
 10
5.861705369
 20
5.5904182039
 30
0.0
 10
5.8605943853
 20
5.5929391367
 30
0.0
 10
5.8597773804
 20
5.5950333433
 30
0.0
 10
5.8590007973
 20
5.5972127806
 30
0.0
 10
5.8581226168
 20
5.6000441465
 30
0.0
 10
5.8572047253
 20
5.6035778646
 30
0.0
 10
5.8565367193
 20
5.6066300666
 30
0.0
 10
5.8560473539
 20
5.6091515914
 30
0.0
 10
5.8556977674
 20
5.6111006821
 30
0.0
 10
5.8553699121
 20
5.6130904869
 30
0.0
 10
5.8550664587
 20
5.6151213787
 30
0.0
 10
5.8547892866
 20
5.6171935199
 30
0.0
 10
5.8545419437
 20
5.6193073658
 30
0.0
 10
5.8543382509
 20
5.6214645075
 30
0.0
 10
5.8542410402
 20
5.622918741
 30
0.0
 10
5.8542037404
 20
5.6236529846
 30
0.0
  0
SPLINE
  5
23E
100
AcDbEntity
  8
0
100
AcDbSpline
 62
7
  6
CONTINUOUS
 70
0
 71
3
 72
46
 73
42
 74
0
 42
0.0000001
 43
0.0000001
 44
0.0000000001
 40
0.0
 40
0.0
 40
0.0
 40
0.0
 40
0.0068708748
 40
0.0145564391
 40
0.0229840784
 40
0.0320678034
 40
0.0417491748
 40
0.0468024053
 40
0.0519907278
 40
0.062739775
 40
0.073926071
 40
0.0854862413
 40
0.097385848
 40
0.1095978419
 40
0.122095485
 40
0.147842874
 40
0.174456398
 40
0.1880708673
 40
0.2018864197
 40
0.2301002183
 40
0.2590522244
 40
0.2887047721
 40
0.3190311293
 40
0.3500073034
 40
0.4138212977
 40
0.4466340453
 40
0.4800306353
 40
0.5485223027
 40
0.5836082013
 40
0.6192373142
 40
0.6553977594
 40
0.6736737846
 40
0.6920771208
 40
0.7292516297
 40
0.766898216
 40
0.8049829289
 40
0.8434614698
 40
0.8822775176
 40
0.9213617966
 40
0.9606327894
 40
1.0
 40
1.0
 40
1.0
 40
1.0
 10
4.5201053249
 20
5.5590151084
 30
0.0
 10
4.5213240156
 20
5.5596363581
 30
0.0
 10
4.5239044744
 20
5.560955315
 30
0.0
 10
4.527975226
 20
5.5630451148
 30
0.0
 10
4.5324301571
 20
5.5653511775
 30
0.0
 10
4.5372215423
 20
5.5678713987
 30
0.0
 10
4.5414036019
 20
5.5701066851
 30
0.0
 10
4.5448939494
 20
5.5719907805
 30
0.0
 10
4.5485661062
 20
5.5739855213
 30
0.0
 10
4.5532984459
 20
5.5765865336
 30
0.0
 10
4.5591130799
 20
5.5798516377
 30
0.0
 10
4.5650882323
 20
5.5832978691
 30
0.0
 10
4.571198154
 20
5.5869181715
 30
0.0
 10
4.577423508
 20
5.5907088219
 30
0.0
 10
4.585937609
 20
5.5960401577
 30
0.0
 10
4.5967399816
 20
5.6031178445
 30
0.0
 10
4.6074974671
 20
5.6106583456
 30
0.0
 10
4.6161712972
 20
5.6170250643
 30
0.0
 10
4.6250081303
 20
5.6237063036
 30
0.0
 10
4.6360995384
 20
5.6324662247
 30
0.0
 10
4.649357703
 20
5.6435590489
 30
0.0
 10
4.6626109203
 20
5.6553022135
 30
0.0
 10
4.6758207375
 20
5.6676914983
 30
0.0
 10
4.6934959526
 20
5.685246448
 30
0.0
 10
4.7107264638
 20
5.7039383996
 30
0.0
 10
4.727391918
 20
5.7237507147
 30
0.0
 10
4.7439999298
 20
5.7448107523
 30
0.0
 10
4.7598195189
 20
5.7670540194
 30
0.0
 10
4.7746677531
 20
5.7904608635
 30
0.0
 10
4.785390268
 20
5.808845313
 30
0.0
 10
4.7938088185
 20
5.8246830745
 30
0.0
 10
4.8002161774
 20
5.8376932998
 30
0.0
 10
4.8064311435
 20
5.8510196155
 30
0.0
 10
4.8137183101
 20
5.8680963828
 30
0.0
 10
4.8215758712
 20
5.8891651842
 30
0.0
 10
4.8284781074
 20
5.9108401015
 30
0.0
 10
4.8343067907
 20
5.9330698395
 30
0.0
 10
4.8389773668
 20
5.9557756033
 30
0.0
 10
4.8423834809
 20
5.978866041
 30
0.0
 10
4.8444580154
 20
6.002223713
 30
0.0
 10
4.8449265253
 20
6.0178834245
 30
0.0
 10
4.8449265131
 20
6.0257209299
 30
0.0
  0
SPLINE
  5
23F
100
AcDbEntity
  8
0
100
AcDbSpline
 62
7
  6
CONTINUOUS
 70
0
 71
3
 72
72
 73
68
 74
0
 42
0.0000001
 43
0.0000001
 44
0.0000000001
 40
0.0
 40
0.0
 40
0.0
 40
0.0
 40
0.0423746654
 40
0.0846241555
 40
0.1056681291
 40
0.126638066
 40
0.147521902
 40
0.1683083439
 40
0.1889876071
 40
0.2095506476
 40
0.2299902371
 40
0.2502992336
 40
0.2704720482
 40
0.2905036983
 40
0.330124933
 40
0.3691387341
 40
0.407525517
 40
0.4452696144
 40
0.4823575562
 40
0.5187769873
 40
0.5545148605
 40
0.5895562354
 40
0.6238832684
 40
0.6574751925
 40
0.6903060982
 40
0.722345542
 40
0.753559447
 40
0.78390078
 40
0.7987252668
 40
0.813310304
 40
0.8276522966
 40
0.8347311747
 40
0.8417476375
 40
0.8691133445
 40
0.882316958
 40
0.8951544333
 40
0.9075911467
 40
0.9195805778
 40
0.9310382348
 40
0.9418758799
 40
0.9520345644
 40
0.9614585776
 40
0.9700484835
 40
0.9777006031
 40
0.9811503874
 40
0.9843374613
 40
0.987254266
 40
0.9898934184
 40
0.9922457002
 40
0.9942976429
 40
0.9960353451
 40
0.9967838708
 40
0.9974530139
 40
0.9980436269
 40
0.9985565611
 40
0.9989926599
 40
0.999352075
 40
0.9995026967
 40
0.9996337267
 40
0.9997450136
 40
0.9998364061
 40
0.9999077528
 40
0.9999589019
 40
0.999976855
 40
0.9999897017
 40
0.999997423
 40
1.0
 40
1.0
 40
1.0
 40
1.0
 10
4.8449265131
 20
6.0257209299
 30
0.0
 10
4.8449265152
 20
6.034336523
 30
0.0
 10
4.8443607088
 20
6.0515470439
 30
0.0
 10
4.8422722217
 20
6.0729448708
 30
0.0
 10
4.8397983362
 20
6.0899001325
 30
0.0
 10
4.8375571367
 20
6.1024927094
 30
0.0
 10
4.8349428214
 20
6.1149594191
 30
0.0
 10
4.8319735957
 20
6.1272855287
 30
0.0
 10
4.8286647845
 20
6.1394571972
 30
0.0
 10
4.8250302477
 20
6.1514618484
 30
0.0
 10
4.8210886232
 20
6.1632897489
 30
0.0
 10
4.8168597827
 20
6.1749335194
 30
0.0
 10
4.8123605352
 20
6.186386419
 30
0.0
 10
4.806044983
 20
6.2013389024
 30
0.0
 10
4.7975630603
 20
6.2195275789
 30
0.0
 10
4.7865242127
 20
6.2406132874
 30
0.0
 10
4.7747688745
 20
6.2608672811
 30
0.0
 10
4.7624033673
 20
6.2802908697
 30
0.0
 10
4.7495193387
 20
6.298889108
 30
0.0
 10
4.7361973526
 20
6.3166683396
 30
0.0
 10
4.7225122877
 20
6.3336376963
 30
0.0
 10
4.7085321598
 20
6.3498059362
 30
0.0
 10
4.6943202627
 20
6.3651813547
 30
0.0
 10
4.6799350102
 20
6.3797696461
 30
0.0
 10
4.6654327142
 20
6.3935749429
 30
0.0
 10
4.6508684163
 20
6.4066000091
 30
0.0
 10
4.6362932663
 20
6.4188395301
 30
0.0
 10
4.624094121
 20
6.4284535593
 30
0.0
 10
4.6143801659
 20
6.4357497996
 30
0.0
 10
4.6071843702
 20
6.4409802773
 30
0.0
 10
4.6011930567
 20
6.4451876665
 30
0.0
 10
4.5964193725
 20
6.4484499773
 30
0.0
 10
4.5894185826
 20
6.4531459385
 30
0.0
 10
4.5812729126
 20
6.4583701999
 30
0.0
 10
4.5720102857
 20
6.4640374563
 30
0.0
 10
4.5652835496
 20
6.4680322881
 30
0.0
 10
4.5587194932
 20
6.4718162566
 30
0.0
 10
4.552353322
 20
6.4753805199
 30
0.0
 10
4.5462385783
 20
6.4787274881
 30
0.0
 10
4.5404310297
 20
6.4818601183
 30
0.0
 10
4.5349688728
 20
6.4847619048
 30
0.0
 10
4.5298893889
 20
6.4874095087
 30
0.0
 10
4.5252491685
 20
6.4897970155
 30
0.0
 10
4.5216851306
 20
6.4916211563
 30
0.0
 10
4.5190966811
 20
6.4929403514
 30
0.0
 10
4.5173651012
 20
6.493820537
 30
0.0
 10
4.5157794765
 20
6.4946241276
 30
0.0
 10
4.5143441944
 20
6.4953489074
 30
0.0
 10
4.5130648938
 20
6.4959924704
 30
0.0
 10
4.5119493244
 20
6.4965536643
 30
0.0
 10
4.5111261295
 20
6.496970471
 30
0.0
 10
4.5105548974
 20
6.4972624962
 30
0.0
 10
4.510191637
 20
6.4974489618
 30
0.0
 10
4.5098711601
 20
6.4976138822
 30
0.0
 10
4.5095928185
 20
6.4977571313
 30
0.0
 10
4.5093560765
 20
6.4978784824
 30
0.0
 10
4.5091845751
 20
6.4979656272
 30
0.0
 10
4.5090682263
 20
6.4980243662
 30
0.0
 10
4.5089968359
 20
6.4980602606
 30
0.0
 10
4.5089362019
 20
6.4980906164
 30
0.0
 10
4.5088862451
 20
6.4981155424
 30
0.0
 10
4.5088475489
 20
6.4981347272
 30
0.0
 10
4.5088214295
 20
6.4981477227
 30
0.0
 10
4.5088071927
 20
6.4981546425
 30
0.0
 10
4.5087989995
 20
6.498158841
 30
0.0
 10
4.5087968388
 20
6.4981596057
 30
0.0
 10
4.5087928193
 20
6.4981618858
 30
0.0
 10
4.508793228
 20
6.4981615579
 30
0.0
  0
SPLINE
  5
240
100
AcDbEntity
  8
0
100
AcDbSpline
 62
7
  6
CONTINUOUS
 70
0
 71
3
 72
40
 73
36
 74
0
 42
0.0000001
 43
0.0000001
 44
0.0000000001
 40
0.0
 40
0.0
 40
0.0
 40
0.0
 40
0.0486157134
 40
0.0722531328
 40
0.0954635263
 40
0.1182573615
 40
0.140641087
 40
0.1626137751
 40
0.1841720644
 40
0.2053142016
 40
0.2260512532
 40
0.266383314
 40
0.3053427776
 40
0.3243700273
 40
0.3431291265
 40
0.3798934748
 40
0.4157027743
 40
0.4506006204
 40
0.4846332581
 40
0.5178395083
 40
0.5502904527
 40
0.5820657247
 40
0.6132220921
 40
0.6737384413
 40
0.7318071511
 40
0.7598172357
 40
0.7870659691
 40
0.8390677657
 40
0.8873151872
 40
0.9097516974
 40
0.9308774138
 40
0.9505590756
 40
0.9686941849
 40
0.985198215
 40
1.0
 40
1.0
 40
1.0
 40
1.0
 10
5.8542037955
 20
6.4277882225
 30
0.0
 10
5.8542896752
 20
6.4292794898
 30
0.0
 10
5.8544687018
 20
6.4314932681
 30
0.0
 10
5.8548002136
 20
6.4344077551
 30
0.0
 10
5.8550840486
 20
6.4365287587
 30
0.0
 10
5.8553993838
 20
6.4386062996
 30
0.0
 10
5.8557399372
 20
6.4406412958
 30
0.0
 10
5.8561039396
 20
6.442633651
 30
0.0
 10
5.8564903405
 20
6.4445828986
 30
0.0
 10
5.8568975548
 20
6.4464891201
 30
0.0
 10
5.8574672051
 20
6.4489501202
 30
0.0
 10
5.8582487254
 20
6.4519236068
 30
0.0
 10
5.8591627817
 20
6.454804572
 30
0.0
 10
5.8599719067
 20
6.4570197946
 30
0.0
 10
5.8608230959
 20
6.4591467056
 30
0.0
 10
5.8619829327
 20
6.4617039968
 30
0.0
 10
5.8635176004
 20
6.4646296845
 30
0.0
 10
5.8651658279
 20
6.4673955192
 30
0.0
 10
5.866910827
 20
6.4700054029
 30
0.0
 10
5.8687371218
 20
6.4724659471
 30
0.0
 10
5.8706402005
 20
6.4747784915
 30
0.0
 10
5.8726164018
 20
6.4769444169
 30
0.0
 10
5.875312627
 20
6.479614122
 30
0.0
 10
5.8788140535
 20
6.4826101304
 30
0.0
 10
5.8824921007
 20
6.4852202559
 30
0.0
 10
5.8854533912
 20
6.4870535748
 30
0.0
 10
5.8883237021
 20
6.4886745277
 30
0.0
 10
5.891846233
 20
6.4903985039
 30
0.0
 10
5.8953574093
 20
6.4917822744
 30
0.0
 10
5.8980422579
 20
6.4926500713
 30
0.0
 10
5.8999158861
 20
6.4931678341
 30
0.0
 10
5.9016825361
 20
6.4935694433
 30
0.0
 10
5.9033277829
 20
6.493855355
 30
0.0
 10
5.9048381539
 20
6.4940263514
 30
0.0
 10
5.9058004345
 20
6.4940666964
 30
0.0
 10
5.9062552196
 20
6.4940643809
 30
0.0
  0
LINE
  5
241
100
AcDbEntity
  8
0
100
AcDbLine
 62
7
  6
CONTINUOUS
 10
5.8747112836
 20
6.4248553101
 11
5.8748382315
 21
6.4302600568
  0
SPLINE
  5
242
100
AcDbEntity
  8
0
100
AcDbSpline
 62
7
  6
CONTINUOUS
 70
0
 71
3
 72
33
 73
29
 74
0
 42
0.0000001
 43
0.0000001
 44
0.0000000001
 40
0.0
 40
0.0
 40
0.0
 40
0.0
 40
0.0550966948
 40
0.1081644201
 40
0.1339614562
 40
0.1592790921
 40
0.2085174263
 40
0.2559553344
 40
0.3016383966
 40
0.3456047663
 40
0.387895646
 40
0.4285447336
 40
0.4675802436
 40
0.5050278829
 40
0.5409085565
 40
0.5752392497
 40
0.6080444325
 40
0.6691921254
 40
0.6976042631
 40
0.7246213606
 40
0.7746429967
 40
0.7977608291
 40
0.8196990141
 40
0.8604921322
 40
0.8981938213
 40
0.934020079
 40
0.9680885259
 40
1.0
 40
1.0
 40
1.0
 40
1.0
 10
5.8748382315
 20
6.4302600568
 30
0.0
 10
5.8748334331
 20
6.4316610067
 30
0.0
 10
5.8748753311
 20
6.4344118047
 30
0.0
 10
5.8750629822
 20
6.4378139048
 30
0.0
 10
5.8752925006
 20
6.440453202
 30
0.0
 10
5.8755681981
 20
6.4429901361
 30
0.0
 10
5.8759986982
 20
6.4460630082
 30
0.0
 10
5.8766372659
 20
6.449626802
 30
0.0
 10
5.8773668066
 20
6.4530359662
 30
0.0
 10
5.878170611
 20
6.4562936777
 30
0.0
 10
5.8790396291
 20
6.4594018528
 30
0.0
 10
5.8799630714
 20
6.4623631527
 30
0.0
 10
5.8809315512
 20
6.4651800761
 30
0.0
 10
5.8819375144
 20
6.4678546444
 30
0.0
 10
5.8829733238
 20
6.470388955
 30
0.0
 10
5.8840309699
 20
6.4727857784
 30
0.0
 10
5.8854322237
 20
6.475731677
 30
0.0
 10
5.8868913301
 20
6.4784825027
 30
0.0
 10
5.8884116635
 20
6.4810278236
 30
0.0
 10
5.8898679867
 20
6.4832795936
 30
0.0
 10
5.8913712236
 20
6.4853397694
 30
0.0
 10
5.8929305021
 20
6.4871884775
 30
0.0
 10
5.8944203039
 20
6.4887848591
 30
0.0
 10
5.8963179246
 20
6.4905047491
 30
0.0
 10
5.8987405013
 20
6.4921334295
 30
0.0
 10
5.9012484043
 20
6.4932598806
 30
0.0
 10
5.903762173
 20
6.4939219276
 30
0.0
 10
5.9054438271
 20
6.4940714565
 30
0.0
 10
5.9062552176
 20
6.4940643809
 30
0.0
  0
SPLINE
  5
243
100
AcDbEntity
  8
0
100
AcDbSpline
 62
7
  6
CONTINUOUS
 70
0
 71
3
 72
41
 73
37
 74
0
 42
0.0000001
 43
0.0000001
 44
0.0000000001
 40
0.0
 40
0.0
 40
0.0
 40
0.0
 40
0.000091109
 40
0.0002981096
 40
0.0006326201
 40
0.0010964958
 40
0.0016901608
 40
0.0024136323
 40
0.0032667696
 40
0.0042493592
 40
0.0066018634
 40
0.0094689339
 40
0.0128482171
 40
0.0167373165
 40
0.021133829
 40
0.0260353955
 40
0.0314398244
 40
0.0373449645
 40
0.0506487641
 40
0.0659295965
 40
0.0831703626
 40
0.1023546083
 40
0.1234694912
 40
0.14650366
 40
0.1714457606
 40
0.1982844368
 40
0.2270094564
 40
0.25761386
 40
0.3244353587
 40
0.3987001804
 40
0.4803799795
 40
0.569458923
 40
0.6659393056
 40
0.7698475571
 40
0.8812027085
 40
1.0
 40
1.0
 40
1.0
 40
1.0
 10
5.9928230457
 20
6.4933014102
 30
0.0
 10
5.9928256436
 20
6.4933013852
 30
0.0
 10
5.9928305947
 20
6.493291799
 30
0.0
 10
5.99283432
 20
6.4932758574
 30
0.0
 10
5.9928393951
 20
6.4932467103
 30
0.0
 10
5.9928439189
 20
6.4932076545
 30
0.0
 10
5.9928487232
 20
6.4931569429
 30
0.0
 10
5.992853479
 20
6.4930952897
 30
0.0
 10
5.9928583528
 20
6.4930224554
 30
0.0
 10
5.9928654354
 20
6.4929032407
 30
0.0
 10
5.9928745516
 20
6.4927266079
 30
0.0
 10
5.9928860744
 20
6.4924816752
 30
0.0
 10
5.9928991006
 20
6.4921929448
 30
0.0
 10
5.9929140294
 20
6.4918606434
 30
0.0
 10
5.9929312549
 20
6.4914849915
 30
0.0
 10
5.9929511831
 20
6.4910662076
 30
0.0
 10
5.9929735672
 20
6.4906044721
 30
0.0
 10
5.993007742
 20
6.4899034282
 30
0.0
 10
5.9930552533
 20
6.4889210638
 30
0.0
 10
5.99311594
 20
6.4876157126
 30
0.0
 10
5.9931804021
 20
6.4861426729
 30
0.0
 10
5.9932465399
 20
6.484503192
 30
0.0
 10
5.9933137584
 20
6.4826984246
 30
0.0
 10
5.9933816863
 20
6.480729386
 30
0.0
 10
5.9934498924
 20
6.4785970469
 30
0.0
 10
5.9935179695
 20
6.4763023462
 30
0.0
 10
5.9935854998
 20
6.4738460975
 30
0.0
 10
5.9936768534
 20
6.4702499279
 30
0.0
 10
5.9937860188
 20
6.4653551877
 30
0.0
 10
5.9939035273
 20
6.4590038481
 30
0.0
 10
5.9940076078
 20
6.4520175014
 30
0.0
 10
5.9940948573
 20
6.4443973789
 30
0.0
 10
5.9941622924
 20
6.436143165
 30
0.0
 10
5.9942078235
 20
6.4272535633
 30
0.0
 10
5.9942286815
 20
6.4177274768
 30
0.0
 10
5.9942224722
 20
6.4111644248
 30
0.0
 10
5.9942138985
 20
6.4077768046
 30
0.0
  0
LINE
  5
244
100
AcDbEntity
  8
0
100
AcDbLine
 62
7
  6
CONTINUOUS
 10
5.8544963895
 20
5.6261857894
 11
5.8542040335
 21
5.6236535392
  0
LINE
  5
245
100
AcDbEntity
  8
0
100
AcDbLine
 62
7
  6
CONTINUOUS
 10
5.8542038111
 20
5.623653554
 11
5.4413832103
 21
5.5646575759
  0
LINE
  5
246
100
AcDbEntity
  8
0
100
AcDbLine
 62
7
  6
CONTINUOUS
 10
5.4413832103
 20
6.4867836502
 11
5.8542038107
 21
6.4277876707
  0
LINE
  5
247
100
AcDbEntity
  8
0
100
AcDbLine
 62
7
  6
CONTINUOUS
 10
5.8542040339
 20
6.4277876856
 11
5.8544963897
 21
6.4252554367
  0
SPLINE
  5
248
100
AcDbEntity
  8
0
100
AcDbSpline
 62
7
  6
CONTINUOUS
 70
0
 71
3
 72
16
 73
12
 74
0
 42
0.0000001
 43
0.0000001
 44
0.0000000001
 40
0.0
 40
0.0
 40
0.0
 40
0.0
 40
0.0440247541
 40
0.0911308662
 40
0.1941082504
 40
0.3079670434
 40
0.4316352873
 40
0.5639505918
 40
0.7036695733
 40
0.8494750197
 40
1.0
 40
1.0
 40
1.0
 40
1.0
 10
5.8544964242
 20
6.4252554372
 30
0.0
 10
5.8545970255
 20
6.4209158194
 30
0.0
 10
5.8547952152
 20
6.4119326129
 30
0.0
 10
5.8551836361
 20
6.3927977262
 30
0.0
 10
5.8556514722
 20
6.3667775238
 30
0.0
 10
5.8561649719
 20
6.3332081228
 30
0.0
 10
5.8566378298
 20
6.2967451839
 30
0.0
 10
5.8570636132
 20
6.2577317255
 30
0.0
 10
5.8574351059
 20
6.2165349213
 30
0.0
 10
5.8577476174
 20
6.1735421297
 30
0.0
 10
5.8579094965
 20
6.1443247659
 30
0.0
 10
5.85798011
 20
6.1294833658
 30
0.0
  0
SPLINE
  5
249
100
AcDbEntity
  8
0
100
AcDbSpline
 62
7
  6
CONTINUOUS
 70
0
 71
3
 72
15
 73
11
 74
0
 42
0.0000001
 43
0.0000001
 44
0.0000000001
 40
0.0
 40
0.0
 40
0.0
 40
0.0
 40
0.2963302884
 40
0.436049239
 40
0.5683645159
 40
0.692032751
 40
0.8058915668
 40
0.9088690149
 40
0.9559751785
 40
1.0
 40
1.0
 40
1.0
 40
1.0
 10
5.8580052058
 20
5.9219561195
 30
0.0
 10
5.8578604181
 20
5.8927388447
 30
0.0
 10
5.8575834912
 20
5.8497459626
 30
0.0
 10
5.8570745528
 20
5.7937085304
 30
0.0
 10
5.8566459743
 20
5.7546953068
 30
0.0
 10
5.85617071
 20
5.7182325869
 30
0.0
 10
5.8556550859
 20
5.6846633821
 30
0.0
 10
5.8551857791
 20
5.6586433253
 30
0.0
 10
5.8547961474
 20
5.6395085427
 30
0.0
 10
5.8545973361
 20
5.630525384
 30
0.0
 10
5.8544964242
 20
5.6261857889
 30
0.0
  0
SPLINE
  5
24A
100
AcDbEntity
  8
0
100
AcDbSpline
 62
7
  6
CONTINUOUS
 70
0
 71
3
 72
21
 73
17
 74
0
 42
0.0000001
 43
0.0000001
 44
0.0000000001
 40
0.0
 40
0.0
 40
0.0
 40
0.0
 40
0.0641288169
 40
0.1299138134
 40
0.1968817246
 40
0.2646241548
 40
0.3327656948
 40
0.4007856421
 40
0.4681743848
 40
0.5345007279
 40
0.5994045141
 40
0.6626223761
 40
0.7830431814
 40
0.8402081494
 40
0.8953948999
 40
1.0
 40
1.0
 40
1.0
 40
1.0
 10
5.9942139047
 20
5.6436646677
 30
0.0
 10
5.9950791032
 20
5.643704114
 30
0.0
 10
5.9968295101
 20
5.6438490155
 30
0.0
 10
5.9994586896
 20
5.6442612115
 30
0.0
 10
6.0020974909
 20
5.6448804482
 30
0.0
 10
6.0047099676
 20
5.6457155133
 30
0.0
 10
6.00725629
 20
5.6467730173
 30
0.0
 10
6.0096981101
 20
5.6480437087
 30
0.0
 10
6.011993864
 20
5.6495181587
 30
0.0
 10
6.0141084318
 20
5.6511752946
 30
0.0
 10
6.0160080011
 20
5.6529956481
 30
0.0
 10
6.0181864532
 20
5.655554787
 30
0.0
 10
6.0198999735
 20
5.6583547993
 30
0.0
 10
6.021067434
 20
5.6612799421
 30
0.0
 10
6.0218503157
 20
5.6641077406
 30
0.0
 10
6.0220918747
 20
5.6662740875
 30
0.0
 10
6.0220918717
 20
5.6676868407
 30
0.0
  0
SPLINE
  5
24B
100
AcDbEntity
  8
0
100
AcDbSpline
 62
7
  6
CONTINUOUS
 70
0
 71
3
 72
21
 73
17
 74
0
 42
0.0000001
 43
0.0000001
 44
0.0000000001
 40
0.0
 40
0.0
 40
0.0
 40
0.0
 40
0.1046051014
 40
0.1597918526
 40
0.2169568211
 40
0.3373776273
 40
0.4005954895
 40
0.4654992758
 40
0.5318256187
 40
0.5992143612
 40
0.6672343081
 40
0.7353758476
 40
0.8031182772
 40
0.8700861878
 40
0.9358711836
 40
1.0
 40
1.0
 40
1.0
 40
1.0
 10
6.0220918717
 20
6.3837543855
 30
0.0
 10
6.0220918747
 20
6.3851671386
 30
0.0
 10
6.0218503156
 20
6.3873334855
 30
0.0
 10
6.0210674338
 20
6.390161284
 30
0.0
 10
6.0198999731
 20
6.3930864266
 30
0.0
 10
6.0181864528
 20
6.3958864389
 30
0.0
 10
6.0160080007
 20
6.3984455777
 30
0.0
 10
6.0141084314
 20
6.4002659312
 30
0.0
 10
6.0119938635
 20
6.401923067
 30
0.0
 10
6.0096981097
 20
6.4033975169
 30
0.0
 10
6.0072562896
 20
6.4046682083
 30
0.0
 10
6.0047099673
 20
6.4057257122
 30
0.0
 10
6.0020974906
 20
6.4065607773
 30
0.0
 10
5.9994586894
 20
6.407180014
 30
0.0
 10
5.99682951
 20
6.4075922099
 30
0.0
 10
5.9950791032
 20
6.4077371114
 30
0.0
 10
5.9942139047
 20
6.4077765578
 30
0.0
  0
SPLINE
  5
24C
100
AcDbEntity
  8
0
100
AcDbSpline
 62
7
  6
CONTINUOUS
 70
0
 71
3
 72
15
 73
11
 74
0
 42
0.0000001
 43
0.0000001
 44
0.0000000001
 40
0.0
 40
0.0
 40
0.0
 40
0.0
 40
0.0910869862
 40
0.1940338449
 40
0.3078755079
 40
0.431539728
 40
0.5638634191
 40
0.7036020886
 40
0.8494371028
 40
1.0
 40
1.0
 40
1.0
 40
1.0
 10
5.8747112799
 20
5.6265859935
 30
0.0
 10
5.8745008577
 20
5.6355540756
 30
0.0
 10
5.8740970454
 20
5.6546589625
 30
0.0
 10
5.8735495735
 20
5.6849746603
 30
0.0
 10
5.8730343386
 20
5.718499661
 30
0.0
 10
5.872559498
 20
5.7549186447
 30
0.0
 10
5.8721330361
 20
5.7938888119
 30
0.0
 10
5.8717609366
 20
5.8350430801
 30
0.0
 10
5.8714464686
 20
5.8779941348
 30
0.0
 10
5.8712822813
 20
5.907183944
 30
0.0
 10
5.8712102698
 20
5.9220117057
 30
0.0
  0
SPLINE
  5
24D
100
AcDbEntity
  8
0
100
AcDbSpline
 62
7
  6
CONTINUOUS
 70
0
 71
3
 72
15
 73
11
 74
0
 42
0.0000001
 43
0.0000001
 44
0.0000000001
 40
0.0
 40
0.0
 40
0.0
 40
0.0
 40
0.1505629403
 40
0.296397952
 40
0.4361366007
 40
0.5684602996
 40
0.6921245323
 40
0.8059661951
 40
0.9089130336
 40
1.0
 40
1.0
 40
1.0
 40
1.0
 10
5.8712314134
 20
6.1294280325
 30
0.0
 10
5.8713010046
 20
6.1442558735
 30
0.0
 10
5.8714612025
 20
6.173445835
 30
0.0
 10
5.8717725469
 20
6.2163970994
 30
0.0
 10
5.8721424852
 20
6.2575515616
 30
0.0
 10
5.8725666081
 20
6.296521921
 30
0.0
 10
5.873039407
 20
6.3329410892
 30
0.0
 10
5.873552814
 20
6.3664662609
 30
0.0
 10
5.8740987841
 20
6.3967821116
 30
0.0
 10
5.874501453
 20
6.4158871001
 30
0.0
 10
5.8747112799
 20
6.4248552326
 30
0.0
  0
SPLINE
  5
24E
100
AcDbEntity
  8
0
100
AcDbSpline
 62
7
  6
CONTINUOUS
 70
0
 71
3
 72
27
 73
23
 74
0
 42
0.0000001
 43
0.0000001
 44
0.0000000001
 40
0.0
 40
0.0
 40
0.0
 40
0.0
 40
0.0951546424
 40
0.1874214181
 40
0.2322153112
 40
0.2760415594
 40
0.318828035
 40
0.3605333971
 40
0.4407060756
 40
0.5166715993
 40
0.5884489836
 40
0.655854656
 40
0.7185246522
 40
0.7762421612
 40
0.8288018576
 40
0.8759344115
 40
0.9172554128
 40
0.9519889926
 40
0.966648979
 40
0.9794693839
 40
0.9905284801
 40
1.0
 40
1.0
 40
1.0
 40
1.0
 10
5.8712102975
 20
5.9220115979
 30
0.0
 10
5.8714854987
 20
5.9225101782
 30
0.0
 10
5.871883702
 20
5.9235743837
 30
0.0
 10
5.8720810334
 20
5.9249583672
 30
0.0
 10
5.8720856928
 20
5.9260421075
 30
0.0
 10
5.8720252923
 20
5.9268270141
 30
0.0
 10
5.8719125437
 20
5.9275872442
 30
0.0
 10
5.8717054476
 20
5.9285513059
 30
0.0
 10
5.8713515628
 20
5.9296843473
 30
0.0
 10
5.8708049393
 20
5.930936531
 30
0.0
 10
5.8701815833
 20
5.9320649622
 30
0.0
 10
5.8695217093
 20
5.9330777369
 30
0.0
 10
5.8688592009
 20
5.9339862801
 30
0.0
 10
5.8682016111
 20
5.9347864519
 30
0.0
 10
5.8675585759
 20
5.9354758383
 30
0.0
 10
5.8669408807
 20
5.9360521186
 30
0.0
 10
5.8663625772
 20
5.9365106559
 30
0.0
 10
5.865907002
 20
5.9368082282
 30
0.0
 10
5.865576497
 20
5.9369803455
 30
0.0
 10
5.8653633267
 20
5.9370694601
 30
0.0
 10
5.8651710858
 20
5.9371249874
 30
0.0
 10
5.8650481147
 20
5.9371396375
 30
0.0
 10
5.8649914293
 20
5.9371393927
 30
0.0
  0
SPLINE
  5
24F
100
AcDbEntity
  8
0
100
AcDbSpline
 62
7
  6
CONTINUOUS
 70
0
 71
3
 72
23
 73
19
 74
0
 42
0.0000001
 43
0.0000001
 44
0.0000000001
 40
0.0
 40
0.0
 40
0.0
 40
0.0
 40
0.062562402
 40
0.125120265
 40
0.1876443077
 40
0.2501395408
 40
0.3126008017
 40
0.3750347658
 40
0.4374531482
 40
0.4998699603
 40
0.5622998129
 40
0.6247554976
 40
0.6872440563
 40
0.7497694404
 40
0.8123242911
 40
0.8748912153
 40
0.9374659396
 40
1.0
 40
1.0
 40
1.0
 40
1.0
 10
5.9717795474
 20
6.025720613
 30
0.0
 10
5.9717790473
 20
6.02240623
 30
0.0
 10
5.9714476296
 20
6.0157730363
 30
0.0
 10
5.9699658025
 20
6.0059274451
 30
0.0
 10
5.9675157546
 20
5.99627989
 30
0.0
 10
5.9641290888
 20
5.9869259561
 30
0.0
 10
5.9598472894
 20
5.9779519986
 30
0.0
 10
5.9547204958
 20
5.9694376696
 30
0.0
 10
5.948804309
 20
5.9614549746
 30
0.0
 10
5.9421594992
 20
5.954068458
 30
0.0
 10
5.9348513647
 20
5.9473351916
 30
0.0
 10
5.9269500886
 20
5.9413031855
 30
0.0
 10
5.9185252094
 20
5.9360179622
 30
0.0
 10
5.9096511473
 20
5.9315167664
 30
0.0
 10
5.9004058354
 20
5.9278272763
 30
0.0
 10
5.8908648123
 20
5.9249792114
 30
0.0
 10
5.8811110223
 20
5.9229886561
 30
0.0
 10
5.8745153318
 20
5.9222391912
 30
0.0
 10
5.8712102698
 20
5.9220117057
 30
0.0
  0
SPLINE
  5
250
100
AcDbEntity
  8
0
100
AcDbSpline
 62
7
  6
CONTINUOUS
 70
0
 71
3
 72
27
 73
23
 74
0
 42
0.0000001
 43
0.0000001
 44
0.0000000001
 40
0.0
 40
0.0
 40
0.0
 40
0.0
 40
0.0113215572
 40
0.0241133223
 40
0.0385233505
 40
0.0546257256
 40
0.0918206639
 40
0.135084912
 40
0.1587513596
 40
0.1836927056
 40
0.2372674065
 40
0.3583562875
 40
0.4255332881
 40
0.496658755
 40
0.5715178078
 40
0.6501054865
 40
0.6908381956
 40
0.7325344012
 40
0.7751568431
 40
0.8186386692
 40
0.9079962225
 40
1.0
 40
1.0
 40
1.0
 40
1.0
 10
5.8649918675
 20
5.9371393864
 30
0.0
 10
5.8649220727
 20
5.937139087
 30
0.0
 10
5.864773395
 20
5.9371239217
 30
0.0
 10
5.8645423176
 20
5.9370669903
 30
0.0
 10
5.8642908976
 20
5.936976052
 30
0.0
 10
5.863910908
 20
5.9368025387
 30
0.0
 10
5.8633952032
 20
5.9365024334
 30
0.0
 10
5.8628729688
 20
5.9361278179
 30
0.0
 10
5.8624336046
 20
5.9357702113
 30
0.0
 10
5.8619609469
 20
5.9353535477
 30
0.0
 10
5.8610844138
 20
5.9344884763
 30
0.0
 10
5.8601336598
 20
5.9333343637
 30
0.0
 10
5.8592197438
 20
5.9320213828
 30
0.0
 10
5.8585518007
 20
5.9308876669
 30
0.0
 10
5.857965324
 20
5.9296309488
 30
0.0
 10
5.8575825216
 20
5.9284933737
 30
0.0
 10
5.8573556203
 20
5.9275264
 30
0.0
 10
5.8572297005
 20
5.9267652066
 30
0.0
 10
5.8571578952
 20
5.9259797884
 30
0.0
 10
5.8571496851
 20
5.9248968992
 30
0.0
 10
5.8573356964
 20
5.9235145451
 30
0.0
 10
5.8577306898
 20
5.9224523717
 30
0.0
 10
5.8580052026
 20
5.9219560414
 30
0.0
  0
SPLINE
  5
251
100
AcDbEntity
  8
0
100
AcDbSpline
 62
7
  6
CONTINUOUS
 70
0
 71
3
 72
24
 73
20
 74
0
 42
0.0000001
 43
0.0000001
 44
0.0000000001
 40
0.0
 40
0.0
 40
0.0
 40
0.0
 40
0.062652609
 40
0.1252905581
 40
0.1878704527
 40
0.2503961748
 40
0.3128607337
 40
0.3752685211
 40
0.437635055
 40
0.4999790975
 40
0.5623236816
 40
0.5935120109
 40
0.6247092806
 40
0.6871201802
 40
0.7495885119
 40
0.8121204131
 40
0.8747068797
 40
0.9373459778
 40
1.0
 40
1.0
 40
1.0
 40
1.0
 10
5.8580052058
 20
5.9219561195
 30
0.0
 10
5.8546725759
 20
5.9221567684
 30
0.0
 10
5.84802234
 20
5.9228570025
 30
0.0
 10
5.838185919
 20
5.9247865153
 30
0.0
 10
5.8285663429
 20
5.9275844875
 30
0.0
 10
5.8192465474
 20
5.9312339184
 30
0.0
 10
5.8103014859
 20
5.9357041648
 30
0.0
 10
5.8018080401
 20
5.9409667728
 30
0.0
 10
5.7938399803
 20
5.9469852387
 30
0.0
 10
5.7864673559
 20
5.9537147426
 30
0.0
 10
5.7808768038
 20
5.9598765264
 30
0.0
 10
5.7767717262
 20
5.9651068278
 30
0.0
 10
5.7729199473
 20
5.9705307018
 30
0.0
 10
5.7685988109
 20
5.9776536357
 30
0.0
 10
5.7642662933
 20
5.9866691139
 30
0.0
 10
5.7608368024
 20
5.9960760192
 30
0.0
 10
5.7583544935
 20
6.0057858375
 30
0.0
 10
5.7568524433
 20
6.0157004396
 30
0.0
 10
5.756516187
 20
6.0223818731
 30
0.0
 10
5.7565156224
 20
6.025720613
 30
0.0
  0
SPLINE
  5
252
100
AcDbEntity
  8
0
100
AcDbSpline
 62
7
  6
CONTINUOUS
 70
0
 71
3
 72
27
 73
23
 74
0
 42
0.0000001
 43
0.0000001
 44
0.0000000001
 40
0.0
 40
0.0
 40
0.0
 40
0.0
 40
0.0919478785
 40
0.1812493429
 40
0.224703322
 40
0.2672985732
 40
0.3089678744
 40
0.3496748565
 40
0.4282171801
 40
0.5030452053
 40
0.5741559447
 40
0.6413326331
 40
0.7624556598
 40
0.8160640794
 40
0.8410260689
 40
0.8647155234
 40
0.9080304104
 40
0.9452777298
 40
0.9614055528
 40
0.9758403487
 40
0.9886559534
 40
1.0
 40
1.0
 40
1.0
 40
1.0
 10
5.857980105
 20
6.12948349
 30
0.0
 10
5.8577037327
 20
6.1289878721
 30
0.0
 10
5.8573057695
 20
6.1279260098
 30
0.0
 10
5.857118218
 20
6.1265430715
 30
0.0
 10
5.8571262351
 20
6.1254596608
 30
0.0
 10
5.8571982934
 20
6.1246738927
 30
0.0
 10
5.8573247516
 20
6.1239124204
 30
0.0
 10
5.8575527124
 20
6.1229451861
 30
0.0
 10
5.8579374593
 20
6.1218075006
 30
0.0
 10
5.8585269853
 20
6.1205511202
 30
0.0
 10
5.8591982467
 20
6.1194180056
 30
0.0
 10
5.8601163899
 20
6.118105684
 30
0.0
 10
5.861071011
 20
6.1169521062
 30
0.0
 10
5.8619506806
 20
6.1160875108
 30
0.0
 10
5.8624250259
 20
6.1156709924
 30
0.0
 10
5.8628659901
 20
6.1153134429
 30
0.0
 10
5.8633900691
 20
6.1149388565
 30
0.0
 10
5.8639074526
 20
6.1146387662
 30
0.0
 10
5.8642886325
 20
6.114465231
 30
0.0
 10
5.8645408419
 20
6.1143742694
 30
0.0
 10
5.8647726353
 20
6.1143173211
 30
0.0
 10
5.8649217631
 20
6.1143021529
 30
0.0
 10
5.8649917736
 20
6.1143018548
 30
0.0
  0
SPLINE
  5
253
100
AcDbEntity
  8
0
100
AcDbSpline
 62
7
  6
CONTINUOUS
 70
0
 71
3
 72
23
 73
19
 74
0
 42
0.0000001
 43
0.0000001
 44
0.0000000001
 40
0.0
 40
0.0
 40
0.0
 40
0.0
 40
0.0626552038
 40
0.1252954408
 40
0.1878831174
 40
0.2504162075
 40
0.3128857207
 40
0.3752977458
 40
0.4376666951
 40
0.500012354
 40
0.5623575346
 40
0.6247251411
 40
0.6871339623
 40
0.749599539
 40
0.812126269
 40
0.8747073893
 40
0.937346193
 40
1.0
 40
1.0
 40
1.0
 40
1.0
 10
5.7565156224
 20
6.025720613
 30
0.0
 10
5.756516127
 20
6.0290588319
 30
0.0
 10
5.7568520132
 20
6.0357392372
 30
0.0
 10
5.7583537448
 20
6.0456523104
 30
0.0
 10
5.7608355817
 20
6.0553606476
 30
0.0
 10
5.7642639391
 20
6.0647661913
 30
0.0
 10
5.7685951941
 20
6.0737809258
 30
0.0
 10
5.7737770713
 20
6.082324406
 30
0.0
 10
5.7797521619
 20
6.0903245699
 30
0.0
 10
5.7864582814
 20
6.0977174354
 30
0.0
 10
5.793829293
 20
6.1044468809
 30
0.0
 10
5.8017951192
 20
6.1104655177
 30
0.0
 10
5.8102863386
 20
6.1157287594
 30
0.0
 10
5.819229296
 20
6.1201996893
 30
0.0
 10
5.828547157
 20
6.1238496889
 30
0.0
 10
5.8381644859
 20
6.1266496035
 30
0.0
 10
5.8479989612
 20
6.1285810192
 30
0.0
 10
5.8546480436
 20
6.1292820148
 30
0.0
 10
5.85798011
 20
6.1294833658
 30
0.0
  0
SPLINE
  5
254
100
AcDbEntity
  8
0
100
AcDbSpline
 62
7
  6
CONTINUOUS
 70
0
 71
3
 72
27
 73
23
 74
0
 42
0.0000001
 43
0.0000001
 44
0.0000000001
 40
0.0
 40
0.0
 40
0.0
 40
0.0
 40
0.0101714546
 40
0.0217108616
 40
0.0490114038
 40
0.0651484219
 40
0.083139786
 40
0.1243049939
 40
0.1714409733
 40
0.2239936819
 40
0.2816906955
 40
0.3443654505
 40
0.4117621589
 40
0.483522056
 40
0.5594556862
 40
0.639594732
 40
0.6812828331
 40
0.7240584974
 40
0.7678603628
 40
0.8126346818
 40
0.9048749546
 40
1.0
 40
1.0
 40
1.0
 40
1.0
 10
5.8649913594
 20
6.1143018612
 30
0.0
 10
5.8650522827
 20
6.1143016014
 30
0.0
 10
5.8651824663
 20
6.1143153751
 30
0.0
 10
5.8654667731
 20
6.114391913
 30
0.0
 10
5.8657639477
 20
6.1145401573
 30
0.0
 10
5.8660755352
 20
6.1147354766
 30
0.0
 10
5.8664460355
 20
6.1149930287
 30
0.0
 10
5.8669452215
 20
6.1153893018
 30
0.0
 10
5.8675638857
 20
6.1159640505
 30
0.0
 10
5.8682084582
 20
6.1166529067
 30
0.0
 10
5.8688667577
 20
6.1174533628
 30
0.0
 10
5.8695324449
 20
6.1183604712
 30
0.0
 10
5.8701948759
 20
6.1193726577
 30
0.0
 10
5.8708190935
 20
6.1205013695
 30
0.0
 10
5.8713687792
 20
6.121752838
 30
0.0
 10
5.8717239761
 20
6.1228860113
 30
0.0
 10
5.8719320632
 20
6.1238502755
 30
0.0
 10
5.8720459545
 20
6.1246106452
 30
0.0
 10
5.8721068949
 20
6.1253958286
 30
0.0
 10
5.8721025615
 20
6.1264800282
 30
0.0
 10
5.8719059114
 20
6.1278646709
 30
0.0
 10
5.8715078437
 20
6.1289298604
 30
0.0
 10
5.8712314279
 20
6.1294280886
 30
0.0
  0
SPLINE
  5
255
100
AcDbEntity
  8
0
100
AcDbSpline
 62
7
  6
CONTINUOUS
 70
0
 71
3
 72
24
 73
20
 74
0
 42
0.0000001
 43
0.0000001
 44
0.0000000001
 40
0.0
 40
0.0
 40
0.0
 40
0.0
 40
0.0625329671
 40
0.1251066082
 40
0.1876722968
 40
0.2502260231
 40
0.312750246
 40
0.3752377899
 40
0.4376923476
 40
0.5001210826
 40
0.5625368868
 40
0.5937530412
 40
0.624971814
 40
0.6874047663
 40
0.749864939
 40
0.8123590681
 40
0.8748819739
 40
0.9374387384
 40
1.0
 40
1.0
 40
1.0
 40
1.0
 10
5.8712314134
 20
6.1294280325
 30
0.0
 10
5.8745359872
 20
6.1291998824
 30
0.0
 10
5.8811306269
 20
6.1284490752
 30
0.0
 10
5.890882805
 20
6.1264573939
 30
0.0
 10
5.9004222094
 20
6.1236085352
 30
0.0
 10
5.9096656215
 20
6.1199178776
 30
0.0
 10
5.918537771
 20
6.1154158634
 30
0.0
 10
5.9269609215
 20
6.1101304522
 30
0.0
 10
5.9348606581
 20
6.1040984446
 30
0.0
 10
5.9421666431
 20
6.0973653007
 30
0.0
 10
5.9477036732
 20
6.0912089903
 30
0.0
 10
5.9517673942
 20
6.0859885495
 30
0.0
 10
5.9555780844
 20
6.0805795426
 30
0.0
 10
5.9598504665
 20
6.0734831096
 30
0.0
 10
5.9641311431
 20
6.064510466
 30
0.0
 10
5.9675169963
 20
6.0551575476
 30
0.0
 10
5.969966106
 20
6.0455111495
 30
0.0
 10
5.9714474095
 20
6.035666841
 30
0.0
 10
5.9717789908
 20
6.029034552
 30
0.0
 10
5.9717795474
 20
6.025720613
 30
0.0
  0
ENDSEC
  0
SECTION
  2
OBJECTS
  0
DICTIONARY
  5
C
100
AcDbDictionary
280
0
281
1
  3
ACAD_GROUP
350
D
  3
ACAD_MLINESTYLE
350
17
  3
ACAD_LAYOUT
350
1A
  3
ACAD_PLOTSETTINGS
350
19
  3
ACAD_PLOTSTYLENAME
350
E
  0
DICTIONARY
  5
D
102
{ACAD_REACTORS
330
C
102
}
100
AcDbDictionary
280
0
281
1
  0
ACDBDICTIONARYWDFLT
  5
E
102
{ACAD_REACTORS
330
C
102
}
100
AcDbDictionary
281
1
  3
Normal
350
F
100
AcDbDictionaryWithDefault
340
F
  0
DICTIONARY
  5
17
102
{ACAD_REACTORS
330
C
102
}
100
AcDbDictionary
280
0
281
1
  3
Standard
350
18
  0
DICTIONARY
  5
19
102
{ACAD_REACTORS
330
C
102
}
100
AcDbDictionary
281
1
  0
DICTIONARY
  5
1A
102
{ACAD_REACTORS
330
C
102
}
100
AcDbDictionary
281
1
  3
Model
350
256
  3
Layout1
350
257
  0
ACDBPLACEHOLDER
  5
F
102
{ACAD_REACTORS
330
E
102
}
  0
MLINESTYLE
  5
18
102
{ACAD_REACTORS
330
17
102
}
100
AcDbMlineStyle
  2
STANDARD
 70
0
  3

 62
256
 51
90.0
 52
90.0
 71
2
 49
0.5
 62
256
  6
BYLAYER
 49
-0.5
 62
256
  6
BYLAYER
  0
LAYOUT
  5
256
102
{ACAD_REACTORS
330
1A
102
}
100
AcDbPlotSettings
  1

  2
none_device
  4
ANSI_A_(11.00_x_8.50_Inches)
  6

 40
0.0
 41
0.0
 42
0.0
 43
0.0
 44
279.4
 45
215.9
 46
0.0
 47
0.0
 48
0.0
 49
0.0
140
0.0
141
0.0
142
1.0
143
1.0
 70
1024
 72
0
 73
0
 74
0
  7

 75
0
147
1.0
148
0.0
149
0.0
100
AcDbLayout
  1
Model
 70
0
 71
0
 10
0.0
 20
0.0
 11
11.0
 21
8.5
 12
0.0
 22
0.0
 32
0.0
 14
0.0
 24
0.0
 34
0.0
 15
0.0
 25
0.0
 35
0.0
146
0.0
 13
0.0
 23
0.0
 33
0.0
 16
1.0
 26
0.0
 36
0.0
 17
0.0
 27
1.0
 37
0.0
 76
0
330
202
345
0
346
0
  0
LAYOUT
  5
257
102
{ACAD_REACTORS
330
1A
102
}
100
AcDbPlotSettings
  1

  2
none_device
  4
ANSI_A_(11.00_x_8.50_Inches)
  6

 40
0.0
 41
0.0
 42
0.0
 43
0.0
 44
279.4
 45
215.9
 46
0.0
 47
0.0
 48
0.0
 49
0.0
140
0.0
141
0.0
142
1.0
143
1.0
 70
0
 72
0
 73
0
 74
0
  7

 75
0
147
1.0
148
0.0
149
0.0
100
AcDbLayout
  1
Layout1
 70
0
 71
1
 10
0.0
 20
0.0
 11
11.0
 21
8.5
 12
0.0
 22
0.0
 32
0.0
 14
0.0
 24
0.0
 34
0.0
 15
0.0
 25
0.0
 35
0.0
146
0.0
 13
0.0
 23
0.0
 33
0.0
 16
1.0
 26
0.0
 36
0.0
 17
0.0
 27
1.0
 37
0.0
 76
0
330
203
345
0
346
0
  0
ENDSEC
  0
EOF
