999
DXF file: E:\BT Custom\CADOUTPUT\_RIGHT.dxf
999
Pro/ENGINEER 2018400 by Parametric Technology Corporation
  0
SECTION
  2
HEADER
  9
$ACADVER
  1
AC1018
  9
$DWGCODEPAGE
  3
ANSI_1252
  9
$EXTMAX
 10
22.0
 20
17.0
 30
0.0
  9
$EXTMIN
 10
0.0
 20
0.0
 30
0.0
  9
$LIMMIN
 10
0.0
 20
0.0
  9
$LIMMAX
 10
22.0
 20
17.0
  9
$VIEWCTR
 10
11.0
 20
8.5
  9
$VIEWSIZE
 40
17.0
  9
$CLAYER
  8
0
  9
$LTSCALE
 40
1.21
  9
$CELTYPE
  6
BYLAYER
  9
$DIMSCALE
 40
1.0
  9
$DIMASZ
 40
0.1
  9
$DIMEXO
 40
0.0625
  9
$DIMDLI
 40
0.836
  9
$DIMEXE
 40
0.125
  9
$DIMCEN
 40
0.198
  9
$DIMLFAC
 40
1.0
  9
$DIMBLK
  1
_FILLED
  9
$DIMALT
 70
1
  9
$DIMALTD
 70
2
  9
$DIMALTTD
 70
2
  9
$DIMALTF
 40
25.4
  9
$DIMTXT
 40
0.08
  9
$DIMTOL
 70
1
  9
$DIMLIM
 70
0
  9
$DIMTFAC
 40
1.0
  9
$DIMTP
 40
0.001
  9
$DIMTM
 40
0.001
  9
$DIMGAP
 40
0.09
  9
$DIMDSEP
 70
46
  9
$AUNITS
 70
0
  9
$PDMODE
 70
3
  9
$PDSIZE
 40
0.06
  9
$HANDSEED
  5
513
  9
$TILEMODE
 70
1
  9
$MEASUREMENT
 70
0
  9
$INSUNITS
 70
1
  0
ENDSEC
  0
SECTION
  2
CLASSES
  0
CLASS
  1
ACDBDICTIONARYWDFLT
  2
AcDbDictionaryWithDefault
  3
AutoCAD 2000
 90
0
 91
1
280
0
281
0
  0
CLASS
  1
ACDBPLACEHOLDER
  2
AcDbPlaceHolder
  3
AutoCAD 2000
 90
0
 91
1
280
0
281
0
  0
CLASS
  1
LAYOUT
  2
AcDbLayout
  3
AutoCAD 2000
 90
0
 91
0
280
0
281
0
  0
ENDSEC
  0
SECTION
  2
TABLES
  0
TABLE
  2
VPORT
  5
8
100
AcDbSymbolTable
 70
2
  0
VPORT
  5
1F4
100
AcDbSymbolTableRecord
100
AcDbViewportTableRecord
  2
*ACTIVE
 70
0
 10
0.0
 20
0.0
 11
1.0
 21
1.0
 12
11.0
 22
8.5
 13
0.0
 23
0.0
 14
1.0
 24
1.0
 15
0.0
 25
0.0
 16
0.0
 26
0.0
 36
1.0
 17
0.0
 27
0.0
 37
0.0
 40
17.0
 41
1.2941176471
 42
50.0
 43
0.0
 44
0.0
 50
0.0
 51
0.0
 71
0
 72
100
 73
1
 74
1
 75
0
 76
0
 77
0
 78
0
  0
ENDTAB
  0
TABLE
  2
LTYPE
  5
5
100
AcDbSymbolTable
 70
6
  0
LTYPE
  5
14
100
AcDbSymbolTableRecord
100
AcDbLinetypeTableRecord
  2
BYBLOCK
 70
0
  3

 72
65
 73
0
 40
0.0
  0
LTYPE
  5
15
100
AcDbSymbolTableRecord
100
AcDbLinetypeTableRecord
  2
BYLAYER
 70
0
  3

 72
65
 73
0
 40
0.0
  0
LTYPE
  5
16
100
AcDbSymbolTableRecord
100
AcDbLinetypeTableRecord
  2
CONTINUOUS
 70
64
  3
Solid line
 72
65
 73
0
 40
0.0
  0
LTYPE
  5
1F5
100
AcDbSymbolTableRecord
100
AcDbLinetypeTableRecord
  2
CENTER
 70
64
  3
____ _ ____ _ ____ _ ____ _ ____ _ ____ _ ____
 72
65
 73
4
 40
0.6
 49
0.375
 74
0
 49
-0.075
 74
0
 49
0.075
 74
0
 49
-0.075
 74
0
  0
LTYPE
  5
1F6
100
AcDbSymbolTableRecord
100
AcDbLinetypeTableRecord
  2
HIDDEN
 70
64
  3
- - - - - - - - - - - - - - - - - - - -
 72
65
 73
2
 40
0.2
 49
0.1
 74
0
 49
-0.1
 74
0
  0
LTYPE
  5
1F7
100
AcDbSymbolTableRecord
100
AcDbLinetypeTableRecord
  2
PHANTOM
 70
64
  3
_____ _ _ _____ _ _ _____ _ _ _____
 72
65
 73
6
 40
0.8
 49
0.45
 74
0
 49
-0.05
 74
0
 49
0.1
 74
0
 49
-0.05
 74
0
 49
0.1
 74
0
 49
-0.05
 74
0
  0
LTYPE
  5
1F8
100
AcDbSymbolTableRecord
100
AcDbLinetypeTableRecord
  2
DOT
 70
64
  3
. . . . . . . . . . . . . . . . . . . .
 72
65
 73
2
 40
0.2
 49
0.1
 74
0
 49
-0.1
 74
0
  0
LTYPE
  5
1F9
100
AcDbSymbolTableRecord
100
AcDbLinetypeTableRecord
  2
DASHED
 70
64
  3
- - - - - - - - - - - - - - - - - - - -
 72
65
 73
2
 40
0.2
 49
0.1
 74
0
 49
-0.1
 74
0
  0
ENDTAB
  0
TABLE
  2
LAYER
  5
2
100
AcDbSymbolTable
 70
36
  0
LAYER
  5
10
100
AcDbSymbolTableRecord
100
AcDbLayerTableRecord
  2
0
 70
0
 62
7
  6
CONTINUOUS
370
-3
390
F
  0
LAYER
  5
1FA
100
AcDbSymbolTableRecord
100
AcDbLayerTableRecord
  2
DEFAULT_1
 70
0
 62
7
  6
CENTER
370
-3
390
F
  0
LAYER
  5
1FB
100
AcDbSymbolTableRecord
100
AcDbLayerTableRecord
  2
DEFAULT_2
 70
0
 62
8
  6
HIDDEN
370
-3
390
F
  0
LAYER
  5
1FC
100
AcDbSymbolTableRecord
100
AcDbLayerTableRecord
  2
DEFAULT_3
 70
0
 62
7
  6
PHANTOM
370
-3
390
F
  0
LAYER
  5
1FD
100
AcDbSymbolTableRecord
100
AcDbLayerTableRecord
  2
ALL_FEATURES
 70
0
 62
7
  6
CONTINUOUS
370
-3
390
F
  0
LAYER
  5
1FE
100
AcDbSymbolTableRecord
100
AcDbLayerTableRecord
  2
AXES_FEATURES
 70
0
 62
7
  6
CONTINUOUS
370
-3
390
F
  0
LAYER
  5
1FF
100
AcDbSymbolTableRecord
100
AcDbLayerTableRecord
  2
DIMENSIONS
 70
0
 62
7
  6
CONTINUOUS
370
-3
390
F
  0
ENDTAB
  0
TABLE
  2
STYLE
  5
3
100
AcDbSymbolTable
 70
1
  0
STYLE
  5
11
100
AcDbSymbolTableRecord
100
AcDbTextStyleTableRecord
  2
STANDARD
 70
0
 40
0.0
 41
0.8
 50
0.0
 71
0
 42
0.2
  3
txt
  4

  0
STYLE
  5
200
100
AcDbSymbolTableRecord
100
AcDbTextStyleTableRecord
  2
TEXTSTYLE_1
 70
0
 40
0.0
 41
0.8
 50
0.0
 71
0
 42
0.2
  3
gdt
  4

  0
ENDTAB
  0
TABLE
  2
VIEW
  5
6
100
AcDbSymbolTable
 70
0
  0
ENDTAB
  0
TABLE
  2
UCS
  5
7
100
AcDbSymbolTable
 70
0
  0
ENDTAB
  0
TABLE
  2
APPID
  5
9
100
AcDbSymbolTable
 70
1
  0
APPID
  5
201
100
AcDbSymbolTableRecord
100
AcDbRegAppTableRecord
  2
ACAD
 70
0
  0
ENDTAB
  0
TABLE
  2
BLOCK_RECORD
  5
1
100
AcDbSymbolTable
 70
0
  0
BLOCK_RECORD
  5
202
100
AcDbSymbolTableRecord
100
AcDbBlockTableRecord
  2
*Model_Space
  0
BLOCK_RECORD
  5
203
100
AcDbSymbolTableRecord
100
AcDbBlockTableRecord
  2
*Paper_Space
  0
BLOCK_RECORD
  5
204
100
AcDbSymbolTableRecord
100
AcDbBlockTableRecord
  2
_FILLED
  0
ENDTAB
  0
TABLE
  2
DIMSTYLE
  5
A
100
AcDbSymbolTable
 70
1
100
AcDbDimStyleTable
 71
0
  0
DIMSTYLE
105
205
100
AcDbSymbolTableRecord
100
AcDbDimStyleTableRecord
  2
STANDARD
 70
0
  3

  4

 40
1.0
 41
0.1
 42
0.0625
 43
0.38
 44
0.125
 45
0.0
 46
0.0
 47
0.001
 48
0.001
140
0.08
141
0.09
142
0.0
143
25.4
144
1.0
145
0.0
146
1.0
147
0.09
 71
1.0
 72
0.0
 73
1
 74
1
 75
0
 76
0
 77
0
 78
4
 79
1
170
1
171
2
172
0
173
0
174
0
175
0
176
0
177
0
178
0
270
2
179
3
271
3
272
3
273
2
274
2
275
0
280
0
281
0
282
0
283
1
284
4
285
0
286
0
287
3
288
0
340
11
278
46
341
204
342
204
343
204
344
204
  0
ENDTAB
  0
ENDSEC
  0
SECTION
  2
BLOCKS
  0
BLOCK
  5
20
100
AcDbEntity
  8
0
100
AcDbBlockBegin
  2
*Model_Space
 70
0
 10
0.0
 20
0.0
 30
0.0
  3
*Model_Space
  1

  0
ENDBLK
  5
21
100
AcDbEntity
  8
0
100
AcDbBlockEnd
  0
BLOCK
  5
1C
100
AcDbEntity
  8
0
100
AcDbBlockBegin
  2
*Paper_Space
 70
0
 10
0.0
 20
0.0
 30
0.0
  3
*Paper_Space
  1

  0
ENDBLK
  5
1D
100
AcDbEntity
  8
0
100
AcDbBlockEnd
  0
BLOCK
  5
206
100
AcDbEntity
  8
0
100
AcDbBlockBegin
  2
_FILLED
 70
64
 10
0.0
 20
0.0
  3
_FILLED
  1

  0
SOLID
  5
207
100
AcDbEntity
  8
0
  6
BYBLOCK
 62
0
100
AcDbTrace
 10
0.0
 20
0.0
 11
-1.0
 21
0.2
 12
-1.0
 22
-0.2
 13
-1.0
 23
-0.2
  0
ENDBLK
  5
208
100
AcDbEntity
  8
0
  6
BYBLOCK
 62
0
100
AcDbBlockEnd
  0
ENDSEC
  0
SECTION
  2
ENTITIES
  0
LINE
  5
209
100
AcDbEntity
  8
0
100
AcDbLine
 62
9
  6
CONTINUOUS
 10
12.6417059587
 20
-1.6049743377
 11
13.1817059587
 21
-1.6049743377
  0
LINE
  5
20A
100
AcDbEntity
  8
0
100
AcDbLine
 62
7
  6
CONTINUOUS
 10
13.2822812948
 20
19.8957519627
 11
13.3052486322
 21
19.9174257152
  0
LINE
  5
20B
100
AcDbEntity
  8
0
100
AcDbLine
 62
7
  6
CONTINUOUS
 10
13.3050395444
 20
19.9172417987
 11
13.3050342482
 21
19.9172371421
  0
LINE
  5
20C
100
AcDbEntity
  8
0
100
AcDbLine
 62
7
  6
CONTINUOUS
 10
12.5203859993
 20
18.8190363881
 11
12.5202741091
 21
18.8189390006
  0
LINE
  5
20D
100
AcDbEntity
  8
0
100
AcDbLine
 62
7
  6
CONTINUOUS
 10
12.5269646975
 20
18.8266522154
 11
12.5053805046
 21
18.8094778487
  0
LINE
  5
20E
100
AcDbEntity
  8
0
100
AcDbLine
 62
7
  6
CONTINUOUS
 10
12.5396304012
 20
17.4128229813
 11
12.6417059587
 21
17.4717563319
  0
LINE
  5
20F
100
AcDbEntity
  8
0
100
AcDbLine
 62
7
  6
CONTINUOUS
 10
5.4242059587
 20
9.041538337
 11
5.4242059587
 21
9.0661369167
  0
LINE
  5
210
100
AcDbEntity
  8
0
100
AcDbLine
 62
7
  6
CONTINUOUS
 10
13.2423882485
 20
19.8496427511
 11
13.2822812948
 21
19.8957519627
  0
LINE
  5
211
100
AcDbEntity
  8
0
100
AcDbLine
 62
7
  6
CONTINUOUS
 10
12.5055729123
 20
18.8096394939
 11
12.5008888547
 21
18.8052392155
  0
LINE
  5
212
100
AcDbEntity
  8
0
100
AcDbLine
 62
7
  6
CONTINUOUS
 10
13.2837815163
 20
16.8032283433
 11
13.1817059587
 21
16.7442949927
  0
LINE
  5
213
100
AcDbEntity
  8
0
100
AcDbLine
 62
9
  6
CONTINUOUS
 10
5.9117059587
 20
9.041538337
 11
5.9117059587
 21
9.2684680275
  0
LINE
  5
214
100
AcDbEntity
  8
0
100
AcDbLine
 62
7
  6
CONTINUOUS
 10
6.3992059587
 20
9.041538337
 11
6.3992059587
 21
9.0661369167
  0
LINE
  5
215
100
AcDbEntity
  8
0
100
AcDbLine
 62
7
  6
CONTINUOUS
 10
13.2313746347
 20
19.8342724193
 11
13.2422338821
 21
19.8494382874
  0
LINE
  5
216
100
AcDbEntity
  8
0
100
AcDbLine
 62
7
  6
CONTINUOUS
 10
13.2332123125
 20
19.8369446496
 11
13.2423745845
 21
19.8496211753
  0
LINE
  5
217
100
AcDbEntity
  8
0
100
AcDbLine
 62
7
  6
CONTINUOUS
 10
13.2422338821
 20
19.8494382874
 11
13.2423874026
 21
19.8496416265
  0
LINE
  5
218
100
AcDbEntity
  8
0
100
AcDbLine
 62
7
  6
CONTINUOUS
 10
12.5297145767
 20
18.8298267119
 11
12.5203111005
 21
18.8189712158
  0
LINE
  5
219
100
AcDbEntity
  8
0
100
AcDbLine
 62
7
  6
CONTINUOUS
 10
12.3943367898
 20
14.6726381597
 11
12.3355274109
 21
14.6452148959
  0
LINE
  5
21A
100
AcDbEntity
  8
0
100
AcDbLine
 62
7
  6
CONTINUOUS
 10
13.2100000388
 20
19.7994532196
 11
13.2313746347
 21
19.8342724193
  0
LINE
  5
21B
100
AcDbEntity
  8
0
100
AcDbLine
 62
7
  6
CONTINUOUS
 10
13.2134590245
 20
19.8055939716
 11
13.2332123125
 21
19.8369446496
  0
LINE
  5
21C
100
AcDbEntity
  8
0
100
AcDbLine
 62
7
  6
CONTINUOUS
 10
12.5331701159
 20
18.8349244526
 11
12.5293457538
 21
18.8293291914
  0
LINE
  5
21D
100
AcDbEntity
  8
0
100
AcDbLine
 62
7
  6
CONTINUOUS
 10
9.7911941477
 20
13.2397579458
 11
9.7811941477
 21
13.2297579458
  0
LINE
  5
21E
100
AcDbEntity
  8
0
100
AcDbLine
 62
7
  6
CONTINUOUS
 10
12.5562623956
 20
18.8841906471
 11
12.5331701159
 21
18.8349244526
  0
LINE
  5
21F
100
AcDbEntity
  8
0
100
AcDbLine
 62
7
  6
CONTINUOUS
 10
13.1924026422
 20
19.7641915242
 11
13.2100000388
 21
19.7994532196
  0
LINE
  5
220
100
AcDbEntity
  8
0
100
AcDbLine
 62
7
  6
CONTINUOUS
 10
13.1921003216
 20
19.7635107178
 11
13.2134590245
 21
19.8055939716
  0
LINE
  5
221
100
AcDbEntity
  8
0
100
AcDbLine
 62
7
  6
CONTINUOUS
 10
12.5008888547
 20
18.8052392155
 11
12.4863700377
 21
18.7795694134
  0
LINE
  5
222
100
AcDbEntity
  8
0
100
AcDbLine
 62
7
  6
CONTINUOUS
 10
13.2154348432
 20
17.9708491283
 11
13.3393660758
 21
18.1616864913
  0
LINE
  5
223
100
AcDbEntity
  8
0
100
AcDbLine
 62
7
  6
CONTINUOUS
 10
13.5471783997
 20
13.6297579458
 11
13.6640918292
 21
13.6972579458
  0
LINE
  5
224
100
AcDbEntity
  8
0
100
AcDbLine
 62
7
  6
CONTINUOUS
 10
13.1918797507
 20
19.7630156919
 11
13.1921003216
 21
19.7635107178
  0
LWPOLYLINE
  5
225
100
AcDbEntity
  8
0
100
AcDbPolyline
 62
7
  6
CONTINUOUS
 90
3
 70
0
 10
12.5569832643
 20
18.8862255494
 10
12.5336164233
 20
18.8356033388
 10
12.5297145767
 20
18.8298267119
  0
LWPOLYLINE
  5
226
100
AcDbEntity
  8
0
100
AcDbPolyline
 62
7
  6
CONTINUOUS
 90
4
 70
0
 10
15.9757778203
 20
8.0597579458
 10
15.9861963133
 20
8.062685893
 10
15.9935564905
 20
8.0705972233
 10
15.9957678534
 20
8.0791266667
  0
LINE
  5
227
100
AcDbEntity
  8
0
100
AcDbLine
 62
7
  6
CONTINUOUS
 10
9.7811941477
 20
13.2297579458
 11
9.7811941477
 21
12.8897579458
  0
LINE
  5
228
100
AcDbEntity
  8
0
100
AcDbLine
 62
7
  6
CONTINUOUS
 10
9.7911941477
 20
12.8797579458
 11
9.7911941477
 21
13.2397579458
  0
LINE
  5
229
100
AcDbEntity
  8
0
100
AcDbLine
 62
7
  6
CONTINUOUS
 10
9.8471941477
 20
13.3317579458
 11
9.8471941477
 21
12.7877579458
  0
LINE
  5
22A
100
AcDbEntity
  8
0
100
AcDbLine
 62
7
  6
CONTINUOUS
 10
9.8711941477
 20
13.3432579458
 11
9.8711941477
 21
13.0806234041
  0
LINE
  5
22B
100
AcDbEntity
  8
0
100
AcDbLine
 62
7
  6
CONTINUOUS
 10
9.8711941477
 20
13.0388924875
 11
9.8711941477
 21
12.7762579458
  0
LINE
  5
22C
100
AcDbEntity
  8
0
100
AcDbLine
 62
9
  6
CONTINUOUS
 10
9.9181941477
 20
13.3902579458
 11
9.9181941477
 21
13.2464564905
  0
LINE
  5
22D
100
AcDbEntity
  8
0
100
AcDbLine
 62
9
  6
CONTINUOUS
 10
9.9181941477
 20
12.8730594011
 11
9.9181941477
 21
12.7292579458
  0
LINE
  5
22E
100
AcDbEntity
  8
0
100
AcDbLine
 62
7
  6
CONTINUOUS
 10
12.5809557595
 20
18.9746634595
 11
12.5562623956
 21
18.8841906471
  0
LINE
  5
22F
100
AcDbEntity
  8
0
100
AcDbLine
 62
7
  6
CONTINUOUS
 10
13.1817059587
 20
19.7339543296
 11
13.1919501084
 21
19.763178482
  0
LINE
  5
230
100
AcDbEntity
  8
0
100
AcDbLine
 62
7
  6
CONTINUOUS
 10
12.3417059587
 20
14.4980256623
 11
12.2742059587
 21
14.3811122328
  0
LINE
  5
231
100
AcDbEntity
  8
0
100
AcDbLine
 62
7
  6
CONTINUOUS
 10
14.1271783997
 20
12.4897579458
 11
14.0102649702
 21
12.4222579458
  0
LINE
  5
232
100
AcDbEntity
  8
0
100
AcDbLine
 62
7
  6
CONTINUOUS
 10
14.0645857856
 20
8.0597579458
 11
15.9757710138
 21
8.0597579458
  0
LINE
  5
233
100
AcDbEntity
  8
0
100
AcDbLine
 62
7
  6
CONTINUOUS
 10
9.9891941477
 20
12.7292579458
 11
9.9891941477
 21
12.7771414505
  0
LINE
  5
234
100
AcDbEntity
  8
0
100
AcDbLine
 62
7
  6
CONTINUOUS
 10
9.9891941477
 20
13.342374441
 11
9.9891941477
 21
13.3902579458
  0
LINE
  5
235
100
AcDbEntity
  8
0
100
AcDbLine
 62
9
  6
CONTINUOUS
 10
10.4979023668
 20
13.4362152187
 11
10.4979023668
 21
13.3827746426
  0
LINE
  5
236
100
AcDbEntity
  8
0
100
AcDbLine
 62
9
  6
CONTINUOUS
 10
10.4979023668
 20
12.7367412489
 11
10.4979023668
 21
12.6833006728
  0
LINE
  5
237
100
AcDbEntity
  8
0
100
AcDbLine
 62
7
  6
CONTINUOUS
 10
10.7281626517
 20
13.3747579458
 11
10.7281626517
 21
13.3622600576
  0
LINE
  5
238
100
AcDbEntity
  8
0
100
AcDbLine
 62
7
  6
CONTINUOUS
 10
10.7281626517
 20
12.7582579458
 11
10.7281626517
 21
12.7447579458
  0
LINE
  5
239
100
AcDbEntity
  8
0
100
AcDbLine
 62
9
  6
CONTINUOUS
 10
10.7584776123
 20
12.7447579458
 11
10.7584776123
 21
12.7545179775
  0
LINE
  5
23A
100
AcDbEntity
  8
0
100
AcDbLine
 62
9
  6
CONTINUOUS
 10
10.7584776123
 20
13.3586856158
 11
10.7584776123
 21
13.3747579458
  0
LINE
  5
23B
100
AcDbEntity
  8
0
100
AcDbLine
 62
7
  6
CONTINUOUS
 10
10.7781626517
 20
13.4249445141
 11
10.7781626517
 21
13.366775743
  0
LINE
  5
23C
100
AcDbEntity
  8
0
100
AcDbLine
 62
7
  6
CONTINUOUS
 10
10.7781626517
 20
12.7527401486
 11
10.7781626517
 21
12.6945713774
  0
LINE
  5
23D
100
AcDbEntity
  8
0
100
AcDbLine
 62
7
  6
CONTINUOUS
 10
13.4817059587
 20
13.9180256623
 11
13.5473672911
 21
14.031754426
  0
LINE
  5
23E
100
AcDbEntity
  8
0
100
AcDbLine
 62
7
  6
CONTINUOUS
 10
5.4242059587
 20
9.041538337
 11
6.3992059587
 21
9.041538337
  0
LINE
  5
23F
100
AcDbEntity
  8
0
100
AcDbLine
 62
9
  6
CONTINUOUS
 10
6.3992059587
 20
9.0661369167
 11
5.4242059587
 21
9.0661369167
  0
LINE
  5
240
100
AcDbEntity
  8
0
100
AcDbLine
 62
7
  6
CONTINUOUS
 10
14.0539614905
 20
8.0628089376
 11
14.064578981
 21
8.0597579458
  0
LINE
  5
241
100
AcDbEntity
  8
0
100
AcDbLine
 62
7
  6
CONTINUOUS
 10
10.8581626517
 20
13.5797444753
 11
10.8581626517
 21
13.3914529572
  0
LINE
  5
242
100
AcDbEntity
  8
0
100
AcDbLine
 62
7
  6
CONTINUOUS
 10
10.8581626517
 20
12.7280629343
 11
10.8581626517
 21
12.5397579458
  0
LINE
  5
243
100
AcDbEntity
  8
0
100
AcDbLine
 62
9
  6
CONTINUOUS
 10
10.8881626517
 20
13.6097579458
 11
10.8881626517
 21
13.4059574415
  0
LINE
  5
244
100
AcDbEntity
  8
0
100
AcDbLine
 62
9
  6
CONTINUOUS
 10
10.8881626517
 20
12.7135584501
 11
10.8881626517
 21
12.5097579458
  0
LINE
  5
245
100
AcDbEntity
  8
0
100
AcDbLine
 62
7
  6
CONTINUOUS
 10
10.9011941477
 20
13.4122579458
 11
10.9011941477
 21
12.7072579458
  0
LINE
  5
246
100
AcDbEntity
  8
0
100
AcDbLine
 62
7
  6
CONTINUOUS
 10
10.9511941477
 20
12.7072579458
 11
10.9511941477
 21
13.4122579458
  0
LINE
  5
247
100
AcDbEntity
  8
0
100
AcDbLine
 62
7
  6
CONTINUOUS
 10
10.9711941477
 20
13.4272579458
 11
10.9711941477
 21
12.6922579458
  0
LINE
  5
248
100
AcDbEntity
  8
0
100
AcDbLine
 62
9
  6
CONTINUOUS
 10
11.0151657359
 20
13.4768931979
 11
11.0151657359
 21
12.6426226937
  0
LINE
  5
249
100
AcDbEntity
  8
0
100
AcDbLine
 62
7
  6
CONTINUOUS
 10
11.6581626517
 20
12.5097579458
 11
11.6581626517
 21
12.5645279919
  0
LINE
  5
24A
100
AcDbEntity
  8
0
100
AcDbLine
 62
7
  6
CONTINUOUS
 10
11.6581626517
 20
13.5549878996
 11
11.6581626517
 21
13.6097579458
  0
LINE
  5
24B
100
AcDbEntity
  8
0
100
AcDbLine
 62
9
  6
CONTINUOUS
 10
12.3517633107
 20
20.9066460636
 11
12.3517451419
 21
20.906438208
  0
LINE
  5
24C
100
AcDbEntity
  8
0
100
AcDbLine
 62
9
  6
CONTINUOUS
 10
12.3716667756
 20
20.9082026583
 11
12.3716849445
 21
20.9084105139
  0
LINE
  5
24D
100
AcDbEntity
  8
0
100
AcDbLine
 62
7
  6
CONTINUOUS
 10
12.0714125528
 20
19.6413843598
 11
12.1193909858
 21
20.0676566435
  0
LWPOLYLINE
  5
24E
100
AcDbEntity
  8
0
100
AcDbPolyline
 62
7
  6
CONTINUOUS
 90
4
 70
0
 10
12.6417059587
 20
19.2982056408
 10
12.6298179554
 20
19.2259861589
 10
12.6047729349
 20
19.0914865315
 10
12.5809557595
 20
18.9746634595
  0
LINE
  5
24F
100
AcDbEntity
  8
0
100
AcDbLine
 62
7
  6
CONTINUOUS
 10
12.2681387018
 20
13.9034408865
 11
12.2438537166
 21
13.8049056135
  0
LINE
  5
250
100
AcDbEntity
  8
0
100
AcDbLine
 62
9
  6
CONTINUOUS
 10
6.3322734613
 20
9.1595111879
 11
5.4911384561
 21
9.1595111879
  0
LINE
  5
251
100
AcDbEntity
  8
0
100
AcDbLine
 62
9
  6
CONTINUOUS
 10
5.9188759554
 20
9.2684193631
 11
5.9117345294
 21
9.2684677104
  0
LINE
  5
252
100
AcDbEntity
  8
0
100
AcDbLine
 62
7
  6
CONTINUOUS
 10
11.6967453288
 20
13.6097579458
 11
11.6967453288
 21
13.5596739294
  0
LINE
  5
253
100
AcDbEntity
  8
0
100
AcDbLine
 62
7
  6
CONTINUOUS
 10
11.6967453288
 20
12.5598419622
 11
11.6967453288
 21
12.5097579458
  0
LINE
  5
254
100
AcDbEntity
  8
0
100
AcDbLine
 62
7
  6
CONTINUOUS
 10
11.8717059587
 20
19.0997579458
 11
11.8717059587
 21
19.1807823535
  0
LINE
  5
255
100
AcDbEntity
  8
0
100
AcDbLine
 62
9
  6
CONTINUOUS
 10
11.8981941477
 20
12.535375149
 11
11.8981941477
 21
13.5841407426
  0
LINE
  5
256
100
AcDbEntity
  8
0
100
AcDbLine
 62
7
  6
CONTINUOUS
 10
12.0867059587
 20
19.082392219
 11
12.0867059587
 21
19.0877579458
  0
LINE
  5
257
100
AcDbEntity
  8
0
100
AcDbLine
 62
9
  6
CONTINUOUS
 10
12.130173529
 20
13.6537579458
 11
12.130173529
 21
13.5112612247
  0
LINE
  5
258
100
AcDbEntity
  8
0
100
AcDbLine
 62
9
  6
CONTINUOUS
 10
12.130173529
 20
13.2022546668
 11
12.130173529
 21
12.9172612247
  0
LINE
  5
259
100
AcDbEntity
  8
0
100
AcDbLine
 62
9
  6
CONTINUOUS
 10
12.130173529
 20
12.6082546668
 11
12.130173529
 21
12.4657579458
  0
LINE
  5
25A
100
AcDbEntity
  8
0
100
AcDbLine
 62
7
  6
CONTINUOUS
 10
12.2742059587
 20
14.3811122328
 11
12.2742059587
 21
14.0349390918
  0
LINE
  5
25B
100
AcDbEntity
  8
0
100
AcDbLine
 62
7
  6
CONTINUOUS
 10
12.2742623672
 20
20.8219775089
 11
12.2742623672
 21
20.8170945557
  0
LINE
  5
25C
100
AcDbEntity
  8
0
100
AcDbLine
 62
7
  6
CONTINUOUS
 10
12.2811941477
 20
12.5132579458
 11
12.2811941477
 21
13.6062579458
  0
LINE
  5
25D
100
AcDbEntity
  8
0
100
AcDbLine
 62
7
  6
CONTINUOUS
 10
12.2815606294
 20
14.3811122328
 11
12.2815606294
 21
14.0349390918
  0
LINE
  5
25E
100
AcDbEntity
  8
0
100
AcDbLine
 62
7
  6
CONTINUOUS
 10
12.2817059587
 20
19.0236382191
 11
12.2817059587
 21
19.0312264652
  0
LINE
  5
25F
100
AcDbEntity
  8
0
100
AcDbLine
 62
7
  6
CONTINUOUS
 10
12.3182059587
 20
14.6180256623
 11
12.3182059587
 21
14.5030256623
  0
LINE
  5
260
100
AcDbEntity
  8
0
100
AcDbLine
 62
9
  6
CONTINUOUS
 10
12.3246887205
 20
12.5410900989
 11
12.3246894935
 21
13.5784259101
  0
LINE
  5
261
100
AcDbEntity
  8
0
100
AcDbLine
 62
7
  6
CONTINUOUS
 10
12.3417059587
 20
11.911902625
 11
12.3417059587
 21
11.8684193631
  0
LINE
  5
262
100
AcDbEntity
  8
0
100
AcDbLine
 62
9
  6
CONTINUOUS
 10
12.3517451419
 20
20.906438208
 11
12.3517451419
 21
20.9015552548
  0
LINE
  5
263
100
AcDbEntity
  8
0
100
AcDbLine
 62
9
  6
CONTINUOUS
 10
12.3716667756
 20
20.9033197051
 11
12.3716667756
 21
20.9082026583
  0
LINE
  5
264
100
AcDbEntity
  8
0
100
AcDbLine
 62
7
  6
CONTINUOUS
 10
12.4567059587
 20
18.9684107588
 11
12.4567059587
 21
18.9759990049
  0
LINE
  5
265
100
AcDbEntity
  8
0
100
AcDbLine
 62
7
  6
CONTINUOUS
 10
12.4617059587
 20
16.9381542606
 11
12.4617059587
 21
17.277910853
  0
LINE
  5
266
100
AcDbEntity
  8
0
100
AcDbLine
 62
9
  6
CONTINUOUS
 10
12.4638509445
 20
20.831240873
 11
12.4638509445
 21
20.8263579198
  0
LINE
  5
267
100
AcDbEntity
  8
0
100
AcDbLine
 62
7
  6
CONTINUOUS
 10
12.5130131084
 20
14.0349390918
 11
12.5130131084
 21
14.3811122328
  0
LINE
  5
268
100
AcDbEntity
  8
0
100
AcDbLine
 62
7
  6
CONTINUOUS
 10
12.4863700377
 20
18.7795694134
 11
12.4849800815
 21
18.7544589709
  0
LINE
  5
269
100
AcDbEntity
  8
0
100
AcDbLine
 62
7
  6
CONTINUOUS
 10
13.3351480022
 20
20.5520630206
 11
13.359560973
 21
20.831240873
  0
LINE
  5
26A
100
AcDbEntity
  8
0
100
AcDbLine
 62
9
  6
CONTINUOUS
 10
13.4442279165
 20
20.8129297058
 11
13.399785986
 21
20.313596996
  0
LINE
  5
26B
100
AcDbEntity
  8
0
100
AcDbLine
 62
9
  6
CONTINUOUS
 10
13.4197076198
 20
20.3118325457
 11
13.4641495503
 21
20.8111652555
  0
LINE
  5
26C
100
AcDbEntity
  8
0
100
AcDbLine
 62
7
  6
CONTINUOUS
 10
13.5488164938
 20
20.8095956419
 11
13.5043745633
 21
20.3102629322
  0
LINE
  5
26D
100
AcDbEntity
  8
0
100
AcDbLine
 62
7
  6
CONTINUOUS
 10
6.8883179138
 20
9.8065284309
 11
12.42724904
 21
10.6838089374
  0
LINE
  5
26E
100
AcDbEntity
  8
0
100
AcDbLine
 62
7
  6
CONTINUOUS
 10
14.0465934382
 20
8.0710103634
 11
14.0539614905
 21
8.0628089376
  0
LINE
  5
26F
100
AcDbEntity
  8
0
100
AcDbLine
 62
7
  6
CONTINUOUS
 10
12.3190373542
 20
20.3102629322
 11
12.2745954237
 21
20.8095956419
  0
LINE
  5
270
100
AcDbEntity
  8
0
100
AcDbLine
 62
9
  6
CONTINUOUS
 10
12.4037042977
 20
20.3118325457
 11
12.3592623672
 21
20.8111652555
  0
LINE
  5
271
100
AcDbEntity
  8
0
100
AcDbLine
 62
9
  6
CONTINUOUS
 10
12.379184001
 20
20.8129297058
 11
12.4236259315
 21
20.313596996
  0
LINE
  5
272
100
AcDbEntity
  8
0
100
AcDbLine
 62
7
  6
CONTINUOUS
 10
12.2745954237
 20
20.8095956419
 11
12.2742623672
 21
20.8170945557
  0
LINE
  5
273
100
AcDbEntity
  8
0
100
AcDbLine
 62
9
  6
CONTINUOUS
 10
12.4638493255
 20
20.8312773968
 11
12.4638509445
 21
20.831240873
  0
LINE
  5
274
100
AcDbEntity
  8
0
100
AcDbLine
 62
7
  6
CONTINUOUS
 10
12.4963489329
 20
18.227662086
 11
12.4872306268
 21
18.7291689176
  0
LINE
  5
275
100
AcDbEntity
  8
0
100
AcDbLine
 62
7
  6
CONTINUOUS
 10
12.6417059587
 20
20.3980256623
 11
12.6417059587
 21
-2.6423551111
  0
LINE
  5
276
100
AcDbEntity
  8
0
100
AcDbLine
 62
7
  6
CONTINUOUS
 10
13.1817059587
 20
20.3980256623
 11
13.1817059587
 21
-2.6423551111
  0
LINE
  5
277
100
AcDbEntity
  8
0
100
AcDbLine
 62
7
  6
CONTINUOUS
 10
13.3103988091
 20
14.3811122328
 11
13.3103988091
 21
14.0349390918
  0
LINE
  5
278
100
AcDbEntity
  8
0
100
AcDbLine
 62
9
  6
CONTINUOUS
 10
13.359560973
 20
20.8263579198
 11
13.359560973
 21
20.831240873
  0
LINE
  5
279
100
AcDbEntity
  8
0
100
AcDbLine
 62
7
  6
CONTINUOUS
 10
13.3617059587
 20
17.277897064
 11
13.3617059587
 21
16.9381404717
  0
LINE
  5
27A
100
AcDbEntity
  8
0
100
AcDbLine
 62
7
  6
CONTINUOUS
 10
13.3667059587
 20
18.9684107588
 11
13.3667059587
 21
18.9759990049
  0
LINE
  5
27B
100
AcDbEntity
  8
0
100
AcDbLine
 62
7
  6
CONTINUOUS
 10
13.3270629846
 20
18.227662086
 11
13.3361812885
 21
18.7291688005
  0
LINE
  5
27C
100
AcDbEntity
  8
0
100
AcDbLine
 62
7
  6
CONTINUOUS
 10
13.3384341994
 20
18.7544739713
 11
13.338879331
 21
18.7695577654
  0
LWPOLYLINE
  5
27D
100
AcDbEntity
  8
0
100
AcDbPolyline
 62
7
  6
CONTINUOUS
 90
3
 70
0
 10
13.3361812884
 20
18.7291687976
 10
13.3363219336
 20
18.7337267645
 10
13.3383418778
 20
18.7538916712
  0
LINE
  5
27E
100
AcDbEntity
  8
0
100
AcDbLine
 62
9
  6
CONTINUOUS
 10
13.359560973
 20
20.831240873
 11
13.3595625919
 21
20.8312773968
  0
LINE
  5
27F
100
AcDbEntity
  8
0
100
AcDbLine
 62
7
  6
CONTINUOUS
 10
13.5491495503
 20
20.8170945557
 11
13.5488164938
 21
20.8095956419
  0
LINE
  5
280
100
AcDbEntity
  8
0
100
AcDbLine
 62
7
  6
CONTINUOUS
 10
15.9757778203
 20
8.0597579458
 11
15.9862799421
 21
8.0627757841
  0
LINE
  5
281
100
AcDbEntity
  8
0
100
AcDbLine
 62
9
  6
CONTINUOUS
 10
6.7894569543
 20
10.12417702
 11
12.3664812197
 21
11.2519093264
  0
LINE
  5
282
100
AcDbEntity
  8
0
100
AcDbLine
 62
7
  6
CONTINUOUS
 10
11.9371104564
 20
11.3776057714
 11
6.6720205814
 21
10.3541759738
  0
LINE
  5
283
100
AcDbEntity
  8
0
100
AcDbLine
 62
7
  6
CONTINUOUS
 10
9.7911941477
 20
12.8797579458
 11
9.7811941477
 21
12.8897579458
  0
LWPOLYLINE
  5
284
100
AcDbEntity
  8
0
100
AcDbPolyline
 62
7
  6
CONTINUOUS
 90
3
 70
0
 10
12.4850684305
 20
18.7539019939
 10
12.4870902013
 20
18.7337218393
 10
12.4872306269
 20
18.7291689146
  0
LINE
  5
285
100
AcDbEntity
  8
0
100
AcDbLine
 62
7
  6
CONTINUOUS
 10
12.4882639153
 20
20.5520630206
 11
12.4638509445
 21
20.831240873
  0
LINE
  5
286
100
AcDbEntity
  8
0
100
AcDbLine
 62
7
  6
CONTINUOUS
 10
14.0445957828
 20
8.0791373521
 11
14.0414790441
 21
8.2083835538
  0
LINE
  5
287
100
AcDbEntity
  8
0
100
AcDbLine
 62
7
  6
CONTINUOUS
 10
14.0414790441
 20
8.2083835538
 11
14.0414762604
 21
8.2119767847
  0
LINE
  5
288
100
AcDbEntity
  8
0
100
AcDbLine
 62
9
  6
CONTINUOUS
 10
13.4517451419
 20
20.9082026583
 11
13.4517451419
 21
20.9033197051
  0
LINE
  5
289
100
AcDbEntity
  8
0
100
AcDbLine
 62
9
  6
CONTINUOUS
 10
13.4716667756
 20
20.9015552548
 11
13.4716667756
 21
20.906438208
  0
LINE
  5
28A
100
AcDbEntity
  8
0
100
AcDbLine
 62
9
  6
CONTINUOUS
 10
13.4987231971
 20
13.5784257926
 11
13.4987224251
 21
12.5410899817
  0
LINE
  5
28B
100
AcDbEntity
  8
0
100
AcDbLine
 62
7
  6
CONTINUOUS
 10
13.5052059587
 20
14.6180256623
 11
13.5052059587
 21
14.5030256623
  0
LINE
  5
28C
100
AcDbEntity
  8
0
100
AcDbLine
 62
7
  6
CONTINUOUS
 10
13.5417059587
 20
19.0236382191
 11
13.5417059587
 21
19.0312264652
  0
LINE
  5
28D
100
AcDbEntity
  8
0
100
AcDbLine
 62
7
  6
CONTINUOUS
 10
13.5418512881
 20
14.0349390918
 11
13.5418512881
 21
14.3811122328
  0
LINE
  5
28E
100
AcDbEntity
  8
0
100
AcDbLine
 62
7
  6
CONTINUOUS
 10
13.5422177698
 20
12.5917847346
 11
13.5422177698
 21
13.5277623495
  0
LINE
  5
28F
100
AcDbEntity
  8
0
100
AcDbLine
 62
7
  6
CONTINUOUS
 10
13.5471783997
 20
13.6296817787
 11
13.5471783997
 21
12.4898341128
  0
LINE
  5
290
100
AcDbEntity
  8
0
100
AcDbLine
 62
7
  6
CONTINUOUS
 10
13.5491495503
 20
20.8170945557
 11
13.5491495503
 21
20.8219775089
  0
LINE
  5
291
100
AcDbEntity
  8
0
100
AcDbLine
 62
7
  6
CONTINUOUS
 10
13.5492059587
 20
14.3811122328
 11
13.5492059587
 21
14.0349390918
  0
LINE
  5
292
100
AcDbEntity
  8
0
100
AcDbLine
 62
7
  6
CONTINUOUS
 10
13.6640918292
 20
13.6972579458
 11
13.6640918292
 21
13.6899032751
  0
LINE
  5
293
100
AcDbEntity
  8
0
100
AcDbLine
 62
7
  6
CONTINUOUS
 10
13.6640918292
 20
13.4584507962
 11
13.6640918292
 21
13.2912104247
  0
LINE
  5
294
100
AcDbEntity
  8
0
100
AcDbLine
 62
7
  6
CONTINUOUS
 10
13.6640918292
 20
12.8283054669
 11
13.6640918292
 21
12.6610650954
  0
LINE
  5
295
100
AcDbEntity
  8
0
100
AcDbLine
 62
7
  6
CONTINUOUS
 10
13.6640918292
 20
12.4296126165
 11
13.6640918292
 21
12.4222579458
  0
LINE
  5
296
100
AcDbEntity
  8
0
100
AcDbLine
 62
7
  6
CONTINUOUS
 10
13.7367059587
 20
19.082392219
 11
13.7367059587
 21
19.0877579458
  0
LINE
  5
297
100
AcDbEntity
  8
0
100
AcDbLine
 62
7
  6
CONTINUOUS
 10
13.9517059587
 20
19.0997579458
 11
13.9517059587
 21
19.1807823535
  0
LINE
  5
298
100
AcDbEntity
  8
0
100
AcDbLine
 62
7
  6
CONTINUOUS
 10
14.0102649702
 20
12.4222579458
 11
14.0102649702
 21
12.4296126165
  0
LINE
  5
299
100
AcDbEntity
  8
0
100
AcDbLine
 62
7
  6
CONTINUOUS
 10
14.0102649702
 20
12.6610650954
 11
14.0102649702
 21
12.8283054669
  0
LINE
  5
29A
100
AcDbEntity
  8
0
100
AcDbLine
 62
7
  6
CONTINUOUS
 10
14.0102649702
 20
13.2912104247
 11
14.0102649702
 21
13.4584507962
  0
LINE
  5
29B
100
AcDbEntity
  8
0
100
AcDbLine
 62
7
  6
CONTINUOUS
 10
14.0102649702
 20
13.6899032751
 11
14.0102649702
 21
13.6972579458
  0
LINE
  5
29C
100
AcDbEntity
  8
0
100
AcDbLine
 62
7
  6
CONTINUOUS
 10
14.1271783997
 20
12.4898341128
 11
14.1271783997
 21
13.6296817787
  0
LINE
  5
29D
100
AcDbEntity
  8
0
100
AcDbLine
 62
7
  6
CONTINUOUS
 10
14.3001783997
 20
13.5863538246
 11
14.3001783997
 21
12.5414952787
  0
LINE
  5
29E
100
AcDbEntity
  8
0
100
AcDbLine
 62
9
  6
CONTINUOUS
 10
14.0445889462
 20
8.079126728
 11
14.0445958837
 21
8.0791373551
  0
LINE
  5
29F
100
AcDbEntity
  8
0
100
AcDbLine
 62
7
  6
CONTINUOUS
 10
13.4367059587
 20
12.2684193631
 11
13.1817059587
 21
12.2684193631
  0
LINE
  5
2A0
100
AcDbEntity
  8
0
100
AcDbLine
 62
7
  6
CONTINUOUS
 10
12.638827529
 20
12.2684193631
 11
12.3867059587
 21
12.2684193631
  0
LINE
  5
2A1
100
AcDbEntity
  8
0
100
AcDbLine
 62
9
  6
CONTINUOUS
 10
13.4385147946
 20
12.2803353485
 11
13.194276821
 21
12.2803353485
  0
LINE
  5
2A2
100
AcDbEntity
  8
0
100
AcDbLine
 62
9
  6
CONTINUOUS
 10
12.6291356689
 20
12.2803353485
 11
12.3848971229
 21
12.2803353485
  0
LINE
  5
2A3
100
AcDbEntity
  8
0
100
AcDbLine
 62
7
  6
CONTINUOUS
 10
13.6640918292
 20
12.4222579458
 11
14.0102649702
 21
12.4222579458
  0
LINE
  5
2A4
100
AcDbEntity
  8
0
100
AcDbLine
 62
7
  6
CONTINUOUS
 10
13.6640918292
 20
12.4296126165
 11
14.0102649702
 21
12.4296126165
  0
LINE
  5
2A5
100
AcDbEntity
  8
0
100
AcDbLine
 62
7
  6
CONTINUOUS
 10
12.0929950558
 20
12.4657579458
 11
12.2682298541
 21
12.4657579458
  0
LINE
  5
2A6
100
AcDbEntity
  8
0
100
AcDbLine
 62
7
  6
CONTINUOUS
 10
12.0003630082
 20
12.5097579458
 11
11.6967453288
 21
12.5097579458
  0
LINE
  5
2A7
100
AcDbEntity
  8
0
100
AcDbLine
 62
7
  6
CONTINUOUS
 10
10.8881626517
 20
12.5097579458
 11
11.6581626517
 21
12.5097579458
  0
LINE
  5
2A8
100
AcDbEntity
  8
0
100
AcDbLine
 62
7
  6
CONTINUOUS
 10
14.3001784031
 20
12.5401449775
 11
14.3951783887
 21
12.5401449775
  0
LINE
  5
2A9
100
AcDbEntity
  8
0
100
AcDbLine
 62
7
  6
CONTINUOUS
 10
14.1271783997
 20
12.5497579458
 11
14.3001783997
 21
12.5497579458
  0
LINE
  5
2AA
100
AcDbEntity
  8
0
100
AcDbLine
 62
7
  6
CONTINUOUS
 10
12.3557132663
 20
12.3512811033
 11
12.3848971229
 21
12.2803353485
  0
LWPOLYLINE
  5
2AB
100
AcDbEntity
  8
0
100
AcDbPolyline
 62
7
  6
CONTINUOUS
 90
4
 70
0
 10
14.044588948
 20
8.0791266649
 10
14.0468003092
 20
8.0705972265
 10
14.0541604847
 20
8.062685895
 10
14.064578981
 20
8.0597579458
  0
LINE
  5
2AC
100
AcDbEntity
  8
0
100
AcDbLine
 62
7
  6
CONTINUOUS
 10
14.044588948
 20
8.0791266653
 11
14.0465934382
 21
8.0710103634
  0
LINE
  5
2AD
100
AcDbEntity
  8
0
100
AcDbLine
 62
9
  6
CONTINUOUS
 10
13.451726973
 20
20.9084105139
 11
13.4517451419
 21
20.9082026583
  0
LINE
  5
2AE
100
AcDbEntity
  8
0
100
AcDbLine
 62
9
  6
CONTINUOUS
 10
13.4716667756
 20
20.906438208
 11
13.4716486067
 21
20.9066460636
  0
LINE
  5
2AF
100
AcDbEntity
  8
0
100
AcDbLine
 62
7
  6
CONTINUOUS
 10
14.4904548242
 20
12.4437373371
 11
14.4904553909
 21
12.443641541
  0
LINE
  5
2B0
100
AcDbEntity
  8
0
100
AcDbLine
 62
7
  6
CONTINUOUS
 10
14.3951783887
 20
13.5877041258
 11
14.3951783887
 21
12.5401449775
  0
LINE
  5
2B1
100
AcDbEntity
  8
0
100
AcDbLine
 62
7
  6
CONTINUOUS
 10
11.0151657359
 20
13.4768931979
 11
11.8981941477
 21
13.5841407426
  0
LINE
  5
2B2
100
AcDbEntity
  8
0
100
AcDbLine
 62
7
  6
CONTINUOUS
 10
13.5471783997
 20
12.6497579458
 11
13.5422177698
 21
12.6497579458
  0
LINE
  5
2B3
100
AcDbEntity
  8
0
100
AcDbLine
 62
7
  6
CONTINUOUS
 10
14.0102649702
 20
12.6610650954
 11
13.6640918292
 21
12.6610650954
  0
LINE
  5
2B4
100
AcDbEntity
  8
0
100
AcDbLine
 62
7
  6
CONTINUOUS
 10
10.9011941477
 20
12.7072579458
 11
10.9511941477
 21
12.7072579458
  0
LINE
  5
2B5
100
AcDbEntity
  8
0
100
AcDbLine
 62
7
  6
CONTINUOUS
 10
9.9181941477
 20
12.7292579458
 11
9.9891941477
 21
12.7292579458
  0
LINE
  5
2B6
100
AcDbEntity
  8
0
100
AcDbLine
 62
7
  6
CONTINUOUS
 10
10.7584776123
 20
12.7447579458
 11
10.7281626517
 21
12.7447579458
  0
LINE
  5
2B7
100
AcDbEntity
  8
0
100
AcDbLine
 62
7
  6
CONTINUOUS
 10
9.8471941477
 20
12.7877579458
 11
9.8711941477
 21
12.7877579458
  0
LINE
  5
2B8
100
AcDbEntity
  8
0
100
AcDbLine
 62
7
  6
CONTINUOUS
 10
13.6640918292
 20
12.8283054669
 11
14.0102649702
 21
12.8283054669
  0
LINE
  5
2B9
100
AcDbEntity
  8
0
100
AcDbLine
 62
7
  6
CONTINUOUS
 10
10.9711941477
 20
12.8597579458
 11
10.9511941477
 21
12.8597579458
  0
LINE
  5
2BA
100
AcDbEntity
  8
0
100
AcDbLine
 62
7
  6
CONTINUOUS
 10
10.9711941477
 20
13.2597579458
 11
10.9511941477
 21
13.2597579458
  0
LINE
  5
2BB
100
AcDbEntity
  8
0
100
AcDbLine
 62
7
  6
CONTINUOUS
 10
14.0102649702
 20
13.2912104247
 11
13.6640918292
 21
13.2912104247
  0
LINE
  5
2BC
100
AcDbEntity
  8
0
100
AcDbLine
 62
7
  6
CONTINUOUS
 10
9.8471941477
 20
13.3317579458
 11
9.8711941477
 21
13.3317579458
  0
LINE
  5
2BD
100
AcDbEntity
  8
0
100
AcDbLine
 62
7
  6
CONTINUOUS
 10
10.7584776123
 20
13.3747579458
 11
10.7281626517
 21
13.3747579458
  0
LINE
  5
2BE
100
AcDbEntity
  8
0
100
AcDbLine
 62
7
  6
CONTINUOUS
 10
9.9181941477
 20
13.3902579458
 11
9.9891941477
 21
13.3902579458
  0
LINE
  5
2BF
100
AcDbEntity
  8
0
100
AcDbLine
 62
7
  6
CONTINUOUS
 10
10.9011941477
 20
13.4122579458
 11
10.9511941477
 21
13.4122579458
  0
LINE
  5
2C0
100
AcDbEntity
  8
0
100
AcDbLine
 62
7
  6
CONTINUOUS
 10
13.6640918292
 20
13.4584507962
 11
14.0102649702
 21
13.4584507962
  0
LINE
  5
2C1
100
AcDbEntity
  8
0
100
AcDbLine
 62
7
  6
CONTINUOUS
 10
13.5471783997
 20
13.4697579458
 11
13.5422177698
 21
13.4697579458
  0
LINE
  5
2C2
100
AcDbEntity
  8
0
100
AcDbLine
 62
7
  6
CONTINUOUS
 10
11.0151657359
 20
12.6426226937
 11
11.8981941477
 21
12.535375149
  0
LINE
  5
2C3
100
AcDbEntity
  8
0
100
AcDbLine
 62
7
  6
CONTINUOUS
 10
14.3951783917
 20
12.5389245679
 11
14.4182978449
 21
12.5355528855
  0
LINE
  5
2C4
100
AcDbEntity
  8
0
100
AcDbLine
 62
7
  6
CONTINUOUS
 10
13.5471783997
 20
12.4897579458
 11
13.6609071634
 21
12.4240966134
  0
LINE
  5
2C5
100
AcDbEntity
  8
0
100
AcDbLine
 62
9
  6
CONTINUOUS
 10
15.9957609174
 20
8.0791373551
 11
15.995767855
 21
8.0791267217
  0
LINE
  5
2C6
100
AcDbEntity
  8
0
100
AcDbLine
 62
7
  6
CONTINUOUS
 10
12.3417059587
 20
13.9180256623
 11
12.2742059587
 21
14.0349390918
  0
LINE
  5
2C7
100
AcDbEntity
  8
0
100
AcDbLine
 62
7
  6
CONTINUOUS
 10
13.7519993647
 20
19.6413843598
 11
13.7040209316
 21
20.0676566435
  0
LWPOLYLINE
  5
2C8
100
AcDbEntity
  8
0
100
AcDbPolyline
 62
7
  6
CONTINUOUS
 90
5
 70
0
 10
15.5499619443
 20
12.4552782702
 10
15.5394659409
 20
12.6095144922
 10
15.4788676452
 20
12.8519119661
 10
15.3661163901
 20
13.0760592351
 10
15.2069537345
 20
13.270055933
  0
LINE
  5
2C9
100
AcDbEntity
  8
0
100
AcDbLine
 62
7
  6
CONTINUOUS
 10
15.9988776609
 20
8.2083837079
 11
15.9988804232
 21
8.2120470768
  0
LINE
  5
2CA
100
AcDbEntity
  8
0
100
AcDbLine
 62
7
  6
CONTINUOUS
 10
15.5499019753
 20
12.4437373495
 11
15.5499619443
 21
12.4552782677
  0
LINE
  5
2CB
100
AcDbEntity
  8
0
100
AcDbLine
 62
7
  6
CONTINUOUS
 10
15.9957609194
 20
8.0791373551
 11
15.9988776609
 21
8.2083837079
  0
LINE
  5
2CC
100
AcDbEntity
  8
0
100
AcDbLine
 62
7
  6
CONTINUOUS
 10
15.9863953059
 20
8.0628089345
 11
15.9936231331
 21
8.0708542703
  0
LINE
  5
2CD
100
AcDbEntity
  8
0
100
AcDbLine
 62
7
  6
CONTINUOUS
 10
14.1271783997
 20
13.5697579458
 11
14.3001783997
 21
13.5697579458
  0
LINE
  5
2CE
100
AcDbEntity
  8
0
100
AcDbLine
 62
7
  6
CONTINUOUS
 10
14.3001784031
 20
13.5877041258
 11
14.3951783887
 21
13.5877041258
  0
LINE
  5
2CF
100
AcDbEntity
  8
0
100
AcDbLine
 62
7
  6
CONTINUOUS
 10
11.9999454951
 20
13.6097579458
 11
11.6967453288
 21
13.6097579458
  0
LINE
  5
2D0
100
AcDbEntity
  8
0
100
AcDbLine
 62
7
  6
CONTINUOUS
 10
10.8881626517
 20
13.6097579458
 11
11.6581626517
 21
13.6097579458
  0
LINE
  5
2D1
100
AcDbEntity
  8
0
100
AcDbLine
 62
7
  6
CONTINUOUS
 10
12.0929950558
 20
13.6537579458
 11
12.2682298541
 21
13.6537579458
  0
LINE
  5
2D2
100
AcDbEntity
  8
0
100
AcDbLine
 62
7
  6
CONTINUOUS
 10
14.0102649702
 20
13.6899032751
 11
13.6640918292
 21
13.6899032751
  0
LINE
  5
2D3
100
AcDbEntity
  8
0
100
AcDbLine
 62
7
  6
CONTINUOUS
 10
13.6640918292
 20
13.6972579458
 11
14.0102649702
 21
13.6972579458
  0
LINE
  5
2D4
100
AcDbEntity
  8
0
100
AcDbLine
 62
9
  6
CONTINUOUS
 10
12.2681387018
 20
13.9034408865
 11
12.6417059587
 21
13.9034408865
  0
LINE
  5
2D5
100
AcDbEntity
  8
0
100
AcDbLine
 62
9
  6
CONTINUOUS
 10
13.1817059587
 20
13.9034408865
 11
13.5552732157
 21
13.9034408865
  0
LINE
  5
2D6
100
AcDbEntity
  8
0
100
AcDbLine
 62
7
  6
CONTINUOUS
 10
13.5361743997
 20
13.9180256623
 11
13.1817059587
 21
13.9180256623
  0
LINE
  5
2D7
100
AcDbEntity
  8
0
100
AcDbLine
 62
7
  6
CONTINUOUS
 10
12.6417059587
 20
13.9180256623
 11
12.2872375181
 21
13.9180256623
  0
LINE
  5
2D8
100
AcDbEntity
  8
0
100
AcDbLine
 62
7
  6
CONTINUOUS
 10
12.2742059587
 20
14.0349390918
 11
12.2815606294
 21
14.0349390918
  0
LINE
  5
2D9
100
AcDbEntity
  8
0
100
AcDbLine
 62
7
  6
CONTINUOUS
 10
12.5130131084
 20
14.0349390918
 11
12.6417059587
 21
14.0349390918
  0
LINE
  5
2DA
100
AcDbEntity
  8
0
100
AcDbLine
 62
7
  6
CONTINUOUS
 10
13.1817059587
 20
14.0349390918
 11
13.3103988091
 21
14.0349390918
  0
LINE
  5
2DB
100
AcDbEntity
  8
0
100
AcDbLine
 62
7
  6
CONTINUOUS
 10
13.5418512881
 20
14.0349390918
 11
13.5492059587
 21
14.0349390918
  0
LINE
  5
2DC
100
AcDbEntity
  8
0
100
AcDbLine
 62
7
  6
CONTINUOUS
 10
14.4182978449
 20
12.5355528855
 11
14.4477524068
 21
12.5222328448
  0
LWPOLYLINE
  5
2DD
100
AcDbEntity
  8
0
100
AcDbPolyline
 62
7
  6
CONTINUOUS
 90
4
 70
0
 10
14.4477524068
 20
12.5222328448
 10
14.4711985933
 20
12.5001722419
 10
14.4860681345
 20
12.4713814958
 10
14.4904553909
 20
12.443641541
  0
LINE
  5
2DE
100
AcDbEntity
  8
0
100
AcDbLine
 62
7
  6
CONTINUOUS
 10
13.4817059587
 20
14.4980256623
 11
13.5473672911
 21
14.3842968986
  0
LINE
  5
2DF
100
AcDbEntity
  8
0
100
AcDbLine
 62
7
  6
CONTINUOUS
 10
15.9937633608
 20
8.0710103585
 11
15.9957678534
 21
8.0791266673
  0
LINE
  5
2E0
100
AcDbEntity
  8
0
100
AcDbLine
 62
7
  6
CONTINUOUS
 10
13.5492059587
 20
14.3811122328
 11
13.5418512881
 21
14.3811122328
  0
LINE
  5
2E1
100
AcDbEntity
  8
0
100
AcDbLine
 62
7
  6
CONTINUOUS
 10
13.3103988091
 20
14.3811122328
 11
13.1817059587
 21
14.3811122328
  0
LINE
  5
2E2
100
AcDbEntity
  8
0
100
AcDbLine
 62
7
  6
CONTINUOUS
 10
12.6417059587
 20
14.3811122328
 11
12.5130131084
 21
14.3811122328
  0
LINE
  5
2E3
100
AcDbEntity
  8
0
100
AcDbLine
 62
7
  6
CONTINUOUS
 10
12.2815606294
 20
14.3811122328
 11
12.2742059587
 21
14.3811122328
  0
LINE
  5
2E4
100
AcDbEntity
  8
0
100
AcDbLine
 62
7
  6
CONTINUOUS
 10
13.4816297917
 20
14.4980256623
 11
13.1817059587
 21
14.4980256623
  0
LINE
  5
2E5
100
AcDbEntity
  8
0
100
AcDbLine
 62
7
  6
CONTINUOUS
 10
12.6417059587
 20
14.4980256623
 11
12.3417821258
 21
14.4980256623
  0
LINE
  5
2E6
100
AcDbEntity
  8
0
100
AcDbLine
 62
7
  6
CONTINUOUS
 10
12.3182093599
 20
14.5030256623
 11
12.6417059587
 21
14.5030256623
  0
LINE
  5
2E7
100
AcDbEntity
  8
0
100
AcDbLine
 62
7
  6
CONTINUOUS
 10
13.1817059587
 20
14.5030256623
 11
13.5052025576
 21
14.5030256623
  0
LINE
  5
2E8
100
AcDbEntity
  8
0
100
AcDbLine
 62
9
  6
CONTINUOUS
 10
13.5052059587
 20
14.6180256623
 11
13.1817059587
 21
14.6180256623
  0
LINE
  5
2E9
100
AcDbEntity
  8
0
100
AcDbLine
 62
9
  6
CONTINUOUS
 10
12.6417059587
 20
14.6180256623
 11
12.3182059587
 21
14.6180256623
  0
LINE
  5
2EA
100
AcDbEntity
  8
0
100
AcDbLine
 62
9
  6
CONTINUOUS
 10
12.3355274109
 20
14.6452148959
 11
12.6417059587
 21
14.6452148959
  0
LINE
  5
2EB
100
AcDbEntity
  8
0
100
AcDbLine
 62
9
  6
CONTINUOUS
 10
13.1817059587
 20
14.6452148959
 11
13.4878845066
 21
14.6452148959
  0
LINE
  5
2EC
100
AcDbEntity
  8
0
100
AcDbLine
 62
9
  6
CONTINUOUS
 10
13.4290751277
 20
14.6726381597
 11
13.1817059587
 21
14.6726381597
  0
LINE
  5
2ED
100
AcDbEntity
  8
0
100
AcDbLine
 62
9
  6
CONTINUOUS
 10
12.6417059587
 20
14.6726381597
 11
12.3943367898
 21
14.6726381597
  0
LINE
  5
2EE
100
AcDbEntity
  8
0
100
AcDbLine
 62
9
  6
CONTINUOUS
 10
13.3523336856
 20
14.7659204183
 11
13.1817059587
 21
14.7659204183
  0
LINE
  5
2EF
100
AcDbEntity
  8
0
100
AcDbLine
 62
9
  6
CONTINUOUS
 10
12.4710782319
 20
14.7659204183
 11
12.6417059587
 21
14.7659204183
  0
LINE
  5
2F0
100
AcDbEntity
  8
0
100
AcDbLine
 62
7
  6
CONTINUOUS
 10
14.1271783997
 20
13.6297579458
 11
14.013449636
 21
13.6954192781
  0
LWPOLYLINE
  5
2F1
100
AcDbEntity
  8
0
100
AcDbPolyline
 62
7
  6
CONTINUOUS
 90
5
 70
0
 10
15.2069537355
 20
13.2700559321
 10
15.0097091791
 20
13.4235423696
 10
14.7856197741
 20
13.5291863769
 10
14.5469850226
 20
13.5825286786
 10
14.3951783684
 20
13.588924535
  0
LINE
  5
2F2
100
AcDbEntity
  8
0
100
AcDbLine
 62
7
  6
CONTINUOUS
 10
12.6315193308
 20
19.7630445502
 11
12.6310662834
 21
19.7640595643
  0
LINE
  5
2F3
100
AcDbEntity
  8
0
100
AcDbLine
 62
7
  6
CONTINUOUS
 10
12.6314750188
 20
19.7631488183
 11
12.6417059587
 21
19.7341246341
  0
LINE
  5
2F4
100
AcDbEntity
  8
0
100
AcDbLine
 62
9
  6
CONTINUOUS
 10
13.3606496207
 20
15.4651348809
 11
13.1817059587
 21
15.4651348809
  0
LINE
  5
2F5
100
AcDbEntity
  8
0
100
AcDbLine
 62
9
  6
CONTINUOUS
 10
12.4627622968
 20
15.4651348809
 11
12.6417059587
 21
15.4651348809
  0
LINE
  5
2F6
100
AcDbEntity
  8
0
100
AcDbLine
 62
9
  6
CONTINUOUS
 10
13.3436664508
 20
15.5005383254
 11
13.1817059587
 21
15.5005383254
  0
LINE
  5
2F7
100
AcDbEntity
  8
0
100
AcDbLine
 62
9
  6
CONTINUOUS
 10
12.4797454666
 20
15.5005383254
 11
12.6417059587
 21
15.5005383254
  0
LINE
  5
2F8
100
AcDbEntity
  8
0
100
AcDbLine
 62
9
  6
CONTINUOUS
 10
13.3156532403
 20
15.5605719837
 11
13.1817059587
 21
15.5605719837
  0
LINE
  5
2F9
100
AcDbEntity
  8
0
100
AcDbLine
 62
9
  6
CONTINUOUS
 10
12.6417059587
 20
15.5605719837
 11
12.5077586772
 21
15.5605719837
  0
LINE
  5
2FA
100
AcDbEntity
  8
0
100
AcDbLine
 62
7
  6
CONTINUOUS
 10
13.4290751277
 20
14.6726381597
 11
13.4878845066
 21
14.6452148959
  0
LINE
  5
2FB
100
AcDbEntity
  8
0
100
AcDbLine
 62
7
  6
CONTINUOUS
 10
12.6079770743
 20
17.9708491283
 11
12.4840458417
 21
18.1616864913
  0
LINE
  5
2FC
100
AcDbEntity
  8
0
100
AcDbLine
 62
7
  6
CONTINUOUS
 10
12.6099056438
 20
19.8056805897
 11
12.6312541524
 21
19.7636440992
  0
LINE
  5
2FD
100
AcDbEntity
  8
0
100
AcDbLine
 62
9
  6
CONTINUOUS
 10
13.3185818502
 20
16.5631843964
 11
13.1817059587
 21
16.5631666464
  0
LINE
  5
2FE
100
AcDbEntity
  8
0
100
AcDbLine
 62
9
  6
CONTINUOUS
 10
12.5095631016
 20
16.1337725959
 11
12.6417059587
 21
16.1337725959
  0
LINE
  5
2FF
100
AcDbEntity
  8
0
100
AcDbLine
 62
9
  6
CONTINUOUS
 10
13.1817059587
 20
16.1337725959
 11
13.3138488159
 21
16.1337725959
  0
LINE
  5
300
100
AcDbEntity
  8
0
100
AcDbLine
 62
9
  6
CONTINUOUS
 10
13.3347828818
 20
16.190385911
 11
13.1817059587
 21
16.190385911
  0
LINE
  5
301
100
AcDbEntity
  8
0
100
AcDbLine
 62
9
  6
CONTINUOUS
 10
12.4886290357
 20
16.190385911
 11
12.6417059587
 21
16.190385911
  0
LINE
  5
302
100
AcDbEntity
  8
0
100
AcDbLine
 62
9
  6
CONTINUOUS
 10
13.3345391522
 20
16.2158178896
 11
13.1817059587
 21
16.2158178896
  0
LINE
  5
303
100
AcDbEntity
  8
0
100
AcDbLine
 62
9
  6
CONTINUOUS
 10
12.4888727652
 20
16.2158178896
 11
12.6417059587
 21
16.2158178896
  0
LINE
  5
304
100
AcDbEntity
  8
0
100
AcDbLine
 62
9
  6
CONTINUOUS
 10
12.6417059587
 20
16.5631664226
 11
12.5048271514
 21
16.5631865704
  0
LINE
  5
305
100
AcDbEntity
  8
0
100
AcDbLine
 62
7
  6
CONTINUOUS
 10
12.6417059587
 20
16.7442949927
 11
12.5395810679
 21
16.8032568259
  0
LINE
  5
306
100
AcDbEntity
  8
0
100
AcDbLine
 62
7
  6
CONTINUOUS
 10
12.5810262018
 20
19.8496393935
 11
12.5901726877
 21
19.8369872413
  0
LINE
  5
307
100
AcDbEntity
  8
0
100
AcDbLine
 62
7
  6
CONTINUOUS
 10
12.5811898499
 20
19.8494191371
 11
12.592071736
 21
19.8342180324
  0
LINE
  5
308
100
AcDbEntity
  8
0
100
AcDbLine
 62
7
  6
CONTINUOUS
 10
12.5901726877
 20
19.8369872413
 11
12.6099056438
 21
19.8056805897
  0
LWPOLYLINE
  5
309
100
AcDbEntity
  8
0
100
AcDbPolyline
 62
7
  6
CONTINUOUS
 90
3
 70
0
 10
12.592071736
 20
19.8342180324
 10
12.613464666
 20
19.7993534369
 10
12.6310664221
 20
19.7640592443
  0
LINE
  5
30A
100
AcDbEntity
  8
0
100
AcDbLine
 62
9
  6
CONTINUOUS
 10
12.545258954
 20
17.6808402084
 11
12.6417059587
 21
17.6808606386
  0
LINE
  5
30B
100
AcDbEntity
  8
0
100
AcDbLine
 62
9
  6
CONTINUOUS
 10
13.1817059587
 20
17.1080256623
 11
12.6417059587
 21
17.1080256623
  0
LINE
  5
30C
100
AcDbEntity
  8
0
100
AcDbLine
 62
9
  6
CONTINUOUS
 10
13.1817059587
 20
17.6808629766
 11
13.2781140188
 21
17.6808651979
  0
LINE
  5
30D
100
AcDbEntity
  8
0
100
AcDbLine
 62
7
  6
CONTINUOUS
 10
13.1817059587
 20
17.4717563319
 11
13.2838308496
 21
17.4127944987
  0
LINE
  5
30E
100
AcDbEntity
  8
0
100
AcDbLine
 62
7
  6
CONTINUOUS
 10
12.5393738172
 20
19.8975191169
 11
12.581022266
 21
19.849644609
  0
LWPOLYLINE
  5
30F
100
AcDbEntity
  8
0
100
AcDbPolyline
 62
7
  6
CONTINUOUS
 90
7
 70
0
 10
13.3030343443
 20
18.8190283217
 10
13.2931276095
 20
18.8306264404
 10
13.2711547185
 20
18.8734842026
 10
13.2470558974
 20
18.9548545066
 10
13.2227658833
 20
19.0700266178
 10
13.1969605862
 20
19.207512947
 10
13.1817059587
 20
19.2981625604
  0
LINE
  5
310
100
AcDbEntity
  8
0
100
AcDbLine
 62
7
  6
CONTINUOUS
 10
12.5810258927
 20
19.8496398082
 11
12.581022266
 21
19.849644609
  0
LINE
  5
311
100
AcDbEntity
  8
0
100
AcDbLine
 62
7
  6
CONTINUOUS
 10
12.2043475109
 20
19.0573526787
 11
12.2051312168
 21
19.05751465
  0
LINE
  5
312
100
AcDbEntity
  8
0
100
AcDbLine
 62
7
  6
CONTINUOUS
 10
12.2495638048
 20
19.0494036089
 11
12.2503475108
 21
19.0495631552
  0
LINE
  5
313
100
AcDbEntity
  8
0
100
AcDbLine
 62
7
  6
CONTINUOUS
 10
12.4557070922
 20
18.9903851185
 11
12.4572592927
 21
18.9906841439
  0
LINE
  5
314
100
AcDbEntity
  8
0
100
AcDbLine
 62
7
  6
CONTINUOUS
 10
12.4112592928
 20
18.9982084646
 11
12.4128114933
 21
18.9984961596
  0
LINE
  5
315
100
AcDbEntity
  8
0
100
AcDbLine
 62
7
  6
CONTINUOUS
 10
12.3180455444
 20
19.0494036089
 11
12.3211269602
 21
19.049963312
  0
LINE
  5
316
100
AcDbEntity
  8
0
100
AcDbLine
 62
7
  6
CONTINUOUS
 10
13.2482961808
 20
18.9391409239
 11
13.3584424405
 21
18.9585626813
  0
LINE
  5
317
100
AcDbEntity
  8
0
100
AcDbLine
 62
7
  6
CONTINUOUS
 10
13.374969477
 20
18.9858470824
 11
13.3901809297
 21
18.9885292719
  0
LINE
  5
318
100
AcDbEntity
  8
0
100
AcDbLine
 62
7
  6
CONTINUOUS
 10
13.4356853009
 20
18.9965529203
 11
13.5334424405
 21
19.0137901416
  0
LINE
  5
319
100
AcDbEntity
  8
0
100
AcDbLine
 62
7
  6
CONTINUOUS
 10
13.549969477
 20
19.0410745427
 11
13.5972059587
 21
19.0494036089
  0
LINE
  5
31A
100
AcDbEntity
  8
0
100
AcDbLine
 62
7
  6
CONTINUOUS
 10
13.6432059587
 20
19.05751465
 11
13.7284424405
 21
19.0725441415
  0
LINE
  5
31B
100
AcDbEntity
  8
0
100
AcDbLine
 62
9
  6
CONTINUOUS
 10
12.6079770743
 20
17.9708491283
 11
12.6417059587
 21
17.9708491283
  0
LINE
  5
31C
100
AcDbEntity
  8
0
100
AcDbLine
 62
9
  6
CONTINUOUS
 10
13.1817059587
 20
17.9708491283
 11
13.2154348432
 21
17.9708491283
  0
LINE
  5
31D
100
AcDbEntity
  8
0
100
AcDbLine
 62
9
  6
CONTINUOUS
 10
13.3393660758
 20
18.1616864913
 11
13.1817059587
 21
18.1616864913
  0
LINE
  5
31E
100
AcDbEntity
  8
0
100
AcDbLine
 62
9
  6
CONTINUOUS
 10
12.6417059587
 20
18.1616864913
 11
12.4840458417
 21
18.1616864913
  0
LINE
  5
31F
100
AcDbEntity
  8
0
100
AcDbLine
 62
7
  6
CONTINUOUS
 10
13.3141521741
 20
18.2080256623
 11
13.1817059587
 21
18.2080256623
  0
LINE
  5
320
100
AcDbEntity
  8
0
100
AcDbLine
 62
7
  6
CONTINUOUS
 10
12.6417059587
 20
18.2080256623
 11
12.5092597434
 21
18.2080256623
  0
LINE
  5
321
100
AcDbEntity
  8
0
100
AcDbLine
 62
9
  6
CONTINUOUS
 10
12.4963489329
 20
18.227662086
 11
12.6417059587
 21
18.227662086
  0
LINE
  5
322
100
AcDbEntity
  8
0
100
AcDbLine
 62
9
  6
CONTINUOUS
 10
13.1817059587
 20
18.227662086
 11
13.3270629846
 21
18.227662086
  0
LINE
  5
323
100
AcDbEntity
  8
0
100
AcDbLine
 62
7
  6
CONTINUOUS
 10
13.3180295833
 20
18.8094793929
 11
13.2968677661
 21
18.8262477243
  0
LINE
  5
324
100
AcDbEntity
  8
0
100
AcDbLine
 62
7
  6
CONTINUOUS
 10
13.3030196622
 20
18.8190410733
 11
13.3030343443
 21
18.8190283217
  0
LINE
  5
325
100
AcDbEntity
  8
0
100
AcDbLine
 62
7
  6
CONTINUOUS
 10
12.5181623894
 20
19.9174265052
 11
12.5411451564
 21
19.8957360907
  0
LINE
  5
326
100
AcDbEntity
  8
0
100
AcDbLine
 62
9
  6
CONTINUOUS
 10
13.3584424405
 20
18.9585626813
 11
13.2462123193
 21
18.9585626813
  0
LINE
  5
327
100
AcDbEntity
  8
0
100
AcDbLine
 62
9
  6
CONTINUOUS
 10
12.5765913887
 20
18.9585626813
 11
12.464994718
 21
18.9585626813
  0
LINE
  5
328
100
AcDbEntity
  8
0
100
AcDbLine
 62
9
  6
CONTINUOUS
 10
12.4567059587
 20
18.9684107588
 11
12.579260866
 21
18.9684107588
  0
LINE
  5
329
100
AcDbEntity
  8
0
100
AcDbLine
 62
9
  6
CONTINUOUS
 10
13.2441355986
 20
18.9684107588
 11
13.3667059587
 21
18.9684107588
  0
LINE
  5
32A
100
AcDbEntity
  8
0
100
AcDbLine
 62
9
  6
CONTINUOUS
 10
13.3667059587
 20
18.9759990049
 11
13.2425354216
 21
18.9759990049
  0
LINE
  5
32B
100
AcDbEntity
  8
0
100
AcDbLine
 62
9
  6
CONTINUOUS
 10
12.5812280423
 20
18.9759990049
 11
12.4567059587
 21
18.9759990049
  0
LINE
  5
32C
100
AcDbEntity
  8
0
100
AcDbLine
 62
9
  6
CONTINUOUS
 10
12.4484424405
 20
18.9858470824
 11
12.5832358083
 21
18.9858470824
  0
LINE
  5
32D
100
AcDbEntity
  8
0
100
AcDbLine
 62
9
  6
CONTINUOUS
 10
13.2404587009
 20
18.9858470824
 11
13.3749570098
 21
18.9858470824
  0
LINE
  5
32E
100
AcDbEntity
  8
0
100
AcDbLine
 62
9
  6
CONTINUOUS
 10
13.5334424405
 20
19.0137901416
 11
13.2368796871
 21
19.0137901416
  0
LINE
  5
32F
100
AcDbEntity
  8
0
100
AcDbLine
 62
9
  6
CONTINUOUS
 10
12.5889326688
 20
19.0137901416
 11
12.2899849462
 21
19.0137901416
  0
LINE
  5
330
100
AcDbEntity
  8
0
100
AcDbLine
 62
9
  6
CONTINUOUS
 10
12.2817059587
 20
19.0236382191
 11
12.5909404348
 21
19.0236382191
  0
LINE
  5
331
100
AcDbEntity
  8
0
100
AcDbLine
 62
9
  6
CONTINUOUS
 10
13.2324894667
 20
19.0236382191
 11
13.5417059587
 21
19.0236382191
  0
LINE
  5
332
100
AcDbEntity
  8
0
100
AcDbLine
 62
9
  6
CONTINUOUS
 10
13.5417059587
 20
19.0312264652
 11
13.2310459899
 21
19.0312264652
  0
LINE
  5
333
100
AcDbEntity
  8
0
100
AcDbLine
 62
9
  6
CONTINUOUS
 10
12.5924874801
 20
19.0312264652
 11
12.2817059587
 21
19.0312264652
  0
LINE
  5
334
100
AcDbEntity
  8
0
100
AcDbLine
 62
9
  6
CONTINUOUS
 10
12.2734424405
 20
19.0410745427
 11
12.5915667271
 21
19.0410745427
  0
LINE
  5
335
100
AcDbEntity
  8
0
100
AcDbLine
 62
9
  6
CONTINUOUS
 10
13.2288195923
 20
19.0410745427
 11
13.5499599254
 21
19.0410745427
  0
LINE
  5
336
100
AcDbEntity
  8
0
100
AcDbLine
 62
9
  6
CONTINUOUS
 10
13.7284424405
 20
19.0725441415
 11
13.222202346
 21
19.0725441415
  0
LINE
  5
337
100
AcDbEntity
  8
0
100
AcDbLine
 62
9
  6
CONTINUOUS
 10
12.6009110759
 20
19.0725441415
 11
12.094980777
 21
19.0725441415
  0
LINE
  5
338
100
AcDbEntity
  8
0
100
AcDbLine
 62
9
  6
CONTINUOUS
 10
12.0867059587
 20
19.082392219
 11
12.6029188419
 21
19.082392219
  0
LINE
  5
339
100
AcDbEntity
  8
0
100
AcDbLine
 62
9
  6
CONTINUOUS
 10
13.2203546346
 20
19.082392219
 11
13.7367059587
 21
19.082392219
  0
LINE
  5
33A
100
AcDbEntity
  8
0
100
AcDbLine
 62
9
  6
CONTINUOUS
 10
13.7367059587
 20
19.0877579458
 11
13.2193479088
 21
19.0877579458
  0
LINE
  5
33B
100
AcDbEntity
  8
0
100
AcDbLine
 62
9
  6
CONTINUOUS
 10
12.6040127736
 20
19.0877579458
 11
12.0867059587
 21
19.0877579458
  0
LINE
  5
33C
100
AcDbEntity
  8
0
100
AcDbLine
 62
7
  6
CONTINUOUS
 10
11.8717739796
 20
19.0997579458
 11
12.6063131454
 21
19.0997579458
  0
LINE
  5
33D
100
AcDbEntity
  8
0
100
AcDbLine
 62
7
  6
CONTINUOUS
 10
13.2170964504
 20
19.0997579458
 11
13.9516379379
 21
19.0997579458
  0
LINE
  5
33E
100
AcDbEntity
  8
0
100
AcDbLine
 62
9
  6
CONTINUOUS
 10
13.9517059587
 20
19.1807823535
 11
13.2018945273
 21
19.1807823535
  0
LINE
  5
33F
100
AcDbEntity
  8
0
100
AcDbLine
 62
9
  6
CONTINUOUS
 10
12.6214006069
 20
19.1807823535
 11
11.8717059587
 21
19.1807823535
  0
LINE
  5
340
100
AcDbEntity
  8
0
100
AcDbLine
 62
9
  6
CONTINUOUS
 10
13.9394952803
 20
19.2135232634
 11
13.19583542
 21
19.2135232634
  0
LINE
  5
341
100
AcDbEntity
  8
0
100
AcDbLine
 62
9
  6
CONTINUOUS
 10
12.627497254
 20
19.2135232634
 11
11.8839166372
 21
19.2135232634
  0
LINE
  5
342
100
AcDbEntity
  8
0
100
AcDbLine
 62
7
  6
CONTINUOUS
 10
13.3649307782
 20
18.9978762515
 11
13.3612572838
 21
18.9984961596
  0
LINE
  5
343
100
AcDbEntity
  8
0
100
AcDbLine
 62
7
  6
CONTINUOUS
 10
12.5714996493
 20
18.9397785376
 11
12.464969477
 21
18.9585626813
  0
LINE
  5
344
100
AcDbEntity
  8
0
100
AcDbLine
 62
7
  6
CONTINUOUS
 10
12.4484424405
 20
18.9858470824
 11
12.289969477
 21
19.0137901416
  0
LINE
  5
345
100
AcDbEntity
  8
0
100
AcDbLine
 62
7
  6
CONTINUOUS
 10
12.2734424405
 20
19.0410745427
 11
12.2262059587
 21
19.0494036089
  0
LINE
  5
346
100
AcDbEntity
  8
0
100
AcDbLine
 62
7
  6
CONTINUOUS
 10
12.1802059587
 20
19.05751465
 11
12.094969477
 21
19.0725441415
  0
LINE
  5
347
100
AcDbEntity
  8
0
100
AcDbLine
 62
7
  6
CONTINUOUS
 10
13.3226042727
 20
18.9903851185
 11
13.3189307782
 21
18.9910706385
  0
LINE
  5
348
100
AcDbEntity
  8
0
100
AcDbLine
 62
7
  6
CONTINUOUS
 10
13.505366373
 20
19.0494036089
 11
13.5022849574
 21
19.0499811704
  0
LINE
  5
349
100
AcDbEntity
  8
0
100
AcDbLine
 62
7
  6
CONTINUOUS
 10
13.6190644067
 20
19.0573676841
 11
13.6182807007
 21
19.05751465
  0
LINE
  5
34A
100
AcDbEntity
  8
0
100
AcDbLine
 62
7
  6
CONTINUOUS
 10
13.4358311713
 20
18.9984012263
 11
13.4353426554
 21
18.9984961596
  0
LINE
  5
34B
100
AcDbEntity
  8
0
100
AcDbLine
 62
7
  6
CONTINUOUS
 10
13.5738481127
 20
19.0494036089
 11
13.5730644067
 21
19.0495841509
  0
LINE
  5
34C
100
AcDbEntity
  8
0
100
AcDbLine
 62
7
  6
CONTINUOUS
 10
13.3903196871
 20
18.9903851185
 11
13.3898311713
 21
18.9905128504
  0
LINE
  5
34D
100
AcDbEntity
  8
0
100
AcDbLine
 62
9
  6
CONTINUOUS
 10
12.0714125528
 20
19.6413843598
 11
12.6417059587
 21
19.6413843598
  0
LINE
  5
34E
100
AcDbEntity
  8
0
100
AcDbLine
 62
9
  6
CONTINUOUS
 10
13.1817059587
 20
19.6413843598
 11
13.7519833947
 21
19.6413843598
  0
LINE
  5
34F
100
AcDbEntity
  8
0
100
AcDbLine
 62
9
  6
CONTINUOUS
 10
13.7040209316
 20
20.0676566435
 11
13.4221485098
 21
20.0676566435
  0
LINE
  5
350
100
AcDbEntity
  8
0
100
AcDbLine
 62
9
  6
CONTINUOUS
 10
12.4012615862
 20
20.0676566435
 11
12.1193909858
 21
20.0676566435
  0
LINE
  5
351
100
AcDbEntity
  8
0
100
AcDbLine
 62
9
  6
CONTINUOUS
 10
12.379184001
 20
20.8129297058
 11
12.3592623672
 21
20.8111652555
  0
LINE
  5
352
100
AcDbEntity
  8
0
100
AcDbLine
 62
9
  6
CONTINUOUS
 10
12.3517451419
 20
20.9015552548
 11
12.3716667756
 21
20.9033197051
  0
LINE
  5
353
100
AcDbEntity
  8
0
100
AcDbLine
 62
9
  6
CONTINUOUS
 10
12.3716667756
 20
20.9082026583
 11
12.3517451419
 21
20.906438208
  0
LINE
  5
354
100
AcDbEntity
  8
0
100
AcDbLine
 62
7
  6
CONTINUOUS
 10
12.3716849445
 20
20.9084105139
 11
12.3517633107
 21
20.9066460636
  0
LINE
  5
355
100
AcDbEntity
  8
0
100
AcDbLine
 62
7
  6
CONTINUOUS
 10
12.7260067909
 20
20.7730256623
 11
13.0974021619
 21
20.7730256623
  0
LINE
  5
356
100
AcDbEntity
  8
0
100
AcDbLine
 62
9
  6
CONTINUOUS
 10
13.4641495503
 20
20.8111652555
 11
13.4442279165
 21
20.8129297058
  0
LINE
  5
357
100
AcDbEntity
  8
0
100
AcDbLine
 62
9
  6
CONTINUOUS
 10
13.4517451419
 20
20.9033197051
 11
13.4716667756
 21
20.9015552548
  0
LINE
  5
358
100
AcDbEntity
  8
0
100
AcDbLine
 62
9
  6
CONTINUOUS
 10
13.4716667756
 20
20.906438208
 11
13.4517451419
 21
20.9082026583
  0
LINE
  5
359
100
AcDbEntity
  8
0
100
AcDbLine
 62
7
  6
CONTINUOUS
 10
13.4716486067
 20
20.9066460636
 11
13.451726973
 21
20.9084105139
  0
ARC
  5
35A
100
AcDbEntity
  8
0
100
AcDbCircle
 62
7
  6
CONTINUOUS
 10
9.2556064181
 20
8.3345837076
 40
6.7449005907
100
AcDbArc
 50
358.1627650476
 51
358.330415277
  0
ARC
  5
35B
100
AcDbEntity
  8
0
100
AcDbCircle
 62
9
  6
CONTINUOUS
 10
8.7250414334
 20
12.0046897781
 40
3.9509631659
100
AcDbArc
 50
24.2639290047
 51
24.9891117711
  0
ARC
  5
35C
100
AcDbEntity
  8
0
100
AcDbCircle
 62
9
  6
CONTINUOUS
 10
9.030099662
 20
12.1481459241
 40
3.6139109006
100
AcDbArc
 50
23.4938512126
 51
23.9986275001
  0
ARC
  5
35D
100
AcDbEntity
  8
0
100
AcDbCircle
 62
7
  6
CONTINUOUS
 10
6.9398095808
 20
8.9779477311
 40
1.4020396301
100
AcDbArc
 50
101.0111250739
 51
116.1939332303
  0
ARC
  5
35E
100
AcDbEntity
  8
0
100
AcDbCircle
 62
7
  6
CONTINUOUS
 10
6.9391622196
 20
8.9798933434
 40
1.3999987061
100
AcDbArc
 50
116.2050583041
 51
167.727575842
  0
ARC
  5
35F
100
AcDbEntity
  8
0
100
AcDbCircle
 62
9
  6
CONTINUOUS
 10
7.0134592158
 20
9.0163807894
 40
1.1302193563
100
AcDbArc
 50
101.4313762069
 51
167.1118475277
  0
ARC
  5
360
100
AcDbEntity
  8
0
100
AcDbCircle
 62
7
  6
CONTINUOUS
 10
7.0134672752
 20
9.0163771695
 40
0.79999589
100
AcDbArc
 50
99.0001199719
 51
159.6674447468
  0
ARC
  5
361
100
AcDbEntity
  8
0
100
AcDbCircle
 62
7
  6
CONTINUOUS
 10
6.3573067138
 20
9.2596232445
 40
0.1001970444
100
AcDbArc
 50
159.7215876261
 51
215.9888605624
  0
ARC
  5
362
100
AcDbEntity
  8
0
100
AcDbCircle
 62
7
  6
CONTINUOUS
 10
5.6690132483
 20
9.2561983746
 40
0.1001546477
100
AcDbArc
 50
167.7320884136
 51
176.7400623324
  0
ARC
  5
363
100
AcDbEntity
  8
0
100
AcDbCircle
 62
9
  6
CONTINUOUS
 10
12.6502129332
 20
-12.3015612981
 40
24.2202453435
100
AcDbArc
 50
88.0675691066
 51
88.5629662062
  0
ARC
  5
364
100
AcDbEntity
  8
0
100
AcDbCircle
 62
7
  6
CONTINUOUS
 10
12.9117059587
 20
-2.6499743377
 40
0.27
100
AcDbArc
 50
180.0
 51
360.0
  0
ARC
  5
365
100
AcDbEntity
  8
0
100
AcDbCircle
 62
7
  6
CONTINUOUS
 10
10.1119158298
 20
10.1034112387
 40
4.2972146911
100
AcDbArc
 50
351.7138571903
 51
353.2700639198
  0
ARC
  5
366
100
AcDbEntity
  8
0
100
AcDbCircle
 62
9
  6
CONTINUOUS
 10
9.5320409634
 20
12.3708744603
 40
3.0647729051
100
AcDbArc
 50
24.0111928063
 51
24.2226517835
  0
ARC
  5
367
100
AcDbEntity
  8
0
100
AcDbCircle
 62
7
  6
CONTINUOUS
 10
11.1573336137
 20
13.2601848616
 40
2.4827188018
100
AcDbArc
 50
9.2965967709
 51
15.0162737825
  0
ARC
  5
368
100
AcDbEntity
  8
0
100
AcDbCircle
 62
7
  6
CONTINUOUS
 10
11.1573336137
 20
13.2601848616
 40
2.4827188018
100
AcDbArc
 50
336.7547341089
 51
344.3390810972
  0
CIRCLE
  5
369
100
AcDbEntity
  8
0
100
AcDbCircle
 62
7
  6
CONTINUOUS
 10
10.2681941477
 20
13.0597579458
 40
0.4
  0
ARC
  5
36A
100
AcDbEntity
  8
0
100
AcDbCircle
 62
7
  6
CONTINUOUS
 10
10.268254625
 20
13.1397579458
 40
0.375
100
AcDbArc
 50
52.2371948106
 51
138.0871091166
  0
ARC
  5
36B
100
AcDbEntity
  8
0
100
AcDbCircle
 62
7
  6
CONTINUOUS
 10
10.268254625
 20
12.9797579458
 40
0.375
100
AcDbArc
 50
221.9128908834
 51
307.7628051894
  0
ARC
  5
36C
100
AcDbEntity
  8
0
100
AcDbCircle
 62
7
  6
CONTINUOUS
 10
10.7170667518
 20
12.4003765936
 40
0.3578813522
100
AcDbArc
 50
59.0364377798
 51
127.7628051894
  0
ARC
  5
36D
100
AcDbEntity
  8
0
100
AcDbCircle
 62
7
  6
CONTINUOUS
 10
10.7170667518
 20
13.719139298
 40
0.3578813522
100
AcDbArc
 50
232.2371948106
 51
300.9635622202
  0
CIRCLE
  5
36E
100
AcDbEntity
  8
0
100
AcDbCircle
 62
7
  6
CONTINUOUS
 10
10.2681941477
 20
13.0597579458
 40
0.2525
  0
CIRCLE
  5
36F
100
AcDbEntity
  8
0
100
AcDbCircle
 62
7
  6
CONTINUOUS
 10
10.2681941477
 20
13.0597579458
 40
0.2375
  0
ARC
  5
370
100
AcDbEntity
  8
0
100
AcDbCircle
 62
7
  6
CONTINUOUS
 10
10.7781626517
 20
12.6147579458
 40
0.08
100
AcDbArc
 50
0.0
 51
90.0
  0
ARC
  5
371
100
AcDbEntity
  8
0
100
AcDbCircle
 62
7
  6
CONTINUOUS
 10
10.7781626517
 20
13.5047579458
 40
0.08
100
AcDbArc
 50
270.0
 51
360.0
  0
ARC
  5
372
100
AcDbEntity
  8
0
100
AcDbCircle
 62
7
  6
CONTINUOUS
 10
9.7911941477
 20
13.2957579458
 40
0.056
100
AcDbArc
 50
270.0
 51
360.0
  0
ARC
  5
373
100
AcDbEntity
  8
0
100
AcDbCircle
 62
7
  6
CONTINUOUS
 10
9.7911941477
 20
12.8237579458
 40
0.056
100
AcDbArc
 50
0.0
 51
90.0
  0
ARC
  5
374
100
AcDbEntity
  8
0
100
AcDbCircle
 62
7
  6
CONTINUOUS
 10
11.0211941477
 20
12.6922579458
 40
0.05
100
AcDbArc
 50
180.0
 51
263.0751017566
  0
ARC
  5
375
100
AcDbEntity
  8
0
100
AcDbCircle
 62
7
  6
CONTINUOUS
 10
11.0211941477
 20
13.4272579458
 40
0.05
100
AcDbArc
 50
96.9248982434
 51
180.0
  0
ARC
  5
376
100
AcDbEntity
  8
0
100
AcDbCircle
 62
7
  6
CONTINUOUS
 10
9.9181941477
 20
13.3432579458
 40
0.047
100
AcDbArc
 50
90.0
 51
180.0
  0
ARC
  5
377
100
AcDbEntity
  8
0
100
AcDbCircle
 62
7
  6
CONTINUOUS
 10
9.9181941477
 20
12.7762579458
 40
0.047
100
AcDbArc
 50
180.0
 51
270.0
  0
ARC
  5
378
100
AcDbEntity
  8
0
100
AcDbCircle
 62
7
  6
CONTINUOUS
 10
10.8881626517
 20
13.5797579458
 40
0.03
100
AcDbArc
 50
90.0
 51
180.0
  0
ARC
  5
379
100
AcDbEntity
  8
0
100
AcDbCircle
 62
7
  6
CONTINUOUS
 10
10.8881626517
 20
12.5397579458
 40
0.03
100
AcDbArc
 50
180.0
 51
270.0
  0
ARC
  5
37A
100
AcDbEntity
  8
0
100
AcDbCircle
 62
7
  6
CONTINUOUS
 10
10.7584776123
 20
13.3944429851
 40
0.0196850394
100
AcDbArc
 50
270.0
 51
360.0
  0
ARC
  5
37B
100
AcDbEntity
  8
0
100
AcDbCircle
 62
7
  6
CONTINUOUS
 10
10.7584776123
 20
12.7250729064
 40
0.0196850394
100
AcDbArc
 50
0.0
 51
90.0
  0
ARC
  5
37C
100
AcDbEntity
  8
0
100
AcDbCircle
 62
7
  6
CONTINUOUS
 10
11.1217059587
 20
15.0995286744
 40
1.39
100
AcDbArc
 50
346.1131090765
 51
15.2496931708
  0
ARC
  5
37D
100
AcDbEntity
  8
0
100
AcDbCircle
 62
7
  6
CONTINUOUS
 10
12.9117059587
 20
9.7134492692
 40
3.9093008025
100
AcDbArc
 50
93.972218819
 51
98.6361306251
  0
ARC
  5
37E
100
AcDbEntity
  8
0
100
AcDbCircle
 62
7
  6
CONTINUOUS
 10
12.9117059587
 20
9.7134492692
 40
3.9093008025
100
AcDbArc
 50
81.3638693749
 51
86.0277837167
  0
ARC
  5
37F
100
AcDbEntity
  8
0
100
AcDbCircle
 62
7
  6
CONTINUOUS
 10
12.2316965016
 20
11.9184228483
 40
1.25
100
AcDbArc
 50
319.4790737315
 51
359.7503849747
  0
ARC
  5
380
100
AcDbEntity
  8
0
100
AcDbCircle
 62
7
  6
CONTINUOUS
 10
12.2315481083
 20
11.9183383984
 40
1.2499447367
100
AcDbArc
 50
279.0077271476
 51
289.2105087307
  0
ARC
  5
381
100
AcDbEntity
  8
0
100
AcDbCircle
 62
9
  6
CONTINUOUS
 10
12.2313870305
 20
11.91890922
 40
0.680582767
100
AcDbArc
 50
281.4409571471
 51
307.3242347711
  0
ARC
  5
382
100
AcDbEntity
  8
0
100
AcDbCircle
 62
7
  6
CONTINUOUS
 10
11.8416986369
 20
11.8684253988
 40
0.5
100
AcDbArc
 50
281.000691627
 51
359.999308373
  0
ARC
  5
383
100
AcDbEntity
  8
0
100
AcDbCircle
 62
7
  6
CONTINUOUS
 10
11.8416476448
 20
12.0697964843
 40
0.469
100
AcDbArc
 50
57.5935402047
 51
83.0751017558
  0
ARC
  5
384
100
AcDbEntity
  8
0
100
AcDbCircle
 62
7
  6
CONTINUOUS
 10
11.9977718428
 20
13.8616385135
 40
0.2528428125
100
AcDbArc
 50
311.6942100928
 51
323.9548485999
  0
ARC
  5
385
100
AcDbEntity
  8
0
100
AcDbCircle
 62
7
  6
CONTINUOUS
 10
12.0914656129
 20
11.9118193275
 40
0.2502375489
100
AcDbArc
 50
0.0190720522
 51
38.1059405533
  0
ARC
  5
386
100
AcDbEntity
  8
0
100
AcDbCircle
 62
7
  6
CONTINUOUS
 10
12.1230866011
 20
12.2597568841
 40
0.2499829404
100
AcDbArc
 50
21.4765753503
 51
54.9102261638
  0
ARC
  5
387
100
AcDbEntity
  8
0
100
AcDbCircle
 62
7
  6
CONTINUOUS
 10
12.0003210724
 20
13.859632927
 40
0.249605126
100
AcDbArc
 50
323.9827616851
 51
347.3347379232
  0
ARC
  5
388
100
AcDbEntity
  8
0
100
AcDbCircle
 62
7
  6
CONTINUOUS
 10
12.0020114924
 20
13.8572902391
 40
0.2467838409
100
AcDbArc
 50
303.4905754722
 51
308.6460715484
  0
ARC
  5
389
100
AcDbEntity
  8
0
100
AcDbCircle
 62
7
  6
CONTINUOUS
 10
12.0031345083
 20
13.8557285009
 40
0.2448627819
100
AcDbArc
 50
308.6690545157
 51
311.677068472
  0
ARC
  5
38A
100
AcDbEntity
  8
0
100
AcDbCircle
 62
7
  6
CONTINUOUS
 10
12.3867059587
 20
12.1434193631
 40
0.125
100
AcDbArc
 50
90.0
 51
218.124911622
  0
ARC
  5
38B
100
AcDbEntity
  8
0
100
AcDbCircle
 62
7
  6
CONTINUOUS
 10
12.1876941477
 20
12.5132579458
 40
0.0935
100
AcDbArc
 50
329.4678748052
 51
360.0
  0
ARC
  5
38C
100
AcDbEntity
  8
0
100
AcDbCircle
 62
7
  6
CONTINUOUS
 10
12.1876941477
 20
13.6062579458
 40
0.0935
100
AcDbArc
 50
0.0
 51
30.5321251948
  0
ARC
  5
38D
100
AcDbEntity
  8
0
100
AcDbCircle
 62
7
  6
CONTINUOUS
 10
12.3323752501
 20
13.527825175
 40
0.0511811024
100
AcDbArc
 50
98.6361306251
 51
180.0
  0
ARC
  5
38E
100
AcDbEntity
  8
0
100
AcDbCircle
 62
7
  6
CONTINUOUS
 10
12.3323752501
 20
12.5916907165
 40
0.0511811024
100
AcDbArc
 50
180.0
 51
261.3638693749
  0
ARC
  5
38F
100
AcDbEntity
  8
0
100
AcDbCircle
 62
7
  6
CONTINUOUS
 10
12.402984206
 20
12.2881044025
 40
0.0196850394
100
AcDbArc
 50
203.2452658911
 51
270.0
  0
ARC
  5
390
100
AcDbEntity
  8
0
100
AcDbCircle
 62
7
  6
CONTINUOUS
 10
12.2871515418
 20
13.8983406229
 40
0.0196850394
100
AcDbArc
 50
90.0
 51
164.9837262175
  0
ARC
  5
391
100
AcDbEntity
  8
0
100
AcDbCircle
 62
7
  6
CONTINUOUS
 10
11.4293144956
 20
14.6610212831
 40
4.4601565395
100
AcDbArc
 50
80.0079253262
 51
80.1585800292
  0
ARC
  5
392
100
AcDbEntity
  8
0
100
AcDbCircle
 62
7
  6
CONTINUOUS
 10
11.47043632
 20
14.8963956679
 40
4.2212172549
100
AcDbArc
 50
79.8444026819
 51
80.0032806742
  0
ARC
  5
393
100
AcDbEntity
  8
0
100
AcDbCircle
 62
7
  6
CONTINUOUS
 10
11.5152865263
 20
15.1471509724
 40
3.9664825711
100
AcDbArc
 50
79.7193790742
 51
79.8434471533
  0
ARC
  5
394
100
AcDbEntity
  8
0
100
AcDbCircle
 62
7
  6
CONTINUOUS
 10
11.8416476448
 20
14.0497194073
 40
0.469
100
AcDbArc
 50
276.9248982442
 51
302.4064597953
  0
ARC
  5
395
100
AcDbEntity
  8
0
100
AcDbCircle
 62
7
  6
CONTINUOUS
 10
12.3567059587
 20
15.8441563826
 40
1.0
100
AcDbArc
 50
343.5257501351
 51
16.8349806732
  0
ARC
  5
396
100
AcDbEntity
  8
0
100
AcDbCircle
 62
7
  6
CONTINUOUS
 10
12.3351702331
 20
14.7995212499
 40
0.14
100
AcDbArc
 50
295.0
 51
346.1131090765
  0
ARC
  5
397
100
AcDbEntity
  8
0
100
AcDbCircle
 62
7
  6
CONTINUOUS
 10
12.4598113131
 20
15.5463927638
 40
0.05
100
AcDbArc
 50
293.4958766063
 51
16.4742498649
  0
ARC
  5
398
100
AcDbEntity
  8
0
100
AcDbCircle
 62
7
  6
CONTINUOUS
 10
12.4917059587
 20
15.4730256623
 40
0.03
100
AcDbArc
 50
113.4958766065
 51
195.2496931702
  0
ARC
  5
399
100
AcDbEntity
  8
0
100
AcDbCircle
 62
7
  6
CONTINUOUS
 10
12.3482059587
 20
14.6180256623
 40
0.03
100
AcDbArc
 50
115.0
 51
180.0
  0
ARC
  5
39A
100
AcDbEntity
  8
0
100
AcDbCircle
 62
7
  6
CONTINUOUS
 10
12.3792103488
 20
16.3949053281
 40
0.2099956099
100
AcDbArc
 50
301.4808058443
 51
53.250856315
  0
ARC
  5
39B
100
AcDbEntity
  8
0
100
AcDbCircle
 62
7
  6
CONTINUOUS
 10
12.4617059587
 20
16.1482534066
 40
0.05
100
AcDbArc
 50
343.1650193268
 51
57.4210296069
  0
ARC
  5
39C
100
AcDbEntity
  8
0
100
AcDbCircle
 62
7
  6
CONTINUOUS
 10
12.4967059587
 20
16.2030256623
 40
0.015
100
AcDbArc
 50
121.4808058442
 51
237.421029607
  0
ARC
  5
39D
100
AcDbEntity
  8
0
100
AcDbCircle
 62
7
  6
CONTINUOUS
 10
12.4326375697
 20
17.8569823226
 40
0.2090683891
100
AcDbArc
 50
302.6049200261
 51
32.9999999999
  0
ARC
  5
39E
100
AcDbEntity
  8
0
100
AcDbCircle
 62
7
  6
CONTINUOUS
 10
12.5092059587
 20
18.1780256623
 40
0.03
100
AcDbArc
 50
90.0
 51
212.9999999993
  0
ARC
  5
39F
100
AcDbEntity
  8
0
100
AcDbCircle
 62
7
  6
CONTINUOUS
 10
12.5163456279
 20
18.2280256623
 40
0.02
100
AcDbArc
 50
181.041626676
 51
270.0
  0
ARC
  5
3A0
100
AcDbEntity
  8
0
100
AcDbCircle
 62
7
  6
CONTINUOUS
 10
12.9117059587
 20
16.4060666223
 40
3.9093008025
100
AcDbArc
 50
261.3638693749
 51
266.027781181
  0
ARC
  5
3A1
100
AcDbEntity
  8
0
100
AcDbCircle
 62
7
  6
CONTINUOUS
 10
12.9117059587
 20
16.4060666223
 40
3.9093008025
100
AcDbArc
 50
273.9722162833
 51
278.6361306251
  0
ARC
  5
3A2
100
AcDbEntity
  8
0
100
AcDbCircle
 62
7
  6
CONTINUOUS
 10
12.9117038545
 20
17.1080233197
 40
0.6799978269
100
AcDbArc
 50
306.7494037782
 51
57.3950373869
  0
ARC
  5
3A3
100
AcDbEntity
  8
0
100
AcDbCircle
 62
7
  6
CONTINUOUS
 10
12.911701733
 20
17.108029364
 40
0.6799917054
100
AcDbArc
 50
122.6047699998
 51
233.2513378472
  0
ARC
  5
3A4
100
AcDbEntity
  8
0
100
AcDbCircle
 62
7
  6
CONTINUOUS
 10
12.9117059587
 20
17.1080256623
 40
0.5172452508
100
AcDbArc
 50
301.5830545285
 51
58.5378228271
  0
ARC
  5
3A5
100
AcDbEntity
  8
0
100
AcDbCircle
 62
7
  6
CONTINUOUS
 10
12.9117059587
 20
17.1080256623
 40
0.5172452508
100
AcDbArc
 50
121.5100783576
 51
238.55067774
  0
ARC
  5
3A6
100
AcDbEntity
  8
0
100
AcDbCircle
 62
7
  6
CONTINUOUS
 10
12.9117059587
 20
17.1080256623
 40
0.5
100
AcDbArc
 50
303.0595487442
 51
56.9404512558
  0
ARC
  5
3A7
100
AcDbEntity
  8
0
100
AcDbCircle
 62
7
  6
CONTINUOUS
 10
12.9117059587
 20
17.1080256623
 40
0.5
100
AcDbArc
 50
123.0595487442
 51
236.9404512558
  0
ARC
  5
3A8
100
AcDbEntity
  8
0
100
AcDbCircle
 62
7
  6
CONTINUOUS
 10
12.9117059587
 20
17.1080256623
 40
0.481
100
AcDbArc
 50
140.6826645581
 51
159.3173354419
  0
ARC
  5
3A9
100
AcDbEntity
  8
0
100
AcDbCircle
 62
7
  6
CONTINUOUS
 10
12.9117059587
 20
17.1080256623
 40
0.481
100
AcDbArc
 50
200.6826645581
 51
219.317335442
  0
ARC
  5
3AA
100
AcDbEntity
  8
0
100
AcDbCircle
 62
7
  6
CONTINUOUS
 10
12.9117059587
 20
17.1080256623
 40
0.481
100
AcDbArc
 50
320.6826645581
 51
339.3173354419
  0
ARC
  5
3AB
100
AcDbEntity
  8
0
100
AcDbCircle
 62
7
  6
CONTINUOUS
 10
12.9117059587
 20
17.1080256623
 40
0.481
100
AcDbArc
 50
20.6826645581
 51
39.317335442
  0
ARC
  5
3AC
100
AcDbEntity
  8
0
100
AcDbCircle
 62
7
  6
CONTINUOUS
 10
12.9117059587
 20
17.1080256623
 40
0.4165551275
100
AcDbArc
 50
130.9199922388
 51
229.0943347759
  0
ARC
  5
3AD
100
AcDbEntity
  8
0
100
AcDbCircle
 62
7
  6
CONTINUOUS
 10
12.9117059587
 20
17.1080256623
 40
0.4165551275
100
AcDbArc
 50
310.9199922387
 51
49.0943347758
  0
ARC
  5
3AE
100
AcDbEntity
  8
0
100
AcDbCircle
 62
7
  6
CONTINUOUS
 10
12.9117059587
 20
17.1080256623
 40
0.3
100
AcDbArc
 50
155.5552320955
 51
204.4970793227
  0
ARC
  5
3AF
100
AcDbEntity
  8
0
100
AcDbCircle
 62
7
  6
CONTINUOUS
 10
12.9117059587
 20
17.1080256623
 40
0.3
100
AcDbArc
 50
335.5552320955
 51
24.4970793227
  0
ARC
  5
3B0
100
AcDbEntity
  8
0
100
AcDbCircle
 62
9
  6
CONTINUOUS
 10
0.293432639
 20
21.9837788327
 40
13.2028142495
100
AcDbArc
 50
354.9122243463
 51
355.0549952705
  0
ARC
  5
3B1
100
AcDbEntity
  8
0
100
AcDbCircle
 62
9
  6
CONTINUOUS
 10
12.0837433689
 20
19.5444555464
 40
0.6369202585
100
AcDbArc
 50
28.7646474627
 51
30.2757661112
  0
ARC
  5
3B2
100
AcDbEntity
  8
0
100
AcDbCircle
 62
7
  6
CONTINUOUS
 10
11.9217059587
 20
19.1807823535
 40
0.05
100
AcDbArc
 50
139.0941338576
 51
180.0
  0
ARC
  5
3B3
100
AcDbEntity
  8
0
100
AcDbCircle
 62
7
  6
CONTINUOUS
 10
12.0967059587
 20
19.082392219
 40
0.01
100
AcDbArc
 50
180.0
 51
260.0000000007
  0
ARC
  5
3B4
100
AcDbEntity
  8
0
100
AcDbCircle
 62
7
  6
CONTINUOUS
 10
12.0767059587
 20
19.0877579458
 40
0.01
100
AcDbArc
 50
0.0
 51
90.0
  0
ARC
  5
3B5
100
AcDbEntity
  8
0
100
AcDbCircle
 62
7
  6
CONTINUOUS
 10
11.2883569299
 20
19.7295200028
 40
0.788
100
AcDbArc
 50
319.0941338575
 51
353.5781868592
  0
ARC
  5
3B6
100
AcDbEntity
  8
0
100
AcDbCircle
 62
7
  6
CONTINUOUS
 10
12.1762441338
 20
19.5585755764
 40
0.4991069041
100
AcDbArc
 50
28.3299380708
 51
33.9036518852
  0
ARC
  5
3B7
100
AcDbEntity
  8
0
100
AcDbCircle
 62
7
  6
CONTINUOUS
 10
12.1864795137
 20
19.5638641015
 40
0.4875532564
100
AcDbArc
 50
24.241828426
 51
28.3801497039
  0
ARC
  5
3B8
100
AcDbEntity
  8
0
100
AcDbCircle
 62
7
  6
CONTINUOUS
 10
12.1880276186
 20
19.5648900917
 40
0.4857381923
100
AcDbArc
 50
24.1526731004
 51
28.3339024512
  0
ARC
  5
3B9
100
AcDbEntity
  8
0
100
AcDbCircle
 62
7
  6
CONTINUOUS
 10
12.2001147193
 20
19.5620655534
 40
0.4771362123
100
AcDbArc
 50
35.155984744
 51
37.0514934178
  0
ARC
  5
3BA
100
AcDbEntity
  8
0
100
AcDbCircle
 62
7
  6
CONTINUOUS
 10
12.2019471935
 20
19.563325807
 40
0.4749123454
100
AcDbArc
 50
31.8871643565
 51
35.1589742274
  0
ARC
  5
3BB
100
AcDbEntity
  8
0
100
AcDbCircle
 62
9
  6
CONTINUOUS
 10
12.1858578157
 20
18.9573076216
 40
0.4097186318
100
AcDbArc
 50
336.7397687029
 51
338.9928701722
  0
ARC
  5
3BC
100
AcDbEntity
  8
0
100
AcDbCircle
 62
9
  6
CONTINUOUS
 10
12.7779883127
 20
18.7679566327
 40
0.2933386302
100
AcDbArc
 50
188.308383621
 51
192.6508682267
  0
ARC
  5
3BD
100
AcDbEntity
  8
0
100
AcDbCircle
 62
7
  6
CONTINUOUS
 10
12.2717059587
 20
19.0312264652
 40
0.01
100
AcDbArc
 50
0.0
 51
79.9999999997
  0
ARC
  5
3BE
100
AcDbEntity
  8
0
100
AcDbCircle
 62
7
  6
CONTINUOUS
 10
12.2917059587
 20
19.0236382191
 40
0.01
100
AcDbArc
 50
180.0
 51
259.9999999997
  0
ARC
  5
3BF
100
AcDbEntity
  8
0
100
AcDbCircle
 62
7
  6
CONTINUOUS
 10
12.4667059587
 20
18.9684107588
 40
0.01
100
AcDbArc
 50
180.0
 51
259.9999999997
  0
ARC
  5
3C0
100
AcDbEntity
  8
0
100
AcDbCircle
 62
7
  6
CONTINUOUS
 10
12.4467059587
 20
18.9759990049
 40
0.01
100
AcDbArc
 50
0.0
 51
79.9999999997
  0
ARC
  5
3C1
100
AcDbEntity
  8
0
100
AcDbCircle
 62
7
  6
CONTINUOUS
 10
12.8825721005
 20
19.9817579458
 40
0.768
100
AcDbArc
 50
139.355686794
 51
173.5781868591
  0
ARC
  5
3C2
100
AcDbEntity
  8
0
100
AcDbCircle
 62
7
  6
CONTINUOUS
 10
12.940839817
 20
19.9817579458
 40
0.768
100
AcDbArc
 50
6.4218131409
 51
40.644313206
  0
ARC
  5
3C3
100
AcDbEntity
  8
0
100
AcDbCircle
 62
7
  6
CONTINUOUS
 10
12.9124720053
 20
20.3635627713
 40
0.5943959892
100
AcDbArc
 50
311.3329951363
 51
311.7441261191
  0
ARC
  5
3C4
100
AcDbEntity
  8
0
100
AcDbCircle
 62
7
  6
CONTINUOUS
 10
12.9109395134
 20
20.3635624001
 40
0.5943954574
100
AcDbArc
 50
228.255807317
 51
228.6601166522
  0
ARC
  5
3C5
100
AcDbEntity
  8
0
100
AcDbCircle
 62
7
  6
CONTINUOUS
 10
12.9134415474
 20
20.3629328381
 40
0.5932769441
100
AcDbArc
 50
311.7147686827
 51
354.9031543976
  0
ARC
  5
3C6
100
AcDbEntity
  8
0
100
AcDbCircle
 62
7
  6
CONTINUOUS
 10
12.9098875316
 20
20.3628905
 40
0.5931866207
100
AcDbArc
 50
185.0934832039
 51
228.2884112553
  0
ARC
  5
3C7
100
AcDbEntity
  8
0
100
AcDbCircle
 62
9
  6
CONTINUOUS
 10
12.9100056218
 20
20.3570212881
 40
0.508315274
100
AcDbArc
 50
185.1002866291
 51
237.7914232834
  0
ARC
  5
3C8
100
AcDbEntity
  8
0
100
AcDbCircle
 62
9
  6
CONTINUOUS
 10
12.913411574
 20
20.3570183943
 40
0.5083094408
100
AcDbArc
 50
302.2085573118
 51
354.8999853782
  0
ARC
  5
3C9
100
AcDbEntity
  8
0
100
AcDbCircle
 62
9
  6
CONTINUOUS
 10
12.9102892513
 20
20.3571074082
 40
0.4886090731
100
AcDbArc
 50
185.1089781705
 51
236.6264915091
  0
ARC
  5
3CA
100
AcDbEntity
  8
0
100
AcDbCircle
 62
9
  6
CONTINUOUS
 10
12.9131226503
 20
20.3571074177
 40
0.4886090731
100
AcDbArc
 50
303.3735094294
 51
354.8910208858
  0
ARC
  5
3CB
100
AcDbEntity
  8
0
100
AcDbCircle
 62
7
  6
CONTINUOUS
 10
12.1978868802
 20
19.5690117846
 40
0.4750381238
100
AcDbArc
 50
22.0610940337
 51
24.1065614283
  0
ARC
  5
3CC
100
AcDbEntity
  8
0
100
AcDbCircle
 62
7
  6
CONTINUOUS
 10
12.2006626216
 20
19.5701907529
 40
0.4720227994
100
AcDbArc
 50
20.1063241081
 51
24.0758105022
  0
ARC
  5
3CD
100
AcDbEntity
  8
0
100
AcDbCircle
 62
7
  6
CONTINUOUS
 10
12.2059325132
 20
19.565794067
 40
0.4702245965
100
AcDbArc
 50
29.2809770771
 51
31.8883173648
  0
ARC
  5
3CE
100
AcDbEntity
  8
0
100
AcDbCircle
 62
7
  6
CONTINUOUS
 10
12.2153505218
 20
19.5709528704
 40
0.4594867891
100
AcDbArc
 50
24.8804122723
 51
29.2942707117
  0
ARC
  5
3CF
100
AcDbEntity
  8
0
100
AcDbCircle
 62
7
  6
CONTINUOUS
 10
12.2206913279
 20
19.573567148
 40
0.4535417978
100
AcDbArc
 50
20.3612258416
 51
24.8646682286
  0
ARC
  5
3D0
100
AcDbEntity
  8
0
100
AcDbCircle
 62
7
  6
CONTINUOUS
 10
12.379184035
 20
20.8237420097
 40
0.0849999527
100
AcDbArc
 50
5.107003724
 51
95.0614802985
  0
ARC
  5
3D1
100
AcDbEntity
  8
0
100
AcDbCircle
 62
7
  6
CONTINUOUS
 10
12.3592535944
 20
20.8219798976
 40
0.0849912272
100
AcDbArc
 50
95.0645186049
 51
180.0016103352
  0
ARC
  5
3D2
100
AcDbEntity
  8
0
100
AcDbCircle
 62
9
  6
CONTINUOUS
 10
12.3792623382
 20
20.8187123973
 40
0.084940704
100
AcDbArc
 50
5.1646329295
 51
95.1299370546
  0
ARC
  5
3D3
100
AcDbEntity
  8
0
100
AcDbCircle
 62
7
  6
CONTINUOUS
 10
12.3591191149
 20
20.817009831
 40
0.0848587779
100
AcDbArc
 50
94.9846702797
 51
179.9427934267
  0
ARC
  5
3D4
100
AcDbEntity
  8
0
100
AcDbCircle
 62
9
  6
CONTINUOUS
 10
12.3794580627
 20
20.8237079019
 40
0.0847284141
100
AcDbArc
 50
5.1007456385
 51
95.0703073985
  0
ARC
  5
3D5
100
AcDbEntity
  8
0
100
AcDbCircle
 62
9
  6
CONTINUOUS
 10
12.3588791352
 20
20.8219921525
 40
0.0846115284
100
AcDbArc
 50
95.0470330977
 51
180.0099196876
  0
ARC
  5
3D6
100
AcDbEntity
  8
0
100
AcDbCircle
 62
9
  6
CONTINUOUS
 10
12.2563671701
 20
21.9714700106
 40
1.1648581658
100
AcDbArc
 50
273.4695299525
 51
275.0677022161
  0
ARC
  5
3D7
100
AcDbEntity
  8
0
100
AcDbCircle
 62
9
  6
CONTINUOUS
 10
12.8304537783
 20
20.5231742514
 40
0.6859036618
100
AcDbArc
 50
248.4661017109
 51
249.6194058079
  0
ARC
  5
3D8
100
AcDbEntity
  8
0
100
AcDbCircle
 62
9
  6
CONTINUOUS
 10
13.0008155961
 20
20.5026758887
 40
0.6639524951
100
AcDbArc
 50
290.3427377677
 51
291.4595173464
  0
ARC
  5
3D9
100
AcDbEntity
  8
0
100
AcDbCircle
 62
9
  6
CONTINUOUS
 10
13.0202178382
 20
20.3819543496
 40
0.5434639248
100
AcDbArc
 50
287.2981820354
 51
288.1618669385
  0
ARC
  5
3DA
100
AcDbEntity
  8
0
100
AcDbCircle
 62
9
  6
CONTINUOUS
 10
12.8031811442
 20
20.3819136187
 40
0.5434211913
100
AcDbArc
 50
251.8380903545
 51
252.7017072923
  0
ARC
  5
3DB
100
AcDbEntity
  8
0
100
AcDbCircle
 62
7
  6
CONTINUOUS
 10
12.9117059587
 20
20.3997579458
 40
0.54
100
AcDbArc
 50
35.6422950402
 51
144.2886464506
  0
ARC
  5
3DC
100
AcDbEntity
  8
0
100
AcDbCircle
 62
7
  6
CONTINUOUS
 10
12.9117059587
 20
20.3980256623
 40
0.45
100
AcDbArc
 50
307.2240652511
 51
232.7816773979
  0
ARC
  5
3DD
100
AcDbEntity
  8
0
100
AcDbCircle
 62
7
  6
CONTINUOUS
 10
12.9117059587
 20
20.3997579458
 40
0.45
100
AcDbArc
 50
19.7362337178
 51
160.2637662822
  0
ARC
  5
3DE
100
AcDbEntity
  8
0
100
AcDbCircle
 62
7
  6
CONTINUOUS
 10
12.9117059587
 20
20.3980256623
 40
0.4290186125
100
AcDbArc
 50
309.4716690467
 51
230.5345767392
  0
ARC
  5
3DF
100
AcDbEntity
  8
0
100
AcDbCircle
 62
7
  6
CONTINUOUS
 10
12.9117059587
 20
20.3980256623
 40
0.4262436548
100
AcDbArc
 50
309.7787508711
 51
230.2132620092
  0
ARC
  5
3E0
100
AcDbEntity
  8
0
100
AcDbCircle
 62
7
  6
CONTINUOUS
 10
12.9117059587
 20
20.3980256623
 40
0.4184602369
100
AcDbArc
 50
63.6555586134
 51
116.3444413866
  0
ARC
  5
3E1
100
AcDbEntity
  8
0
100
AcDbCircle
 62
9
  6
CONTINUOUS
 10
12.9117059587
 20
20.3980256623
 40
0.4106539279
100
AcDbArc
 50
311.195390864
 51
65.9483239083
  0
ARC
  5
3E2
100
AcDbEntity
  8
0
100
AcDbCircle
 62
9
  6
CONTINUOUS
 10
12.9117059587
 20
20.3980256623
 40
0.4106539279
100
AcDbArc
 50
114.0520578367
 51
228.8046021282
  0
ARC
  5
3E3
100
AcDbEntity
  8
0
100
AcDbCircle
 62
9
  6
CONTINUOUS
 10
12.9117059587
 20
20.3980256623
 40
0.3906653701
100
AcDbArc
 50
106.2804921621
 51
225.7982183496
  0
ARC
  5
3E4
100
AcDbEntity
  8
0
100
AcDbCircle
 62
9
  6
CONTINUOUS
 10
12.9117059587
 20
20.3980256623
 40
0.3906653701
100
AcDbArc
 50
314.2019388065
 51
73.7195078379
  0
ARC
  5
3E5
100
AcDbEntity
  8
0
100
AcDbCircle
 62
7
  6
CONTINUOUS
 10
12.9117059587
 20
20.3980256623
 40
0.27
100
AcDbArc
 50
0.0
 51
180.0
  0
ARC
  5
3E6
100
AcDbEntity
  8
0
100
AcDbCircle
 62
7
  6
CONTINUOUS
 10
15.91762915
 20
8.211927635
 40
1.8761532602
100
AcDbArc
 50
180.1299963632
 51
180.5263341233
  0
ARC
  5
3E7
100
AcDbEntity
  8
0
100
AcDbCircle
 62
7
  6
CONTINUOUS
 10
14.1227742635
 20
8.2119273095
 40
1.8761066489
100
AcDbArc
 50
359.473660543
 51
359.870169899
  0
ARC
  5
3E8
100
AcDbEntity
  8
0
100
AcDbCircle
 62
7
  6
CONTINUOUS
 10
15.8906834193
 20
8.2118051694
 40
1.849207336
100
AcDbArc
 50
180.1228586548
 51
180.4448368436
  0
ARC
  5
3E9
100
AcDbEntity
  8
0
100
AcDbCircle
 62
7
  6
CONTINUOUS
 10
14.1497147702
 20
8.21180493
 40
1.8491659414
100
AcDbArc
 50
359.5551627963
 51
359.877289316
  0
ARC
  5
3EA
100
AcDbEntity
  8
0
100
AcDbCircle
 62
7
  6
CONTINUOUS
 10
15.8237009157
 20
8.1884625511
 40
1.7817444538
100
AcDbArc
 50
179.2423622824
 51
179.3592296461
  0
ARC
  5
3EB
100
AcDbEntity
  8
0
100
AcDbCircle
 62
7
  6
CONTINUOUS
 10
14.2166589585
 20
8.1884625281
 40
1.7817413807
100
AcDbArc
 50
0.6407734495
 51
0.7576356138
  0
ARC
  5
3EC
100
AcDbEntity
  8
0
100
AcDbCircle
 62
7
  6
CONTINUOUS
 10
15.7723412878
 20
8.2114870255
 40
1.7308647758
100
AcDbArc
 50
179.9814363133
 51
180.1263229816
  0
ARC
  5
3ED
100
AcDbEntity
  8
0
100
AcDbCircle
 62
7
  6
CONTINUOUS
 10
14.2680547785
 20
8.2114870035
 40
1.7308255128
100
AcDbArc
 50
359.8738478199
 51
0.0185605364
  0
ARC
  5
3EE
100
AcDbEntity
  8
0
100
AcDbCircle
 62
7
  6
CONTINUOUS
 10
15.7711971602
 20
8.2114816326
 40
1.7297206591
100
AcDbArc
 50
179.9835789039
 51
180.120628616
  0
ARC
  5
3EF
100
AcDbEntity
  8
0
100
AcDbCircle
 62
7
  6
CONTINUOUS
 10
14.2691963514
 20
8.2114816154
 40
1.7296839431
100
AcDbArc
 50
359.8795225919
 51
0.0164263991
  0
ARC
  5
3F0
100
AcDbEntity
  8
0
100
AcDbCircle
 62
7
  6
CONTINUOUS
 10
15.7649317889
 20
8.189304074
 40
1.7229693387
100
AcDbArc
 50
178.7354169549
 51
179.2445022405
  0
ARC
  5
3F1
100
AcDbEntity
  8
0
100
AcDbCircle
 62
7
  6
CONTINUOUS
 10
14.2762359514
 20
8.1893165578
 40
1.7221583065
100
AcDbArc
 50
0.753117396
 51
1.2760363844
  0
ARC
  5
3F2
100
AcDbEntity
  8
0
100
AcDbCircle
 62
7
  6
CONTINUOUS
 10
14.4221181044
 20
8.1928665462
 40
1.5762333041
100
AcDbArc
 50
1.2651158157
 51
2.6013329797
  0
ARC
  5
3F3
100
AcDbEntity
  8
0
100
AcDbCircle
 62
7
  6
CONTINUOUS
 10
14.4252800677
 20
8.211698692
 40
1.5736004983
100
AcDbArc
 50
0.0101398368
 51
0.5693966768
  0
ARC
  5
3F4
100
AcDbEntity
  8
0
100
AcDbCircle
 62
7
  6
CONTINUOUS
 10
15.6123802717
 20
8.2117090914
 40
1.5709039279
100
AcDbArc
 50
179.4176736414
 51
179.9876778872
  0
ARC
  5
3F5
100
AcDbEntity
  8
0
100
AcDbCircle
 62
7
  6
CONTINUOUS
 10
13.7319288266
 20
11.9118018698
 40
0.2502347194
100
AcDbArc
 50
141.8902043563
 51
179.7317050564
  0
ARC
  5
3F6
100
AcDbEntity
  8
0
100
AcDbCircle
 62
7
  6
CONTINUOUS
 10
13.4367059587
 20
12.1434193631
 40
0.125
100
AcDbArc
 50
321.8715656423
 51
90.0
  0
ARC
  5
3F7
100
AcDbEntity
  8
0
100
AcDbCircle
 62
9
  6
CONTINUOUS
 10
14.3869882209
 20
12.4427469237
 40
0.1034713435
100
AcDbArc
 50
0.5484357927
 51
18.5145175146
  0
ARC
  5
3F8
100
AcDbEntity
  8
0
100
AcDbCircle
 62
9
  6
CONTINUOUS
 10
14.3903229724
 20
12.4439530433
 40
0.099904919
100
AcDbArc
 50
18.5703229988
 51
35.7887852467
  0
ARC
  5
3F9
100
AcDbEntity
  8
0
100
AcDbCircle
 62
9
  6
CONTINUOUS
 10
14.3913229475
 20
12.444686841
 40
0.0986646373
100
AcDbArc
 50
35.7827131021
 51
44.5156117977
  0
ARC
  5
3FA
100
AcDbEntity
  8
0
100
AcDbCircle
 62
7
  6
CONTINUOUS
 10
13.4910366674
 20
12.5916907165
 40
0.0511811024
100
AcDbArc
 50
278.6361306251
 51
360.0
  0
ARC
  5
3FB
100
AcDbEntity
  8
0
100
AcDbCircle
 62
7
  6
CONTINUOUS
 10
13.4204277115
 20
12.2881044025
 40
0.0196850394
100
AcDbArc
 50
270.0
 51
336.7547341089
  0
ARC
  5
3FC
100
AcDbEntity
  8
0
100
AcDbCircle
 62
7
  6
CONTINUOUS
 10
14.3852178256
 20
14.7118012941
 40
4.4086060561
100
AcDbArc
 50
99.8406536261
 51
99.9929357969
  0
ARC
  5
3FD
100
AcDbEntity
  8
0
100
AcDbCircle
 62
7
  6
CONTINUOUS
 10
14.3597260146
 20
14.8583655366
 40
4.2598418183
100
AcDbArc
 50
99.9973439531
 51
100.1543485639
  0
ARC
  5
3FE
100
AcDbEntity
  8
0
100
AcDbCircle
 62
7
  6
CONTINUOUS
 10
14.3125733546
 20
15.122488232
 40
3.9915432024
100
AcDbArc
 50
100.1565144322
 51
100.2807131789
  0
ARC
  5
3FF
100
AcDbEntity
  8
0
100
AcDbCircle
 62
7
  6
CONTINUOUS
 10
14.7017059587
 20
15.0995286744
 40
1.39
100
AcDbArc
 50
164.7503068292
 51
193.8868909235
  0
ARC
  5
400
100
AcDbEntity
  8
0
100
AcDbCircle
 62
7
  6
CONTINUOUS
 10
13.4667059587
 20
15.8441563826
 40
1.0
100
AcDbArc
 50
163.1650193268
 51
196.4742498649
  0
ARC
  5
401
100
AcDbEntity
  8
0
100
AcDbCircle
 62
7
  6
CONTINUOUS
 10
13.4442015687
 20
16.3949053281
 40
0.2099956099
100
AcDbArc
 50
126.749143685
 51
238.5191941557
  0
ARC
  5
402
100
AcDbEntity
  8
0
100
AcDbCircle
 62
7
  6
CONTINUOUS
 10
13.3907743478
 20
17.8569823226
 40
0.2090683891
100
AcDbArc
 50
147.0000000001
 51
237.3950799739
  0
ARC
  5
403
100
AcDbEntity
  8
0
100
AcDbCircle
 62
7
  6
CONTINUOUS
 10
13.4882416843
 20
14.7995212499
 40
0.14
100
AcDbArc
 50
193.8868909235
 51
245.0
  0
ARC
  5
404
100
AcDbEntity
  8
0
100
AcDbCircle
 62
7
  6
CONTINUOUS
 10
13.4910366674
 20
13.527825175
 40
0.0511811024
100
AcDbArc
 50
0.0
 51
81.3638693749
  0
ARC
  5
405
100
AcDbEntity
  8
0
100
AcDbCircle
 62
7
  6
CONTINUOUS
 10
13.3617059587
 20
16.1482534066
 40
0.05
100
AcDbArc
 50
122.5789703931
 51
196.8349806732
  0
ARC
  5
406
100
AcDbEntity
  8
0
100
AcDbCircle
 62
7
  6
CONTINUOUS
 10
13.3636006043
 20
15.5463927638
 40
0.05
100
AcDbArc
 50
163.5257501351
 51
246.5041233937
  0
ARC
  5
407
100
AcDbEntity
  8
0
100
AcDbCircle
 62
7
  6
CONTINUOUS
 10
13.3142059587
 20
18.1780256623
 40
0.03
100
AcDbArc
 50
327.0000000007
 51
90.0
  0
ARC
  5
408
100
AcDbEntity
  8
0
100
AcDbCircle
 62
7
  6
CONTINUOUS
 10
13.3317059587
 20
15.4730256623
 40
0.03
100
AcDbArc
 50
344.7503068298
 51
66.5041233935
  0
ARC
  5
409
100
AcDbEntity
  8
0
100
AcDbCircle
 62
7
  6
CONTINUOUS
 10
13.4752059587
 20
14.6180256623
 40
0.03
100
AcDbArc
 50
0.0
 51
65.0
  0
ARC
  5
40A
100
AcDbEntity
  8
0
100
AcDbCircle
 62
7
  6
CONTINUOUS
 10
13.3070662896
 20
18.2280256623
 40
0.02
100
AcDbArc
 50
270.0
 51
358.958373324
  0
ARC
  5
40B
100
AcDbEntity
  8
0
100
AcDbCircle
 62
7
  6
CONTINUOUS
 10
13.5362603757
 20
13.8983406229
 40
0.0196850394
100
AcDbArc
 50
15.0162737825
 51
90.0
  0
ARC
  5
40C
100
AcDbEntity
  8
0
100
AcDbCircle
 62
7
  6
CONTINUOUS
 10
13.3267059587
 20
16.2030256623
 40
0.015
100
AcDbArc
 50
302.578970393
 51
58.5191941558
  0
ARC
  5
40D
100
AcDbEntity
  8
0
100
AcDbCircle
 62
7
  6
CONTINUOUS
 10
20.7806766649
 20
8.334460594
 40
6.7408250185
100
AcDbArc
 50
181.6694538761
 51
181.837290819
  0
ARC
  5
40E
100
AcDbEntity
  8
0
100
AcDbCircle
 62
7
  6
CONTINUOUS
 10
19.9284408936
 20
10.1034112284
 40
4.2972146145
100
AcDbArc
 50
186.7299362847
 51
188.286142819
  0
ARC
  5
40F
100
AcDbEntity
  8
0
100
AcDbCircle
 62
9
  6
CONTINUOUS
 10
13.7393903892
 20
19.5446231133
 40
0.6365964427
100
AcDbArc
 50
149.7247666831
 51
151.2365306743
  0
ARC
  5
410
100
AcDbEntity
  8
0
100
AcDbCircle
 62
7
  6
CONTINUOUS
 10
13.6503084412
 20
19.5566852858
 40
0.5027355323
100
AcDbArc
 50
146.1147275963
 51
151.6130479873
  0
ARC
  5
411
100
AcDbEntity
  8
0
100
AcDbCircle
 62
7
  6
CONTINUOUS
 10
13.4949634201
 20
18.5132880657
 40
0.4890186881
100
AcDbArc
 50
99.4006630429
 51
101.0549487645
  0
ARC
  5
412
100
AcDbEntity
  8
0
100
AcDbCircle
 62
7
  6
CONTINUOUS
 10
13.6369831069
 20
19.5638357559
 40
0.4876129757
100
AcDbArc
 50
151.6078183158
 51
155.7406508758
  0
ARC
  5
413
100
AcDbEntity
  8
0
100
AcDbCircle
 62
7
  6
CONTINUOUS
 10
13.6353380742
 20
19.5649166741
 40
0.4856832426
100
AcDbArc
 50
151.6780920463
 51
155.8650868791
  0
ARC
  5
414
100
AcDbEntity
  8
0
100
AcDbCircle
 62
7
  6
CONTINUOUS
 10
13.6233154036
 20
19.5620619379
 40
0.4771509043
100
AcDbArc
 50
142.9520277935
 51
144.8404697463
  0
ARC
  5
415
100
AcDbEntity
  8
0
100
AcDbCircle
 62
7
  6
CONTINUOUS
 10
13.6263333756
 20
19.5690563777
 40
0.475773025
100
AcDbArc
 50
155.9419024545
 51
156.5268902826
  0
ARC
  5
416
100
AcDbEntity
  8
0
100
AcDbCircle
 62
7
  6
CONTINUOUS
 10
13.6217158323
 20
19.5631660896
 40
0.4752057145
100
AcDbArc
 50
144.8401245035
 51
148.1117619308
  0
ARC
  5
417
100
AcDbEntity
  8
0
100
AcDbCircle
 62
7
  6
CONTINUOUS
 10
13.6237987372
 20
19.5702243503
 40
0.4729842297
100
AcDbArc
 50
158.0034806106
 51
159.5906227697
  0
ARC
  5
418
100
AcDbEntity
  8
0
100
AcDbCircle
 62
7
  6
CONTINUOUS
 10
13.6225654816
 20
19.57026673
 40
0.4718259873
100
AcDbArc
 50
155.8680558258
 51
159.5432906897
  0
ARC
  5
419
100
AcDbEntity
  8
0
100
AcDbCircle
 62
7
  6
CONTINUOUS
 10
13.6178178672
 20
19.5655807712
 40
0.4706204402
100
AcDbArc
 50
148.1106788182
 51
150.6768568693
  0
ARC
  5
41A
100
AcDbEntity
  8
0
100
AcDbCircle
 62
7
  6
CONTINUOUS
 10
13.6094127903
 20
19.5702278535
 40
0.4610164603
100
AcDbArc
 50
150.6688284413
 51
155.1724369066
  0
ARC
  5
41B
100
AcDbEntity
  8
0
100
AcDbCircle
 62
7
  6
CONTINUOUS
 10
13.6025999992
 20
19.5735697347
 40
0.4534301519
100
AcDbArc
 50
155.1942209385
 51
159.6330687378
  0
ARC
  5
41C
100
AcDbEntity
  8
0
100
AcDbCircle
 62
7
  6
CONTINUOUS
 10
13.9017059587
 20
19.1807823535
 40
0.05
100
AcDbArc
 50
0.0
 51
40.9058661424
  0
ARC
  5
41D
100
AcDbEntity
  8
0
100
AcDbCircle
 62
7
  6
CONTINUOUS
 10
13.7467059587
 20
19.0877579458
 40
0.01
100
AcDbArc
 50
90.0
 51
180.0
  0
ARC
  5
41E
100
AcDbEntity
  8
0
100
AcDbCircle
 62
7
  6
CONTINUOUS
 10
13.7267059587
 20
19.082392219
 40
0.01
100
AcDbArc
 50
279.9999999993
 51
360.0
  0
ARC
  5
41F
100
AcDbEntity
  8
0
100
AcDbCircle
 62
7
  6
CONTINUOUS
 10
13.5317059587
 20
19.0236382191
 40
0.01
100
AcDbArc
 50
280.0000000003
 51
360.0
  0
ARC
  5
420
100
AcDbEntity
  8
0
100
AcDbCircle
 62
7
  6
CONTINUOUS
 10
13.5517059587
 20
19.0312264652
 40
0.01
100
AcDbArc
 50
100.0000000003
 51
180.0
  0
ARC
  5
421
100
AcDbEntity
  8
0
100
AcDbCircle
 62
7
  6
CONTINUOUS
 10
13.3767059587
 20
18.9759990049
 40
0.01
100
AcDbArc
 50
100.0000000003
 51
180.0
  0
ARC
  5
422
100
AcDbEntity
  8
0
100
AcDbCircle
 62
7
  6
CONTINUOUS
 10
13.3567059587
 20
18.9684107588
 40
0.01
100
AcDbArc
 50
280.0000000003
 51
360.0
  0
ARC
  5
423
100
AcDbEntity
  8
0
100
AcDbCircle
 62
9
  6
CONTINUOUS
 10
13.563730703
 20
21.9270693634
 40
1.1203385132
100
AcDbArc
 50
264.900541772
 51
266.5622260593
  0
ARC
  5
424
100
AcDbEntity
  8
0
100
AcDbCircle
 62
7
  6
CONTINUOUS
 10
13.4442275395
 20
20.8237422946
 40
0.0849995948
100
AcDbArc
 50
84.9421069815
 51
174.9141283933
  0
ARC
  5
425
100
AcDbEntity
  8
0
100
AcDbCircle
 62
7
  6
CONTINUOUS
 10
13.464150138
 20
20.8219777306
 40
0.08499938
100
AcDbArc
 50
0.0178730277
 51
84.9385276021
  0
ARC
  5
426
100
AcDbEntity
  8
0
100
AcDbCircle
 62
9
  6
CONTINUOUS
 10
13.44414958
 20
20.8187123979
 40
0.084940704
100
AcDbArc
 50
84.8700634292
 51
174.8353675547
  0
ARC
  5
427
100
AcDbEntity
  8
0
100
AcDbCircle
 62
7
  6
CONTINUOUS
 10
13.4642928073
 20
20.8170098332
 40
0.0848587836
100
AcDbArc
 50
0.0572051222
 51
85.0153327678
  0
ARC
  5
428
100
AcDbEntity
  8
0
100
AcDbCircle
 62
9
  6
CONTINUOUS
 10
13.4643609813
 20
20.8219033741
 40
0.0848002321
100
AcDbArc
 50
0.0548601682
 51
84.9533627117
  0
ARC
  5
429
100
AcDbEntity
  8
0
100
AcDbCircle
 62
9
  6
CONTINUOUS
 10
13.4439537648
 20
20.8237083657
 40
0.0847282832
100
AcDbArc
 50
84.930819669
 51
174.8995613586
  0
ARC
  5
42A
100
AcDbEntity
  8
0
100
AcDbCircle
 62
7
  6
CONTINUOUS
 10
14.5350549875
 20
19.7295200028
 40
0.788
100
AcDbArc
 50
186.4218131409
 51
220.9058661425
  0
ARC
  5
42B
100
AcDbEntity
  8
0
100
AcDbCircle
 62
9
  6
CONTINUOUS
 10
13.2847699642
 20
48.958724795
 40
36.8936858698
100
AcDbArc
 50
269.8403677931
 51
270.0099630912
  0
ARC
  5
42C
100
AcDbEntity
  8
0
100
AcDbCircle
 62
9
  6
CONTINUOUS
 10
13.2327970126
 20
40.2471688105
 40
28.3361066554
100
AcDbArc
 50
269.9003767338
 51
270.0501844281
  0
ARC
  5
42D
100
AcDbEntity
  8
0
100
AcDbCircle
 62
9
  6
CONTINUOUS
 10
25.846641859
 20
22.0115744997
 40
13.5206941574
100
AcDbArc
 50
184.9466830469
 51
185.0860973364
  0
LINE
  5
42E
100
AcDbEntity
  8
0
100
AcDbLine
 62
7
  6
CONTINUOUS
 10
13.5730863011
 20
19.049550386
 11
13.5745851356
 21
19.0501994591
  0
SPLINE
  5
42F
100
AcDbEntity
  8
0
100
AcDbSpline
 62
7
  6
CONTINUOUS
 70
0
 71
3
 72
11
 73
7
 74
0
 42
0.0000001
 43
0.0000001
 44
0.0000000001
 40
0.0
 40
0.0
 40
0.0
 40
0.0
 40
0.1613429998
 40
0.3976370691
 40
0.6863933647
 40
1.0
 40
1.0
 40
1.0
 40
1.0
 10
13.5745851356
 20
19.0501994591
 30
0.0
 10
13.5757675846
 20
19.0505522046
 30
0.0
 10
13.5787276075
 20
19.0512609885
 30
0.0
 10
13.5838613181
 20
19.0523540169
 30
0.0
 10
13.5901635287
 20
19.0535507113
 30
0.0
 10
13.5947016917
 20
19.0543435776
 30
0.0
 10
13.5970674978
 20
19.0547379258
 30
0.0
  0
LINE
  5
430
100
AcDbEntity
  8
0
100
AcDbLine
 62
7
  6
CONTINUOUS
 10
13.5970674978
 20
19.0547379258
 11
13.6104965286
 21
19.056756769
  0
LINE
  5
431
100
AcDbEntity
  8
0
100
AcDbLine
 62
7
  6
CONTINUOUS
 10
13.6104965286
 20
19.056756769
 11
13.6182807007
 21
19.05751465
  0
SPLINE
  5
432
100
AcDbEntity
  8
0
100
AcDbSpline
 62
7
  6
CONTINUOUS
 70
0
 71
3
 72
15
 73
11
 74
0
 42
0.0000001
 43
0.0000001
 44
0.0000000001
 40
0.0
 40
0.0
 40
0.0
 40
0.0
 40
0.0108431728
 40
0.0281856575
 40
0.0869261233
 40
0.1774680305
 40
0.2975230363
 40
0.4442742672
 40
0.6135509982
 40
1.0
 40
1.0
 40
1.0
 40
1.0
 10
13.5022958055
 20
19.0499657149
 30
0.0
 10
13.5022919973
 20
19.0500335633
 30
0.0
 10
13.5023846692
 20
19.0502046147
 30
0.0
 10
13.5028211737
 20
19.050528327
 30
0.0
 10
13.5037844109
 20
19.0509596819
 30
0.0
 10
13.5053786028
 20
19.0515040804
 30
0.0
 10
13.5075365954
 20
19.052112431
 30
0.0
 10
13.5101914008
 20
19.0527601813
 30
0.0
 10
13.5144941774
 20
19.0536946274
 30
0.0
 10
13.5179192834
 20
19.0543306009
 30
0.0
 10
13.520306695
 20
19.0547379258
 30
0.0
  0
SPLINE
  5
433
100
AcDbEntity
  8
0
100
AcDbSpline
 62
7
  6
CONTINUOUS
 70
0
 71
3
 72
9
 73
5
 74
0
 42
0.0000001
 43
0.0000001
 44
0.0000000001
 40
0.0
 40
0.0
 40
0.0
 40
0.0
 40
0.2525106437
 40
1.0
 40
1.0
 40
1.0
 40
1.0
 10
13.520306695
 20
19.0547379258
 30
0.0
 10
13.5215036899
 20
19.0549421494
 30
0.0
 10
13.526250308
 20
19.0557134794
 30
0.0
 10
13.5310174304
 20
19.0563619176
 30
0.0
 10
13.5345902595
 20
19.056756769
 30
0.0
  0
LINE
  5
434
100
AcDbEntity
  8
0
100
AcDbLine
 62
7
  6
CONTINUOUS
 10
13.5345902595
 20
19.056756769
 11
13.5405878666
 21
19.0573134935
  0
LINE
  5
435
100
AcDbEntity
  8
0
100
AcDbLine
 62
7
  6
CONTINUOUS
 10
13.5405878666
 20
19.0573134935
 11
13.5452035416
 21
19.05751465
  0
SPLINE
  5
436
100
AcDbEntity
  8
0
100
AcDbSpline
 62
7
  6
CONTINUOUS
 70
0
 71
3
 72
10
 73
6
 74
0
 42
0.0000001
 43
0.0000001
 44
0.0000000001
 40
0.0
 40
0.0
 40
0.0
 40
0.0
 40
0.3021806192
 40
0.5989476455
 40
1.0
 40
1.0
 40
1.0
 40
1.0
 10
13.5482847336
 20
19.0569872827
 30
0.0
 10
13.5482812564
 20
19.0571478377
 30
0.0
 10
13.5478776891
 20
19.057308192
 30
0.0
 10
13.5474022473
 20
19.0574002547
 30
0.0
 10
13.5470199919
 20
19.0574433414
 30
0.0
 10
13.5468075507
 20
19.0574605573
 30
0.0
  0
LINE
  5
437
100
AcDbEntity
  8
0
100
AcDbLine
 62
7
  6
CONTINUOUS
 10
13.5468075507
 20
19.0574605573
 11
13.5452035416
 21
19.05751465
  0
SPLINE
  5
438
100
AcDbEntity
  8
0
100
AcDbSpline
 62
7
  6
CONTINUOUS
 70
0
 71
3
 72
15
 73
11
 74
0
 42
0.0000001
 43
0.0000001
 44
0.0000000001
 40
0.0
 40
0.0
 40
0.0
 40
0.0
 40
0.0130696451
 40
0.0326813927
 40
0.0964945614
 40
0.1936306971
 40
0.3201418437
 40
0.470622019
 40
0.6391859798
 40
1.0
 40
1.0
 40
1.0
 40
1.0
 10
13.3896879774
 20
19.0506246031
 30
0.0
 10
13.3896885915
 20
19.0507447827
 30
0.0
 10
13.3898418809
 20
19.0510319998
 30
0.0
 10
13.3905406636
 20
19.0515806113
 30
0.0
 10
13.3920760776
 20
19.0522627388
 30
0.0
 10
13.3945886736
 20
19.0530681778
 30
0.0
 10
13.3979292886
 20
19.053908501
 30
0.0
 10
13.4019412
 20
19.0547392658
 30
0.0
 10
13.4081040898
 20
19.0557954111
 30
0.0
 10
13.4129348046
 20
19.0564194365
 30
0.0
 10
13.4162354547
 20
19.056756769
 30
0.0
  0
SPLINE
  5
439
100
AcDbEntity
  8
0
100
AcDbSpline
 62
7
  6
CONTINUOUS
 70
0
 71
3
 72
9
 73
5
 74
0
 42
0.0000001
 43
0.0000001
 44
0.0000000001
 40
0.0
 40
0.0
 40
0.0
 40
0.0
 40
0.542040491
 40
1.0
 40
1.0
 40
1.0
 40
1.0
 10
13.4162354547
 20
19.056756769
 30
0.0
 10
13.4185263421
 20
19.0569909019
 30
0.0
 10
13.4227611545
 20
19.057340864
 30
0.0
 10
13.4270089606
 20
19.05751465
 30
0.0
 10
13.4289545692
 20
19.05751465
 30
0.0
  0
SPLINE
  5
43A
100
AcDbEntity
  8
0
100
AcDbSpline
 62
7
  6
CONTINUOUS
 70
0
 71
3
 72
10
 73
6
 74
0
 42
0.0000001
 43
0.0000001
 44
0.0000000001
 40
0.0
 40
0.0
 40
0.0
 40
0.0
 40
0.339311274
 40
0.6227735165
 40
1.0
 40
1.0
 40
1.0
 40
1.0
 10
13.4356900739
 20
19.056358842
 30
0.0
 10
13.4356906878
 20
19.0565419833
 30
0.0
 10
13.4353821651
 20
19.0568188769
 30
0.0
 10
13.4348945275
 20
19.0569999312
 30
0.0
 10
13.4345439305
 20
19.0570928154
 30
0.0
 10
13.4343448644
 20
19.0571355763
 30
0.0
  0
SPLINE
  5
43B
100
AcDbEntity
  8
0
100
AcDbSpline
 62
7
  6
CONTINUOUS
 70
0
 71
3
 72
9
 73
5
 74
0
 42
0.0000001
 43
0.0000001
 44
0.0000000001
 40
0.0
 40
0.0
 40
0.0
 40
0.0
 40
0.4169706383
 40
1.0
 40
1.0
 40
1.0
 40
1.0
 10
13.4343448644
 20
19.0571355763
 30
0.0
 10
13.433609762
 20
19.057293482
 30
0.0
 10
13.4318077186
 20
19.0574704162
 30
0.0
 10
13.4300058729
 20
19.05751465
 30
0.0
 10
13.4289545692
 20
19.05751465
 30
0.0
  0
SPLINE
  5
43C
100
AcDbEntity
  8
0
100
AcDbSpline
 62
7
  6
CONTINUOUS
 70
0
 71
3
 72
15
 73
11
 74
0
 42
0.0000001
 43
0.0000001
 44
0.0000000001
 40
0.0
 40
0.0
 40
0.0
 40
0.0
 40
0.0361314849
 40
0.0637484457
 40
0.0987790543
 40
0.1909636788
 40
0.3111617666
 40
0.4567577645
 40
0.6237353619
 40
1.0
 40
1.0
 40
1.0
 40
1.0
 10
13.2429561153
 20
19.0514814465
 30
0.0
 10
13.2429557484
 20
19.0517416602
 30
0.0
 10
13.2432809621
 20
19.0521575035
 30
0.0
 10
13.2438515706
 20
19.052556497
 30
0.0
 10
13.2448418764
 20
19.0530887725
 30
0.0
 10
13.2465112457
 20
19.0537141541
 30
0.0
 10
13.2489919482
 20
19.0544260549
 30
0.0
 10
13.2520345121
 20
19.0551069835
 30
0.0
 10
13.2569179293
 20
19.0559859661
 30
0.0
 10
13.2608018392
 20
19.0564831725
 30
0.0
 10
13.2634977985
 20
19.056756769
 30
0.0
  0
SPLINE
  5
43D
100
AcDbEntity
  8
0
100
AcDbSpline
 62
7
  6
CONTINUOUS
 70
0
 71
3
 72
9
 73
5
 74
0
 42
0.0000001
 43
0.0000001
 44
0.0000000001
 40
0.0
 40
0.0
 40
0.0
 40
0.0
 40
0.5189047924
 40
1.0
 40
1.0
 40
1.0
 40
1.0
 10
13.2634977985
 20
19.056756769
 30
0.0
 10
13.2659040198
 20
19.0570009618
 30
0.0
 10
13.2705527081
 20
19.0573599723
 30
0.0
 10
13.2752136062
 20
19.05751465
 30
0.0
 10
13.2774559587
 20
19.05751465
 30
0.0
  0
SPLINE
  5
43E
100
AcDbEntity
  8
0
100
AcDbSpline
 62
7
  6
CONTINUOUS
 70
0
 71
3
 72
10
 73
6
 74
0
 42
0.0000001
 43
0.0000001
 44
0.0000000001
 40
0.0
 40
0.0
 40
0.0
 40
0.0
 40
0.3227075492
 40
0.6128252919
 40
1.0
 40
1.0
 40
1.0
 40
1.0
 10
13.2889560868
 20
19.0555354733
 30
0.0
 10
13.2889565663
 20
19.0559077811
 30
0.0
 10
13.2881970868
 20
19.0564060241
 30
0.0
 10
13.2871606314
 20
19.0567297181
 30
0.0
 10
13.2863774911
 20
19.0568999396
 30
0.0
 10
13.2859374051
 20
19.0569764303
 30
0.0
  0
SPLINE
  5
43F
100
AcDbEntity
  8
0
100
AcDbSpline
 62
7
  6
CONTINUOUS
 70
0
 71
3
 72
9
 73
5
 74
0
 42
0.0000001
 43
0.0000001
 44
0.0000000001
 40
0.0
 40
0.0
 40
0.0
 40
0.0
 40
0.4367142258
 40
1.0
 40
1.0
 40
1.0
 40
1.0
 10
13.2859374051
 20
19.0569764303
 30
0.0
 10
13.2847175975
 20
19.0571884431
 30
0.0
 10
13.2818873228
 20
19.0574448565
 30
0.0
 10
13.2790528875
 20
19.05751465
 30
0.0
 10
13.2774559587
 20
19.05751465
 30
0.0
  0
SPLINE
  5
440
100
AcDbEntity
  8
0
100
AcDbSpline
 62
7
  6
CONTINUOUS
 70
0
 71
3
 72
10
 73
6
 74
0
 42
0.0000001
 43
0.0000001
 44
0.0000000001
 40
0.0
 40
0.0
 40
0.0
 40
0.0
 40
0.3449102524
 40
0.6273869513
 40
1.0
 40
1.0
 40
1.0
 40
1.0
 10
12.5344580069
 20
19.0555352422
 30
0.0
 10
12.5344587573
 20
19.0558119769
 30
0.0
 10
12.5349053721
 20
19.0562320626
 30
0.0
 10
12.5356205688
 20
19.0565312414
 30
0.0
 10
12.5361321978
 20
19.0566848527
 30
0.0
 10
12.536422382
 20
19.056756769
 30
0.0
  0
SPLINE
  5
441
100
AcDbEntity
  8
0
100
AcDbSpline
 62
7
  6
CONTINUOUS
 70
0
 71
3
 72
10
 73
6
 74
0
 42
0.0000001
 43
0.0000001
 44
0.0000000001
 40
0.0
 40
0.0
 40
0.0
 40
0.0
 40
0.18471195
 40
0.4176067136
 40
1.0
 40
1.0
 40
1.0
 40
1.0
 10
12.536422382
 20
19.056756769
 30
0.0
 10
12.5369948879
 20
19.056898653
 30
0.0
 10
12.5383119436
 20
19.0571249139
 30
0.0
 10
12.5414895335
 20
19.0574470069
 30
0.0
 10
12.5440962503
 20
19.05751465
 30
0.0
 10
12.5459559587
 20
19.05751465
 30
0.0
  0
SPLINE
  5
442
100
AcDbEntity
  8
0
100
AcDbSpline
 62
7
  6
CONTINUOUS
 70
0
 71
3
 72
14
 73
10
 74
0
 42
0.0000001
 43
0.0000001
 44
0.0000000001
 40
0.0
 40
0.0
 40
0.0
 40
0.0
 40
0.0355922854
 40
0.0632962138
 40
0.0985656788
 40
0.1921612528
 40
0.3147244163
 40
0.6293706825
 40
1.0
 40
1.0
 40
1.0
 40
1.0
 10
12.5804558565
 20
19.0514815486
 30
0.0
 10
12.5804550191
 20
19.0517655918
 30
0.0
 10
12.5800713478
 20
19.0522098248
 30
0.0
 10
12.5794336104
 20
19.0526346867
 30
0.0
 10
12.578310322
 20
19.0532083388
 30
0.0
 10
12.5764178279
 20
19.0538745873
 30
0.0
 10
12.5723204386
 20
19.0549679013
 30
0.0
 10
12.5659647827
 20
19.0560956523
 30
0.0
 10
12.5605291319
 20
19.0567220243
 30
0.0
 10
12.5575822837
 20
19.0569764303
 30
0.0
  0
SPLINE
  5
443
100
AcDbEntity
  8
0
100
AcDbSpline
 62
7
  6
CONTINUOUS
 70
0
 71
3
 72
9
 73
5
 74
0
 42
0.0000001
 43
0.0000001
 44
0.0000000001
 40
0.0
 40
0.0
 40
0.0
 40
0.0
 40
0.2617804105
 40
1.0
 40
1.0
 40
1.0
 40
1.0
 10
12.5575822837
 20
19.0569764303
 30
0.0
 10
12.5565702861
 20
19.0570637976
 30
0.0
 10
12.5527013125
 20
19.0573574861
 30
0.0
 10
12.5488204028
 20
19.05751465
 30
0.0
 10
12.5459559587
 20
19.05751465
 30
0.0
  0
SPLINE
  5
444
100
AcDbEntity
  8
0
100
AcDbSpline
 62
7
  6
CONTINUOUS
 70
0
 71
3
 72
10
 73
6
 74
0
 42
0.0000001
 43
0.0000001
 44
0.0000000001
 40
0.0
 40
0.0
 40
0.0
 40
0.0
 40
0.3361494535
 40
0.6221587229
 40
1.0
 40
1.0
 40
1.0
 40
1.0
 10
12.3877188651
 20
19.0563591095
 30
0.0
 10
12.3877173871
 20
19.056547291
 30
0.0
 10
12.38804782
 20
19.0568282125
 30
0.0
 10
12.3885545993
 20
19.0570061586
 30
0.0
 10
12.3889210815
 20
19.0571005874
 30
0.0
 10
12.3891281809
 20
19.0571436434
 30
0.0
  0
SPLINE
  5
445
100
AcDbEntity
  8
0
100
AcDbSpline
 62
7
  6
CONTINUOUS
 70
0
 71
3
 72
9
 73
5
 74
0
 42
0.0000001
 43
0.0000001
 44
0.0000000001
 40
0.0
 40
0.0
 40
0.0
 40
0.0
 40
0.4194424295
 40
1.0
 40
1.0
 40
1.0
 40
1.0
 10
12.3891281809
 20
19.0571436434
 30
0.0
 10
12.3898602083
 20
19.057295832
 30
0.0
 10
12.3916409236
 20
19.0574711071
 30
0.0
 10
12.3934224713
 20
19.05751465
 30
0.0
 10
12.3944573483
 20
19.05751465
 30
0.0
  0
SPLINE
  5
446
100
AcDbEntity
  8
0
100
AcDbSpline
 62
7
  6
CONTINUOUS
 70
0
 71
3
 72
16
 73
12
 74
0
 42
0.0000001
 43
0.0000001
 44
0.0000000001
 40
0.0
 40
0.0
 40
0.0
 40
0.0
 40
0.0128616688
 40
0.0326171242
 40
0.0609613165
 40
0.0980547867
 40
0.1970787623
 40
0.3259518506
 40
0.4785277771
 40
0.647287532
 40
1.0
 40
1.0
 40
1.0
 40
1.0
 10
12.4337197066
 20
19.0506252286
 30
0.0
 10
12.4337193963
 20
19.0507533379
 30
0.0
 10
12.4335464142
 20
19.0510619379
 30
0.0
 10
12.4330606512
 20
19.051425455
 30
0.0
 10
12.4323101179
 20
19.0518294303
 30
0.0
 10
12.4307942127
 20
19.0524524066
 30
0.0
 10
12.4282662102
 20
19.0532273474
 30
0.0
 10
12.4245809372
 20
19.0541134565
 30
0.0
 10
12.4201791158
 20
19.0549770079
 30
0.0
 10
12.4135511136
 20
19.0560510156
 30
0.0
 10
12.4083893761
 20
19.0566639919
 30
0.0
 10
12.4048900766
 20
19.0569764303
 30
0.0
  0
SPLINE
  5
447
100
AcDbEntity
  8
0
100
AcDbSpline
 62
7
  6
CONTINUOUS
 70
0
 71
3
 72
9
 73
5
 74
0
 42
0.0000001
 43
0.0000001
 44
0.0000000001
 40
0.0
 40
0.0
 40
0.0
 40
0.0
 40
0.5394470095
 40
1.0
 40
1.0
 40
1.0
 40
1.0
 10
12.4048900766
 20
19.0569764303
 30
0.0
 10
12.4030186381
 20
19.0571435235
 30
0.0
 10
12.3995441943
 20
19.0573956676
 30
0.0
 10
12.3960614452
 20
19.05751465
 30
0.0
 10
12.3944573483
 20
19.05751465
 30
0.0
  0
SPLINE
  5
448
100
AcDbEntity
  8
0
100
AcDbSpline
 62
7
  6
CONTINUOUS
 70
0
 71
3
 72
9
 73
5
 74
0
 42
0.0000001
 43
0.0000001
 44
0.0000000001
 40
0.0
 40
0.0
 40
0.0
 40
0.0
 40
0.3097517866
 40
1.0
 40
1.0
 40
1.0
 40
1.0
 10
12.275137683
 20
19.0569858162
 30
0.0
 10
12.2751462983
 20
19.0571347353
 30
0.0
 10
12.2757152422
 20
19.057385153
 30
0.0
 10
12.276134698
 20
19.0574151421
 30
0.0
 10
12.2764655784
 20
19.057446943
 30
0.0
  0
LINE
  5
449
100
AcDbEntity
  8
0
100
AcDbLine
 62
7
  6
CONTINUOUS
 10
12.2764655784
 20
19.057446943
 11
12.2782083759
 21
19.05751465
  0
SPLINE
  5
44A
100
AcDbEntity
  8
0
100
AcDbSpline
 62
7
  6
CONTINUOUS
 70
0
 71
3
 72
13
 73
9
 74
0
 42
0.0000001
 43
0.0000001
 44
0.0000000001
 40
0.0
 40
0.0
 40
0.0
 40
0.0
 40
0.1198513378
 40
0.2440500492
 40
0.4979258655
 40
0.752965524
 40
0.8784520924
 40
1.0
 40
1.0
 40
1.0
 40
1.0
 10
5.4911384561
 20
9.1595111879
 30
0.0
 10
5.4962882788
 20
9.1612575748
 30
0.0
 10
5.5065125818
 20
9.1656390256
 30
0.0
 10
5.525858599
 20
9.1773984824
 30
0.0
 10
5.5470943789
 20
9.1974620942
 30
0.0
 10
5.5608856855
 20
9.2232864889
 30
0.0
 10
5.5671800385
 20
9.2452305148
 30
0.0
 10
5.5687077272
 20
9.2563877935
 30
0.0
 10
5.5690206641
 20
9.2618937644
 30
0.0
  0
SPLINE
  5
44B
100
AcDbEntity
  8
0
100
AcDbSpline
 62
7
  6
CONTINUOUS
 70
0
 71
3
 72
16
 73
12
 74
0
 42
0.0000001
 43
0.0000001
 44
0.0000000001
 40
0.0
 40
0.0
 40
0.0
 40
0.0
 40
0.0105119759
 40
0.028231748
 40
0.0888073086
 40
0.1824834544
 40
0.3062394483
 40
0.4553957369
 40
0.624951847
 40
0.8087473904
 40
1.0
 40
1.0
 40
1.0
 40
1.0
 10
12.3211271749
 20
19.0499638429
 30
0.0
 10
12.3211284846
 20
19.0500460427
 30
0.0
 10
12.3209873579
 20
19.0502477145
 30
0.0
 10
12.3204149636
 20
19.050624179
 30
0.0
 10
12.319153544
 20
19.0511416167
 30
0.0
 10
12.3170850699
 20
19.0517882249
 30
0.0
 10
12.3143059436
 20
19.0525088916
 30
0.0
 10
12.3109310903
 20
19.0532699203
 30
0.0
 10
12.3070763416
 20
19.0540386295
 30
0.0
 10
12.3028835554
 20
19.0547881112
 30
0.0
 10
12.2999873804
 20
19.0552534053
 30
0.0
 10
12.2985086019
 20
19.0554778461
 30
0.0
  0
LINE
  5
44C
100
AcDbEntity
  8
0
100
AcDbLine
 62
7
  6
CONTINUOUS
 10
12.2985086019
 20
19.0554778461
 11
12.2867365343
 21
19.0569764303
  0
LINE
  5
44D
100
AcDbEntity
  8
0
100
AcDbLine
 62
7
  6
CONTINUOUS
 10
12.2867365343
 20
19.0569764303
 11
12.2828471336
 21
19.0573131712
  0
LINE
  5
44E
100
AcDbEntity
  8
0
100
AcDbLine
 62
7
  6
CONTINUOUS
 10
12.2828471336
 20
19.0573131712
 11
12.2782083759
 21
19.05751465
  0
LINE
  5
44F
100
AcDbEntity
  8
0
100
AcDbLine
 62
7
  6
CONTINUOUS
 10
12.2495997217
 20
19.0499512145
 11
12.2438055844
 21
19.0514387237
  0
SPLINE
  5
450
100
AcDbEntity
  8
0
100
AcDbSpline
 62
7
  6
CONTINUOUS
 70
0
 71
3
 72
9
 73
5
 74
0
 42
0.0000001
 43
0.0000001
 44
0.0000000001
 40
0.0
 40
0.0
 40
0.0
 40
0.0
 40
0.4632382038
 40
1.0
 40
1.0
 40
1.0
 40
1.0
 10
12.2438055844
 20
19.0514387237
 30
0.0
 10
12.240426323
 20
19.0521841639
 30
0.0
 10
12.2330910079
 20
19.0536074347
 30
0.0
 10
12.2257257065
 20
19.0548582059
 30
0.0
 10
12.2217641299
 20
19.0554778461
 30
0.0
  0
LINE
  5
451
100
AcDbEntity
  8
0
100
AcDbLine
 62
7
  6
CONTINUOUS
 10
12.2217641299
 20
19.0554778461
 11
12.2111736254
 21
19.0569764303
  0
LINE
  5
452
100
AcDbEntity
  8
0
100
AcDbLine
 62
7
  6
CONTINUOUS
 10
12.2111736254
 20
19.0569764303
 11
12.2051312168
 21
19.05751465
  0
SPLINE
  5
453
100
AcDbEntity
  8
0
100
AcDbSpline
 62
7
  6
CONTINUOUS
 70
0
 71
3
 72
13
 73
9
 74
0
 42
0.0000001
 43
0.0000001
 44
0.0000000001
 40
0.0
 40
0.0
 40
0.0
 40
0.0
 40
0.1203089349
 40
0.2451714648
 40
0.4999979308
 40
0.75482557
 40
0.8796893836
 40
1.0
 40
1.0
 40
1.0
 40
1.0
 10
6.3992059587
 20
9.0661369167
 30
0.0
 10
6.3992059587
 20
9.0710390592
 30
0.0
 10
6.3983739906
 20
9.081045463
 30
0.0
 10
6.3936920676
 20
9.1009204335
 30
0.0
 10
6.3822053734
 20
9.1246266996
 30
0.0
 10
6.3634438919
 20
9.1431183438
 30
0.0
 10
6.34612525
 20
9.1539352946
 30
0.0
 10
6.3369159905
 20
9.1579368322
 30
0.0
 10
6.3322734613
 20
9.1595111879
 30
0.0
  0
SPLINE
  5
454
100
AcDbEntity
  8
0
100
AcDbSpline
 62
7
  6
CONTINUOUS
 70
0
 71
3
 72
13
 73
9
 74
0
 42
0.0000001
 43
0.0000001
 44
0.0000000001
 40
0.0
 40
0.0
 40
0.0
 40
0.0
 40
0.1203092109
 40
0.2451719515
 40
0.4999986101
 40
0.7548260568
 40
0.8796896596
 40
1.0
 40
1.0
 40
1.0
 40
1.0
 10
5.4242059587
 20
9.0661369167
 30
0.0
 10
5.4242059587
 20
9.0710390704
 30
0.0
 10
5.425037931
 20
9.0810454942
 30
0.0
 10
5.4297198718
 20
9.1009204891
 30
0.0
 10
5.4412065847
 20
9.1246267562
 30
0.0
 10
5.4599680712
 20
9.1431183825
 30
0.0
 10
5.4772866957
 20
9.1539353085
 30
0.0
 10
5.4864959376
 20
9.1579368358
 30
0.0
 10
5.4911384561
 20
9.1595111879
 30
0.0
  0
SPLINE
  5
455
100
AcDbEntity
  8
0
100
AcDbSpline
 62
7
  6
CONTINUOUS
 70
0
 71
3
 72
10
 73
6
 74
0
 42
0.0000001
 43
0.0000001
 44
0.0000000001
 40
0.0
 40
0.0
 40
0.0
 40
0.0
 40
0.2402473104
 40
0.4892406568
 40
1.0
 40
1.0
 40
1.0
 40
1.0
 10
6.3322734613
 20
9.1595111879
 30
0.0
 10
6.3269293354
 20
9.1613234661
 30
0.0
 10
6.3163254269
 20
9.1659002568
 30
0.0
 10
6.2963135787
 20
9.1782794637
 30
0.0
 10
6.2832896027
 20
9.1910416711
 30
0.0
 10
6.2762293061
 20
9.2007411386
 30
0.0
  0
LINE
  5
456
100
AcDbEntity
  8
0
100
AcDbLine
 62
7
  6
CONTINUOUS
 10
13.3898488642
 20
18.990478667
 11
13.3918426101
 21
18.9911910463
  0
LINE
  5
457
100
AcDbEntity
  8
0
100
AcDbLine
 62
7
  6
CONTINUOUS
 10
13.3918426101
 20
18.9911910463
 11
13.4011939281
 21
18.9932323955
  0
LINE
  5
458
100
AcDbEntity
  8
0
100
AcDbLine
 62
7
  6
CONTINUOUS
 10
13.4150883892
 20
18.9957393656
 11
13.4282227196
 21
18.9977453488
  0
LINE
  5
459
100
AcDbEntity
  8
0
100
AcDbLine
 62
7
  6
CONTINUOUS
 10
13.4282227196
 20
18.9977453488
 11
13.4353426554
 21
18.9984961596
  0
SPLINE
  5
45A
100
AcDbEntity
  8
0
100
AcDbSpline
 62
7
  6
CONTINUOUS
 70
0
 71
3
 72
17
 73
13
 74
0
 42
0.0000001
 43
0.0000001
 44
0.0000000001
 40
0.0
 40
0.0
 40
0.0
 40
0.0
 40
0.0106640341
 40
0.0298119268
 40
0.0584718369
 40
0.096457585
 40
0.1986120505
 40
0.3311563404
 40
0.486305791
 40
0.6558170759
 40
0.8304012642
 40
1.0
 40
1.0
 40
1.0
 40
1.0
 10
13.318936081
 20
18.9910616005
 30
0.0
 10
13.3189304512
 20
18.9911759208
 30
0.0
 10
13.319158123
 20
18.991462123
 30
0.0
 10
13.3196865092
 20
18.9917685241
 30
0.0
 10
13.320532991
 20
18.9921553954
 30
0.0
 10
13.3222365646
 20
18.9927622134
 30
0.0
 10
13.3250604469
 20
18.9935524568
 30
0.0
 10
13.3291383448
 20
18.9944867961
 30
0.0
 10
13.3339552862
 20
18.9954304132
 30
0.0
 10
13.3392399285
 20
18.9963192915
 30
0.0
 10
13.3446974867
 20
18.9971064984
 30
0.0
 10
13.3483652326
 20
18.9975512041
 30
0.0
 10
13.3501751813
 20
18.9977453488
 30
0.0
  0
SPLINE
  5
45B
100
AcDbEntity
  8
0
100
AcDbSpline
 62
7
  6
CONTINUOUS
 70
0
 71
3
 72
9
 73
5
 74
0
 42
0.0000001
 43
0.0000001
 44
0.0000000001
 40
0.0
 40
0.0
 40
0.0
 40
0.0
 40
0.5658753981
 40
1.0
 40
1.0
 40
1.0
 40
1.0
 10
13.3501751813
 20
18.9977453488
 30
0.0
 10
13.352258986
 20
18.9979688688
 30
0.0
 10
13.3559474684
 20
18.9983034053
 30
0.0
 10
13.3596494735
 20
18.9984961596
 30
0.0
 10
13.3612572838
 20
18.9984961596
 30
0.0
  0
SPLINE
  5
45C
100
AcDbEntity
  8
0
100
AcDbSpline
 62
7
  6
CONTINUOUS
 70
0
 71
3
 72
10
 73
6
 74
0
 42
0.0000001
 43
0.0000001
 44
0.0000000001
 40
0.0
 40
0.0
 40
0.0
 40
0.0
 40
0.3261343968
 40
0.6158396542
 40
1.0
 40
1.0
 40
1.0
 40
1.0
 10
12.5092312824
 20
18.9974863634
 30
0.0
 10
12.5092308195
 20
18.9976782718
 30
0.0
 10
12.5096112072
 20
18.9979427448
 30
0.0
 10
12.5101441515
 20
18.9981030058
 30
0.0
 10
12.5105407936
 20
18.9981888578
 30
0.0
 10
12.5107635954
 20
18.9982270617
 30
0.0
  0
LINE
  5
45D
100
AcDbEntity
  8
0
100
AcDbLine
 62
7
  6
CONTINUOUS
 10
12.5107635954
 20
18.9982270617
 11
12.5151873881
 21
18.9984961596
  0
SPLINE
  5
45E
100
AcDbEntity
  8
0
100
AcDbSpline
 62
7
  6
CONTINUOUS
 70
0
 71
3
 72
15
 73
11
 74
0
 42
0.0000001
 43
0.0000001
 44
0.0000000001
 40
0.0
 40
0.0
 40
0.0
 40
0.0
 40
0.0124570209
 40
0.0321533645
 40
0.0980986167
 40
0.1983254759
 40
0.3284774053
 40
0.4820758504
 40
0.6510640362
 40
1.0
 40
1.0
 40
1.0
 40
1.0
 10
12.5552335035
 20
18.9914773247
 30
0.0
 10
12.5552329162
 20
18.9916056739
 30
0.0
 10
12.5550440666
 20
18.9919157805
 30
0.0
 10
12.5542215483
 20
18.9924968072
 30
0.0
 10
12.5524270348
 20
18.9932294351
 30
0.0
 10
12.5495103615
 20
18.9941081402
 30
0.0
 10
12.545654181
 20
18.9950165013
 30
0.0
 10
12.5410750817
 20
18.9959044999
 30
0.0
 10
12.5342429102
 20
18.9970046803
 30
0.0
 10
12.5289406368
 20
18.9976376989
 30
0.0
 10
12.5253598292
 20
18.9979596526
 30
0.0
  0
SPLINE
  5
45F
100
AcDbEntity
  8
0
100
AcDbSpline
 62
7
  6
CONTINUOUS
 70
0
 71
3
 72
9
 73
5
 74
0
 42
0.0000001
 43
0.0000001
 44
0.0000000001
 40
0.0
 40
0.0
 40
0.0
 40
0.0
 40
0.5439802576
 40
1.0
 40
1.0
 40
1.0
 40
1.0
 10
12.5253598292
 20
18.9979596526
 30
0.0
 10
12.5235197381
 20
18.9981250968
 30
0.0
 10
12.5201321331
 20
18.9983749198
 30
0.0
 10
12.5167361626
 20
18.9984961596
 30
0.0
 10
12.5151873881
 20
18.9984961596
 30
0.0
  0
SPLINE
  5
460
100
AcDbEntity
  8
0
100
AcDbSpline
 62
7
  6
CONTINUOUS
 70
0
 71
3
 72
18
 73
14
 74
0
 42
0.0000001
 43
0.0000001
 44
0.0000000001
 40
0.0
 40
0.0
 40
0.0
 40
0.0
 40
0.0084038262
 40
0.0254031243
 40
0.0518026034
 40
0.0873287842
 40
0.1315558932
 40
0.1840151706
 40
0.311368395
 40
0.4635246622
 40
0.6340090079
 40
0.8155296941
 40
1.0
 40
1.0
 40
1.0
 40
1.0
 10
12.4572511181
 20
18.9906727243
 30
0.0
 10
12.457253534
 20
18.9907477566
 30
0.0
 10
12.457057151
 20
18.9909295294
 30
0.0
 10
12.4566645049
 20
18.9911254672
 30
0.0
 10
12.4559984765
 20
18.9913938368
 30
0.0
 10
12.4551018233
 20
18.9916874541
 30
0.0
 10
12.453966379
 20
18.9920196767
 30
0.0
 10
12.4520321932
 20
18.992531181
 30
0.0
 10
12.4491435914
 20
18.9932064848
 30
0.0
 10
12.445209425
 20
18.9940317318
 30
0.0
 10
12.4407849804
 20
18.9948743451
 30
0.0
 10
12.4360637576
 20
18.9956975449
 30
0.0
 10
12.4328353174
 20
18.9962142225
 30
0.0
 10
12.4312062923
 20
18.9964627136
 30
0.0
  0
LINE
  5
461
100
AcDbEntity
  8
0
100
AcDbLine
 62
7
  6
CONTINUOUS
 10
12.4312062923
 20
18.9964627136
 11
12.4199760037
 21
18.9979596526
  0
LINE
  5
462
100
AcDbEntity
  8
0
100
AcDbLine
 62
7
  6
CONTINUOUS
 10
12.4199760037
 20
18.9979596526
 11
12.4128114933
 21
18.9984961596
  0
SPLINE
  5
463
100
AcDbEntity
  8
0
100
AcDbSpline
 62
7
  6
CONTINUOUS
 70
0
 71
3
 72
9
 73
5
 74
0
 42
0.0000001
 43
0.0000001
 44
0.0000000001
 40
0.0
 40
0.0
 40
0.0
 40
0.0
 40
0.2526999953
 40
1.0
 40
1.0
 40
1.0
 40
1.0
 10
13.2425015522
 20
19.8495554496
 30
0.0
 10
13.2471844967
 20
19.8557587934
 30
0.0
 10
13.2663119452
 20
19.8798503586
 30
0.0
 10
13.2877847032
 20
19.902089283
 30
0.0
 10
13.3049699909
 20
19.9173532243
 30
0.0
  0
SPLINE
  5
464
100
AcDbEntity
  8
0
100
AcDbSpline
 62
7
  6
CONTINUOUS
 70
0
 71
3
 72
9
 73
5
 74
0
 42
0.0000001
 43
0.0000001
 44
0.0000000001
 40
0.0
 40
0.0
 40
0.0
 40
0.0
 40
0.2528560259
 40
1.0
 40
1.0
 40
1.0
 40
1.0
 10
12.5809107952
 20
19.8495604467
 30
0.0
 10
12.5762215873
 20
19.8557714619
 30
0.0
 10
12.5570794754
 20
19.8798771736
 30
0.0
 10
12.5355892941
 20
19.9021275079
 30
0.0
 10
12.5183940828
 20
19.91739573
 30
0.0
  0
SPLINE
  5
465
100
AcDbEntity
  8
0
100
AcDbSpline
 62
7
  6
CONTINUOUS
 70
0
 71
3
 72
12
 73
8
 74
0
 42
0.0000001
 43
0.0000001
 44
0.0000000001
 40
0.0
 40
0.0
 40
0.0
 40
0.0
 40
0.248141606
 40
0.372443006
 40
0.4970453968
 40
0.7474881844
 40
1.0
 40
1.0
 40
1.0
 40
1.0
 10
14.0415574779
 20
8.2276747178
 30
0.0
 10
14.0417429404
 20
8.245728898
 30
0.0
 10
14.0425201773
 20
8.2728292046
 30
0.0
 10
14.0449721098
 20
8.3089161357
 30
0.0
 10
14.0485217224
 20
8.345080496
 30
0.0
 10
14.0549177617
 20
8.3903156724
 30
0.0
 10
14.0618370981
 20
8.4262659111
 30
0.0
 10
14.0656924949
 20
8.4442299664
 30
0.0
  0
SPLINE
  5
466
100
AcDbEntity
  8
0
100
AcDbSpline
 62
7
  6
CONTINUOUS
 70
0
 71
3
 72
9
 73
5
 74
0
 42
0.0000001
 43
0.0000001
 44
0.0000000001
 40
0.0
 40
0.0
 40
0.0
 40
0.0
 40
0.2502798336
 40
1.0
 40
1.0
 40
1.0
 40
1.0
 10
14.0415550511
 20
8.1946930394
 30
0.0
 10
14.0415981071
 20
8.1899689819
 30
0.0
 10
14.0418369531
 20
8.1710944603
 30
0.0
 10
14.0423030624
 20
8.1522235161
 30
0.0
 10
14.0427128971
 20
8.1380778192
 30
0.0
  0
LINE
  5
467
100
AcDbEntity
  8
0
100
AcDbLine
 62
7
  6
CONTINUOUS
 10
14.0433170705
 20
8.1183411238
 11
14.044588409
 21
8.0791329449
  0
SPLINE
  5
468
100
AcDbEntity
  8
0
100
AcDbSpline
 62
7
  6
CONTINUOUS
 70
0
 71
3
 72
12
 73
8
 74
0
 42
0.0000001
 43
0.0000001
 44
0.0000000001
 40
0.0
 40
0.0
 40
0.0
 40
0.0
 40
0.2481423471
 40
0.3724430838
 40
0.4970444519
 40
0.7474861475
 40
1.0
 40
1.0
 40
1.0
 40
1.0
 10
15.9988028617
 20
8.2273366353
 30
0.0
 10
15.9986212297
 20
8.2454217683
 30
0.0
 10
15.9978493189
 20
8.272568583
 30
0.0
 10
15.9954017051
 20
8.3087177083
 30
0.0
 10
15.9918530458
 20
8.3449443818
 30
0.0
 10
15.9854505428
 20
8.3902575951
 30
0.0
 10
15.9785196478
 20
8.4262694467
 30
0.0
 10
15.9746571489
 20
8.4442642465
 30
0.0
  0
LINE
  5
469
100
AcDbEntity
  8
0
100
AcDbLine
 62
7
  6
CONTINUOUS
 10
15.9957683974
 20
8.0791328193
 11
15.9970397004
 21
8.1183401426
  0
SPLINE
  5
46A
100
AcDbEntity
  8
0
100
AcDbSpline
 62
7
  6
CONTINUOUS
 70
0
 71
3
 72
9
 73
5
 74
0
 42
0.0000001
 43
0.0000001
 44
0.0000000001
 40
0.0
 40
0.0
 40
0.0
 40
0.0
 40
0.249690334
 40
1.0
 40
1.0
 40
1.0
 40
1.0
 10
15.9976435794
 20
8.1380668009
 30
0.0
 10
15.9977867523
 20
8.1430080858
 30
0.0
 10
15.998330691
 20
8.1627984743
 30
0.0
 10
15.9987103397
 20
8.1825942265
 30
0.0
 10
15.9988249801
 20
8.1974483831
 30
0.0
  0
SPLINE
  5
46B
100
AcDbEntity
  8
0
100
AcDbSpline
 62
7
  6
CONTINUOUS
 70
0
 71
3
 72
9
 73
5
 74
0
 42
0.0000001
 43
0.0000001
 44
0.0000000001
 40
0.0
 40
0.0
 40
0.0
 40
0.0
 40
0.2503627172
 40
1.0
 40
1.0
 40
1.0
 40
1.0
 10
15.9967271223
 20
8.264405832
 30
0.0
 10
15.9961631552
 20
8.2767554737
 30
0.0
 10
15.9932962521
 20
8.3260484877
 30
0.0
 10
15.9876805649
 20
8.3752136454
 30
0.0
 10
15.9814496177
 20
8.4117013389
 30
0.0
  0
SPLINE
  5
46C
100
AcDbEntity
  8
0
100
AcDbSpline
 62
7
  6
CONTINUOUS
 70
0
 71
3
 72
9
 73
5
 74
0
 42
0.0000001
 43
0.0000001
 44
0.0000000001
 40
0.0
 40
0.0
 40
0.0
 40
0.0
 40
0.749785996
 40
1.0
 40
1.0
 40
1.0
 40
1.0
 10
15.9814496177
 20
8.4117013389
 30
0.0
 10
15.9751031558
 20
8.4488654732
 30
0.0
 10
15.9638288516
 20
8.4979758265
 30
0.0
 10
15.9500788154
 20
8.5463393309
 30
0.0
 10
15.9465072788
 20
8.5584034887
 30
0.0
  0
SPLINE
  5
46D
100
AcDbEntity
  8
0
100
AcDbSpline
 62
7
  6
CONTINUOUS
 70
0
 71
3
 72
9
 73
5
 74
0
 42
0.0000001
 43
0.0000001
 44
0.0000000001
 40
0.0
 40
0.0
 40
0.0
 40
0.0
 40
0.2501605383
 40
1.0
 40
1.0
 40
1.0
 40
1.0
 10
15.9465072788
 20
8.5584034887
 30
0.0
 10
15.9437622339
 20
8.5676758712
 30
0.0
 10
15.9324800257
 20
8.6046503772
 30
0.0
 10
15.9201401477
 20
8.6412942726
 30
0.0
 10
15.9105822791
 20
8.6686588236
 30
0.0
  0
SPLINE
  5
46E
100
AcDbEntity
  8
0
100
AcDbSpline
 62
7
  6
CONTINUOUS
 70
0
 71
3
 72
9
 73
5
 74
0
 42
0.0000001
 43
0.0000001
 44
0.0000000001
 40
0.0
 40
0.0
 40
0.0
 40
0.0
 40
0.2509602986
 40
1.0
 40
1.0
 40
1.0
 40
1.0
 10
15.9105822791
 20
8.6686588236
 30
0.0
 10
15.9030283904
 20
8.6902859015
 30
0.0
 10
15.8721648272
 20
8.7761959855
 30
0.0
 10
15.839601583
 20
8.861483173
 30
0.0
 10
15.8165779476
 20
8.9258645837
 30
0.0
  0
SPLINE
  5
46F
100
AcDbEntity
  8
0
100
AcDbSpline
 62
7
  6
CONTINUOUS
 70
0
 71
3
 72
9
 73
5
 74
0
 42
0.0000001
 43
0.0000001
 44
0.0000000001
 40
0.0
 40
0.0
 40
0.0
 40
0.0
 40
0.2502017957
 40
1.0
 40
1.0
 40
1.0
 40
1.0
 10
15.8165779476
 20
8.9258645837
 30
0.0
 10
15.8128924905
 20
8.9361702945
 30
0.0
 10
15.7983037179
 20
8.9774099072
 30
0.0
 10
15.7843553801
 20
9.0188787012
 30
0.0
 10
15.7743931989
 20
9.0501284989
 30
0.0
  0
SPLINE
  5
470
100
AcDbEntity
  8
0
100
AcDbSpline
 62
7
  6
CONTINUOUS
 70
0
 71
3
 72
9
 73
5
 74
0
 42
0.0000001
 43
0.0000001
 44
0.0000000001
 40
0.0
 40
0.0
 40
0.0
 40
0.0
 40
0.2500577032
 40
1.0
 40
1.0
 40
1.0
 40
1.0
 10
15.7743931989
 20
9.0501284989
 30
0.0
 10
15.7705579755
 20
9.0621589919
 30
0.0
 10
15.7555146777
 20
9.1103622733
 30
0.0
 10
15.7417682267
 20
9.1589769256
 30
0.0
 10
15.7324050527
 20
9.1956705679
 30
0.0
  0
SPLINE
  5
471
100
AcDbEntity
  8
0
100
AcDbSpline
 62
7
  6
CONTINUOUS
 70
0
 71
3
 72
9
 73
5
 74
0
 42
0.0000001
 43
0.0000001
 44
0.0000000001
 40
0.0
 40
0.0
 40
0.0
 40
0.0
 40
0.2498707399
 40
1.0
 40
1.0
 40
1.0
 40
1.0
 10
15.7011444297
 20
9.3356918896
 30
0.0
 10
15.6987552077
 20
9.3479995369
 30
0.0
 10
15.6895246989
 20
9.3973198024
 30
0.0
 10
15.6815315756
 20
9.4468678953
 30
0.0
 10
15.676086307
 20
9.4841100802
 30
0.0
  0
SPLINE
  5
472
100
AcDbEntity
  8
0
100
AcDbSpline
 62
7
  6
CONTINUOUS
 70
0
 71
3
 72
9
 73
5
 74
0
 42
0.0000001
 43
0.0000001
 44
0.0000000001
 40
0.0
 40
0.0
 40
0.0
 40
0.0
 40
0.2501116324
 40
1.0
 40
1.0
 40
1.0
 40
1.0
 10
14.3642704924
 20
9.4841100802
 30
0.0
 10
14.3624549146
 20
9.4716926792
 30
0.0
 10
14.3549514686
 20
9.4220817488
 30
0.0
 10
14.3463826371
 20
9.3726282314
 30
0.0
 10
14.3392123673
 20
9.3356918773
 30
0.0
  0
SPLINE
  5
473
100
AcDbEntity
  8
0
100
AcDbSpline
 62
7
  6
CONTINUOUS
 70
0
 71
3
 72
9
 73
5
 74
0
 42
0.0000001
 43
0.0000001
 44
0.0000000001
 40
0.0
 40
0.0
 40
0.0
 40
0.0
 40
0.7499422968
 40
1.0
 40
1.0
 40
1.0
 40
1.0
 10
14.3079517467
 20
9.1956705679
 30
0.0
 10
14.2985885721
 20
9.1589769232
 30
0.0
 10
14.2848421201
 20
9.1103622678
 30
0.0
 10
14.2697988211
 20
9.0621589833
 30
0.0
 10
14.2659635975
 20
9.0501284895
 30
0.0
  0
SPLINE
  5
474
100
AcDbEntity
  8
0
100
AcDbSpline
 62
7
  6
CONTINUOUS
 70
0
 71
3
 72
9
 73
5
 74
0
 42
0.0000001
 43
0.0000001
 44
0.0000000001
 40
0.0
 40
0.0
 40
0.0
 40
0.0
 40
0.2498199697
 40
1.0
 40
1.0
 40
1.0
 40
1.0
 10
14.2659635975
 20
9.0501284895
 30
0.0
 10
14.2626443555
 20
9.0397165488
 30
0.0
 10
14.2491375188
 20
8.9981089968
 30
0.0
 10
14.2348290014
 20
8.9567643183
 30
0.0
 10
14.2237788518
 20
8.9258645837
 30
0.0
  0
SPLINE
  5
475
100
AcDbEntity
  8
0
100
AcDbSpline
 62
7
  6
CONTINUOUS
 70
0
 71
3
 72
9
 73
5
 74
0
 42
0.0000001
 43
0.0000001
 44
0.0000000001
 40
0.0
 40
0.0
 40
0.0
 40
0.0
 40
0.2497480838
 40
1.0
 40
1.0
 40
1.0
 40
1.0
 10
14.1297745203
 20
8.6686588236
 30
0.0
 10
14.1265911373
 20
8.6595446738
 30
0.0
 10
14.1139815101
 20
8.6230046685
 30
0.0
 10
14.1020820213
 20
8.5862117392
 30
0.0
 10
14.0938495216
 20
8.5584034921
 30
0.0
  0
SPLINE
  5
476
100
AcDbEntity
  8
0
100
AcDbSpline
 62
7
  6
CONTINUOUS
 70
0
 71
3
 72
9
 73
5
 74
0
 42
0.0000001
 43
0.0000001
 44
0.0000000001
 40
0.0
 40
0.0
 40
0.0
 40
0.0
 40
0.250214004
 40
1.0
 40
1.0
 40
1.0
 40
1.0
 10
14.0938495216
 20
8.5584034921
 30
0.0
 10
14.0902779849
 20
8.5463393341
 30
0.0
 10
14.0765279483
 20
8.4979758286
 30
0.0
 10
14.0652536437
 20
8.4488654741
 30
0.0
 10
14.0589071816
 20
8.4117013389
 30
0.0
  0
SPLINE
  5
477
100
AcDbEntity
  8
0
100
AcDbSpline
 62
7
  6
CONTINUOUS
 70
0
 71
3
 72
9
 73
5
 74
0
 42
0.0000001
 43
0.0000001
 44
0.0000000001
 40
0.0
 40
0.0
 40
0.0
 40
0.0
 40
0.2496998954
 40
1.0
 40
1.0
 40
1.0
 40
1.0
 10
14.0589071816
 20
8.4117013389
 30
0.0
 10
14.0563121961
 20
8.3965054088
 30
0.0
 10
14.0473255435
 20
8.3354075634
 30
0.0
 10
14.0434062196
 20
8.2736393951
 30
0.0
 10
14.0423820926
 20
8.2273288803
 30
0.0
  0
SPLINE
  5
478
100
AcDbEntity
  8
0
100
AcDbSpline
 62
7
  6
CONTINUOUS
 70
0
 71
3
 72
38
 73
34
 74
0
 42
0.0000001
 43
0.0000001
 44
0.0000000001
 40
0.0
 40
0.0
 40
0.0
 40
0.0
 40
0.0153910999
 40
0.0308113838
 40
0.0463101229
 40
0.0619239736
 40
0.0935579113
 40
0.1257395306
 40
0.1583434238
 40
0.1911581056
 40
0.2239343807
 40
0.2564297493
 40
0.272513946
 40
0.2884893769
 40
0.3201684177
 40
0.3827599469
 40
0.4447908272
 40
0.475705268
 40
0.5065863058
 40
0.5374515812
 40
0.5528828351
 40
0.5683152795
 40
0.599184131
 40
0.6300558058
 40
0.6917951593
 40
0.7535098953
 40
0.7843526934
 40
0.8151843039
 40
0.8460049821
 40
0.8768163058
 40
0.9076205299
 40
0.9384190854
 40
1.0
 40
1.0
 40
1.0
 40
1.0
 10
15.9988804232
 20
8.2120468062
 30
0.0
 10
15.9988747598
 20
8.2295476818
 30
0.0
 10
15.9983204816
 20
8.2645876508
 30
0.0
 10
15.995041793
 20
8.3171696783
 30
0.0
 10
15.9886639049
 20
8.3697239722
 30
0.0
 10
15.9765010278
 20
8.4400518979
 30
0.0
 10
15.9552027602
 20
8.5279244599
 30
0.0
 10
15.9227286068
 20
8.6326833509
 30
0.0
 10
15.8857106844
 20
8.7373221644
 30
0.0
 10
15.8466118306
 20
8.8419075794
 30
0.0
 10
15.8078918525
 20
8.946502606
 30
0.0
 10
15.7778638973
 20
9.034026488
 30
0.0
 10
15.7565106286
 20
9.1042639036
 30
0.0
 10
15.7370662292
 20
9.1740885702
 30
0.0
 10
15.7074562887
 20
9.2959389249
 30
0.0
 10
15.6758288921
 20
9.470992216
 30
0.0
 10
15.6546253028
 20
9.6466334231
 30
0.0
 10
15.6414857665
 20
9.7868213091
 30
0.0
 10
15.6329024697
 20
9.8918354831
 30
0.0
 10
15.6262789135
 20
9.9793419826
 30
0.0
 10
15.6209895145
 20
10.0493330579
 30
0.0
 10
15.6155914054
 20
10.119319925
 30
0.0
 10
15.6086527499
 20
10.2067969114
 30
0.0
 10
15.5973711516
 20
10.3467491516
 30
0.0
 10
15.5833253465
 20
10.5216665111
 30
0.0
 10
15.5704155409
 20
10.6966416112
 30
0.0
 10
15.561409153
 20
10.8366564566
 30
0.0
 10
15.555477441
 20
10.9416643941
 30
0.0
 10
15.5505228814
 20
11.0466877934
 30
0.0
 10
15.5467229805
 20
11.1517283043
 30
0.0
 10
15.5439842413
 20
11.2567762255
 30
0.0
 10
15.541578397
 20
11.396826385
 30
0.0
 10
15.5409974003
 20
11.5018715684
 30
0.0
 10
15.5409938682
 20
11.5718938532
 30
0.0
  0
SPLINE
  5
479
100
AcDbEntity
  8
0
100
AcDbSpline
 62
7
  6
CONTINUOUS
 70
0
 71
3
 72
9
 73
5
 74
0
 42
0.0000001
 43
0.0000001
 44
0.0000000001
 40
0.0
 40
0.0
 40
0.0
 40
0.0
 40
0.2492296959
 40
1.0
 40
1.0
 40
1.0
 40
1.0
 10
15.9957683917
 20
8.079132852
 30
0.0
 10
15.9960715505
 20
8.0887317718
 30
0.0
 10
15.9973503761
 20
8.1272433038
 30
0.0
 10
15.9985380894
 20
8.1657643211
 30
0.0
 10
15.9988017515
 20
8.1946929673
 30
0.0
  0
SPLINE
  5
47A
100
AcDbEntity
  8
0
100
AcDbSpline
 62
7
  6
CONTINUOUS
 70
0
 71
3
 72
38
 73
34
 74
0
 42
0.0000001
 43
0.0000001
 44
0.0000000001
 40
0.0
 40
0.0
 40
0.0
 40
0.0
 40
0.0153910911
 40
0.0308113118
 40
0.0463099266
 40
0.0619236209
 40
0.0935572166
 40
0.1257385438
 40
0.158342257
 40
0.1911568978
 40
0.2239332689
 40
0.2564288453
 40
0.272513162
 40
0.2884886962
 40
0.3201678996
 40
0.382759624
 40
0.4447905975
 40
0.475705065
 40
0.5065861216
 40
0.5374514102
 40
0.5528826691
 40
0.5683151179
 40
0.5991839787
 40
0.6300556637
 40
0.6917950398
 40
0.7535098002
 40
0.7843526108
 40
0.8151842336
 40
0.846004924
 40
0.8768162595
 40
0.9076204953
 40
0.9384190623
 40
1.0
 40
1.0
 40
1.0
 40
1.0
 10
14.0414762604
 20
8.2119770484
 30
0.0
 10
14.0414811925
 20
8.2294782692
 30
0.0
 10
14.042033725
 20
8.2645188816
 30
0.0
 10
14.045308603
 20
8.3171019827
 30
0.0
 10
14.0516828386
 20
8.3696574177
 30
0.0
 10
14.0638416505
 20
8.4399868075
 30
0.0
 10
14.085136073
 20
8.5278613066
 30
0.0
 10
14.1176074738
 20
8.6326224379
 30
0.0
 10
14.154624271
 20
8.7372634331
 30
0.0
 10
14.1937234801
 20
8.8418509843
 30
0.0
 10
14.2324451154
 20
8.9464481225
 30
0.0
 10
14.2624754717
 20
9.0339736604
 30
0.0
 10
14.2838310672
 20
9.1042124374
 30
0.0
 10
14.3032775195
 20
9.1740385154
 30
0.0
 10
14.3328906349
 20
9.2958912604
 30
0.0
 10
14.3645214442
 20
9.4709481523
 30
0.0
 10
14.385727152
 20
9.646593094
 30
0.0
 10
14.3988677361
 20
9.7867839096
 30
0.0
 10
14.4074515398
 20
9.8918002541
 30
0.0
 10
14.4140753237
 20
9.9793085637
 30
0.0
 10
14.4193648014
 20
10.0493010866
 30
0.0
 10
14.4247629473
 20
10.1192894
 30
0.0
 10
14.4317017041
 20
10.206768191
 30
0.0
 10
14.4429835203
 20
10.3467233187
 30
0.0
 10
14.4570296997
 20
10.521644284
 30
0.0
 10
14.469939943
 20
10.6966229877
 30
0.0
 10
14.4789466808
 20
10.8366407183
 30
0.0
 10
14.4848786439
 20
10.9416508203
 30
0.0
 10
14.4898334368
 20
11.0466763849
 30
0.0
 10
14.4936335308
 20
11.1517190627
 30
0.0
 10
14.4963724034
 20
11.2567691524
 30
0.0
 10
14.4987783649
 20
11.3968222041
 30
0.0
 10
14.4993593901
 20
11.5018695575
 30
0.0
 10
14.4993629251
 20
11.5718932888
 30
0.0
  0
SPLINE
  5
47B
100
AcDbEntity
  8
0
100
AcDbSpline
 62
7
  6
CONTINUOUS
 70
0
 71
3
 72
9
 73
5
 74
0
 42
0.0000001
 43
0.0000001
 44
0.0000000001
 40
0.0
 40
0.0
 40
0.0
 40
0.0
 40
0.2506972052
 40
1.0
 40
1.0
 40
1.0
 40
1.0
 10
14.0415318159
 20
8.1974483128
 30
0.0
 10
14.0416081472
 20
8.1875579822
 30
0.0
 10
14.0422135028
 20
8.1481086014
 30
0.0
 10
14.0436552141
 20
8.1086799893
 30
0.0
 10
14.044588396
 20
8.0791328725
 30
0.0
  0
SPLINE
  5
47C
100
AcDbEntity
  8
0
100
AcDbSpline
 62
7
  6
CONTINUOUS
 70
0
 71
3
 72
11
 73
7
 74
0
 42
0.0000001
 43
0.0000001
 44
0.0000000001
 40
0.0
 40
0.0
 40
0.0
 40
0.0
 40
0.2500544598
 40
0.4999329739
 40
0.7496442794
 40
1.0
 40
1.0
 40
1.0
 40
1.0
 10
14.4993629251
 20
11.5718932888
 30
0.0
 10
14.4993665939
 20
11.6445669272
 30
0.0
 10
14.4985494041
 20
11.7898632283
 30
0.0
 10
14.4959031223
 20
12.0077173805
 30
0.0
 10
14.4929638228
 20
12.2256551219
 30
0.0
 10
14.4912123952
 20
12.3709798551
 30
0.0
 10
14.4904599427
 20
12.4437371586
 30
0.0
  0
SPLINE
  5
47D
100
AcDbEntity
  8
0
100
AcDbSpline
 62
7
  6
CONTINUOUS
 70
0
 71
3
 72
44
 73
40
 74
0
 42
0.0000001
 43
0.0000001
 44
0.0000000001
 40
0.0
 40
0.0
 40
0.0
 40
0.0
 40
0.0624817923
 40
0.0937173792
 40
0.1249498671
 40
0.1561811411
 40
0.1874130748
 40
0.218646935
 40
0.2498836001
 40
0.2811242887
 40
0.3123696405
 40
0.3436195201
 40
0.3748730878
 40
0.4061290642
 40
0.4373862452
 40
0.4686412051
 40
0.499886019
 40
0.5311135987
 40
0.5623195723
 40
0.5935042152
 40
0.6246767536
 40
0.6558314858
 40
0.6713936154
 40
0.686942583
 40
0.7024785692
 40
0.7180055092
 40
0.7490621939
 40
0.7801590914
 40
0.8113192199
 40
0.8425797115
 40
0.8582605336
 40
0.8739818164
 40
0.8897281743
 40
0.9054772131
 40
0.9212165992
 40
0.9369473771
 40
0.9526858395
 40
0.9684459031
 40
1.0
 40
1.0
 40
1.0
 40
1.0
 10
14.4993707575
 20
11.571893418
 30
0.0
 10
14.4993894053
 20
11.5008453249
 30
0.0
 10
14.4988360491
 20
11.3942761141
 30
0.0
 10
14.4963324286
 20
11.2522158291
 30
0.0
 10
14.4933990463
 20
11.1457086351
 30
0.0
 10
14.4893571699
 20
11.0392420991
 30
0.0
 10
14.4843044034
 20
10.9328175003
 30
0.0
 10
14.47831
 20
10.8264357941
 30
0.0
 10
14.4714434478
 20
10.7200971621
 30
0.0
 10
14.4638700276
 20
10.6137938542
 30
0.0
 10
14.4557690877
 20
10.5075146569
 30
0.0
 10
14.4473099125
 20
10.4012488835
 30
0.0
 10
14.4386933732
 20
10.2949837485
 30
0.0
 10
14.4301294448
 20
10.1887059621
 30
0.0
 10
14.4218854265
 20
10.0824011079
 30
0.0
 10
14.4139770527
 20
9.9760837252
 30
0.0
 10
14.4057787462
 20
9.8698216821
 30
0.0
 10
14.3967687435
 20
9.7636798627
 30
0.0
 10
14.3863875153
 20
9.6577296215
 30
0.0
 10
14.3740404659
 20
9.5520494958
 30
0.0
 10
14.3591553102
 20
9.4467519363
 30
0.0
 10
14.3441138675
 20
9.3594510585
 30
0.0
 10
14.3301293896
 20
9.2900390975
 30
0.0
 10
14.3185857527
 20
9.2382637818
 30
0.0
 10
14.3058861626
 20
9.1868001002
 30
0.0
 10
14.2873324263
 20
9.1186382038
 30
0.0
 10
14.2614334944
 20
9.0341655485
 30
0.0
 10
14.2270365349
 20
8.9337743614
 30
0.0
 10
14.1902372057
 20
8.8340024017
 30
0.0
 10
14.1591479513
 20
8.7508123551
 30
0.0
 10
14.1349757758
 20
8.6837826934
 30
0.0
 10
14.1174023555
 20
8.6331300099
 30
0.0
 10
14.1007777987
 20
8.5820736163
 30
0.0
 10
14.0855420307
 20
8.5305599732
 30
0.0
 10
14.0721359682
 20
8.4785538635
 30
0.0
 10
14.0609798595
 20
8.4260233126
 30
0.0
 10
14.0525972645
 20
8.3729510264
 30
0.0
 10
14.0449304399
 20
8.3016433159
 30
0.0
 10
14.0425844133
 20
8.2478295437
 30
0.0
 10
14.0421113091
 20
8.2119524744
 30
0.0
  0
SPLINE
  5
47E
100
AcDbEntity
  8
0
100
AcDbSpline
 62
7
  6
CONTINUOUS
 70
0
 71
3
 72
11
 73
7
 74
0
 42
0.0000001
 43
0.0000001
 44
0.0000000001
 40
0.0
 40
0.0
 40
0.0
 40
0.0
 40
0.2500544605
 40
0.4999329746
 40
0.74964428
 40
1.0
 40
1.0
 40
1.0
 40
1.0
 10
15.5409938682
 20
11.5718938532
 30
0.0
 10
15.5409902023
 20
11.6445674842
 30
0.0
 10
15.5418073971
 20
11.7898637705
 30
0.0
 10
15.5444536845
 20
12.0077179002
 30
0.0
 10
15.5473929887
 20
12.2256556187
 30
0.0
 10
15.5491444196
 20
12.3709803366
 30
0.0
 10
15.5498968737
 20
12.4437376323
 30
0.0
  0
SPLINE
  5
47F
100
AcDbEntity
  8
0
100
AcDbSpline
 62
7
  6
CONTINUOUS
 70
0
 71
3
 72
44
 73
40
 74
0
 42
0.0000001
 43
0.0000001
 44
0.0000000001
 40
0.0
 40
0.0
 40
0.0
 40
0.0
 40
0.0315540972
 40
0.0473141362
 40
0.0630525797
 40
0.0787833641
 40
0.0945227672
 40
0.1102718154
 40
0.1260181621
 40
0.1417394059
 40
0.1574201883
 40
0.1886806214
 40
0.2198407147
 40
0.2509375924
 40
0.2819942721
 40
0.2975212196
 40
0.3130572198
 40
0.3286062023
 40
0.3441683458
 40
0.3753230982
 40
0.4064956456
 40
0.4376803015
 40
0.4688862892
 40
0.5001138817
 40
0.5313587061
 40
0.5626136739
 40
0.5938708609
 40
0.6251268429
 40
0.6563804159
 40
0.6876303008
 40
0.7188756578
 40
0.7501163517
 40
0.7813530223
 40
0.8125868883
 40
0.8438188279
 40
0.875050108
 40
0.9062826022
 40
0.9375181953
 40
1.0
 40
1.0
 40
1.0
 40
1.0
 10
15.9982445691
 20
8.2120222282
 30
0.0
 10
15.9977700609
 20
8.2478985483
 30
0.0
 10
15.9954215712
 20
8.3017111086
 30
0.0
 10
15.9877508903
 20
8.3730168954
 30
0.0
 10
15.979364948
 20
8.4260875033
 30
0.0
 10
15.9682060462
 20
8.478616336
 30
0.0
 10
15.9547978376
 20
8.5306207939
 30
0.0
 10
15.9395605076
 20
8.5821328457
 30
0.0
 10
15.922934943
 20
8.6331877075
 30
0.0
 10
15.9053610632
 20
8.6838389647
 30
0.0
 10
15.8811886982
 20
8.7508668475
 30
0.0
 10
15.8500998714
 20
8.8340549576
 30
0.0
 10
15.8133021284
 20
8.933825061
 30
0.0
 10
15.7789073222
 20
9.0342146327
 30
0.0
 10
15.7530104227
 20
9.1186860122
 30
0.0
 10
15.7344584819
 20
9.1868469262
 30
0.0
 10
15.7217602546
 20
9.2383098737
 30
0.0
 10
15.7102178177
 20
9.2900843983
 30
0.0
 10
15.6962347937
 20
9.3594952367
 30
0.0
 10
15.6811948758
 20
9.446794591
 30
0.0
 10
15.6663111319
 20
9.5520902076
 30
0.0
 10
15.6539651789
 20
9.6577683183
 30
0.0
 10
15.6435847494
 20
9.7637165024
 30
0.0
 10
15.6345752891
 20
9.8698562317
 30
0.0
 10
15.6263773188
 20
9.9761161579
 30
0.0
 10
15.6184690975
 20
10.0824314016
 30
0.0
 10
15.6102251085
 20
10.1887341013
 30
0.0
 10
15.6016613185
 20
10.2950097386
 30
0.0
 10
15.593044963
 20
10.4012727276
 30
0.0
 10
15.5845860177
 20
10.5075363583
 30
0.0
 10
15.5764853278
 20
10.6138134146
 30
0.0
 10
15.5689121681
 20
10.7201145824
 30
0.0
 10
15.5620458791
 20
10.8264510746
 30
0.0
 10
15.5560517188
 20
10.9328306398
 30
0.0
 10
15.5509991654
 20
11.0392530956
 30
0.0
 10
15.5469574691
 20
11.1457174868
 30
0.0
 10
15.5440242287
 20
11.252222534
 30
0.0
 10
15.5415207249
 20
11.3942799539
 30
0.0
 10
15.5409673936
 20
11.5008470144
 30
0.0
 10
15.5409860419
 20
11.5718936739
 30
0.0
  0
SPLINE
  5
480
100
AcDbEntity
  8
0
100
AcDbSpline
 62
7
  6
CONTINUOUS
 70
0
 71
3
 72
17
 73
13
 74
0
 42
0.0000001
 43
0.0000001
 44
0.0000000001
 40
0.0
 40
0.0
 40
0.0
 40
0.0
 40
0.1246117047
 40
0.2492641419
 40
0.3740719955
 40
0.4990487356
 40
0.6242026331
 40
0.7494368529
 40
0.8121317585
 40
0.8748112983
 40
0.9374432168
 40
1.0
 40
1.0
 40
1.0
 40
1.0
 10
15.5499619443
 20
12.4552782677
 30
0.0
 10
15.5499659655
 20
12.5299656993
 30
0.0
 10
15.5350228057
 20
12.6797666809
 30
0.0
 10
15.4691557851
 20
12.8955589869
 30
0.0
 10
15.3614948748
 20
13.0941759233
 30
0.0
 10
15.2168236922
 20
13.2680902297
 30
0.0
 10
15.0401138097
 20
13.4096922812
 30
0.0
 10
14.872260795
 20
13.4965911409
 30
0.0
 10
14.7297405363
 20
13.5446951061
 30
0.0
 10
14.6197148036
 20
13.5699247628
 30
0.0
 10
14.5078235559
 20
13.5840382137
 30
0.0
 10
14.4326589095
 20
13.5858884876
 30
0.0
 10
14.395178312
 20
13.5848818105
 30
0.0
  0
LINE
  5
481
100
AcDbEntity
  8
0
100
AcDbLine
 62
7
  6
CONTINUOUS
 10
12.1802059587
 20
19.05751465
 11
12.1832540384
 21
19.056992949
  0
LINE
  5
482
100
AcDbEntity
  8
0
100
AcDbLine
 62
7
  6
CONTINUOUS
 10
12.1832540384
 20
19.056992949
 11
12.1916525717
 21
19.0555448084
  0
LINE
  5
483
100
AcDbEntity
  8
0
100
AcDbLine
 62
7
  6
CONTINUOUS
 10
12.2231823971
 20
19.0499534813
 11
12.2262059587
 21
19.0494036089
  0
LINE
  5
484
100
AcDbEntity
  8
0
100
AcDbLine
 62
7
  6
CONTINUOUS
 10
13.6317489505
 20
19.0555430005
 11
13.640154701
 21
19.0569924053
  0
LINE
  5
485
100
AcDbEntity
  8
0
100
AcDbLine
 62
7
  6
CONTINUOUS
 10
13.640154701
 20
19.0569924053
 11
13.6432059587
 21
19.05751465
  0
LINE
  5
486
100
AcDbEntity
  8
0
100
AcDbLine
 62
7
  6
CONTINUOUS
 10
13.5972059587
 20
19.0494036089
 11
13.6001986036
 21
19.0499478882
  0
SPLINE
  5
487
100
AcDbEntity
  8
0
100
AcDbSpline
 62
7
  6
CONTINUOUS
 70
0
 71
3
 72
21
 73
17
 74
0
 42
0.0000001
 43
0.0000001
 44
0.0000000001
 40
0.0
 40
0.0
 40
0.0
 40
0.0
 40
0.1418035597
 40
0.2085172116
 40
0.272141165
 40
0.3326750207
 40
0.3903571954
 40
0.4458028133
 40
0.5000001759
 40
0.5541975835
 40
0.6096432414
 40
0.6673253534
 40
0.7278590468
 40
0.7914828907
 40
0.8581964399
 40
1.0
 40
1.0
 40
1.0
 40
1.0
 10
14.0102649702
 20
12.4296126165
 30
0.0
 10
14.0208212037
 20
12.4380059932
 30
0.0
 10
14.0358268854
 20
12.4510666066
 30
0.0
 10
14.0534370036
 20
12.4700664378
 30
0.0
 10
14.0645842356
 20
12.4844302372
 30
0.0
 10
14.0736794264
 20
12.4991871657
 30
0.0
 10
14.0804541269
 20
12.5143117992
 30
0.0
 10
14.0846559547
 20
12.5297368023
 30
0.0
 10
14.0860773308
 20
12.5453389098
 30
0.0
 10
14.0846559628
 20
12.560941029
 30
0.0
 10
14.0804540421
 20
12.5763660054
 30
0.0
 10
14.0736794216
 20
12.5914906534
 30
0.0
 10
14.0645841826
 20
12.6062475194
 30
0.0
 10
14.0534369832
 20
12.6206112946
 30
0.0
 10
14.0358268783
 20
12.6396111128
 30
0.0
 10
14.0208212037
 20
12.6526717186
 30
0.0
 10
14.0102649702
 20
12.6610650954
 30
0.0
  0
SPLINE
  5
488
100
AcDbEntity
  8
0
100
AcDbSpline
 62
7
  6
CONTINUOUS
 70
0
 71
3
 72
11
 73
7
 74
0
 42
0.0000001
 43
0.0000001
 44
0.0000000001
 40
0.0
 40
0.0
 40
0.0
 40
0.0
 40
0.2500736809
 40
0.5001065301
 40
0.7500742209
 40
1.0
 40
1.0
 40
1.0
 40
1.0
 10
14.0102649702
 20
12.8283054669
 30
0.0
 10
14.0212034701
 20
12.8457001088
 30
0.0
 10
14.041571171
 20
12.8814784106
 30
0.0
 10
14.0658773283
 20
12.9382960936
 30
0.0
 10
14.0818578584
 20
12.9980592632
 30
0.0
 10
14.0856091803
 20
13.0392220002
 30
0.0
 10
14.0856091803
 20
13.0597579458
 30
0.0
  0
SPLINE
  5
489
100
AcDbEntity
  8
0
100
AcDbSpline
 62
7
  6
CONTINUOUS
 70
0
 71
3
 72
21
 73
17
 74
0
 42
0.0000001
 43
0.0000001
 44
0.0000000001
 40
0.0
 40
0.0
 40
0.0
 40
0.0
 40
0.1418035573
 40
0.2085172042
 40
0.2721411543
 40
0.332675008
 40
0.3903571812
 40
0.4458027988
 40
0.5000001668
 40
0.5541975786
 40
0.6096432368
 40
0.66732535
 40
0.7278590465
 40
0.7914828915
 40
0.858196441
 40
1.0
 40
1.0
 40
1.0
 40
1.0
 10
13.5418512881
 20
14.3811122328
 30
0.0
 10
13.5334579114
 20
14.3916684662
 30
0.0
 10
13.5203972983
 20
14.4066741471
 30
0.0
 10
13.5013974684
 20
14.4242842651
 30
0.0
 10
13.4870336694
 20
14.435431496
 30
0.0
 10
13.4722767424
 20
14.4445266882
 30
0.0
 10
13.4571521087
 20
14.451301387
 30
0.0
 10
13.4417271061
 20
14.4555032184
 30
0.0
 10
13.4261249974
 20
14.4569245915
 30
0.0
 10
13.4105228773
 20
14.4555032261
 30
0.0
 10
13.3950979
 20
14.4513013057
 30
0.0
 10
13.3799732522
 20
14.444526684
 30
0.0
 10
13.3652163853
 20
14.4354314455
 30
0.0
 10
13.3508526097
 20
14.4242842458
 30
0.0
 10
13.3318527917
 20
14.4066741407
 30
0.0
 10
13.3187921859
 20
14.3916684663
 30
0.0
 10
13.3103988091
 20
14.3811122328
 30
0.0
  0
SPLINE
  5
48A
100
AcDbEntity
  8
0
100
AcDbSpline
 62
7
  6
CONTINUOUS
 70
0
 71
3
 72
21
 73
17
 74
0
 42
0.0000001
 43
0.0000001
 44
0.0000000001
 40
0.0
 40
0.0
 40
0.0
 40
0.0
 40
0.1418035573
 40
0.2085172042
 40
0.2721411543
 40
0.332675008
 40
0.3903571812
 40
0.4458027988
 40
0.5000001668
 40
0.5541975786
 40
0.6096432368
 40
0.66732535
 40
0.7278590465
 40
0.7914828915
 40
0.858196441
 40
1.0
 40
1.0
 40
1.0
 40
1.0
 10
12.5130131084
 20
14.3811122328
 30
0.0
 10
12.5046197317
 20
14.3916684662
 30
0.0
 10
12.4915591186
 20
14.4066741471
 30
0.0
 10
12.4725592887
 20
14.4242842651
 30
0.0
 10
12.4581954897
 20
14.435431496
 30
0.0
 10
12.4434385627
 20
14.4445266882
 30
0.0
 10
12.428313929
 20
14.451301387
 30
0.0
 10
12.4128889264
 20
14.4555032184
 30
0.0
 10
12.3972868177
 20
14.4569245915
 30
0.0
 10
12.3816846976
 20
14.4555032261
 30
0.0
 10
12.3662597203
 20
14.4513013057
 30
0.0
 10
12.3511350725
 20
14.444526684
 30
0.0
 10
12.3363782056
 20
14.4354314455
 30
0.0
 10
12.32201443
 20
14.4242842458
 30
0.0
 10
12.303014612
 20
14.4066741407
 30
0.0
 10
12.2899540062
 20
14.3916684663
 30
0.0
 10
12.2815606294
 20
14.3811122328
 30
0.0
  0
SPLINE
  5
48B
100
AcDbEntity
  8
0
100
AcDbSpline
 62
9
  6
CONTINUOUS
 70
0
 71
3
 72
30
 73
26
 74
0
 42
0.0000001
 43
0.0000001
 44
0.0000000001
 40
0.0
 40
0.0
 40
0.0
 40
0.0
 40
0.0002747048
 40
0.0006173636
 40
0.0010965595
 40
0.0024635617
 40
0.0043737093
 40
0.0068250005
 40
0.009815434
 40
0.0174057242
 40
0.0271285766
 40
0.038967994
 40
0.0529079856
 40
0.0689325668
 40
0.0870257593
 40
0.1071715915
 40
0.1535572097
 40
0.2079110485
 40
0.2699233643
 40
0.3392636535
 40
0.4156017955
 40
0.4986080911
 40
0.5879526229
 40
0.7840181639
 40
1.0
 40
1.0
 40
1.0
 40
1.0
 10
12.3417060618
 20
11.911901179
 30
0.0
 10
12.3417313749
 20
11.9119118205
 30
0.0
 10
12.3417964012
 20
11.9118913021
 30
0.0
 10
12.3419042077
 20
11.9118968163
 30
0.0
 10
12.342123848
 20
11.9118836184
 30
0.0
 10
12.3424983569
 20
11.9118743094
 30
0.0
 10
12.3430709623
 20
11.9118523427
 30
0.0
 10
12.3438052662
 20
11.9118276874
 30
0.0
 10
12.3451072284
 20
11.9117829117
 30
0.0
 10
12.3471355637
 20
11.9117154505
 30
0.0
 10
12.3500480849
 20
11.91162089
 30
0.0
 10
12.3535950601
 20
11.9115092862
 30
0.0
 10
12.3577717666
 20
11.9113818627
 30
0.0
 10
12.362573436
 20
11.9112400977
 30
0.0
 10
12.3679953156
 20
11.9110853744
 30
0.0
 10
12.3764510285
 20
11.9108525496
 30
0.0
 10
12.3885304239
 20
11.9105387789
 30
0.0
 10
12.4047941607
 20
11.9101505967
 30
0.0
 10
12.4233528622
 20
11.9097565707
 30
0.0
 10
12.4441098037
 20
11.9093775601
 30
0.0
 10
12.4669661669
 20
11.9090350794
 30
0.0
 10
12.4918230593
 20
11.9087499268
 30
0.0
 10
12.5286482666
 20
11.9084686475
 30
0.0
 10
12.5787667519
 20
11.9083749114
 30
0.0
 10
12.6199541118
 20
11.9085262103
 30
0.0
 10
12.6415428645
 20
11.9086536609
 30
0.0
  0
SPLINE
  5
48C
100
AcDbEntity
  8
0
100
AcDbSpline
 62
9
  6
CONTINUOUS
 70
0
 71
3
 72
19
 73
15
 74
0
 42
0.0000001
 43
0.0000001
 44
0.0000000001
 40
0.0
 40
0.0
 40
0.0
 40
0.0
 40
0.0792032214
 40
0.1478480218
 40
0.2100563123
 40
0.2674766789
 40
0.3719743717
 40
0.4655984923
 40
0.6270035076
 40
0.7585426718
 40
0.862008957
 40
0.9374672075
 40
0.9840447115
 40
1.0
 40
1.0
 40
1.0
 40
1.0
 10
7.1615027674
 20
10.1994085526
 30
0.0
 10
7.1482790968
 20
10.2023993575
 30
0.0
 10
7.1237110959
 20
10.2085026036
 30
0.0
 10
7.0890655629
 20
10.2181304399
 30
0.0
 10
7.0581655555
 20
10.2272906892
 30
0.0
 10
7.0215339261
 20
10.2386945827
 30
0.0
 10
6.9799262112
 20
10.2521974252
 30
0.0
 10
6.9215675384
 20
10.2717359545
 30
0.0
 10
6.8589420581
 20
10.2931060774
 30
0.0
 10
6.7946741283
 20
10.3148791742
 30
0.0
 10
6.7442281273
 20
10.3315986864
 30
0.0
 10
6.7074741726
 20
10.3433963352
 30
0.0
 10
6.6849059884
 20
10.3503715779
 30
0.0
 10
6.6746421987
 20
10.3534101212
 30
0.0
 10
6.6720205814
 20
10.3541759738
 30
0.0
  0
SPLINE
  5
48D
100
AcDbEntity
  8
0
100
AcDbSpline
 62
9
  6
CONTINUOUS
 70
0
 71
3
 72
26
 73
22
 74
0
 42
0.0000001
 43
0.0000001
 44
0.0000000001
 40
0.0
 40
0.0
 40
0.0
 40
0.0
 40
0.0098668429
 40
0.0209908617
 40
0.0335145019
 40
0.0475108488
 40
0.0800006233
 40
0.1184262933
 40
0.1625424931
 40
0.2120742549
 40
0.2667269799
 40
0.3262331741
 40
0.3903498902
 40
0.4589156001
 40
0.5318724193
 40
0.6094712247
 40
0.6922294641
 40
0.781520328
 40
0.829452389
 40
0.8806327932
 40
1.0
 40
1.0
 40
1.0
 40
1.0
 10
7.7455083561
 20
9.9422940594
 30
0.0
 10
7.7434237973
 20
9.9419638977
 30
0.0
 10
7.7389172226
 20
9.9416978636
 30
0.0
 10
7.7317574286
 20
9.942285748
 30
0.0
 10
7.7238339778
 20
9.9437838514
 30
0.0
 10
7.7116485628
 20
9.9471128347
 30
0.0
 10
7.6946188762
 20
9.9535205411
 30
0.0
 10
7.6722451762
 20
9.9637799085
 30
0.0
 10
7.6471078688
 20
9.976687459
 30
0.0
 10
7.6192782451
 20
9.9919150945
 30
0.0
 10
7.5888000925
 20
10.0091513472
 30
0.0
 10
7.5556871255
 20
10.0280641704
 30
0.0
 10
7.519922836
 20
10.0483359249
 30
0.0
 10
7.4814335122
 20
10.0696317345
 30
0.0
 10
7.4400571768
 20
10.0916577338
 30
0.0
 10
7.3954496565
 20
10.1140501794
 30
0.0
 10
7.3470142517
 20
10.1365600684
 30
0.0
 10
7.3035724155
 20
10.1546845944
 30
0.0
 10
7.2658343665
 20
10.1688409458
 30
0.0
 10
7.2215919145
 20
10.1839002944
 30
0.0
 10
7.186406707
 20
10.1937760147
 30
0.0
 10
7.1615027674
 20
10.1994085526
 30
0.0
  0
SPLINE
  5
48E
100
AcDbEntity
  8
0
100
AcDbSpline
 62
7
  6
CONTINUOUS
 70
0
 71
3
 72
12
 73
8
 74
0
 42
0.0000001
 43
0.0000001
 44
0.0000000001
 40
0.0
 40
0.0
 40
0.0
 40
0.0
 40
0.249936388
 40
0.375055765
 40
0.5000974696
 40
0.7500695164
 40
1.0
 40
1.0
 40
1.0
 40
1.0
 10
14.0856091803
 20
13.0597579458
 30
0.0
 10
14.0856091803
 20
13.0802986807
 30
0.0
 10
14.0827699222
 20
13.111201106
 30
0.0
 10
14.0738734585
 20
13.1513557653
 30
0.0
 10
14.0618176192
 20
13.1906931527
 30
0.0
 10
14.0415696109
 20
13.2380596944
 30
0.0
 10
14.0211992919
 20
13.273822427
 30
0.0
 10
14.0102649702
 20
13.2912104247
 30
0.0
  0
SPLINE
  5
48F
100
AcDbEntity
  8
0
100
AcDbSpline
 62
7
  6
CONTINUOUS
 70
0
 71
3
 72
21
 73
17
 74
0
 42
0.0000001
 43
0.0000001
 44
0.0000000001
 40
0.0
 40
0.0
 40
0.0
 40
0.0
 40
0.1418035597
 40
0.2085172116
 40
0.272141165
 40
0.3326750207
 40
0.3903571954
 40
0.4458028133
 40
0.5000001759
 40
0.5541975835
 40
0.6096432414
 40
0.6673253534
 40
0.7278590468
 40
0.7914828907
 40
0.8581964399
 40
1.0
 40
1.0
 40
1.0
 40
1.0
 10
14.0102649702
 20
13.4584507962
 30
0.0
 10
14.0208212037
 20
13.4668441729
 30
0.0
 10
14.0358268854
 20
13.4799047863
 30
0.0
 10
14.0534370036
 20
13.4989046175
 30
0.0
 10
14.0645842356
 20
13.5132684169
 30
0.0
 10
14.0736794264
 20
13.5280253454
 30
0.0
 10
14.0804541269
 20
13.5431499789
 30
0.0
 10
14.0846559547
 20
13.558574982
 30
0.0
 10
14.0860773308
 20
13.5741770895
 30
0.0
 10
14.0846559628
 20
13.5897792087
 30
0.0
 10
14.0804540421
 20
13.6052041851
 30
0.0
 10
14.0736794216
 20
13.6203288331
 30
0.0
 10
14.0645841826
 20
13.6350856991
 30
0.0
 10
14.0534369832
 20
13.6494494743
 30
0.0
 10
14.0358268783
 20
13.6684492925
 30
0.0
 10
14.0208212037
 20
13.6815098983
 30
0.0
 10
14.0102649702
 20
13.6899032751
 30
0.0
  0
SPLINE
  5
490
100
AcDbEntity
  8
0
100
AcDbSpline
 62
7
  6
CONTINUOUS
 70
0
 71
3
 72
11
 73
7
 74
0
 42
0.0000001
 43
0.0000001
 44
0.0000000001
 40
0.0
 40
0.0
 40
0.0
 40
0.0
 40
0.2500736799
 40
0.5001065265
 40
0.7500742151
 40
1.0
 40
1.0
 40
1.0
 40
1.0
 10
13.6640918292
 20
12.8283054669
 30
0.0
 10
13.6531533293
 20
12.8457001087
 30
0.0
 10
13.6327856285
 20
12.8814784103
 30
0.0
 10
13.6084794714
 20
12.9382960928
 30
0.0
 10
13.5924989409
 20
12.9980592624
 30
0.0
 10
13.5887476191
 20
13.0392219997
 30
0.0
 10
13.5887476191
 20
13.0597579458
 30
0.0
  0
SPLINE
  5
491
100
AcDbEntity
  8
0
100
AcDbSpline
 62
7
  6
CONTINUOUS
 70
0
 71
3
 72
11
 73
7
 74
0
 42
0.0000001
 43
0.0000001
 44
0.0000000001
 40
0.0
 40
0.0
 40
0.0
 40
0.0
 40
0.249926885
 40
0.4998945475
 40
0.7499269225
 40
1.0
 40
1.0
 40
1.0
 40
1.0
 10
13.5887476191
 20
13.0597579458
 30
0.0
 10
13.5887476191
 20
13.0802939823
 30
0.0
 10
13.5924989476
 20
13.1214568115
 30
0.0
 10
13.6084795614
 20
13.1812200104
 30
0.0
 10
13.6327856915
 20
13.2380376036
 30
0.0
 10
13.6531533557
 20
13.2738158247
 30
0.0
 10
13.6640918292
 20
13.2912104247
 30
0.0
  0
SPLINE
  5
492
100
AcDbEntity
  8
0
100
AcDbSpline
 62
9
  6
CONTINUOUS
 70
0
 71
3
 72
11
 73
7
 74
0
 42
0.0000001
 43
0.0000001
 44
0.0000000001
 40
0.0
 40
0.0
 40
0.0
 40
0.0
 40
0.0687611179
 40
0.2693203399
 40
0.587068736
 40
1.0
 40
1.0
 40
1.0
 40
1.0
 10
13.4794533243
 20
11.8434092849
 30
0.0
 10
13.4726392868
 20
11.8436918381
 30
0.0
 10
13.4459490285
 20
11.8447643127
 30
0.0
 10
13.3877597753
 20
11.8468608559
 30
0.0
 10
13.295447449
 20
11.8499030774
 30
0.0
 10
13.2230083551
 20
11.8520410276
 30
0.0
 10
13.1820689597
 20
11.853187477
 30
0.0
  0
SPLINE
  5
493
100
AcDbEntity
  8
0
100
AcDbSpline
 62
7
  6
CONTINUOUS
 70
0
 71
3
 72
21
 73
17
 74
0
 42
0.0000001
 43
0.0000001
 44
0.0000000001
 40
0.0
 40
0.0
 40
0.0
 40
0.0
 40
0.1418035597
 40
0.2085172116
 40
0.272141165
 40
0.3326750207
 40
0.3903571954
 40
0.4458028133
 40
0.5000001759
 40
0.5541975835
 40
0.6096432414
 40
0.6673253534
 40
0.7278590468
 40
0.7914828907
 40
0.8581964399
 40
1.0
 40
1.0
 40
1.0
 40
1.0
 10
13.6640918292
 20
13.6899032751
 30
0.0
 10
13.6535355957
 20
13.6815098983
 30
0.0
 10
13.638529914
 20
13.6684492849
 30
0.0
 10
13.6209197958
 20
13.6494494538
 30
0.0
 10
13.6097725638
 20
13.6350856543
 30
0.0
 10
13.600677373
 20
13.6203287259
 30
0.0
 10
13.5939026725
 20
13.6052040923
 30
0.0
 10
13.5897008447
 20
13.5897790892
 30
0.0
 10
13.5882794686
 20
13.5741769817
 30
0.0
 10
13.5897008366
 20
13.5585748625
 30
0.0
 10
13.5939027573
 20
13.5431498861
 30
0.0
 10
13.6006773777
 20
13.5280252382
 30
0.0
 10
13.6097726167
 20
13.5132683722
 30
0.0
 10
13.6209198162
 20
13.498904597
 30
0.0
 10
13.6385299211
 20
13.4799047788
 30
0.0
 10
13.6535355956
 20
13.466844173
 30
0.0
 10
13.6640918292
 20
13.4584507962
 30
0.0
  0
SPLINE
  5
494
100
AcDbEntity
  8
0
100
AcDbSpline
 62
9
  6
CONTINUOUS
 70
0
 71
3
 72
11
 73
7
 74
0
 42
0.0000001
 43
0.0000001
 44
0.0000000001
 40
0.0
 40
0.0
 40
0.0
 40
0.0
 40
0.3064212377
 40
0.4496994022
 40
0.5838609826
 40
1.0
 40
1.0
 40
1.0
 40
1.0
 10
13.1942718027
 20
12.2803361233
 30
0.0
 10
13.1939026881
 20
12.278733942
 30
0.0
 10
13.1931142745
 20
12.2764325313
 30
0.0
 10
13.191608633
 20
12.2736633713
 30
0.0
 10
13.1895081716
 20
12.2706627115
 30
0.0
 10
13.1868038835
 20
12.2684206258
 30
0.0
 10
13.1845710256
 20
12.2684203445
 30
0.0
  0
LINE
  5
495
100
AcDbEntity
  8
0
100
AcDbLine
 62
9
  6
CONTINUOUS
 10
12.4872306274
 20
18.7291688869
 11
12.4877283723
 21
18.7255689106
  0
SPLINE
  5
496
100
AcDbEntity
  8
0
100
AcDbSpline
 62
9
  6
CONTINUOUS
 70
0
 71
3
 72
10
 73
6
 74
0
 42
0.0000001
 43
0.0000001
 44
0.0000000001
 40
0.0
 40
0.0
 40
0.0
 40
0.0
 40
0.2363581439
 40
0.4863516688
 40
1.0
 40
1.0
 40
1.0
 40
1.0
 10
12.4917711507
 20
18.703712659
 30
0.0
 10
12.4940041024
 20
18.6937844508
 30
0.0
 10
12.4997427178
 20
18.6735839874
 30
0.0
 10
12.516225633
 20
18.6337679505
 30
0.0
 10
12.5350946701
 20
18.6059938904
 30
0.0
 10
12.5504982651
 20
18.5901259792
 30
0.0
  0
LINE
  5
497
100
AcDbEntity
  8
0
100
AcDbLine
 62
9
  6
CONTINUOUS
 10
12.6415765378
 20
11.864556357
 11
12.3417059587
 21
11.8684193631
  0
LINE
  5
498
100
AcDbEntity
  8
0
100
AcDbLine
 62
9
  6
CONTINUOUS
 10
12.6417060863
 20
12.2797046301
 11
12.6354793163
 21
12.2800175197
  0
LINE
  5
499
100
AcDbEntity
  8
0
100
AcDbLine
 62
9
  6
CONTINUOUS
 10
12.6354793163
 20
12.2800175197
 11
12.6291389864
 21
12.2803361581
  0
SPLINE
  5
49A
100
AcDbEntity
  8
0
100
AcDbSpline
 62
9
  6
CONTINUOUS
 70
0
 71
3
 72
13
 73
9
 74
0
 42
0.0000001
 43
0.0000001
 44
0.0000000001
 40
0.0
 40
0.0
 40
0.0
 40
0.0
 40
0.0800377356
 40
0.1662331662
 40
0.2634947315
 40
0.3752063893
 40
0.6497190587
 40
1.0
 40
1.0
 40
1.0
 40
1.0
 10
15.5499019753
 20
12.4437373521
 30
0.0
 10
15.5499019753
 20
12.4445272814
 30
0.0
 10
15.5496533892
 20
12.4461758239
 30
0.0
 10
15.5485766177
 20
12.4485699532
 30
0.0
 10
15.5468298875
 20
12.4509230601
 30
0.0
 10
15.5433845585
 20
12.4542469973
 30
0.0
 10
15.5372478928
 20
12.4582390516
 30
0.0
 10
15.5316603822
 20
12.4608665158
 30
0.0
 10
15.528475126
 20
12.4622102318
 30
0.0
  0
SPLINE
  5
49B
100
AcDbEntity
  8
0
100
AcDbSpline
 62
9
  6
CONTINUOUS
 70
0
 71
3
 72
36
 73
32
 74
0
 42
0.0000001
 43
0.0000001
 44
0.0000000001
 40
0.0
 40
0.0
 40
0.0
 40
0.0
 40
0.0154506451
 40
0.0344051434
 40
0.0567662837
 40
0.0824152117
 40
0.1111837662
 40
0.1428542331
 40
0.2139223064
 40
0.2934772816
 40
0.3790395225
 40
0.4679492915
 40
0.5574191083
 40
0.6446575748
 40
0.7269290874
 40
0.7654035552
 40
0.8016907596
 40
0.8355143875
 40
0.8666318533
 40
0.8948011896
 40
0.9198129931
 40
0.9415114246
 40
0.9597810522
 40
0.9676011504
 40
0.9745425179
 40
0.980616977
 40
0.985849252
 40
0.9902867876
 40
0.9940128154
 40
0.9971712739
 40
1.0
 40
1.0
 40
1.0
 40
1.0
 10
15.528475126
 20
12.4622102318
 30
0.0
 10
15.5234736081
 20
12.4643201468
 30
0.0
 10
15.5120426405
 20
12.4683161441
 30
0.0
 10
15.4927902897
 20
12.4735519075
 30
0.0
 10
15.4698002009
 20
12.4785882575
 30
0.0
 10
15.4432468694
 20
12.4833645478
 30
0.0
 10
15.4133301976
 20
12.4878382753
 30
0.0
 10
15.3674810791
 20
12.4935732311
 30
0.0
 10
15.3037003136
 20
12.4995588887
 30
0.0
 10
15.2208783736
 20
12.5048255896
 30
0.0
 10
15.1316859762
 20
12.5082272984
 30
0.0
 10
15.0389575601
 20
12.5096512264
 30
0.0
 10
14.9456311771
 20
12.5090393024
 30
0.0
 10
14.8546726533
 20
12.5064250001
 30
0.0
 10
14.7816934522
 20
12.5025604344
 30
0.0
 10
14.7266729513
 20
12.4984610541
 30
0.0
 10
14.6886764225
 20
12.4950246705
 30
0.0
 10
14.6533171183
 20
12.4911853082
 30
0.0
 10
14.6208725611
 20
12.4869818348
 30
0.0
 10
14.5916014256
 20
12.4824455347
 30
0.0
 10
14.5657351484
 20
12.477614394
 30
0.0
 10
14.5434720323
 20
12.472532156
 30
0.0
 10
14.5273089302
 20
12.4679359147
 30
0.0
 10
14.5163612806
 20
12.4640743545
 30
0.0
 10
14.5095856973
 20
12.4612929804
 30
0.0
 10
14.5038179774
 20
12.4584806466
 30
0.0
 10
14.4990619412
 20
12.4556390515
 30
0.0
 10
14.4953159866
 20
12.4527664086
 30
0.0
 10
14.4925782904
 20
12.4498465174
 30
0.0
 10
14.4908632262
 20
12.4468475486
 30
0.0
 10
14.4904548242
 20
12.4447311663
 30
0.0
 10
14.4904548242
 20
12.4437373373
 30
0.0
  0
SPLINE
  5
49C
100
AcDbEntity
  8
0
100
AcDbSpline
 62
9
  6
CONTINUOUS
 70
0
 71
3
 72
9
 73
5
 74
0
 42
0.0000001
 43
0.0000001
 44
0.0000000001
 40
0.0
 40
0.0
 40
0.0
 40
0.0
 40
0.4951354016
 40
1.0
 40
1.0
 40
1.0
 40
1.0
 10
14.4616766986
 20
12.5138609717
 30
0.0
 10
14.4531173583
 20
12.5225601736
 30
0.0
 10
14.4323647946
 20
12.537038163
 30
0.0
 10
14.4076177479
 20
12.542633188
 30
0.0
 10
14.395178397
 20
12.5429672906
 30
0.0
  0
SPLINE
  5
49D
100
AcDbEntity
  8
0
100
AcDbSpline
 62
9
  6
CONTINUOUS
 70
0
 71
3
 72
19
 73
15
 74
0
 42
0.0000001
 43
0.0000001
 44
0.0000000001
 40
0.0
 40
0.0
 40
0.0
 40
0.0
 40
0.0059373239
 40
0.0193999027
 40
0.0404468261
 40
0.0690791041
 40
0.1052882871
 40
0.1490630263
 40
0.2003907878
 40
0.2592584633
 40
0.3995596063
 40
0.5698573888
 40
0.7700412493
 40
1.0
 40
1.0
 40
1.0
 40
1.0
 10
14.0445958711
 20
8.0791373548
 30
0.0
 10
14.0446422512
 20
8.0791720584
 30
0.0
 10
14.0448448476
 20
8.079182385
 30
0.0
 10
14.0452250722
 20
8.079237386
 30
0.0
 10
14.0458463974
 20
8.0792688839
 30
0.0
 10
14.0466805468
 20
8.0793142573
 30
0.0
 10
14.0477404689
 20
8.0793550449
 30
0.0
 10
14.0490205023
 20
8.0793982133
 30
0.0
 10
14.0505221967
 20
8.0794410291
 30
0.0
 10
14.0529652947
 20
8.0795024285
 30
0.0
 10
14.0565691792
 20
8.0795776629
 30
0.0
 10
14.0615517538
 20
8.0796648883
 30
0.0
 10
14.0674091702
 20
8.079753145
 30
0.0
 10
14.0716053983
 20
8.079808837
 30
0.0
 10
14.0738487645
 20
8.0798371507
 30
0.0
  0
SPLINE
  5
49E
100
AcDbEntity
  8
0
100
AcDbSpline
 62
9
  6
CONTINUOUS
 70
0
 71
3
 72
19
 73
15
 74
0
 42
0.0000001
 43
0.0000001
 44
0.0000000001
 40
0.0
 40
0.0
 40
0.0
 40
0.0
 40
0.0273615924
 40
0.0675844804
 40
0.1196259607
 40
0.1821335278
 40
0.3316299592
 40
0.4998535831
 40
0.668095673
 40
0.8176508182
 40
0.8802027686
 40
0.9322963017
 40
0.9725768318
 40
1.0
 40
1.0
 40
1.0
 40
1.0
 10
14.0738487645
 20
8.0798371507
 30
0.0
 10
14.0911079304
 20
8.0800549794
 30
0.0
 10
14.1337409058
 20
8.0804256081
 30
0.0
 10
14.2092031133
 20
8.0809046832
 30
0.0
 10
14.3068370405
 20
8.0813616861
 30
0.0
 10
14.4734040663
 20
8.0819547745
 30
0.0
 10
14.7132630281
 20
8.0824636496
 30
0.0
 10
15.0198230272
 20
8.0826767149
 30
0.0
 10
15.3264200656
 20
8.0824645944
 30
0.0
 10
15.5663557146
 20
8.0819563845
 30
0.0
 10
15.733020616
 20
8.0813637341
 30
0.0
 10
15.8307517416
 20
8.0809068541
 30
0.0
 10
15.9063219952
 20
8.0804278043
 30
0.0
 10
15.9490301776
 20
8.0800571186
 30
0.0
 10
15.9663281924
 20
8.0798394301
 30
0.0
  0
SPLINE
  5
49F
100
AcDbEntity
  8
0
100
AcDbSpline
 62
9
  6
CONTINUOUS
 70
0
 71
3
 72
19
 73
15
 74
0
 42
0.0000001
 43
0.0000001
 44
0.0000000001
 40
0.0
 40
0.0
 40
0.0
 40
0.0
 40
0.2299641821
 40
0.4301532809
 40
0.600455451
 40
0.7407594701
 40
0.7996278081
 40
0.8509556023
 40
0.8947296582
 40
0.9309373524
 40
0.9595672403
 40
0.9806107621
 40
0.994068774
 40
1.0
 40
1.0
 40
1.0
 40
1.0
 10
15.9663281924
 20
8.0798394301
 30
0.0
 10
15.9685853981
 20
8.0798110241
 30
0.0
 10
15.9728075184
 20
8.0797551506
 30
0.0
 10
15.9787010796
 20
8.079666607
 30
0.0
 10
15.9837143986
 20
8.0795790983
 30
0.0
 10
15.987340511
 20
8.0795036199
 30
0.0
 10
15.9897986608
 20
8.0794420203
 30
0.0
 10
15.991309587
 20
8.0793990665
 30
0.0
 10
15.9925974681
 20
8.0793557542
 30
0.0
 10
15.9936638659
 20
8.0793148439
 30
0.0
 10
15.9945030689
 20
8.0792692974
 30
0.0
 10
15.9951281321
 20
8.0792377576
 30
0.0
 10
15.9955105402
 20
8.0791824707
 30
0.0
 10
15.9957143126
 20
8.0791722394
 30
0.0
 10
15.9957609271
 20
8.0791373549
 30
0.0
  0
SPLINE
  5
4A0
100
AcDbEntity
  8
0
100
AcDbSpline
 62
9
  6
CONTINUOUS
 70
0
 71
3
 72
9
 73
5
 74
0
 42
0.0000001
 43
0.0000001
 44
0.0000000001
 40
0.0
 40
0.0
 40
0.0
 40
0.0
 40
0.2353508062
 40
1.0
 40
1.0
 40
1.0
 40
1.0
 10
14.0645861171
 20
8.0597579458
 30
0.0
 10
14.0637679258
 20
8.0597579447
 30
0.0
 10
14.0602954765
 20
8.0600109808
 30
0.0
 10
14.0568940272
 20
8.0611656236
 30
0.0
 10
14.0545804357
 20
8.0624747336
 30
0.0
  0
LINE
  5
4A1
100
AcDbEntity
  8
0
100
AcDbLine
 62
9
  6
CONTINUOUS
 10
14.0545804357
 20
8.0624747336
 11
14.0514152442
 21
8.064706154
  0
SPLINE
  5
4A2
100
AcDbEntity
  8
0
100
AcDbSpline
 62
9
  6
CONTINUOUS
 70
0
 71
3
 72
9
 73
5
 74
0
 42
0.0000001
 43
0.0000001
 44
0.0000000001
 40
0.0
 40
0.0
 40
0.0
 40
0.0
 40
0.7485552796
 40
1.0
 40
1.0
 40
1.0
 40
1.0
 10
14.0514152442
 20
8.064706154
 30
0.0
 10
14.0501613352
 20
8.0658005409
 30
0.0
 10
14.0486911332
 20
8.0675155863
 30
0.0
 10
14.0475337322
 20
8.0694140101
 30
0.0
 10
14.0472613291
 20
8.0699022124
 30
0.0
  0
SPLINE
  5
4A3
100
AcDbEntity
  8
0
100
AcDbSpline
 62
9
  6
CONTINUOUS
 70
0
 71
3
 72
9
 73
5
 74
0
 42
0.0000001
 43
0.0000001
 44
0.0000000001
 40
0.0
 40
0.0
 40
0.0
 40
0.0
 40
0.2593913534
 40
1.0
 40
1.0
 40
1.0
 40
1.0
 10
14.0472613291
 20
8.0699022124
 30
0.0
 10
14.0468543114
 20
8.0706316719
 30
0.0
 10
14.0454510692
 20
8.0735301486
 30
0.0
 10
14.0446698764
 20
8.0767534897
 30
0.0
 10
14.0445958711
 20
8.0791373548
 30
0.0
  0
SPLINE
  5
4A4
100
AcDbEntity
  8
0
100
AcDbSpline
 62
9
  6
CONTINUOUS
 70
0
 71
3
 72
9
 73
5
 74
0
 42
0.0000001
 43
0.0000001
 44
0.0000000001
 40
0.0
 40
0.0
 40
0.0
 40
0.0
 40
0.2373846994
 40
1.0
 40
1.0
 40
1.0
 40
1.0
 10
15.9757706715
 20
8.0597579458
 30
0.0
 10
15.9765960872
 20
8.0597579446
 30
0.0
 10
15.9800695856
 20
8.0600170159
 30
0.0
 10
15.9834646453
 20
8.0611861816
 30
0.0
 10
15.9857732147
 20
8.0624908104
 30
0.0
  0
LINE
  5
4A5
100
AcDbEntity
  8
0
100
AcDbLine
 62
9
  6
CONTINUOUS
 10
15.9857732147
 20
8.0624908104
 11
15.988929025
 21
8.0647008262
  0
SPLINE
  5
4A6
100
AcDbEntity
  8
0
100
AcDbSpline
 62
9
  6
CONTINUOUS
 70
0
 71
3
 72
8
 73
4
 74
0
 42
0.0000001
 43
0.0000001
 44
0.0000000001
 40
0.0
 40
0.0
 40
0.0
 40
0.0
 40
1.0
 40
1.0
 40
1.0
 40
1.0
 10
15.988929025
 20
8.0647008262
 30
0.0
 10
15.9906127608
 20
8.0661536123
 30
0.0
 10
15.9920290329
 20
8.0679560334
 30
0.0
 10
15.9931112497
 20
8.0698988049
 30
0.0
  0
SPLINE
  5
4A7
100
AcDbEntity
  8
0
100
AcDbSpline
 62
9
  6
CONTINUOUS
 70
0
 71
3
 72
9
 73
5
 74
0
 42
0.0000001
 43
0.0000001
 44
0.0000000001
 40
0.0
 40
0.0
 40
0.0
 40
0.0
 40
0.2611151359
 40
1.0
 40
1.0
 40
1.0
 40
1.0
 10
15.9931112497
 20
8.0698988049
 30
0.0
 10
15.9935204205
 20
8.0706333392
 30
0.0
 10
15.9949173111
 20
8.0735351527
 30
0.0
 10
15.9956870905
 20
8.076759237
 30
0.0
 10
15.9957609174
 20
8.0791373551
 30
0.0
  0
SPLINE
  5
4A8
100
AcDbEntity
  8
0
100
AcDbSpline
 62
7
  6
CONTINUOUS
 70
0
 71
3
 72
15
 73
11
 74
0
 42
0.0000001
 43
0.0000001
 44
0.0000000001
 40
0.0
 40
0.0
 40
0.0
 40
0.0
 40
0.1260814435
 40
0.2514232522
 40
0.3759772104
 40
0.4999999986
 40
0.6240227873
 40
0.7485767468
 40
0.873918556
 40
1.0
 40
1.0
 40
1.0
 40
1.0
 10
12.130173529
 20
13.5112612247
 30
0.0
 10
12.1249075869
 20
13.498889815
 30
0.0
 10
12.1149829814
 20
13.4739633744
 30
0.0
 10
12.1029089369
 20
13.4356771936
 30
0.0
 10
12.0948904218
 20
13.3965214614
 30
0.0
 10
12.0920547407
 20
13.3567579462
 30
0.0
 10
12.0948904221
 20
13.3169944308
 30
0.0
 10
12.1029089367
 20
13.2778386984
 30
0.0
 10
12.1149829812
 20
13.2395525173
 30
0.0
 10
12.1249075869
 20
13.2146260766
 30
0.0
 10
12.130173529
 20
13.2022546668
 30
0.0
  0
SPLINE
  5
4A9
100
AcDbEntity
  8
0
100
AcDbSpline
 62
7
  6
CONTINUOUS
 70
0
 71
3
 72
15
 73
11
 74
0
 42
0.0000001
 43
0.0000001
 44
0.0000000001
 40
0.0
 40
0.0
 40
0.0
 40
0.0
 40
0.1260814437
 40
0.2514232526
 40
0.3759772122
 40
0.5000000014
 40
0.62402279
 40
0.7485767485
 40
0.8739185569
 40
1.0
 40
1.0
 40
1.0
 40
1.0
 10
12.130173529
 20
12.9172612247
 30
0.0
 10
12.1249075869
 20
12.904889815
 30
0.0
 10
12.1149829814
 20
12.8799633744
 30
0.0
 10
12.1029089367
 20
12.8416771934
 30
0.0
 10
12.0948904221
 20
12.8025214608
 30
0.0
 10
12.0920547408
 20
12.7627579454
 30
0.0
 10
12.0948904218
 20
12.72299443
 30
0.0
 10
12.1029089368
 20
12.6838386978
 30
0.0
 10
12.1149829815
 20
12.6455525171
 30
0.0
 10
12.124907587
 20
12.6206260765
 30
0.0
 10
12.130173529
 20
12.6082546668
 30
0.0
  0
SPLINE
  5
4AA
100
AcDbEntity
  8
0
100
AcDbSpline
 62
9
  6
CONTINUOUS
 70
0
 71
3
 72
9
 73
5
 74
0
 42
0.0000001
 43
0.0000001
 44
0.0000000001
 40
0.0
 40
0.0
 40
0.0
 40
0.0
 40
0.5030985178
 40
1.0
 40
1.0
 40
1.0
 40
1.0
 10
12.5350470174
 20
13.595399095
 30
0.0
 10
12.5508070398
 20
13.6139984832
 30
0.0
 10
12.5843205595
 20
13.6491801948
 30
0.0
 10
12.6220346153
 20
13.6798584672
 30
0.0
 10
12.6416990746
 20
13.6937535568
 30
0.0
  0
SPLINE
  5
4AB
100
AcDbEntity
  8
0
100
AcDbSpline
 62
9
  6
CONTINUOUS
 70
0
 71
3
 72
9
 73
5
 74
0
 42
0.0000001
 43
0.0000001
 44
0.0000000001
 40
0.0
 40
0.0
 40
0.0
 40
0.0
 40
0.4969558363
 40
1.0
 40
1.0
 40
1.0
 40
1.0
 10
13.183307775
 20
13.6926752468
 30
0.0
 10
13.2025591707
 20
13.6789748204
 30
0.0
 10
13.2394911025
 20
13.6487875496
 30
0.0
 10
13.2723445464
 20
13.6142441312
 30
0.0
 10
13.2878225373
 20
13.5960091731
 30
0.0
  0
SPLINE
  5
4AC
100
AcDbEntity
  8
0
100
AcDbSpline
 62
9
  6
CONTINUOUS
 70
0
 71
3
 72
9
 73
5
 74
0
 42
0.0000001
 43
0.0000001
 44
0.0000000001
 40
0.0
 40
0.0
 40
0.0
 40
0.0
 40
0.2892134016
 40
1.0
 40
1.0
 40
1.0
 40
1.0
 10
12.5202048806
 20
18.8188650487
 30
0.0
 10
12.5195156691
 20
18.818265278
 30
0.0
 10
12.5170973166
 20
18.816232909
 30
0.0
 10
12.514544654
 20
18.8143567466
 30
0.0
 10
12.5126515413
 20
18.8131492729
 30
0.0
  0
SPLINE
  5
4AD
100
AcDbEntity
  8
0
100
AcDbSpline
 62
9
  6
CONTINUOUS
 70
0
 71
3
 72
17
 73
13
 74
0
 42
0.0000001
 43
0.0000001
 44
0.0000000001
 40
0.0
 40
0.0
 40
0.0
 40
0.0
 40
0.2346543829
 40
0.4373714619
 40
0.6086470158
 40
0.7488242153
 40
0.8580916399
 40
0.9364825848
 40
0.9640686673
 40
0.9838776937
 40
0.9958707078
 40
1.0
 40
1.0
 40
1.0
 40
1.0
 10
12.5126515413
 20
18.8131492729
 30
0.0
 10
12.5121290403
 20
18.8128160089
 30
0.0
 10
12.511143432
 20
18.8122129024
 30
0.0
 10
12.509739298
 20
18.8114295055
 30
0.0
 10
12.5085275338
 20
18.8108157914
 30
0.0
 10
12.5075163295
 20
18.8103544003
 30
0.0
 10
12.506715517
 20
18.8100250693
 30
0.0
 10
12.5061800054
 20
18.8098324929
 30
0.0
 10
12.5058662679
 20
18.8097253339
 30
0.0
 10
12.5057134285
 20
18.8096842731
 30
0.0
 10
12.5056276466
 20
18.8096483077
 30
0.0
 10
12.5055810008
 20
18.80964682
 30
0.0
 10
12.5055729178
 20
18.8096394989
 30
0.0
  0
SPLINE
  5
4AE
100
AcDbEntity
  8
0
100
AcDbSpline
 62
9
  6
CONTINUOUS
 70
0
 71
3
 72
11
 73
7
 74
0
 42
0.0000001
 43
0.0000001
 44
0.0000000001
 40
0.0
 40
0.0
 40
0.0
 40
0.0
 40
0.2331957727
 40
0.4821970456
 40
0.7404288104
 40
1.0
 40
1.0
 40
1.0
 40
1.0
 10
13.2911776195
 20
12.0650458351
 30
0.0
 10
13.2857484529
 20
12.0539603147
 30
0.0
 10
13.2761204946
 20
12.0302366999
 30
0.0
 10
13.2656689754
 20
11.9923809821
 30
0.0
 10
13.2592767036
 20
11.9522227291
 30
0.0
 10
13.2577033334
 20
11.9248059763
 30
0.0
 10
13.2576182822
 20
11.91106652
 30
0.0
  0
SPLINE
  5
4AF
100
AcDbEntity
  8
0
100
AcDbSpline
 62
9
  6
CONTINUOUS
 70
0
 71
3
 72
21
 73
17
 74
0
 42
0.0000001
 43
0.0000001
 44
0.0000000001
 40
0.0
 40
0.0
 40
0.0
 40
0.0
 40
0.0062264549
 40
0.0243009175
 40
0.0533190198
 40
0.0923808312
 40
0.1405742351
 40
0.1969226846
 40
0.3301510527
 40
0.4842363739
 40
0.6512242243
 40
0.7372707377
 40
0.8240148457
 40
0.9111629805
 40
0.9551272189
 40
1.0
 40
1.0
 40
1.0
 40
1.0
 10
12.42724904
 20
10.6838089374
 30
0.0
 10
12.4257285048
 20
10.6849111711
 30
0.0
 10
12.4197571859
 20
10.6891618989
 30
0.0
 10
12.4065902716
 20
10.698396005
 30
0.0
 10
12.3851541778
 20
10.7130857196
 30
0.0
 10
12.3560041209
 20
10.7325857271
 30
0.0
 10
12.3197055044
 20
10.7562200806
 30
0.0
 10
12.259126691
 20
10.7946075921
 30
0.0
 10
12.1704440858
 20
10.8483004323
 30
0.0
 10
12.0511142249
 20
10.9156987297
 30
0.0
 10
11.9420741411
 20
10.9722540993
 30
0.0
 10
11.8494899423
 20
11.016222845
 30
0.0
 10
11.7777392413
 20
11.0478544215
 30
0.0
 10
11.7167183657
 20
11.0722846451
 30
0.0
 10
11.6667863303
 20
11.0903067406
 30
0.0
 10
11.6413276612
 20
11.0986830259
 30
0.0
 10
11.6283905809
 20
11.1026597232
 30
0.0
  0
SPLINE
  5
4B0
100
AcDbEntity
  8
0
100
AcDbSpline
 62
9
  6
CONTINUOUS
 70
0
 71
3
 72
27
 73
23
 74
0
 42
0.0000001
 43
0.0000001
 44
0.0000000001
 40
0.0
 40
0.0
 40
0.0
 40
0.0
 40
0.0005352084
 40
0.0015779537
 40
0.0031424217
 40
0.0052322933
 40
0.0109936361
 40
0.0188682445
 40
0.0288590936
 40
0.0409683913
 40
0.055198114
 40
0.0715501952
 40
0.110624037
 40
0.1580139866
 40
0.2133121906
 40
0.2760961172
 40
0.3459431063
 40
0.4224347547
 40
0.505184835
 40
0.5938216553
 40
0.7872691256
 40
1.0
 40
1.0
 40
1.0
 40
1.0
 10
12.2438537147
 20
13.8049056051
 30
0.0
 10
12.2438480367
 20
13.8048803314
 30
0.0
 10
12.2438694457
 20
13.8048027423
 30
0.0
 10
12.2439152727
 20
13.8046607283
 30
0.0
 10
12.2440023733
 20
13.8044490241
 30
0.0
 10
12.2441840003
 20
13.8040319957
 30
0.0
 10
12.244507408
 20
13.8033422088
 30
0.0
 10
12.2450038323
 20
13.8023124128
 30
0.0
 10
12.2456421392
 20
13.8010094811
 30
0.0
 10
12.2464191756
 20
13.7994322015
 30
0.0
 10
12.247333056
 20
13.7975790582
 30
0.0
 10
12.2488216392
 20
13.7945542243
 30
0.0
 10
12.2510052921
 20
13.7900826989
 30
0.0
 10
12.2539913758
 20
13.7839053885
 30
0.0
 10
12.2574603452
 20
13.7766869398
 30
0.0
 10
12.2613861265
 20
13.768482138
 30
0.0
 10
12.265743771
 20
13.7593468647
 30
0.0
 10
12.2705089401
 20
13.7493353316
 30
0.0
 10
12.2756559593
 20
13.7384983802
 30
0.0
 10
12.2832174552
 20
13.7225416046
 30
0.0
 10
12.2934438841
 20
13.7008861316
 30
0.0
 10
12.3018003103
 20
13.6830917874
 30
0.0
 10
12.3061473638
 20
13.6737584565
 30
0.0
  0
LINE
  5
4B1
100
AcDbEntity
  8
0
100
AcDbLine
 62
9
  6
CONTINUOUS
 10
12.3444276902
 20
13.5888338568
 11
12.3473895216
 21
13.5820169616
  0
SPLINE
  5
4B2
100
AcDbEntity
  8
0
100
AcDbSpline
 62
9
  6
CONTINUOUS
 70
0
 71
3
 72
33
 73
29
 74
0
 42
0.0000001
 43
0.0000001
 44
0.0000000001
 40
0.0
 40
0.0
 40
0.0
 40
0.0
 40
0.2211963542
 40
0.323219234
 40
0.4191296892
 40
0.5086310289
 40
0.5914265431
 40
0.6672195042
 40
0.7357131681
 40
0.796639536
 40
0.8498456375
 40
0.8952072546
 40
0.9149075618
 40
0.9326001632
 40
0.9482695297
 40
0.9619001319
 40
0.9734764399
 40
0.9829829236
 40
0.986955128
 40
0.9904040523
 40
0.9933277551
 40
0.9957242951
 40
0.9975917308
 40
0.9989281208
 40
0.999396567
 40
0.9997315238
 40
0.9999327487
 40
1.0
 40
1.0
 40
1.0
 40
1.0
 10
13.2576154552
 20
11.9110777344
 30
0.0
 10
13.274137719
 20
11.9111516139
 30
0.0
 10
13.2982804973
 20
11.9112802349
 30
0.0
 10
13.3295870305
 20
11.911486267
 30
0.0
 10
13.3510566026
 20
11.9116441535
 30
0.0
 10
13.3710898974
 20
11.911806104
 30
0.0
 10
13.3896204425
 20
11.9119686122
 30
0.0
 10
13.4065817652
 20
11.9121281683
 30
0.0
 10
13.4219095408
 20
11.9122813009
 30
0.0
 10
13.4355501856
 20
11.9124246206
 30
0.0
 10
13.4474629953
 20
11.9125557901
 30
0.0
 10
13.456296531
 20
11.9126574028
 30
0.0
 10
13.4624775067
 20
11.9127308313
 30
0.0
 10
13.4664407428
 20
11.9127788514
 30
0.0
 10
13.4699506203
 20
11.9128221893
 30
0.0
 10
13.473003665
 20
11.9128605765
 30
0.0
 10
13.4755963915
 20
11.9128937277
 30
0.0
 10
13.4774677471
 20
11.9129180575
 30
0.0
 10
13.4787320397
 20
11.9129346386
 30
0.0
 10
13.479504732
 20
11.9129449162
 30
0.0
 10
13.4801595625
 20
11.9129534282
 30
0.0
 10
13.4806967678
 20
11.9129611115
 30
0.0
 10
13.4811141187
 20
11.9129653386
 30
0.0
 10
13.4813903407
 20
11.9129717882
 30
0.0
 10
13.4815475447
 20
11.9129700927
 30
0.0
 10
13.4816268876
 20
11.9129772707
 30
0.0
 10
13.4816643396
 20
11.9129668073
 30
0.0
 10
13.4816922967
 20
11.9129784323
 30
0.0
 10
13.4816940691
 20
11.9129737319
 30
0.0
  0
SPLINE
  5
4B3
100
AcDbEntity
  8
0
100
AcDbSpline
 62
9
  6
CONTINUOUS
 70
0
 71
3
 72
26
 73
22
 74
0
 42
0.0000001
 43
0.0000001
 44
0.0000000001
 40
0.0
 40
0.0
 40
0.0
 40
0.0
 40
0.0098761759
 40
0.0210048544
 40
0.0335353459
 40
0.0475425435
 40
0.0800590448
 40
0.1184935847
 40
0.1625660734
 40
0.2119792713
 40
0.2664204368
 40
0.3256096905
 40
0.3892998733
 40
0.4573457046
 40
0.5297236867
 40
0.6067572909
 40
0.6890747139
 40
0.7782636529
 40
0.8263853404
 40
0.8780401641
 40
1.0
 40
1.0
 40
1.0
 40
1.0
 10
7.3555675087
 20
9.8805334965
 30
0.0
 10
7.3535504179
 20
9.8802140207
 30
0.0
 10
7.3491888629
 20
9.879968587
 30
0.0
 10
7.3422662512
 20
9.8805840247
 30
0.0
 10
7.3346152683
 20
9.8821045054
 30
0.0
 10
7.3228620792
 20
9.8854538094
 30
0.0
 10
7.3064669801
 20
9.891854108
 30
0.0
 10
7.2849654235
 20
9.9020410732
 30
0.0
 10
7.2608443587
 20
9.9147946625
 30
0.0
 10
7.2341671485
 20
9.92976359
 30
0.0
 10
7.2049657631
 20
9.9466154896
 30
0.0
 10
7.1732389597
 20
9.9649968734
 30
0.0
 10
7.1389516758
 20
9.9845705409
 30
0.0
 10
7.1020036612
 20
10.004978493
 30
0.0
 10
7.0621987866
 20
10.0259066264
 30
0.0
 10
7.0191479284
 20
10.0469670311
 30
0.0
 10
6.9721907467
 20
10.0678896429
 30
0.0
 10
6.9298841561
 20
10.0844609463
 30
0.0
 10
6.8929470134
 20
10.0972283415
 30
0.0
 10
6.8491331634
 20
10.1107575726
 30
0.0
 10
6.8142110202
 20
10.1193551093
 30
0.0
 10
6.7894569543
 20
10.12417702
 30
0.0
  0
SPLINE
  5
4B4
100
AcDbEntity
  8
0
100
AcDbSpline
 62
9
  6
CONTINUOUS
 70
0
 71
3
 72
15
 73
11
 74
0
 42
0.0000001
 43
0.0000001
 44
0.0000000001
 40
0.0
 40
0.0
 40
0.0
 40
0.0
 40
0.019709136
 40
0.0751055669
 40
0.1608632523
 40
0.2728431439
 40
0.4081162132
 40
0.5660028406
 40
0.7517998174
 40
1.0
 40
1.0
 40
1.0
 40
1.0
 10
6.8883179138
 20
9.8065284309
 30
0.0
 10
6.8851063321
 20
9.8079761631
 30
0.0
 10
6.8728427691
 20
9.8134363339
 30
0.0
 10
6.8463984811
 20
9.8247271246
 30
0.0
 10
6.8044909268
 20
9.8417884818
 30
0.0
 10
6.7487752028
 20
9.8627565765
 30
0.0
 10
6.6801547738
 20
9.8859399061
 30
0.0
 10
6.5978721482
 20
9.9097038979
 30
0.0
 10
6.4946179305
 20
9.9330489218
 30
0.0
 10
6.417657569
 20
9.9438871771
 30
0.0
 10
6.3734811624
 20
9.9479458407
 30
0.0
  0
SPLINE
  5
4B5
100
AcDbEntity
  8
0
100
AcDbSpline
 62
9
  6
CONTINUOUS
 70
0
 71
3
 72
21
 73
17
 74
0
 42
0.0000001
 43
0.0000001
 44
0.0000000001
 40
0.0
 40
0.0
 40
0.0
 40
0.0
 40
0.2364344043
 40
0.4396378544
 40
0.6109759196
 40
0.7510781996
 40
0.8094341145
 40
0.8599981528
 40
0.9027740417
 40
0.9377655518
 40
0.9649765843
 40
0.984411432
 40
0.9912145431
 40
0.9960762275
 40
0.9989992469
 40
1.0
 40
1.0
 40
1.0
 40
1.0
 10
13.3033649797
 20
18.8191546906
 30
0.0
 10
13.3044063377
 20
18.8182404528
 30
0.0
 10
13.3063750156
 20
18.8165768776
 30
0.0
 10
13.3091836656
 20
18.8143550742
 30
0.0
 10
13.3115760053
 20
18.8125180012
 30
0.0
 10
13.3132971674
 20
18.8112007465
 30
0.0
 10
13.3144595564
 20
18.8103181736
 30
0.0
 10
13.3151689579
 20
18.8097821213
 30
0.0
 10
13.3157702797
 20
18.809330663
 30
0.0
 10
13.3162638329
 20
18.8089622886
 30
0.0
 10
13.3166481497
 20
18.808679809
 30
0.0
 10
13.3169029566
 20
18.8084922461
 30
0.0
 10
13.3170497367
 20
18.8083913181
 30
0.0
 10
13.3171233392
 20
18.8083354707
 30
0.0
 10
13.317160784
 20
18.8083203148
 30
0.0
 10
13.3171867782
 20
18.8082952984
 30
0.0
 10
13.3171903118
 20
18.8082999799
 30
0.0
  0
LINE
  5
4B6
100
AcDbEntity
  8
0
100
AcDbLine
 62
9
  6
CONTINUOUS
 10
13.4816271194
 20
11.9043804107
 11
13.4669411071
 21
11.9049097292
  0
SPLINE
  5
4B7
100
AcDbEntity
  8
0
100
AcDbSpline
 62
9
  6
CONTINUOUS
 70
0
 71
3
 72
9
 73
5
 74
0
 42
0.0000001
 43
0.0000001
 44
0.0000000001
 40
0.0
 40
0.0
 40
0.0
 40
0.0
 40
0.4777985251
 40
1.0
 40
1.0
 40
1.0
 40
1.0
 10
13.3517954528
 20
20.3188914367
 30
0.0
 10
13.3594146949
 20
20.3178495624
 30
0.0
 10
13.3753961222
 20
20.3159238148
 30
0.0
 10
13.3914139494
 20
20.3143385036
 30
0.0
 10
13.399785986
 20
20.313596996
 30
0.0
  0
SPLINE
  5
4B8
100
AcDbEntity
  8
0
100
AcDbSpline
 62
9
  6
CONTINUOUS
 70
0
 71
3
 72
9
 73
5
 74
0
 42
0.0000001
 43
0.0000001
 44
0.0000000001
 40
0.0
 40
0.0
 40
0.0
 40
0.0
 40
0.5226999108
 40
1.0
 40
1.0
 40
1.0
 40
1.0
 10
12.4236259315
 20
20.313596996
 30
0.0
 10
12.4320781125
 20
20.314345602
 30
0.0
 10
12.4482337266
 20
20.315946039
 30
0.0
 10
12.4643521985
 20
20.3178935172
 30
0.0
 10
12.4720283928
 20
20.318947891
 30
0.0
  0
SPLINE
  5
4B9
100
AcDbEntity
  8
0
100
AcDbSpline
 62
9
  6
CONTINUOUS
 70
0
 71
3
 72
14
 73
10
 74
0
 42
0.0000001
 43
0.0000001
 44
0.0000000001
 40
0.0
 40
0.0
 40
0.0
 40
0.0
 40
0.1262633875
 40
0.2518647623
 40
0.3769773767
 40
0.5017824083
 40
0.7508889035
 40
0.8754415155
 40
1.0
 40
1.0
 40
1.0
 40
1.0
 10
12.6401409051
 20
13.8600453351
 30
0.0
 10
12.6283726571
 20
13.8510783968
 30
0.0
 10
12.605591133
 20
13.8322705332
 30
0.0
 10
12.5733788405
 20
13.8020057763
 30
0.0
 10
12.5432605118
 20
13.7698846393
 30
0.0
 10
12.5058954777
 20
13.724870436
 30
0.0
 10
12.4725479204
 20
13.6767429678
 30
0.0
 10
12.4431711263
 20
13.6262746441
 30
0.0
 10
12.4297368537
 20
13.6003443167
 30
0.0
 10
12.4233055234
 20
13.5872422519
 30
0.0
  0
SPLINE
  5
4BA
100
AcDbEntity
  8
0
100
AcDbSpline
 62
9
  6
CONTINUOUS
 70
0
 71
3
 72
16
 73
12
 74
0
 42
0.0000001
 43
0.0000001
 44
0.0000000001
 40
0.0
 40
0.0
 40
0.0
 40
0.0
 40
0.1747304758
 40
0.3082572365
 40
0.5157967133
 40
0.6733094912
 40
0.794394884
 40
0.8851570128
 40
0.9488536417
 40
0.987140527
 40
1.0
 40
1.0
 40
1.0
 40
1.0
 10
6.3734811624
 20
9.9479458407
 30
0.0
 10
6.3493563287
 20
9.9501622859
 30
0.0
 10
6.306855486
 20
9.9547127651
 30
0.0
 10
6.2358162758
 20
9.962940958
 30
0.0
 10
6.1671276349
 20
9.9707438117
 30
0.0
 10
6.1000017517
 20
9.9769302187
 30
0.0
 10
6.0488814788
 20
9.9801409274
 30
0.0
 10
6.0106862264
 20
9.9812463452
 30
0.0
 10
5.9839552075
 20
9.9810863389
 30
0.0
 10
5.9680454355
 20
9.9803991964
 30
0.0
 10
5.9609684989
 20
9.9799171166
 30
0.0
 10
5.9591945074
 20
9.9797384092
 30
0.0
  0
SPLINE
  5
4BB
100
AcDbEntity
  8
0
100
AcDbSpline
 62
9
  6
CONTINUOUS
 70
0
 71
3
 72
26
 73
22
 74
0
 42
0.0000001
 43
0.0000001
 44
0.0000000001
 40
0.0
 40
0.0
 40
0.0
 40
0.0
 40
0.1554004966
 40
0.2197793713
 40
0.2787219301
 40
0.4790129459
 40
0.5633139801
 40
0.6390163186
 40
0.7069619968
 40
0.7675590847
 40
0.8210731651
 40
0.8676353981
 40
0.9073219329
 40
0.9401274163
 40
0.9539374546
 40
0.9659939052
 40
0.9762701461
 40
0.984739315
 40
0.9913743169
 40
0.99614783
 40
1.0
 40
1.0
 40
1.0
 40
1.0
 10
6.7894569543
 20
10.12417702
 30
0.0
 10
6.7649562777
 20
10.1289495723
 30
0.0
 10
6.7305314925
 20
10.1368526168
 30
0.0
 10
6.687113583
 20
10.1477643613
 30
0.0
 10
6.6368228574
 20
10.1609133476
 30
0.0
 10
6.5835793513
 20
10.1754053471
 30
0.0
 10
6.5276440074
 20
10.1902532255
 30
0.0
 10
6.4921955892
 20
10.1994206998
 30
0.0
 10
6.4603590372
 20
10.2073427075
 30
0.0
 10
6.4319109045
 20
10.2141159315
 30
0.0
 10
6.406738232
 20
10.2198113155
 30
0.0
 10
6.3847859566
 20
10.2245088258
 30
0.0
 10
6.3660358576
 20
10.2282798027
 30
0.0
 10
6.3524170529
 20
10.2308421067
 30
0.0
 10
6.3431296454
 20
10.2324895354
 30
0.0
 10
6.3374261089
 20
10.2334640644
 30
0.0
 10
6.33248738
 20
10.2342730283
 30
0.0
 10
6.328618346
 20
10.2348876171
 30
0.0
 10
6.325052483
 20
10.2354193066
 30
0.0
 10
6.3236235389
 20
10.2356413794
 30
0.0
 10
6.3203204557
 20
10.2360845371
 30
0.0
 10
6.3209340844
 20
10.2360050605
 30
0.0
  0
SPLINE
  5
4BC
100
AcDbEntity
  8
0
100
AcDbSpline
 62
9
  6
CONTINUOUS
 70
0
 71
3
 72
9
 73
5
 74
0
 42
0.0000001
 43
0.0000001
 44
0.0000000001
 40
0.0
 40
0.0
 40
0.0
 40
0.0
 40
0.2737945971
 40
1.0
 40
1.0
 40
1.0
 40
1.0
 10
12.633794964
 20
19.8655659856
 30
0.0
 10
12.6299206862
 20
19.8668376412
 30
0.0
 10
12.6157869584
 20
19.8715317674
 30
0.0
 10
12.6017221598
 20
19.8764392105
 30
0.0
 10
12.5915846905
 20
19.8802081619
 30
0.0
  0
SPLINE
  5
4BD
100
AcDbEntity
  8
0
100
AcDbSpline
 62
9
  6
CONTINUOUS
 70
0
 71
3
 72
9
 73
5
 74
0
 42
0.0000001
 43
0.0000001
 44
0.0000000001
 40
0.0
 40
0.0
 40
0.0
 40
0.0
 40
0.5401370699
 40
1.0
 40
1.0
 40
1.0
 40
1.0
 10
12.57869172
 20
19.8851462745
 30
0.0
 10
12.5719605157
 20
19.8878081974
 30
0.0
 10
12.5595865831
 20
19.8929655666
 30
0.0
 10
12.5475067035
 20
19.8987937616
 30
0.0
 10
12.5420678911
 20
19.901691667
 30
0.0
  0
SPLINE
  5
4BE
100
AcDbEntity
  8
0
100
AcDbSpline
 62
9
  6
CONTINUOUS
 70
0
 71
3
 72
9
 73
5
 74
0
 42
0.0000001
 43
0.0000001
 44
0.0000000001
 40
0.0
 40
0.0
 40
0.0
 40
0.0
 40
0.5511327573
 40
1.0
 40
1.0
 40
1.0
 40
1.0
 10
12.5420678911
 20
19.901691667
 30
0.0
 10
12.5374359007
 20
19.904159682
 30
0.0
 10
12.5291786742
 20
19.9089234967
 30
0.0
 10
12.5214499554
 20
19.914548235
 30
0.0
 10
12.51823469
 20
19.9173650028
 30
0.0
  0
SPLINE
  5
4BF
100
AcDbEntity
  8
0
100
AcDbSpline
 62
9
  6
CONTINUOUS
 70
0
 71
3
 72
18
 73
14
 74
0
 42
0.0000001
 43
0.0000001
 44
0.0000000001
 40
0.0
 40
0.0
 40
0.0
 40
0.0
 40
0.1934199013
 40
0.3800575379
 40
0.551719337
 40
0.7021078413
 40
0.8256909838
 40
0.9180823079
 40
0.9514160311
 40
0.9759040624
 40
0.9848659372
 40
0.9917160208
 40
1.0
 40
1.0
 40
1.0
 40
1.0
 10
13.4197076198
 20
20.3118325457
 30
0.0
 10
13.4251773861
 20
20.311348091
 30
0.0
 10
13.4359317389
 20
20.3104694723
 30
0.0
 10
13.4515594749
 20
20.3094065052
 30
0.0
 10
13.4659821581
 20
20.3086556273
 30
0.0
 10
13.478627833
 20
20.3082328645
 30
0.0
 10
13.489029729
 20
20.3081636864
 30
0.0
 10
13.4961078144
 20
20.3083707907
 30
0.0
 10
13.5003571347
 20
20.3087892638
 30
0.0
 10
13.5022246927
 20
20.3090954459
 30
0.0
 10
13.5033354871
 20
20.3094215
 30
0.0
 10
13.5039456778
 20
20.3096720646
 30
0.0
 10
13.5043515478
 20
20.309992202
 30
0.0
 10
13.5043729043
 20
20.310226412
 30
0.0
  0
SPLINE
  5
4C0
100
AcDbEntity
  8
0
100
AcDbSpline
 62
9
  6
CONTINUOUS
 70
0
 71
3
 72
39
 73
35
 74
0
 42
0.0000001
 43
0.0000001
 44
0.0000000001
 40
0.0
 40
0.0
 40
0.0
 40
0.0
 40
0.049584024
 40
0.0981871648
 40
0.1450518485
 40
0.1897510902
 40
0.2719151565
 40
0.3447355001
 40
0.4096360293
 40
0.4677520256
 40
0.5676982635
 40
0.6506230398
 40
0.7203620918
 40
0.7794832091
 40
0.8296343538
 40
0.871974605
 40
0.9073693102
 40
0.9364732941
 40
0.9488398946
 40
0.9598087065
 40
0.969406426
 40
0.9776573044
 40
0.9845808048
 40
0.9901958276
 40
0.9925186795
 40
0.9945221132
 40
0.9962090744
 40
0.997582509
 40
0.9986453629
 40
0.9994005835
 40
0.9996637533
 40
0.9998511228
 40
0.9999630667
 40
1.0
 40
1.0
 40
1.0
 40
1.0
 10
5.9118550455
 20
9.2689940542
 30
0.0
 10
5.9062514335
 20
9.2695874653
 30
0.0
 10
5.8951307294
 20
9.2705238195
 30
0.0
 10
5.878692297
 20
9.2717483353
 30
0.0
 10
5.8627965973
 20
9.2727873735
 30
0.0
 10
5.8430836389
 20
9.2738812629
 30
0.0
 10
5.8204146587
 20
9.2749436445
 30
0.0
 10
5.7954365682
 20
9.27569881
 30
0.0
 10
5.7731855134
 20
9.2761606691
 30
0.0
 10
5.7478502792
 20
9.2765716863
 30
0.0
 10
5.7204644265
 20
9.2768248689
 30
0.0
 10
5.6917572917
 20
9.2770064607
 30
0.0
 10
5.6676892758
 20
9.2770965183
 30
0.0
 10
5.6473457604
 20
9.2771630031
 30
0.0
 10
5.6301159287
 20
9.2772144737
 30
0.0
 10
5.6155824705
 20
9.2772617215
 30
0.0
 10
5.6034409077
 20
9.2773060819
 30
0.0
 10
5.5947056741
 20
9.2773420777
 30
0.0
 10
5.5887462985
 20
9.2773702122
 30
0.0
 10
5.5850036828
 20
9.2773894817
 30
0.0
 10
5.5817287989
 20
9.2774078495
 30
0.0
 10
5.5789136388
 20
9.277425007
 30
0.0
 10
5.5765510981
 20
9.2774402765
 30
0.0
 10
5.5748622038
 20
9.2774514969
 30
0.0
 10
5.5737324867
 20
9.277458872
 30
0.0
 10
5.5730490539
 20
9.2774632445
 30
0.0
 10
5.5724738101
 20
9.2774671737
 30
0.0
 10
5.5720046342
 20
9.2774699585
 30
0.0
 10
5.5716434818
 20
9.2774737286
 30
0.0
 10
5.5714038081
 20
9.2774735981
 30
0.0
 10
5.5712710151
 20
9.2774780769
 30
0.0
 10
5.5712001952
 20
9.277474251
 30
0.0
 10
5.5711741165
 20
9.2774834163
 30
0.0
 10
5.5711447354
 20
9.2774754563
 30
0.0
 10
5.5711456549
 20
9.2774795516
 30
0.0
  0
LINE
  5
4C1
100
AcDbEntity
  8
0
100
AcDbLine
 62
9
  6
CONTINUOUS
 10
5.5690206641
 20
9.2618937644
 11
5.6368826253
 21
9.262116128
  0
SPLINE
  5
4C2
100
AcDbEntity
  8
0
100
AcDbSpline
 62
9
  6
CONTINUOUS
 70
0
 71
3
 72
13
 73
9
 74
0
 42
0.0000001
 43
0.0000001
 44
0.0000000001
 40
0.0
 40
0.0
 40
0.0
 40
0.0
 40
0.1368846297
 40
0.3244971211
 40
0.445877846
 40
0.5939399582
 40
0.7785085264
 40
1.0
 40
1.0
 40
1.0
 40
1.0
 10
5.6368826253
 20
9.262116128
 30
0.0
 10
5.6494273227
 20
9.262146283
 30
0.0
 10
5.6791656389
 20
9.2622129529
 30
0.0
 10
5.7200276995
 20
9.2623755575
 30
0.0
 10
5.7619130397
 20
9.2627207965
 30
0.0
 10
5.8035168531
 20
9.2633183465
 30
0.0
 10
5.8542822315
 20
9.2647568588
 30
0.0
 10
5.8914467725
 20
9.2667421887
 30
0.0
 10
5.9117059587
 20
9.2680047813
 30
0.0
  0
SPLINE
  5
4C3
100
AcDbEntity
  8
0
100
AcDbSpline
 62
9
  6
CONTINUOUS
 70
0
 71
3
 72
15
 73
11
 74
0
 42
0.0000001
 43
0.0000001
 44
0.0000000001
 40
0.0
 40
0.0
 40
0.0
 40
0.0
 40
0.0269765821
 40
0.0493930359
 40
0.0789518389
 40
0.115924337
 40
0.1604073887
 40
0.2719427828
 40
0.5827436083
 40
1.0
 40
1.0
 40
1.0
 40
1.0
 10
13.5488164938
 20
20.8095956419
 30
0.0
 10
13.5488164938
 20
20.8093688715
 30
0.0
 10
13.5484379077
 20
20.8090296097
 30
0.0
 10
13.5478490648
 20
20.808781211
 30
0.0
 10
13.5471252059
 20
20.8085571637
 30
0.0
 10
13.5462152243
 20
20.8083617963
 30
0.0
 10
13.5446118866
 20
20.8081019824
 30
0.0
 10
13.5407051809
 20
20.8077160701
 30
0.0
 10
13.5336451233
 20
20.8074956667
 30
0.0
 10
13.527525056
 20
20.8075343605
 30
0.0
 10
13.5240181201
 20
20.8075993745
 30
0.0
  0
SPLINE
  5
4C4
100
AcDbEntity
  8
0
100
AcDbSpline
 62
9
  6
CONTINUOUS
 70
0
 71
3
 72
9
 73
5
 74
0
 42
0.0000001
 43
0.0000001
 44
0.0000000001
 40
0.0
 40
0.0
 40
0.0
 40
0.0
 40
0.2238782924
 40
1.0
 40
1.0
 40
1.0
 40
1.0
 10
13.5240181201
 20
20.8075993745
 30
0.0
 10
13.5219667781
 20
20.8076374037
 30
0.0
 10
13.5128052743
 20
20.8078737847
 30
0.0
 10
13.5036502206
 20
20.8083236815
 30
0.0
 10
13.4965501868
 20
20.8087468865
 30
0.0
  0
SPLINE
  5
4C5
100
AcDbEntity
  8
0
100
AcDbSpline
 62
9
  6
CONTINUOUS
 70
0
 71
3
 72
16
 73
12
 74
0
 42
0.0000001
 43
0.0000001
 44
0.0000000001
 40
0.0
 40
0.0
 40
0.0
 40
0.0
 40
0.3627062917
 40
0.5304161065
 40
0.6801089259
 40
0.80615858
 40
0.903889909
 40
0.940801988
 40
0.9692842086
 40
0.9890960717
 40
1.0
 40
1.0
 40
1.0
 40
1.0
 10
13.4641495503
 20
20.8111652555
 30
0.0
 10
13.4651217418
 20
20.8220884316
 30
0.0
 10
13.4665252009
 20
20.8380639561
 30
0.0
 10
13.4682839229
 20
20.858551568
 30
0.0
 10
13.4694101492
 20
20.8719119006
 30
0.0
 10
13.4703349201
 20
20.8831658437
 30
0.0
 10
13.4709593023
 20
20.891023192
 30
0.0
 10
13.471326067
 20
20.8959415002
 30
0.0
 10
13.4715087917
 20
20.8985114312
 30
0.0
 10
13.471616415
 20
20.9002976336
 30
0.0
 10
13.4716667756
 20
20.9012255766
 30
0.0
 10
13.4716667756
 20
20.9015552548
 30
0.0
  0
SPLINE
  5
4C6
100
AcDbEntity
  8
0
100
AcDbSpline
 62
9
  6
CONTINUOUS
 70
0
 71
3
 72
34
 73
30
 74
0
 42
0.0000001
 43
0.0000001
 44
0.0000000001
 40
0.0
 40
0.0
 40
0.0
 40
0.0
 40
0.0928768617
 40
0.1811539203
 40
0.2615828759
 40
0.3338710501
 40
0.3983552919
 40
0.4562280327
 40
0.5085867183
 40
0.5561612756
 40
0.7100636657
 40
0.7702662661
 40
0.8217173835
 40
0.8654730228
 40
0.9023080904
 40
0.9328333312
 40
0.9458625281
 40
0.9574277868
 40
0.9675447305
 40
0.9762290212
 40
0.9835016212
 40
0.9893980678
 40
0.9939563274
 40
0.9957455211
 40
0.9972144895
 40
0.9983681604
 40
0.9992117707
 40
0.999751595
 40
1.0
 40
1.0
 40
1.0
 40
1.0
 10
5.9188759554
 20
9.2684193631
 30
0.0
 10
5.9294553537
 20
9.2644638746
 30
0.0
 10
5.9501071631
 20
9.2567955125
 30
0.0
 10
5.9803002357
 20
9.2467245756
 30
0.0
 10
6.0086950984
 20
9.2393860899
 30
0.0
 10
6.0345717846
 20
9.2340600044
 30
0.0
 10
6.0578874518
 20
9.2299624941
 30
0.0
 10
6.0788888135
 20
9.2267350864
 30
0.0
 10
6.0978882606
 20
9.2240310439
 30
0.0
 10
6.1284874785
 20
9.2199594676
 30
0.0
 10
6.1600565585
 20
9.2159492648
 30
0.0
 10
6.1920989723
 20
9.2119259202
 30
0.0
 10
6.2108461124
 20
9.2095332391
 30
0.0
 10
6.2267690658
 20
9.2074588998
 30
0.0
 10
6.240164142
 20
9.2056796717
 30
0.0
 10
6.2498515598
 20
9.2043658456
 30
0.0
 10
6.2564924171
 20
9.2034548175
 30
0.0
 10
6.2606743669
 20
9.2028803661
 30
0.0
 10
6.2643332189
 20
9.2023804545
 30
0.0
 10
6.2674757433
 20
9.2019578826
 30
0.0
 10
6.270111114
 20
9.2016148037
 30
0.0
 10
6.2722494684
 20
9.2013419027
 30
0.0
 10
6.2737267239
 20
9.2011536324
 30
0.0
 10
6.27466861
 20
9.2010282015
 30
0.0
 10
6.2752007769
 20
9.2009543989
 30
0.0
 10
6.2756154187
 20
9.2008898198
 30
0.0
 10
6.2759243043
 20
9.2008392888
 30
0.0
 10
6.2761085062
 20
9.2007905037
 30
0.0
 10
6.2762115284
 20
9.2007655618
 30
0.0
 10
6.2762293061
 20
9.2007411386
 30
0.0
  0
SPLINE
  5
4C7
100
AcDbEntity
  8
0
100
AcDbSpline
 62
9
  6
CONTINUOUS
 70
0
 71
3
 72
34
 73
30
 74
0
 42
0.0000001
 43
0.0000001
 44
0.0000000001
 40
0.0
 40
0.0
 40
0.0
 40
0.0
 40
0.0000415398
 40
0.0001683879
 40
0.0003807762
 40
0.0006789232
 40
0.0015333592
 40
0.0027334259
 40
0.0042808517
 40
0.0061773644
 40
0.008424692
 40
0.0110245621
 40
0.0172888413
 40
0.0249840245
 40
0.0341239344
 40
0.0447223942
 40
0.0568025743
 40
0.0704250311
 40
0.102576398
 40
0.1417357807
 40
0.1884625215
 40
0.2434571682
 40
0.3079849048
 40
0.3836474029
 40
0.4728278995
 40
0.5783133822
 40
0.703091218
 40
0.8462192799
 40
1.0
 40
1.0
 40
1.0
 40
1.0
 10
6.2633142351
 20
9.2943516539
 30
0.0
 10
6.2633166886
 20
9.2943557615
 30
0.0
 10
6.2632794824
 20
9.294344995
 30
0.0
 10
6.2632530812
 20
9.294352433
 30
0.0
 10
6.2631698639
 20
9.2943428508
 30
0.0
 10
6.263018962
 20
9.2943372764
 30
0.0
 10
6.2627439175
 20
9.2943189016
 30
0.0
 10
6.2623319611
 20
9.2942955788
 30
0.0
 10
6.261797148
 20
9.2942632507
 30
0.0
 10
6.2611431006
 20
9.2942242828
 30
0.0
 10
6.2603676321
 20
9.294177788
 30
0.0
 10
6.2590901309
 20
9.2941012958
 30
0.0
 10
6.2571861783
 20
9.2939873645
 30
0.0
 10
6.254530291
 20
9.2938289328
 30
0.0
 10
6.2513760141
 20
9.2936414719
 30
0.0
 10
6.2477175068
 20
9.2934249745
 30
0.0
 10
6.2435435241
 20
9.2931791388
 30
0.0
 10
6.2368911652
 20
9.2927903233
 30
0.0
 10
6.2271245905
 20
9.2922281943
 30
0.0
 10
6.2135502704
 20
9.2914652916
 30
0.0
 10
6.197347692
 20
9.2905777977
 30
0.0
 10
6.1782260633
 20
9.2895574622
 30
0.0
 10
6.1557748259
 20
9.2883876096
 30
0.0
 10
6.1293901779
 20
9.2870355185
 30
0.0
 10
6.098298277
 20
9.2853617818
 30
0.0
 10
6.0615664068
 20
9.2832221737
 30
0.0
 10
6.0186601024
 20
9.2802338423
 30
0.0
 10
5.9703173862
 20
9.2754100351
 30
0.0
 10
5.9364364836
 20
9.2707361427
 30
0.0
 10
5.9188759808
 20
9.2684191706
 30
0.0
  0
LINE
  5
4C8
100
AcDbEntity
  8
0
100
AcDbLine
 62
9
  6
CONTINUOUS
 10
13.2297425026
 20
11.1658085359
 11
13.1857640818
 21
11.1768336335
  0
SPLINE
  5
4C9
100
AcDbEntity
  8
0
100
AcDbSpline
 62
9
  6
CONTINUOUS
 70
0
 71
3
 72
9
 73
5
 74
0
 42
0.0000001
 43
0.0000001
 44
0.0000000001
 40
0.0
 40
0.0
 40
0.0
 40
0.0
 40
0.4942911417
 40
1.0
 40
1.0
 40
1.0
 40
1.0
 10
12.6418571796
 20
11.2876560337
 30
0.0
 10
12.6229152501
 20
11.2908421562
 30
0.0
 10
12.584564395
 20
11.2971133659
 30
0.0
 10
12.5461461317
 20
11.3029652744
 30
0.0
 10
12.5266921554
 20
11.3057460168
 30
0.0
  0
SPLINE
  5
4CA
100
AcDbEntity
  8
0
100
AcDbSpline
 62
9
  6
CONTINUOUS
 70
0
 71
3
 72
11
 73
7
 74
0
 42
0.0000001
 43
0.0000001
 44
0.0000000001
 40
0.0
 40
0.0
 40
0.0
 40
0.0
 40
0.2865421348
 40
0.5491178724
 40
0.7873818509
 40
1.0
 40
1.0
 40
1.0
 40
1.0
 10
12.6413028079
 20
19.1126503106
 30
0.0
 10
12.637093782
 20
19.0913994172
 30
0.0
 10
12.6288926806
 20
19.0507017263
 30
0.0
 10
12.6167457907
 20
18.9924243432
 30
0.0
 10
12.6052171608
 20
18.9397295248
 30
0.0
 10
12.5972680604
 20
18.9065754802
 30
0.0
 10
12.5932402121
 20
18.8910135209
 30
0.0
  0
SPLINE
  5
4CB
100
AcDbEntity
  8
0
100
AcDbSpline
 62
9
  6
CONTINUOUS
 70
0
 71
3
 72
9
 73
5
 74
0
 42
0.0000001
 43
0.0000001
 44
0.0000000001
 40
0.0
 40
0.0
 40
0.0
 40
0.0
 40
0.5427730241
 40
1.0
 40
1.0
 40
1.0
 40
1.0
 10
12.5932402121
 20
18.8910135209
 30
0.0
 10
12.5894151988
 20
18.876235233
 30
0.0
 10
12.5819029834
 20
18.8491246284
 30
0.0
 10
12.5729578997
 20
18.8224334082
 30
0.0
 10
12.5683448364
 20
18.8104299982
 30
0.0
  0
SPLINE
  5
4CC
100
AcDbEntity
  8
0
100
AcDbSpline
 62
9
  6
CONTINUOUS
 70
0
 71
3
 72
11
 73
7
 74
0
 42
0.0000001
 43
0.0000001
 44
0.0000000001
 40
0.0
 40
0.0
 40
0.0
 40
0.0
 40
0.3706568594
 40
0.653073473
 40
0.8595707576
 40
1.0
 40
1.0
 40
1.0
 40
1.0
 10
12.5622748064
 20
18.7955064895
 30
0.0
 10
12.5579707068
 20
18.7855158965
 30
0.0
 10
12.549628809
 20
18.7682122813
 30
0.0
 10
12.536111017
 20
18.7468401545
 30
0.0
 10
12.52430317
 20
18.7325679607
 30
0.0
 10
12.5168533475
 20
18.7255917832
 30
0.0
 10
12.5136849394
 20
18.7229560214
 30
0.0
  0
SPLINE
  5
4CD
100
AcDbEntity
  8
0
100
AcDbSpline
 62
9
  6
CONTINUOUS
 70
0
 71
3
 72
10
 73
6
 74
0
 42
0.0000001
 43
0.0000001
 44
0.0000000001
 40
0.0
 40
0.0
 40
0.0
 40
0.0
 40
0.4917279495
 40
0.7432172223
 40
1.0
 40
1.0
 40
1.0
 40
1.0
 10
12.6418671744
 20
11.1847787205
 30
0.0
 10
12.5970739104
 20
11.1971419176
 30
0.0
 10
12.5291445201
 20
11.2150326937
 30
0.0
 10
12.4372189727
 20
11.2369500066
 30
0.0
 10
12.3902766614
 20
11.2471543544
 30
0.0
 10
12.3664812197
 20
11.2519093264
 30
0.0
  0
SPLINE
  5
4CE
100
AcDbEntity
  8
0
100
AcDbSpline
 62
9
  6
CONTINUOUS
 70
0
 71
3
 72
15
 73
11
 74
0
 42
0.0000001
 43
0.0000001
 44
0.0000000001
 40
0.0
 40
0.0
 40
0.0
 40
0.0
 40
0.1613869819
 40
0.3131213483
 40
0.4548778411
 40
0.5861527792
 40
0.7065177616
 40
0.8157020148
 40
0.9135029272
 40
1.0
 40
1.0
 40
1.0
 40
1.0
 10
13.1821166065
 20
19.1126165037
 30
0.0
 10
13.1853524191
 20
19.0964758979
 30
0.0
 10
13.191704778
 20
19.0651749863
 30
0.0
 10
13.2010161054
 20
19.0197204677
 30
0.0
 10
13.2099542553
 20
18.9773251542
 30
0.0
 10
13.2186218407
 20
18.9381442529
 30
0.0
 10
13.2271278684
 20
18.9023338556
 30
0.0
 10
13.2355702245
 20
18.8700243215
 30
0.0
 10
13.2440708222
 20
18.8413136882
 30
0.0
 10
13.2502034349
 20
18.8235344672
 30
0.0
 10
13.2532968459
 20
18.815271682
 30
0.0
  0
SPLINE
  5
4CF
100
AcDbEntity
  8
0
100
AcDbSpline
 62
9
  6
CONTINUOUS
 70
0
 71
3
 72
12
 73
8
 74
0
 42
0.0000001
 43
0.0000001
 44
0.0000000001
 40
0.0
 40
0.0
 40
0.0
 40
0.0
 40
0.204618083
 40
0.382805727
 40
0.6668975348
 40
0.8682377171
 40
1.0
 40
1.0
 40
1.0
 40
1.0
 10
13.2532968459
 20
18.815271682
 30
0.0
 10
13.2559112517
 20
18.8082883638
 30
0.0
 10
13.2610924385
 20
18.7953271481
 30
0.0
 10
13.2713174753
 20
18.7732727586
 30
0.0
 10
13.2833464911
 20
18.7522058434
 30
0.0
 10
13.2971130672
 20
18.7343316128
 30
0.0
 10
13.3059274919
 20
18.7258919447
 30
0.0
 10
13.3097270701
 20
18.7229561009
 30
0.0
  0
SPLINE
  5
4D0
100
AcDbEntity
  8
0
100
AcDbSpline
 62
9
  6
CONTINUOUS
 70
0
 71
3
 72
11
 73
7
 74
0
 42
0.0000001
 43
0.0000001
 44
0.0000000001
 40
0.0
 40
0.0
 40
0.0
 40
0.0
 40
0.2851586574
 40
0.5457392303
 40
0.7825860153
 40
1.0
 40
1.0
 40
1.0
 40
1.0
 10
12.6400123425
 20
18.6527555367
 30
0.0
 10
12.6273611094
 20
18.6581681235
 30
0.0
 10
12.6034555028
 20
18.6692581424
 30
0.0
 10
12.5700952743
 20
18.6869893731
 30
0.0
 10
12.5404821898
 20
18.7047086802
 30
0.0
 10
12.5222601002
 20
18.7169115168
 30
0.0
 10
12.5136849396
 20
18.7229560216
 30
0.0
  0
SPLINE
  5
4D1
100
AcDbEntity
  8
0
100
AcDbSpline
 62
9
  6
CONTINUOUS
 70
0
 71
3
 72
31
 73
27
 74
0
 42
0.0000001
 43
0.0000001
 44
0.0000000001
 40
0.0
 40
0.0
 40
0.0
 40
0.0
 40
0.0002649718
 40
0.0005958765
 40
0.0010588836
 40
0.0023806737
 40
0.0042292807
 40
0.0066036431
 40
0.0095026996
 40
0.012925389
 40
0.0168706502
 40
0.0263246443
 40
0.0378561957
 40
0.0514568198
 40
0.0671180341
 40
0.0848289417
 40
0.1045697712
 40
0.1500539601
 40
0.2033961351
 40
0.2644218349
 40
0.3329436348
 40
0.4087224555
 40
0.4915063769
 40
0.581043502
 40
0.7791582655
 40
1.0
 40
1.0
 40
1.0
 40
1.0
 10
13.5350345471
 20
12.0662410714
 30
0.0
 10
13.5350165069
 20
12.0662528374
 30
0.0
 10
13.5349625631
 20
12.0662331251
 30
0.0
 10
13.5348793508
 20
12.0662417442
 30
0.0
 10
13.5347057703
 20
12.0662337278
 30
0.0
 10
13.5344116664
 20
12.066233804
 30
0.0
 10
13.5339604236
 20
12.0662256646
 30
0.0
 10
13.5333817918
 20
12.0662187169
 30
0.0
 10
13.5326749121
 20
12.0662091795
 30
0.0
 10
13.5318404606
 20
12.0661985675
 30
0.0
 10
13.5304731939
 20
12.0661813433
 30
0.0
 10
13.5284468635
 20
12.0661567564
 30
0.0
 10
13.5256357318
 20
12.0661241002
 30
0.0
 10
13.5223200674
 20
12.0660873838
 30
0.0
 10
13.5185021244
 20
12.0660471737
 30
0.0
 10
13.5141850823
 20
12.0660040483
 30
0.0
 10
13.5074439848
 20
12.0659399567
 30
0.0
 10
13.4978066884
 20
12.0658549598
 30
0.0
 10
13.4848136194
 20
12.065750414
 30
0.0
 10
13.4699479286
 20
12.0656415564
 30
0.0
 10
13.4532584549
 20
12.0655309586
 30
0.0
 10
13.4348003264
 20
12.0654227045
 30
0.0
 10
13.414633918
 20
12.0653208325
 30
0.0
 10
13.3845235043
 20
12.0651947327
 30
0.0
 10
13.3431910142
 20
12.0650791921
 30
0.0
 10
13.3091363612
 20
12.0650431685
 30
0.0
 10
13.2911853609
 20
12.0650394829
 30
0.0
  0
SPLINE
  5
4D2
100
AcDbEntity
  8
0
100
AcDbSpline
 62
9
  6
CONTINUOUS
 70
0
 71
3
 72
35
 73
31
 74
0
 42
0.0000001
 43
0.0000001
 44
0.0000000001
 40
0.0
 40
0.0
 40
0.0
 40
0.0
 40
0.2144538842
 40
0.3147598474
 40
0.4098053819
 40
0.4991076862
 40
0.5822144829
 40
0.6587445879
 40
0.728326903
 40
0.7905925016
 40
0.845226597
 40
0.8696009527
 40
0.8919709009
 40
0.9123044783
 40
0.9305697186
 40
0.946735106
 40
0.9607799659
 40
0.972694708
 40
0.9824702448
 40
0.9865529729
 40
0.9900974944
 40
0.9931026761
 40
0.9955673873
 40
0.9974905022
 40
0.9982486129
 40
0.9988709099
 40
0.9993572618
 40
0.9997075501
 40
0.9999217012
 40
1.0
 40
1.0
 40
1.0
 40
1.0
 10
12.6397261231
 20
12.0651706849
 30
0.0
 10
12.6146094971
 20
12.0650961731
 30
0.0
 10
12.5777450119
 20
12.0650197094
 30
0.0
 10
12.5297487924
 20
12.0650121999
 30
0.0
 10
12.4964102829
 20
12.0650428585
 30
0.0
 10
12.465086178
 20
12.065103796
 30
0.0
 10
12.4359306556
 20
12.0651885211
 30
0.0
 10
12.4090848117
 20
12.0652937234
 30
0.0
 10
12.3846799761
 20
12.065415478
 30
0.0
 10
12.3628397062
 20
12.065550876
 30
0.0
 10
12.3462942113
 20
12.0656740318
 30
0.0
 10
12.3344212257
 20
12.0657720313
 30
0.0
 10
12.3265653948
 20
12.0658405419
 30
0.0
 10
12.3194250584
 20
12.0659056182
 30
0.0
 10
12.3130113856
 20
12.0659660533
 30
0.0
 10
12.3073342199
 20
12.0660204318
 30
0.0
 10
12.3024007932
 20
12.0660682262
 30
0.0
 10
12.2982157178
 20
12.0661099696
 30
0.0
 10
12.2951973638
 20
12.0661416146
 30
0.0
 10
12.2931592822
 20
12.0661645477
 30
0.0
 10
12.2919141164
 20
12.0661794497
 30
0.0
 10
12.2908584095
 20
12.066193062
 30
0.0
 10
12.2899927195
 20
12.066205659
 30
0.0
 10
12.2893899146
 20
12.0662154086
 30
0.0
 10
12.2890033868
 20
12.0662235675
 30
0.0
 10
12.2887841731
 20
12.0662277188
 30
0.0
 10
12.2886150255
 20
12.0662348032
 30
0.0
 10
12.2884882388
 20
12.0662338537
 30
0.0
 10
12.2884198965
 20
12.0662473515
 30
0.0
 10
12.288378287
 20
12.0662399031
 30
0.0
 10
12.2883726254
 20
12.0662471171
 30
0.0
  0
SPLINE
  5
4D3
100
AcDbEntity
  8
0
100
AcDbSpline
 62
9
  6
CONTINUOUS
 70
0
 71
3
 72
38
 73
34
 74
0
 42
0.0000001
 43
0.0000001
 44
0.0000000001
 40
0.0
 40
0.0
 40
0.0
 40
0.0
 40
0.1179200373
 40
0.2274955527
 40
0.4270004448
 40
0.5170281863
 40
0.6002741859
 40
0.6764508949
 40
0.7452022304
 40
0.8061816765
 40
0.8591555281
 40
0.8825754379
 40
0.9039140145
 40
0.9231429132
 40
0.9402337009
 40
0.9551628178
 40
0.9679264332
 40
0.9734965284
 40
0.9785256782
 40
0.9830140438
 40
0.9869618083
 40
0.9903691942
 40
0.9932364962
 40
0.9955641532
 40
0.9973529287
 40
0.9980457236
 40
0.9986046021
 40
0.9990303559
 40
0.9993248425
 40
0.9994942753
 40
0.9995792236
 40
0.9997283664
 40
1.0
 40
1.0
 40
1.0
 40
1.0
 10
12.3664812197
 20
11.2519093264
 30
0.0
 10
12.3433393472
 20
11.2565336976
 30
0.0
 10
12.2987105565
 20
11.2655427917
 30
0.0
 10
12.2148048622
 20
11.281750064
 30
0.0
 10
12.1361657223
 20
11.2957751059
 30
0.0
 10
12.0625268366
 20
11.3077442933
 30
0.0
 10
12.0131778032
 20
11.3152950325
 30
0.0
 10
11.9679787017
 20
11.3218022471
 30
0.0
 10
11.927144169
 20
11.3273432733
 30
0.0
 10
11.8908763936
 20
11.3319963357
 30
0.0
 10
11.8635846163
 20
11.3353144793
 30
0.0
 10
11.8441580443
 20
11.3375886592
 30
0.0
 10
11.831435362
 20
11.3390456296
 30
0.0
 10
11.8199683819
 20
11.3403344344
 30
0.0
 10
11.8097743511
 20
11.3414642319
 30
0.0
 10
11.8008656118
 20
11.3424448277
 30
0.0
 10
11.7942487784
 20
11.3431741408
 30
0.0
 10
11.7896019763
 20
11.3436924628
 30
0.0
 10
11.7866015818
 20
11.344031514
 30
0.0
 10
11.7839244735
 20
11.3443399573
 30
0.0
 10
11.7815706996
 20
11.344618893
 30
0.0
 10
11.7795402268
 20
11.344869373
 30
0.0
 10
11.7778332031
 20
11.3450923735
 30
0.0
 10
11.7764491304
 20
11.3452887195
 30
0.0
 10
11.775499241
 20
11.3454411263
 30
0.0
 10
11.7749003076
 20
11.345553429
 30
0.0
 10
11.7745741317
 20
11.3456257434
 30
0.0
 10
11.7743214092
 20
11.3456874917
 30
0.0
 10
11.7741634414
 20
11.3457518996
 30
0.0
 10
11.7740467341
 20
11.3457924273
 30
0.0
 10
11.7740360004
 20
11.3458886229
 30
0.0
 10
11.7741547942
 20
11.3459232375
 30
0.0
 10
11.7742272005
 20
11.3459444737
 30
0.0
 10
11.7742805638
 20
11.3459548465
 30
0.0
  0
SPLINE
  5
4D4
100
AcDbEntity
  8
0
100
AcDbSpline
 62
9
  6
CONTINUOUS
 70
0
 71
3
 72
9
 73
5
 74
0
 42
0.0000001
 43
0.0000001
 44
0.0000000001
 40
0.0
 40
0.0
 40
0.0
 40
0.0
 40
0.2265312383
 40
1.0
 40
1.0
 40
1.0
 40
1.0
 10
12.5504982924
 20
18.5901260394
 30
0.0
 10
12.556785807
 20
18.5836490615
 30
0.0
 10
12.5850654996
 20
18.5555788301
 30
0.0
 10
12.6158300949
 20
18.5299381104
 30
0.0
 10
12.6410169722
 20
18.5121737009
 30
0.0
  0
SPLINE
  5
4D5
100
AcDbEntity
  8
0
100
AcDbSpline
 62
9
  6
CONTINUOUS
 70
0
 71
3
 72
14
 73
10
 74
0
 42
0.0000001
 43
0.0000001
 44
0.0000000001
 40
0.0
 40
0.0
 40
0.0
 40
0.0
 40
0.1244453621
 40
0.2493353497
 40
0.3745700755
 40
0.4997542388
 40
0.6247585047
 40
0.7497192716
 40
1.0
 40
1.0
 40
1.0
 40
1.0
 10
13.194276821
 20
12.2803353485
 30
0.0
 10
13.2047055487
 20
12.2885869596
 30
0.0
 10
13.2248434425
 20
12.3060921618
 30
0.0
 10
13.252970172
 20
12.3346122772
 30
0.0
 10
13.2793194407
 20
12.3648743431
 30
0.0
 10
13.3042368086
 20
12.3963310723
 30
0.0
 10
13.3277823301
 20
12.4287933538
 30
0.0
 10
13.3572795463
 20
12.4733890307
 30
0.0
 10
13.3772387133
 20
12.5082407539
 30
0.0
 10
13.3895478119
 20
12.5319852101
 30
0.0
  0
SPLINE
  5
4D6
100
AcDbEntity
  8
0
100
AcDbSpline
 62
9
  6
CONTINUOUS
 70
0
 71
3
 72
9
 73
5
 74
0
 42
0.0000001
 43
0.0000001
 44
0.0000000001
 40
0.0
 40
0.0
 40
0.0
 40
0.0
 40
0.2716938187
 40
1.0
 40
1.0
 40
1.0
 40
1.0
 10
13.1823946572
 20
18.5121734958
 30
0.0
 10
13.1912434262
 20
18.5184145611
 30
0.0
 10
13.2231609658
 20
18.5423069625
 30
0.0
 10
13.252695715
 20
18.5692988979
 30
0.0
 10
13.272913625
 20
18.5901260394
 30
0.0
  0
SPLINE
  5
4D7
100
AcDbEntity
  8
0
100
AcDbSpline
 62
9
  6
CONTINUOUS
 70
0
 71
3
 72
27
 73
23
 74
0
 42
0.0000001
 43
0.0000001
 44
0.0000000001
 40
0.0
 40
0.0
 40
0.0
 40
0.0
 40
0.1448914374
 40
0.288106036
 40
0.4296278974
 40
0.4997030874
 40
0.5692410311
 40
0.6380880807
 40
0.7057434093
 40
0.7716005402
 40
0.8350343793
 40
0.8655593322
 40
0.8947263456
 40
0.9219403072
 40
0.9466032903
 40
0.9679940983
 40
0.9770936634
 40
0.9849084013
 40
0.9912724429
 40
0.9960197979
 40
0.9989843752
 40
1.0
 40
1.0
 40
1.0
 40
1.0
 10
13.2729136351
 20
18.5901260061
 30
0.0
 10
13.2781379836
 20
18.5955077338
 30
0.0
 10
13.2878978017
 20
18.6068364927
 30
0.0
 10
13.3005250295
 20
18.6251876725
 30
0.0
 10
13.3094284765
 20
18.6412862881
 30
0.0
 10
13.3155917376
 20
18.6544740914
 30
0.0
 10
13.319731345
 20
18.6644435103
 30
0.0
 10
13.3234040501
 20
18.6744601997
 30
0.0
 10
13.3266233708
 20
18.6844312717
 30
0.0
 10
13.3293933533
 20
18.6942451912
 30
0.0
 10
13.3313513631
 20
18.7022852101
 30
0.0
 10
13.3326884797
 20
18.7085174427
 30
0.0
 10
13.3335625952
 20
18.7129304777
 30
0.0
 10
13.3343193025
 20
18.7170577301
 30
0.0
 10
13.3349539828
 20
18.7207951972
 30
0.0
 10
13.3353958616
 20
18.7236210048
 30
0.0
 10
13.3356856947
 20
18.7255740991
 30
0.0
 10
13.3358580261
 20
18.7267863739
 30
0.0
 10
13.3359888121
 20
18.7277033643
 30
0.0
 10
13.3360959091
 20
18.7285535225
 30
0.0
 10
13.33613721
 20
18.7287661241
 30
0.0
 10
13.3361824035
 20
18.7292213336
 30
0.0
 10
13.336181288
 20
18.7291687706
 30
0.0
  0
SPLINE
  5
4D8
100
AcDbEntity
  8
0
100
AcDbSpline
 62
9
  6
CONTINUOUS
 70
0
 71
3
 72
10
 73
6
 74
0
 42
0.0000001
 43
0.0000001
 44
0.0000000001
 40
0.0
 40
0.0
 40
0.0
 40
0.0
 40
0.284655263
 40
0.5476995212
 40
1.0
 40
1.0
 40
1.0
 40
1.0
 10
13.1833788489
 20
18.6527184787
 30
0.0
 10
13.1960149401
 20
18.6581076067
 30
0.0
 10
13.2200228443
 20
18.6692131695
 30
0.0
 10
13.2625800455
 20
18.6920089951
 30
0.0
 10
13.2917838948
 20
18.7105263343
 30
0.0
 10
13.3097269787
 20
18.7229560231
 30
0.0
  0
SPLINE
  5
4D9
100
AcDbEntity
  8
0
100
AcDbSpline
 62
9
  6
CONTINUOUS
 70
0
 71
3
 72
11
 73
7
 74
0
 42
0.0000001
 43
0.0000001
 44
0.0000000001
 40
0.0
 40
0.0
 40
0.0
 40
0.0
 40
0.2413840966
 40
0.4912720075
 40
0.7461987563
 40
1.0
 40
1.0
 40
1.0
 40
1.0
 10
13.3097269787
 20
18.7229560231
 30
0.0
 10
13.3013611181
 20
18.7150274418
 30
0.0
 10
13.286851633
 20
18.6961061616
 30
0.0
 10
13.2733366639
 20
18.6627075195
 30
0.0
 10
13.2687479635
 20
18.6264368718
 30
0.0
 10
13.2707599829
 20
18.602052146
 30
0.0
 10
13.2729136231
 20
18.5901260651
 30
0.0
  0
SPLINE
  5
4DA
100
AcDbEntity
  8
0
100
AcDbSpline
 62
9
  6
CONTINUOUS
 70
0
 71
3
 72
13
 73
9
 74
0
 42
0.0000001
 43
0.0000001
 44
0.0000000001
 40
0.0
 40
0.0
 40
0.0
 40
0.0
 40
0.2489396209
 40
0.4980130285
 40
0.6227773463
 40
0.7478901436
 40
0.8735808181
 40
1.0
 40
1.0
 40
1.0
 40
1.0
 10
13.4003153474
 20
13.5872096821
 30
0.0
 10
13.3873962343
 20
13.6133571345
 30
0.0
 10
13.3592081911
 20
13.6645508292
 30
0.0
 10
13.3176403712
 20
13.7247083623
 30
0.0
 10
13.2802578579
 20
13.769688773
 30
0.0
 10
13.2501303872
 20
13.8017968254
 30
0.0
 10
13.2179386683
 20
13.8321101513
 30
0.0
 10
13.1952259976
 20
13.8510363498
 30
0.0
 10
13.1834788777
 20
13.8600566744
 30
0.0
  0
SPLINE
  5
4DB
100
AcDbEntity
  8
0
100
AcDbSpline
 62
9
  6
CONTINUOUS
 70
0
 71
3
 72
11
 73
7
 74
0
 42
0.0000001
 43
0.0000001
 44
0.0000000001
 40
0.0
 40
0.0
 40
0.0
 40
0.0
 40
0.2306862975
 40
0.4761252812
 40
0.7347106708
 40
1.0
 40
1.0
 40
1.0
 40
1.0
 10
12.5136849453
 20
18.7229560211
 30
0.0
 10
12.5216803609
 20
18.7153785172
 30
0.0
 10
12.5358749268
 20
18.6971837513
 30
0.0
 10
12.549618586
 20
18.6644748019
 30
0.0
 10
12.5546730208
 20
18.6277353566
 30
0.0
 10
12.5527494836
 20
18.6025924524
 30
0.0
 10
12.5504982691
 20
18.5901260489
 30
0.0
  0
SPLINE
  5
4DC
100
AcDbEntity
  8
0
100
AcDbSpline
 62
9
  6
CONTINUOUS
 70
0
 71
3
 72
14
 73
10
 74
0
 42
0.0000001
 43
0.0000001
 44
0.0000000001
 40
0.0
 40
0.0
 40
0.0
 40
0.0
 40
0.3226539679
 40
0.4616369231
 40
0.5916324168
 40
0.7148662875
 40
0.8296447377
 40
0.9319345109
 40
1.0
 40
1.0
 40
1.0
 40
1.0
 10
13.3097269754
 20
18.7229560243
 30
0.0
 10
13.3139640554
 20
18.724907529
 30
0.0
 10
13.319841297
 20
18.7282176029
 30
0.0
 10
13.3263852299
 20
18.7337559351
 30
0.0
 10
13.3302346359
 20
18.7379398074
 30
0.0
 10
13.3333540438
 20
18.7422639826
 30
0.0
 10
13.335756877
 20
18.7465731142
 30
0.0
 10
13.3372763744
 20
18.7504159707
 30
0.0
 10
13.3379899199
 20
18.752774107
 30
0.0
 10
13.3382596996
 20
18.7537204882
 30
0.0
  0
SPLINE
  5
4DD
100
AcDbEntity
  8
0
100
AcDbSpline
 62
9
  6
CONTINUOUS
 70
0
 71
3
 72
14
 73
10
 74
0
 42
0.0000001
 43
0.0000001
 44
0.0000000001
 40
0.0
 40
0.0
 40
0.0
 40
0.0
 40
0.0278659166
 40
0.0508704918
 40
0.0809555314
 40
0.1631426999
 40
0.2750065153
 40
0.5850997436
 40
1.0
 40
1.0
 40
1.0
 40
1.0
 10
12.3190390132
 20
20.310226412
 30
0.0
 10
12.3190602566
 20
20.3099934424
 30
0.0
 10
12.3194624771
 20
20.3096743759
 30
0.0
 10
12.3200684947
 20
20.3094243713
 30
0.0
 10
12.3211705411
 20
20.3090992332
 30
0.0
 10
12.3230237574
 20
20.3087934678
 30
0.0
 10
12.3272405995
 20
20.3083747552
 30
0.0
 10
12.3342662491
 20
20.3081655804
 30
0.0
 10
12.3403532126
 20
20.3082021035
 30
0.0
 10
12.3438357278
 20
20.3082666648
 30
0.0
  0
SPLINE
  5
4DE
100
AcDbEntity
  8
0
100
AcDbSpline
 62
9
  6
CONTINUOUS
 70
0
 71
3
 72
9
 73
5
 74
0
 42
0.0000001
 43
0.0000001
 44
0.0000000001
 40
0.0
 40
0.0
 40
0.0
 40
0.0
 40
0.4583306901
 40
1.0
 40
1.0
 40
1.0
 40
1.0
 10
12.3438357278
 20
20.3082666648
 30
0.0
 10
12.3529981176
 20
20.3084365234
 30
0.0
 10
12.372976988
 20
20.3093729837
 30
0.0
 10
12.392916274
 20
20.3108770552
 30
0.0
 10
12.4037042977
 20
20.3118325457
 30
0.0
  0
SPLINE
  5
4DF
100
AcDbEntity
  8
0
100
AcDbSpline
 62
9
  6
CONTINUOUS
 70
0
 71
3
 72
11
 73
7
 74
0
 42
0.0000001
 43
0.0000001
 44
0.0000000001
 40
0.0
 40
0.0
 40
0.0
 40
0.0
 40
0.1843108826
 40
0.4107009466
 40
0.6812425668
 40
1.0
 40
1.0
 40
1.0
 40
1.0
 10
13.3051515921
 20
19.9173425103
 30
0.0
 10
13.3019239459
 20
19.914517668
 30
0.0
 10
13.2941633293
 20
19.9088770761
 30
0.0
 10
13.2804142524
 20
19.9009548708
 30
0.0
 10
13.2632948048
 20
19.8927209181
 30
0.0
 10
13.2506216414
 20
19.8874663957
 30
0.0
 10
13.2437184625
 20
19.8847510444
 30
0.0
  0
SPLINE
  5
4E0
100
AcDbEntity
  8
0
100
AcDbSpline
 62
9
  6
CONTINUOUS
 70
0
 71
3
 72
9
 73
5
 74
0
 42
0.0000001
 43
0.0000001
 44
0.0000000001
 40
0.0
 40
0.0
 40
0.0
 40
0.0
 40
0.2272108329
 40
1.0
 40
1.0
 40
1.0
 40
1.0
 10
13.2316288148
 20
19.8801341843
 30
0.0
 10
13.2284717629
 20
19.8789613979
 30
0.0
 10
13.214543225
 20
19.8738904523
 30
0.0
 10
13.2005004766
 20
19.8691379348
 30
0.0
 10
13.1896169814
 20
19.8655657943
 30
0.0
  0
SPLINE
  5
4E1
100
AcDbEntity
  8
0
100
AcDbSpline
 62
7
  6
CONTINUOUS
 70
0
 71
3
 72
13
 73
9
 74
0
 42
0.0000001
 43
0.0000001
 44
0.0000000001
 40
0.0
 40
0.0
 40
0.0
 40
0.0
 40
0.2386770923
 40
0.4820747793
 40
0.6070040037
 40
0.7348716434
 40
0.8661580197
 40
1.0
 40
1.0
 40
1.0
 40
1.0
 10
12.130173529
 20
13.5112612247
 30
0.0
 10
12.1327224808
 20
13.5172495411
 30
0.0
 10
12.1385659119
 20
13.5290653917
 30
0.0
 10
12.14828187
 20
13.5426259776
 30
0.0
 10
12.15810335
 20
13.5519952629
 30
0.0
 10
12.1667973137
 20
13.5579409426
 30
0.0
 10
12.1767800412
 20
13.5620807557
 30
0.0
 10
12.1840445528
 20
13.5630906806
 30
0.0
 10
12.1876941477
 20
13.5630906806
 30
0.0
  0
SPLINE
  5
4E2
100
AcDbEntity
  8
0
100
AcDbSpline
 62
7
  6
CONTINUOUS
 70
0
 71
3
 72
17
 73
13
 74
0
 42
0.0000001
 43
0.0000001
 44
0.0000000001
 40
0.0
 40
0.0
 40
0.0
 40
0.0
 40
0.0688089418
 40
0.1365443669
 40
0.2027252337
 40
0.2674742702
 40
0.3935301752
 40
0.5169193074
 40
0.6387569387
 40
0.7596688616
 40
0.8800126757
 40
1.0
 40
1.0
 40
1.0
 40
1.0
 10
12.1876941477
 20
13.5630906806
 30
0.0
 10
12.1909187284
 20
13.5630906806
 30
0.0
 10
12.1973424536
 20
13.5623043829
 30
0.0
 10
12.2063290177
 20
13.5590215348
 30
0.0
 10
12.2143425812
 20
13.5541888133
 30
0.0
 10
12.2235869499
 20
13.5464127664
 30
0.0
 10
12.2329924965
 20
13.5349317528
 30
0.0
 10
12.2416637659
 20
13.5197927278
 30
0.0
 10
12.248394405
 20
13.503976623
 30
0.0
 10
12.2536584087
 20
13.4877787367
 30
0.0
 10
12.2577852944
 20
13.4713502718
 30
0.0
 10
12.2599356799
 20
13.4602897381
 30
0.0
 10
12.2608874487
 20
13.4547479305
 30
0.0
  0
SPLINE
  5
4E3
100
AcDbEntity
  8
0
100
AcDbSpline
 62
7
  6
CONTINUOUS
 70
0
 71
3
 72
21
 73
17
 74
0
 42
0.0000001
 43
0.0000001
 44
0.0000000001
 40
0.0
 40
0.0
 40
0.0
 40
0.0
 40
0.1228405892
 40
0.2454994286
 40
0.3681222449
 40
0.4908078981
 40
0.5522370357
 40
0.6137736763
 40
0.6754985306
 40
0.7375565991
 40
0.8002206321
 40
0.8640359942
 40
0.8967630793
 40
0.9302849649
 40
0.9647644254
 40
1.0
 40
1.0
 40
1.0
 40
1.0
 10
12.2608874487
 20
13.4547479305
 30
0.0
 10
12.2632250053
 20
13.4411371784
 30
0.0
 10
12.2664581783
 20
13.4136848708
 30
0.0
 10
12.2684450124
 20
13.3723279979
 30
0.0
 10
12.268174498
 20
13.330942362
 30
0.0
 10
12.2660016022
 20
13.2964992168
 30
0.0
 10
12.2626866575
 20
13.2690743809
 30
0.0
 10
12.2592081965
 20
13.2485941765
 30
0.0
 10
12.2544695649
 20
13.2282898923
 30
0.0
 10
12.2480693621
 20
13.208296185
 30
0.0
 10
12.239406938
 20
13.1888977098
 30
0.0
 10
12.2295326805
 20
13.1738017032
 30
0.0
 10
12.2193574613
 20
13.1632346602
 30
0.0
 10
12.2102161104
 20
13.1564364973
 30
0.0
 10
12.1995363722
 20
13.1516188203
 30
0.0
 10
12.1916554126
 20
13.1504252133
 30
0.0
 10
12.1876941477
 20
13.1504252133
 30
0.0
  0
SPLINE
  5
4E4
100
AcDbEntity
  8
0
100
AcDbSpline
 62
7
  6
CONTINUOUS
 70
0
 71
3
 72
13
 73
9
 74
0
 42
0.0000001
 43
0.0000001
 44
0.0000000001
 40
0.0
 40
0.0
 40
0.0
 40
0.0
 40
0.1338402393
 40
0.2651273231
 40
0.3929954361
 40
0.5179247284
 40
0.7613226438
 40
1.0
 40
1.0
 40
1.0
 40
1.0
 10
12.1876941477
 20
13.1504252133
 30
0.0
 10
12.1840446002
 20
13.1504252133
 30
0.0
 10
12.1767801149
 20
13.1514351047
 30
0.0
 10
12.1667973949
 20
13.1555749038
 30
0.0
 10
12.1581033906
 20
13.161520585
 30
0.0
 10
12.148281901
 20
13.1708898921
 30
0.0
 10
12.1385659204
 20
13.1844504793
 30
0.0
 10
12.1327224837
 20
13.1962663437
 30
0.0
 10
12.130173529
 20
13.2022546668
 30
0.0
  0
SPLINE
  5
4E5
100
AcDbEntity
  8
0
100
AcDbSpline
 62
7
  6
CONTINUOUS
 70
0
 71
3
 72
13
 73
9
 74
0
 42
0.0000001
 43
0.0000001
 44
0.0000000001
 40
0.0
 40
0.0
 40
0.0
 40
0.0
 40
0.2386770923
 40
0.4820747793
 40
0.6070040037
 40
0.7348716434
 40
0.8661580197
 40
1.0
 40
1.0
 40
1.0
 40
1.0
 10
12.130173529
 20
12.9172612247
 30
0.0
 10
12.1327224808
 20
12.9232495411
 30
0.0
 10
12.1385659119
 20
12.9350653917
 30
0.0
 10
12.14828187
 20
12.9486259776
 30
0.0
 10
12.15810335
 20
12.9579952629
 30
0.0
 10
12.1667973137
 20
12.9639409426
 30
0.0
 10
12.1767800412
 20
12.9680807557
 30
0.0
 10
12.1840445528
 20
12.9690906806
 30
0.0
 10
12.1876941477
 20
12.9690906806
 30
0.0
  0
SPLINE
  5
4E6
100
AcDbEntity
  8
0
100
AcDbSpline
 62
7
  6
CONTINUOUS
 70
0
 71
3
 72
15
 73
11
 74
0
 42
0.0000001
 43
0.0000001
 44
0.0000000001
 40
0.0
 40
0.0
 40
0.0
 40
0.0
 40
0.0683844768
 40
0.1360028882
 40
0.2670907818
 40
0.3938538017
 40
0.5176865012
 40
0.6396772246
 40
0.7604969799
 40
1.0
 40
1.0
 40
1.0
 40
1.0
 10
12.1876941477
 20
12.9690906806
 30
0.0
 10
12.1903926468
 20
12.9690906806
 30
0.0
 10
12.1957743379
 20
12.9685387029
 30
0.0
 10
12.2059094373
 20
12.9654580134
 30
0.0
 10
12.2170349246
 20
12.9586336427
 30
0.0
 10
12.2276703089
 20
12.947843832
 30
0.0
 10
12.2361271395
 20
12.9357552936
 30
0.0
 10
12.2429139993
 20
12.9229473162
 30
0.0
 10
12.2502212991
 20
12.9053530995
 30
0.0
 10
12.2542242029
 20
12.8916614653
 30
0.0
 10
12.2564407249
 20
12.8824741044
 30
0.0
  0
SPLINE
  5
4E7
100
AcDbEntity
  8
0
100
AcDbSpline
 62
7
  6
CONTINUOUS
 70
0
 71
3
 72
9
 73
5
 74
0
 42
0.0000001
 43
0.0000001
 44
0.0000000001
 40
0.0
 40
0.0
 40
0.0
 40
0.0
 40
0.250343987
 40
1.0
 40
1.0
 40
1.0
 40
1.0
 10
12.2564407249
 20
12.8824741044
 30
0.0
 10
12.256874789
 20
12.8806749327
 30
0.0
 10
12.258540532
 20
12.8734717406
 30
0.0
 10
12.2599493468
 20
12.8662101607
 30
0.0
 10
12.260887449
 20
12.8607479287
 30
0.0
  0
SPLINE
  5
4E8
100
AcDbEntity
  8
0
100
AcDbSpline
 62
7
  6
CONTINUOUS
 70
0
 71
3
 72
11
 73
7
 74
0
 42
0.0000001
 43
0.0000001
 44
0.0000000001
 40
0.0
 40
0.0
 40
0.0
 40
0.0
 40
0.2501741306
 40
0.4999998128
 40
0.7498260021
 40
1.0
 40
1.0
 40
1.0
 40
1.0
 10
12.260887449
 20
12.8607479287
 30
0.0
 10
12.2636631359
 20
12.8445861007
 30
0.0
 10
12.2671977399
 20
12.8119369961
 30
0.0
 10
12.2687456647
 20
12.7627834169
 30
0.0
 10
12.2672011054
 20
12.7136297383
 30
0.0
 10
12.2636696111
 20
12.6809803423
 30
0.0
 10
12.2608960662
 20
12.6648181554
 30
0.0
  0
SPLINE
  5
4E9
100
AcDbEntity
  8
0
100
AcDbSpline
 62
7
  6
CONTINUOUS
 70
0
 71
3
 72
17
 73
13
 74
0
 42
0.0000001
 43
0.0000001
 44
0.0000000001
 40
0.0
 40
0.0
 40
0.0
 40
0.0
 40
0.1199881616
 40
0.2403324487
 40
0.3612444401
 40
0.4830815289
 40
0.606469406
 40
0.7325235898
 40
0.7972720876
 40
0.8634539515
 40
0.9311907928
 40
1.0
 40
1.0
 40
1.0
 40
1.0
 10
12.2608960662
 20
12.6648181554
 30
0.0
 10
12.2599446808
 20
12.6592741783
 30
0.0
 10
12.2577950414
 20
12.648209287
 30
0.0
 10
12.2536690989
 20
12.6317742053
 30
0.0
 10
12.248405823
 20
12.6155696089
 30
0.0
 10
12.2416755401
 20
12.5997466969
 30
0.0
 10
12.2330041041
 20
12.5846006826
 30
0.0
 10
12.2235974521
 20
12.5731138829
 30
0.0
 10
12.2143514085
 20
12.5653331062
 30
0.0
 10
12.206335576
 20
12.560497388
 30
0.0
 10
12.1973460674
 20
12.5572120506
 30
0.0
 10
12.1909199073
 20
12.5564252133
 30
0.0
 10
12.1876941477
 20
12.5564252133
 30
0.0
  0
SPLINE
  5
4EA
100
AcDbEntity
  8
0
100
AcDbSpline
 62
7
  6
CONTINUOUS
 70
0
 71
3
 72
13
 73
9
 74
0
 42
0.0000001
 43
0.0000001
 44
0.0000000001
 40
0.0
 40
0.0
 40
0.0
 40
0.0
 40
0.1338402393
 40
0.2651273231
 40
0.3929954361
 40
0.5179247284
 40
0.7613226438
 40
1.0
 40
1.0
 40
1.0
 40
1.0
 10
12.1876941477
 20
12.5564252133
 30
0.0
 10
12.1840446002
 20
12.5564252133
 30
0.0
 10
12.1767801149
 20
12.5574351047
 30
0.0
 10
12.1667973949
 20
12.5615749038
 30
0.0
 10
12.1581033906
 20
12.567520585
 30
0.0
 10
12.148281901
 20
12.5768898921
 30
0.0
 10
12.1385659204
 20
12.5904504793
 30
0.0
 10
12.1327224837
 20
12.6022663437
 30
0.0
 10
12.130173529
 20
12.6082546668
 30
0.0
  0
LINE
  5
4EB
100
AcDbEntity
  8
0
100
AcDbLine
 62
9
  6
CONTINUOUS
 10
13.1942724733
 20
12.2803360182
 11
13.1817059205
 21
12.2797045202
  0
SPLINE
  5
4EC
100
AcDbEntity
  8
0
100
AcDbSpline
 62
9
  6
CONTINUOUS
 70
0
 71
3
 72
9
 73
5
 74
0
 42
0.0000001
 43
0.0000001
 44
0.0000000001
 40
0.0
 40
0.0
 40
0.0
 40
0.0
 40
0.5063592138
 40
1.0
 40
1.0
 40
1.0
 40
1.0
 10
13.3221405228
 20
12.5245215476
 30
0.0
 10
13.3026770578
 20
12.4978359278
 30
0.0
 10
13.2602271587
 20
12.4479141392
 30
0.0
 10
13.2099953648
 20
12.4057015544
 30
0.0
 10
13.1835427969
 20
12.387341405
 30
0.0
  0
SPLINE
  5
4ED
100
AcDbEntity
  8
0
100
AcDbSpline
 62
7
  6
CONTINUOUS
 70
0
 71
3
 72
13
 73
9
 74
0
 42
0.0000001
 43
0.0000001
 44
0.0000000001
 40
0.0
 40
0.0
 40
0.0
 40
0.0
 40
0.4040807809
 40
0.5697945952
 40
0.7091172199
 40
0.8207325305
 40
0.9041526428
 40
1.0
 40
1.0
 40
1.0
 40
1.0
 10
12.4269842602
 20
19.0494036089
 30
0.0
 10
12.4279336565
 20
19.0494036089
 30
0.0
 10
12.4292726885
 20
19.0494317593
 30
0.0
 10
12.4309352115
 20
19.0495705308
 30
0.0
 10
12.4319023714
 20
19.0496990729
 30
0.0
 10
12.4326808325
 20
19.0498738462
 30
0.0
 10
12.4333023538
 20
19.0500742141
 30
0.0
 10
12.4337202519
 20
19.0504000339
 30
0.0
 10
12.4337197066
 20
19.0506252286
 30
0.0
  0
SPLINE
  5
4EE
100
AcDbEntity
  8
0
100
AcDbSpline
 62
7
  6
CONTINUOUS
 70
0
 71
3
 72
13
 73
9
 74
0
 42
0.0000001
 43
0.0000001
 44
0.0000000001
 40
0.0
 40
0.0
 40
0.0
 40
0.0
 40
0.3968494642
 40
0.5639212104
 40
0.7054386691
 40
0.818823596
 40
0.9040483349
 40
1.0
 40
1.0
 40
1.0
 40
1.0
 10
12.5689559587
 20
19.0494036089
 30
0.0
 10
12.5705437373
 20
19.0494036089
 30
0.0
 10
12.5728001095
 20
19.0494577067
 30
0.0
 10
12.5756166219
 20
19.0496995116
 30
0.0
 10
12.5772825841
 20
19.0499243589
 30
0.0
 10
12.5786350553
 20
19.0502282061
 30
0.0
 10
12.5796947065
 20
19.0505734476
 30
0.0
 10
12.5804569884
 20
19.0510976516
 30
0.0
 10
12.5804558565
 20
19.0514815486
 30
0.0
  0
SPLINE
  5
4EF
100
AcDbEntity
  8
0
100
AcDbSpline
 62
7
  6
CONTINUOUS
 70
0
 71
3
 72
12
 73
8
 74
0
 42
0.0000001
 43
0.0000001
 44
0.0000000001
 40
0.0
 40
0.0
 40
0.0
 40
0.0
 40
0.2675355287
 40
0.550308808
 40
0.8059228271
 40
0.9124509916
 40
1.0
 40
1.0
 40
1.0
 40
1.0
 10
13.2544559587
 20
19.0494036089
 30
0.0
 10
13.2572641419
 20
19.0494036089
 30
0.0
 10
13.2630409596
 20
19.0496470075
 30
0.0
 10
13.2714616487
 20
19.050484809
 30
0.0
 10
13.2781547276
 20
19.0515433104
 30
0.0
 10
13.2827613192
 20
19.0525774871
 30
0.0
 10
13.2847236208
 20
19.0531330928
 30
0.0
 10
13.2855939678
 20
19.0534280135
 30
0.0
  0
SPLINE
  5
4F0
100
AcDbEntity
  8
0
100
AcDbSpline
 62
7
  6
CONTINUOUS
 70
0
 71
3
 72
11
 73
7
 74
0
 42
0.0000001
 43
0.0000001
 44
0.0000000001
 40
0.0
 40
0.0
 40
0.0
 40
0.0
 40
0.3772759642
 40
0.6662419738
 40
0.8685980434
 40
1.0
 40
1.0
 40
1.0
 40
1.0
 10
13.2855939678
 20
19.0534280135
 30
0.0
 10
13.2860822158
 20
19.0535934585
 30
0.0
 10
13.2869369306
 20
19.0539084048
 30
0.0
 10
13.2880042645
 20
19.0544402893
 30
0.0
 10
13.2887013599
 20
19.0549254618
 30
0.0
 10
13.2889558556
 20
19.0553559232
 30
0.0
 10
13.2889560868
 20
19.0555354733
 30
0.0
  0
SPLINE
  5
4F1
100
AcDbEntity
  8
0
100
AcDbSpline
 62
7
  6
CONTINUOUS
 70
0
 71
3
 72
16
 73
12
 74
0
 42
0.0000001
 43
0.0000001
 44
0.0000000001
 40
0.0
 40
0.0
 40
0.0
 40
0.0
 40
0.1219894465
 40
0.2647478346
 40
0.4175885117
 40
0.5703272282
 40
0.7131517028
 40
0.8372225025
 40
0.9346353728
 40
0.9716017532
 40
1.0
 40
1.0
 40
1.0
 40
1.0
 10
13.3964276572
 20
19.0494036089
 30
0.0
 10
13.3980145373
 20
19.0494036089
 30
0.0
 10
13.4014582284
 20
19.0495281957
 30
0.0
 10
13.4068753968
 20
19.0499427441
 30
0.0
 10
13.4126724407
 20
19.0505922151
 30
0.0
 10
13.4184473788
 20
19.0514186684
 30
0.0
 10
13.4238246951
 20
19.0523661669
 30
0.0
 10
13.4284578008
 20
19.0533648655
 30
0.0
 10
13.4317078407
 20
19.0542423382
 30
0.0
 10
13.4337030362
 20
19.0549529052
 30
0.0
 10
13.4344820589
 20
19.0552995047
 30
0.0
 10
13.4348055724
 20
19.0554778461
 30
0.0
  0
SPLINE
  5
4F2
100
AcDbEntity
  8
0
100
AcDbSpline
 62
7
  6
CONTINUOUS
 70
0
 71
3
 72
9
 73
5
 74
0
 42
0.0000001
 43
0.0000001
 44
0.0000000001
 40
0.0
 40
0.0
 40
0.0
 40
0.0
 40
0.6308561751
 40
1.0
 40
1.0
 40
1.0
 40
1.0
 10
13.4348055724
 20
19.0554778461
 30
0.0
 10
13.4350414793
 20
19.0556078931
 30
0.0
 10
13.4354020016
 20
19.0558176566
 30
0.0
 10
13.4356895454
 20
19.0562012173
 30
0.0
 10
13.4356900739
 20
19.056358842
 30
0.0
  0
SPLINE
  5
4F3
100
AcDbEntity
  8
0
100
AcDbSpline
 62
7
  6
CONTINUOUS
 70
0
 71
3
 72
13
 73
9
 74
0
 42
0.0000001
 43
0.0000001
 44
0.0000000001
 40
0.0
 40
0.0
 40
0.0
 40
0.0
 40
0.0910296064
 40
0.2101459318
 40
0.4968746864
 40
0.7843341634
 40
0.9050916037
 40
1.0
 40
1.0
 40
1.0
 40
1.0
 10
13.505366373
 20
19.0494036089
 30
0.0
 10
13.5065854051
 20
19.0494036089
 30
0.0
 10
13.5093985328
 20
19.0495459829
 30
0.0
 10
13.5160257476
 20
19.0501449285
 30
0.0
 10
13.525228961
 20
19.0514027132
 30
0.0
 10
13.5344013159
 20
19.052994954
 30
0.0
 10
13.5409886204
 20
19.0544123723
 30
0.0
 10
13.5437908824
 20
19.055118426
 30
0.0
 10
13.5450099785
 20
19.0554778461
 30
0.0
  0
SPLINE
  5
4F4
100
AcDbEntity
  8
0
100
AcDbSpline
 62
7
  6
CONTINUOUS
 70
0
 71
3
 72
11
 73
7
 74
0
 42
0.0000001
 43
0.0000001
 44
0.0000000001
 40
0.0
 40
0.0
 40
0.0
 40
0.0
 40
0.4026479417
 40
0.7038083998
 40
0.9006293023
 40
1.0
 40
1.0
 40
1.0
 40
1.0
 10
13.5450099785
 20
19.0554778461
 30
0.0
 10
13.5454824879
 20
19.0556171537
 30
0.0
 10
13.5462995702
 20
19.0558698956
 30
0.0
 10
13.5473466245
 20
19.0562759795
 30
0.0
 10
13.5479686406
 20
19.0565798545
 30
0.0
 10
13.548287366
 20
19.0568657367
 30
0.0
 10
13.5482847336
 20
19.0569872827
 30
0.0
  0
SPLINE
  5
4F5
100
AcDbEntity
  8
0
100
AcDbSpline
 62
9
  6
CONTINUOUS
 70
0
 71
3
 72
14
 73
10
 74
0
 42
0.0000001
 43
0.0000001
 44
0.0000000001
 40
0.0
 40
0.0
 40
0.0
 40
0.0
 40
0.0309280107
 40
0.0928882561
 40
0.184600282
 40
0.3041623123
 40
0.4487192432
 40
0.6152869567
 40
1.0
 40
1.0
 40
1.0
 40
1.0
 10
13.4517451419
 20
20.9033197051
 30
0.0
 10
13.4517451419
 20
20.9027237712
 30
0.0
 10
13.4516211038
 20
20.9009364424
 30
0.0
 10
13.4513898594
 20
20.8973883179
 30
0.0
 10
13.4509829899
 20
20.8921385322
 30
0.0
 10
13.4504426906
 20
20.8853038394
 30
0.0
 10
13.4497649256
 20
20.8770327973
 30
0.0
 10
13.4486493943
 20
20.8636716337
 30
0.0
 10
13.4477433941
 20
20.853087998
 30
0.0
 10
13.4471046341
 20
20.8457027571
 30
0.0
  0
SPLINE
  5
4F6
100
AcDbEntity
  8
0
100
AcDbSpline
 62
9
  6
CONTINUOUS
 70
0
 71
3
 72
19
 73
15
 74
0
 42
0.0000001
 43
0.0000001
 44
0.0000000001
 40
0.0
 40
0.0
 40
0.0
 40
0.0
 40
0.1921193442
 40
0.3779048721
 40
0.5491501685
 40
0.6995213741
 40
0.8234412593
 40
0.8740742849
 40
0.9164727668
 40
0.9502110624
 40
0.9751507243
 40
0.9843447845
 40
0.9914188511
 40
1.0
 40
1.0
 40
1.0
 40
1.0
 10
13.4442279165
 20
20.8129297058
 30
0.0
 10
13.438729921
 20
20.8134166608
 30
0.0
 10
13.4279216055
 20
20.8144485604
 30
0.0
 10
13.4122375379
 20
20.8161620688
 30
0.0
 10
13.3977721706
 20
20.8179726667
 30
0.0
 10
13.3851026583
 20
20.8198018852
 30
0.0
 10
13.3758979117
 20
20.821366117
 30
0.0
 10
13.3697889331
 20
20.822607928
 30
0.0
 10
13.3662417816
 20
20.8234327518
 30
0.0
 10
13.3634409544
 20
20.8242143584
 30
0.0
 10
13.3616027266
 20
20.8248527794
 30
0.0
 10
13.3605238102
 20
20.825371901
 30
0.0
 10
13.359937284
 20
20.8257342961
 30
0.0
 10
13.359560973
 20
20.8261113866
 30
0.0
 10
13.359560973
 20
20.8263579198
 30
0.0
  0
SPLINE
  5
4F7
100
AcDbEntity
  8
0
100
AcDbSpline
 62
9
  6
CONTINUOUS
 70
0
 71
3
 72
19
 73
15
 74
0
 42
0.0000001
 43
0.0000001
 44
0.0000000001
 40
0.0
 40
0.0
 40
0.0
 40
0.0
 40
0.0085811489
 40
0.0156552155
 40
0.0248492757
 40
0.0497889376
 40
0.0835272332
 40
0.1259257151
 40
0.1765587407
 40
0.3004786259
 40
0.4508498315
 40
0.6220951279
 40
0.8078806558
 40
1.0
 40
1.0
 40
1.0
 40
1.0
 10
12.4638509445
 20
20.8263579198
 30
0.0
 10
12.4638509445
 20
20.8261113866
 30
0.0
 10
12.4634746335
 20
20.8257342961
 30
0.0
 10
12.4628881073
 20
20.825371901
 30
0.0
 10
12.4618091909
 20
20.8248527794
 30
0.0
 10
12.4599709631
 20
20.8242143584
 30
0.0
 10
12.4571701359
 20
20.8234327518
 30
0.0
 10
12.4536229844
 20
20.822607928
 30
0.0
 10
12.4475140058
 20
20.821366117
 30
0.0
 10
12.4383092592
 20
20.8198018852
 30
0.0
 10
12.4256397469
 20
20.8179726667
 30
0.0
 10
12.4111743796
 20
20.8161620688
 30
0.0
 10
12.395490312
 20
20.8144485604
 30
0.0
 10
12.3846819965
 20
20.8134166608
 30
0.0
 10
12.379184001
 20
20.8129297058
 30
0.0
  0
SPLINE
  5
4F8
100
AcDbEntity
  8
0
100
AcDbSpline
 62
9
  6
CONTINUOUS
 70
0
 71
3
 72
14
 73
10
 74
0
 42
0.0000001
 43
0.0000001
 44
0.0000000001
 40
0.0
 40
0.0
 40
0.0
 40
0.0
 40
0.3847130433
 40
0.5512807568
 40
0.6958376877
 40
0.815399718
 40
0.9071117439
 40
0.9690719893
 40
1.0
 40
1.0
 40
1.0
 40
1.0
 10
12.3763072834
 20
20.8457027571
 30
0.0
 10
12.3756685233
 20
20.853087998
 30
0.0
 10
12.3747625232
 20
20.8636716337
 30
0.0
 10
12.3736469919
 20
20.8770327973
 30
0.0
 10
12.3729692269
 20
20.8853038394
 30
0.0
 10
12.3724289275
 20
20.8921385322
 30
0.0
 10
12.3720220581
 20
20.8973883179
 30
0.0
 10
12.3717908137
 20
20.9009364424
 30
0.0
 10
12.3716667756
 20
20.9027237712
 30
0.0
 10
12.3716667756
 20
20.9033197051
 30
0.0
  0
SPLINE
  5
4F9
100
AcDbEntity
  8
0
100
AcDbSpline
 62
9
  6
CONTINUOUS
 70
0
 71
3
 72
16
 73
12
 74
0
 42
0.0000001
 43
0.0000001
 44
0.0000000001
 40
0.0
 40
0.0
 40
0.0
 40
0.0
 40
0.0109039283
 40
0.0307157914
 40
0.059198012
 40
0.096110091
 40
0.19384142
 40
0.3198910741
 40
0.4695838935
 40
0.6372937083
 40
1.0
 40
1.0
 40
1.0
 40
1.0
 10
12.3517451419
 20
20.9015552548
 30
0.0
 10
12.3517451419
 20
20.9012255766
 30
0.0
 10
12.3517955024
 20
20.9002976336
 30
0.0
 10
12.3519031257
 20
20.8985114312
 30
0.0
 10
12.3520858505
 20
20.8959415002
 30
0.0
 10
12.3524526152
 20
20.891023192
 30
0.0
 10
12.3530769973
 20
20.8831658437
 30
0.0
 10
12.3540017683
 20
20.8719119006
 30
0.0
 10
12.3551279946
 20
20.858551568
 30
0.0
 10
12.3568867166
 20
20.8380639561
 30
0.0
 10
12.3582901757
 20
20.8220884316
 30
0.0
 10
12.3592623672
 20
20.8111652555
 30
0.0
  0
SPLINE
  5
4FA
100
AcDbEntity
  8
0
100
AcDbSpline
 62
9
  6
CONTINUOUS
 70
0
 71
3
 72
9
 73
5
 74
0
 42
0.0000001
 43
0.0000001
 44
0.0000000001
 40
0.0
 40
0.0
 40
0.0
 40
0.0
 40
0.4935229671
 40
1.0
 40
1.0
 40
1.0
 40
1.0
 10
12.6406063431
 20
12.3868347122
 30
0.0
 10
12.6136707723
 20
12.4054721043
 30
0.0
 10
12.5625766018
 20
12.4484620925
 30
0.0
 10
12.5195121386
 20
12.4993711229
 30
0.0
 10
12.4997928702
 20
12.5265940744
 30
0.0
  0
SPLINE
  5
4FB
100
AcDbEntity
  8
0
100
AcDbSpline
 62
9
  6
CONTINUOUS
 70
0
 71
3
 72
20
 73
16
 74
0
 42
0.0000001
 43
0.0000001
 44
0.0000000001
 40
0.0
 40
0.0
 40
0.0
 40
0.0
 40
0.2114530284
 40
0.4046946081
 40
0.5757300971
 40
0.7209992488
 40
0.7830685474
 40
0.8376313876
 40
0.8843558265
 40
0.9230201017
 40
0.9535804249
 40
0.976101973
 40
0.9844544815
 40
0.9910107751
 40
1.0
 40
1.0
 40
1.0
 40
1.0
 10
12.3268617307
 20
20.8087468865
 30
0.0
 10
12.3231518702
 20
20.8085257564
 30
0.0
 10
12.3160490902
 20
20.8081440743
 30
0.0
 10
12.3059379048
 20
20.8077393102
 30
0.0
 10
12.2969842265
 20
20.8075314302
 30
0.0
 10
12.2903330724
 20
20.807522434
 30
0.0
 10
12.2857310346
 20
20.8076320974
 30
0.0
 10
12.2828624752
 20
20.8077599113
 30
0.0
 10
12.2804087814
 20
20.8079373016
 30
0.0
 10
12.2783823526
 20
20.8081611502
 30
0.0
 10
12.2767917578
 20
20.8084319323
 30
0.0
 10
12.275743947
 20
20.8087028847
 30
0.0
 10
12.2751371492
 20
20.808969062
 30
0.0
 10
12.2747830362
 20
20.8091832518
 30
0.0
 10
12.2745954237
 20
20.8094376496
 30
0.0
 10
12.2745954237
 20
20.8095956419
 30
0.0
  0
SPLINE
  5
4FC
100
AcDbEntity
  8
0
100
AcDbSpline
 62
9
  6
CONTINUOUS
 70
0
 71
3
 72
16
 73
12
 74
0
 42
0.0000001
 43
0.0000001
 44
0.0000000001
 40
0.0
 40
0.0
 40
0.0
 40
0.0
 40
0.112925818
 40
0.2188412494
 40
0.413860067
 40
0.5855436736
 40
0.7310792429
 40
0.8472941238
 40
0.9318579551
 40
0.9829333662
 40
1.0
 40
1.0
 40
1.0
 40
1.0
 10
12.5266921581
 20
11.3057460165
 30
0.0
 10
12.5045572552
 20
11.3089101394
 30
0.0
 10
12.461673649
 20
11.3151262474
 30
0.0
 10
12.3805269086
 20
11.3265486796
 30
0.0
 10
12.2877639304
 20
11.3389074374
 30
0.0
 10
12.1870943162
 20
11.3512827427
 30
0.0
 10
12.1018219287
 20
11.3609904146
 30
0.0
 10
12.0336347444
 20
11.3682503887
 30
0.0
 10
11.984013672
 20
11.3732144733
 30
0.0
 10
11.9539127849
 20
11.3760761905
 30
0.0
 10
11.9404768424
 20
11.3773108045
 30
0.0
 10
11.9371104564
 20
11.3776057714
 30
0.0
  0
SPLINE
  5
4FD
100
AcDbEntity
  8
0
100
AcDbSpline
 62
9
  6
CONTINUOUS
 70
0
 71
3
 72
22
 73
18
 74
0
 42
0.0000001
 43
0.0000001
 44
0.0000000001
 40
0.0
 40
0.0
 40
0.0
 40
0.0
 40
0.0016925401
 40
0.0067860102
 40
0.015280423
 40
0.0271757482
 40
0.0424238388
 40
0.0608055448
 40
0.1059441929
 40
0.1605525346
 40
0.2226156279
 40
0.2901528422
 40
0.3612434676
 40
0.5101804965
 40
0.6670183861
 40
0.830645663
 40
1.0
 40
1.0
 40
1.0
 40
1.0
 10
12.4850082642
 20
18.7542227834
 30
0.0
 10
12.4850166808
 20
18.7542300278
 30
0.0
 10
12.4850164603
 20
18.7541436774
 30
0.0
 10
12.4850563024
 20
18.7540894883
 30
0.0
 10
12.4850952824
 20
18.753904649
 30
0.0
 10
12.4851624775
 20
18.7536904258
 30
0.0
 10
12.485243222
 20
18.7533990869
 30
0.0
 10
12.4853875209
 20
18.752904564
 30
0.0
 10
12.4856101096
 20
18.7521610368
 30
0.0
 10
12.4859341341
 20
18.7511503857
 30
0.0
 10
12.4863295014
 20
18.7500079816
 30
0.0
 10
12.4867956752
 20
18.7487762866
 30
0.0
 10
12.4875268054
 20
18.7470364617
 30
0.0
 10
12.4886253579
 20
18.7448181134
 30
0.0
 10
12.4901949787
 20
18.7421652091
 30
0.0
 10
12.4920283143
 20
18.7395224191
 30
0.0
 10
12.4934001263
 20
18.7378191888
 30
0.0
 10
12.4941276477
 20
18.736979314
 30
0.0
  0
SPLINE
  5
4FE
100
AcDbEntity
  8
0
100
AcDbSpline
 62
9
  6
CONTINUOUS
 70
0
 71
3
 72
9
 73
5
 74
0
 42
0.0000001
 43
0.0000001
 44
0.0000000001
 40
0.0
 40
0.0
 40
0.0
 40
0.0
 40
0.4556899555
 40
1.0
 40
1.0
 40
1.0
 40
1.0
 10
12.4941276477
 20
18.736979314
 30
0.0
 10
12.496535089
 20
18.7342000838
 30
0.0
 10
12.5025887089
 20
18.7287407288
 30
0.0
 10
12.5096958243
 20
18.7247935969
 30
0.0
 10
12.5136849453
 20
18.7229560211
 30
0.0
  0
SPLINE
  5
4FF
100
AcDbEntity
  8
0
100
AcDbSpline
 62
9
  6
CONTINUOUS
 70
0
 71
3
 72
30
 73
26
 74
0
 42
0.0000001
 43
0.0000001
 44
0.0000000001
 40
0.0
 40
0.0
 40
0.0
 40
0.0
 40
0.0005331158
 40
0.0011682984
 40
0.0024332703
 40
0.004381976
 40
0.0070127199
 40
0.0103139318
 40
0.0142710884
 40
0.0188685293
 40
0.0240901011
 40
0.0299194353
 40
0.0433355989
 40
0.0589856616
 40
0.0767465889
 40
0.1183451813
 40
0.1677324758
 40
0.2245284848
 40
0.2883517656
 40
0.3588049463
 40
0.435463503
 40
0.5179025293
 40
0.6056998959
 40
0.7953843191
 40
1.0
 40
1.0
 40
1.0
 40
1.0
 10
12.3557132611
 20
12.3512811164
 30
0.0
 10
12.3557258899
 20
12.3512490195
 30
0.0
 10
12.3557908813
 20
12.3511691065
 30
0.0
 10
12.355931219
 20
12.3513141254
 30
0.0
 10
12.3560434347
 20
12.3515104582
 30
0.0
 10
12.356214507
 20
12.3518608709
 30
0.0
 10
12.3564089302
 20
12.3523271536
 30
0.0
 10
12.356643084
 20
12.3529245335
 30
0.0
 10
12.3569110806
 20
12.3536426033
 30
0.0
 10
12.3572159385
 20
12.354480375
 30
0.0
 10
12.3575576389
 20
12.3554333293
 30
0.0
 10
12.3580891942
 20
12.356924434
 30
0.0
 10
12.3588481352
 20
12.3590507367
 30
0.0
 10
12.3598828256
 20
12.3618982816
 30
0.0
 10
12.3615831893
 20
12.3664437494
 30
0.0
 10
12.3641189593
 20
12.3730068392
 30
0.0
 10
12.3676168297
 20
12.3819053504
 30
0.0
 10
12.3716603105
 20
12.3921343962
 30
0.0
 10
12.3761950465
 20
12.4036348028
 30
0.0
 10
12.3811634124
 20
12.4163455766
 30
0.0
 10
12.3864987992
 20
12.4302058846
 30
0.0
 10
12.3921374969
 20
12.4451515438
 30
0.0
 10
12.4001681298
 20
12.4670098268
 30
0.0
 10
12.4105712026
 20
12.496415406
 30
0.0
 10
12.419110789
 20
12.5204545875
 30
0.0
 10
12.423623487
 20
12.5329000941
 30
0.0
  0
SPLINE
  5
500
100
AcDbEntity
  8
0
100
AcDbSpline
 62
7
  6
CONTINUOUS
 70
0
 71
3
 72
13
 73
9
 74
0
 42
0.0000001
 43
0.0000001
 44
0.0000000001
 40
0.0
 40
0.0
 40
0.0
 40
0.0
 40
0.4048380741
 40
0.5701430592
 40
0.7089248066
 40
0.8201667605
 40
0.9035653601
 40
1.0
 40
1.0
 40
1.0
 40
1.0
 10
12.5492805736
 20
18.9903851185
 30
0.0
 10
12.5501221937
 20
18.9903851185
 30
0.0
 10
12.5513077888
 20
18.9904098533
 30
0.0
 10
12.5527782551
 20
18.9905337396
 30
0.0
 10
12.5536313412
 20
18.9906483492
 30
0.0
 10
12.5543172975
 20
18.9908046465
 30
0.0
 10
12.5548684142
 20
18.9909832599
 30
0.0
 10
12.5552344209
 20
18.9912768483
 30
0.0
 10
12.5552335035
 20
18.9914773247
 30
0.0
  0
SPLINE
  5
501
100
AcDbEntity
  8
0
100
AcDbSpline
 62
7
  6
CONTINUOUS
 70
0
 71
3
 72
13
 73
9
 74
0
 42
0.0000001
 43
0.0000001
 44
0.0000000001
 40
0.0
 40
0.0
 40
0.0
 40
0.0
 40
0.096680475
 40
0.220027324
 40
0.5099321522
 40
0.7936179369
 40
0.9102707945
 40
1.0
 40
1.0
 40
1.0
 40
1.0
 10
13.3226042727
 20
18.9903851185
 30
0.0
 10
13.3238967923
 20
18.9903851185
 30
0.0
 10
13.3268374774
 20
18.9905246092
 30
0.0
 10
13.3336290551
 20
18.9911221099
 30
0.0
 10
13.3428660769
 20
18.992376311
 30
0.0
 10
13.3519590552
 20
18.993971883
 30
0.0
 10
13.3583550854
 20
18.9953931677
 30
0.0
 10
13.3610248063
 20
18.9960992963
 30
0.0
 10
13.362168021
 20
18.9964627136
 30
0.0
  0
SPLINE
  5
502
100
AcDbEntity
  8
0
100
AcDbSpline
 62
7
  6
CONTINUOUS
 70
0
 71
3
 72
11
 73
7
 74
0
 42
0.0000001
 43
0.0000001
 44
0.0000000001
 40
0.0
 40
0.0
 40
0.0
 40
0.0
 40
0.3975890193
 40
0.6955959242
 40
0.8930769797
 40
1.0
 40
1.0
 40
1.0
 40
1.0
 10
13.362168021
 20
18.9964627136
 30
0.0
 10
13.3625683022
 20
18.9965899592
 30
0.0
 10
13.3632622762
 20
18.9968223576
 30
0.0
 10
13.364141811
 20
18.9971969975
 30
0.0
 10
13.3646820234
 20
18.9974901465
 30
0.0
 10
13.3649325746
 20
18.9977613956
 30
0.0
 10
13.364931848
 20
18.9978743485
 30
0.0
  0
SPLINE
  5
503
100
AcDbEntity
  8
0
100
AcDbSpline
 62
7
  6
CONTINUOUS
 70
0
 71
3
 72
13
 73
9
 74
0
 42
0.0000001
 43
0.0000001
 44
0.0000000001
 40
0.0
 40
0.0
 40
0.0
 40
0.0
 40
0.4019405814
 40
0.5670367627
 40
0.7063017646
 40
0.8185896126
 40
0.9033761239
 40
1.0
 40
1.0
 40
1.0
 40
1.0
 10
13.3964276572
 20
19.0494036089
 30
0.0
 10
13.3954834143
 20
19.0494036089
 30
0.0
 10
13.3941510587
 20
19.0494322787
 30
0.0
 10
13.3924954018
 20
19.0495720914
 30
0.0
 10
13.3915286574
 20
19.0497010801
 30
0.0
 10
13.3907450861
 20
19.0498767521
 30
0.0
 10
13.3901181973
 20
19.0500735815
 30
0.0
 10
13.3896868175
 20
19.0503976163
 30
0.0
 10
13.3896879774
 20
19.0506246031
 30
0.0
  0
SPLINE
  5
504
100
AcDbEntity
  8
0
100
AcDbSpline
 62
7
  6
CONTINUOUS
 70
0
 71
3
 72
13
 73
9
 74
0
 42
0.0000001
 43
0.0000001
 44
0.0000000001
 40
0.0
 40
0.0
 40
0.0
 40
0.0
 40
0.3950929065
 40
0.5620589104
 40
0.7042828691
 40
0.8187959927
 40
0.904266458
 40
1.0
 40
1.0
 40
1.0
 40
1.0
 10
13.2544559587
 20
19.0494036089
 30
0.0
 10
13.2528751249
 20
19.0494036089
 30
0.0
 10
13.2506260589
 20
19.0494590453
 30
0.0
 10
13.2478142241
 20
19.0497017912
 30
0.0
 10
13.2461411437
 20
19.0499268113
 30
0.0
 10
13.2447797684
 20
19.0502270877
 30
0.0
 10
13.2437128599
 20
19.0505706862
 30
0.0
 10
13.2429566555
 20
19.0510984007
 30
0.0
 10
13.2429561153
 20
19.0514814465
 30
0.0
  0
SPLINE
  5
505
100
AcDbEntity
  8
0
100
AcDbSpline
 62
9
  6
CONTINUOUS
 70
0
 71
3
 72
31
 73
27
 74
0
 42
0.0000001
 43
0.0000001
 44
0.0000000001
 40
0.0
 40
0.0
 40
0.0
 40
0.0
 40
0.0672985914
 40
0.1304051333
 40
0.2476663543
 40
0.4538338679
 40
0.5442016095
 40
0.6263946213
 40
0.7004978074
 40
0.7664685336
 40
0.8242371666
 40
0.8500445983
 40
0.8738011157
 40
0.8955051201
 40
0.9151513176
 40
0.9327325274
 40
0.9482402938
 40
0.9616688678
 40
0.9730271174
 40
0.982326605
 40
0.9895776166
 40
0.9947891847
 40
0.997969225
 40
0.998799832
 40
0.9991267032
 40
1.0
 40
1.0
 40
1.0
 40
1.0
 10
11.6283905809
 20
11.1026597232
 30
0.0
 10
11.6157243118
 20
11.1065531766
 30
0.0
 10
11.5912008267
 20
11.1141625426
 30
0.0
 10
11.5445412476
 20
11.1283416575
 30
0.0
 10
11.4713998264
 20
11.1494006055
 30
0.0
 10
11.392246826
 20
11.1689407825
 30
0.0
 10
11.319098239
 20
11.1834886963
 30
0.0
 10
11.2711999209
 20
11.1915714778
 30
0.0
 10
11.2278453307
 20
11.1975929602
 30
0.0
 10
11.1891168988
 20
11.2018396858
 30
0.0
 10
11.159762708
 20
11.2042168953
 30
0.0
 10
11.1386647216
 20
11.2054588817
 30
0.0
 10
11.1246455104
 20
11.2060857652
 30
0.0
 10
11.1118315533
 20
11.2064787469
 30
0.0
 10
11.1002290949
 20
11.2066727977
 30
0.0
 10
11.089845353
 20
11.2067028752
 30
0.0
 10
11.0806857691
 20
11.2066039649
 30
0.0
 10
11.072755273
 20
11.2064107418
 30
0.0
 10
11.0660440224
 20
11.2061582525
 30
0.0
 10
11.0605671845
 20
11.2058807625
 30
0.0
 10
11.0562606672
 20
11.2056143918
 30
0.0
 10
11.0532566508
 20
11.2053895659
 30
0.0
 10
11.0513282861
 20
11.2052509798
 30
0.0
 10
11.0505953212
 20
11.2051877255
 30
0.0
 10
11.0500416741
 20
11.2051815686
 30
0.0
 10
11.0505870976
 20
11.2052830868
 30
0.0
 10
11.0507558914
 20
11.205315897
 30
0.0
  0
SPLINE
  5
506
100
AcDbEntity
  8
0
100
AcDbSpline
 62
9
  6
CONTINUOUS
 70
0
 71
3
 72
13
 73
9
 74
0
 42
0.0000001
 43
0.0000001
 44
0.0000000001
 40
0.0
 40
0.0
 40
0.0
 40
0.0
 40
0.2506489865
 40
0.3757528811
 40
0.5006724614
 40
0.6255009038
 40
0.7503547453
 40
1.0
 40
1.0
 40
1.0
 40
1.0
 10
12.4337108802
 20
12.5324828296
 30
0.0
 10
12.4461401948
 20
12.5087173734
 30
0.0
 10
12.4659481151
 20
12.4736699964
 30
0.0
 10
12.4952971644
 20
12.4288330945
 30
0.0
 10
12.5188737356
 20
12.3963646128
 30
0.0
 10
12.5440140016
 20
12.3651222402
 30
0.0
 10
12.5795718022
 20
12.3252300698
 30
0.0
 10
12.6086467663
 20
12.2974742043
 30
0.0
 10
12.6291356689
 20
12.2803353485
 30
0.0
  0
SPLINE
  5
507
100
AcDbEntity
  8
0
100
AcDbSpline
 62
7
  6
CONTINUOUS
 70
0
 71
3
 72
21
 73
17
 74
0
 42
0.0000001
 43
0.0000001
 44
0.0000000001
 40
0.0
 40
0.0
 40
0.0
 40
0.0
 40
0.1418035597
 40
0.2085172116
 40
0.272141165
 40
0.3326750207
 40
0.3903571954
 40
0.4458028133
 40
0.5000001759
 40
0.5541975835
 40
0.6096432414
 40
0.6673253534
 40
0.7278590468
 40
0.7914828907
 40
0.8581964399
 40
1.0
 40
1.0
 40
1.0
 40
1.0
 10
13.6640918292
 20
12.6610650954
 30
0.0
 10
13.6535355957
 20
12.6526717186
 30
0.0
 10
13.638529914
 20
12.6396111052
 30
0.0
 10
13.6209197958
 20
12.6206112741
 30
0.0
 10
13.6097725638
 20
12.6062474746
 30
0.0
 10
13.600677373
 20
12.5914905462
 30
0.0
 10
13.5939026725
 20
12.5763659126
 30
0.0
 10
13.5897008447
 20
12.5609409095
 30
0.0
 10
13.5882794686
 20
12.545338802
 30
0.0
 10
13.5897008366
 20
12.5297366829
 30
0.0
 10
13.5939027573
 20
12.5143117064
 30
0.0
 10
13.6006773777
 20
12.4991870585
 30
0.0
 10
13.6097726167
 20
12.4844301925
 30
0.0
 10
13.6209198162
 20
12.4700664173
 30
0.0
 10
13.6385299211
 20
12.4510665991
 30
0.0
 10
13.6535355956
 20
12.4380059933
 30
0.0
 10
13.6640918292
 20
12.4296126165
 30
0.0
  0
SPLINE
  5
508
100
AcDbEntity
  8
0
100
AcDbSpline
 62
9
  6
CONTINUOUS
 70
0
 71
3
 72
11
 73
7
 74
0
 42
0.0000001
 43
0.0000001
 44
0.0000000001
 40
0.0
 40
0.0
 40
0.0
 40
0.0
 40
0.3064208272
 40
0.4496991082
 40
0.5838608716
 40
1.0
 40
1.0
 40
1.0
 40
1.0
 10
12.6291399678
 20
12.2803361311
 30
0.0
 10
12.6295090879
 20
12.2787339557
 30
0.0
 10
12.6302975054
 20
12.2764325526
 30
0.0
 10
12.6318031431
 20
12.2736633961
 30
0.0
 10
12.633903596
 20
12.2706627356
 30
0.0
 10
12.6366078743
 20
12.2684206339
 30
0.0
 10
12.6388407298
 20
12.2684203544
 30
0.0
  0
SPLINE
  5
509
100
AcDbEntity
  8
0
100
AcDbSpline
 62
7
  6
CONTINUOUS
 70
0
 71
3
 72
15
 73
11
 74
0
 42
0.0000001
 43
0.0000001
 44
0.0000000001
 40
0.0
 40
0.0
 40
0.0
 40
0.0
 40
0.2986288388
 40
0.4557500586
 40
0.605643788
 40
0.7410014941
 40
0.8548815492
 40
0.9422834771
 40
0.9749898949
 40
1.0
 40
1.0
 40
1.0
 40
1.0
 10
12.5689559587
 20
19.0494036089
 30
0.0
 10
12.565511273
 20
19.0494036089
 30
0.0
 10
12.5602534628
 20
19.0496733273
 30
0.0
 10
12.5533011969
 20
19.0503647291
 30
0.0
 10
12.5482452248
 20
19.0510635199
 30
0.0
 10
12.5437107655
 20
19.0518725017
 30
0.0
 10
12.5399282668
 20
19.0527533679
 30
0.0
 10
12.5373426976
 20
19.0535525612
 30
0.0
 10
12.5358089613
 20
19.0542252749
 30
0.0
 10
12.5352301859
 20
19.0545624674
 30
0.0
 10
12.5350011841
 20
19.0547379258
 30
0.0
  0
SPLINE
  5
50A
100
AcDbEntity
  8
0
100
AcDbSpline
 62
7
  6
CONTINUOUS
 70
0
 71
3
 72
13
 73
9
 74
0
 42
0.0000001
 43
0.0000001
 44
0.0000000001
 40
0.0
 40
0.0
 40
0.0
 40
0.0
 40
0.1142756234
 40
0.2476086605
 40
0.5373743451
 40
0.8060599079
 40
0.9151776385
 40
1.0
 40
1.0
 40
1.0
 40
1.0
 10
12.4269842602
 20
19.0494036089
 30
0.0
 10
12.4255689379
 20
19.0494036089
 30
0.0
 10
12.4225024398
 20
19.0495060139
 30
0.0
 10
12.415862659
 20
19.0499764447
 30
0.0
 10
12.4073511721
 20
19.0509961742
 30
0.0
 10
12.3991961175
 20
19.0523996125
 30
0.0
 10
12.3936173433
 20
19.0537088454
 30
0.0
 10
12.3913080614
 20
19.0543820767
 30
0.0
 10
12.3903196266
 20
19.0547379258
 30
0.0
  0
SPLINE
  5
50B
100
AcDbEntity
  8
0
100
AcDbSpline
 62
7
  6
CONTINUOUS
 70
0
 71
3
 72
10
 73
6
 74
0
 42
0.0000001
 43
0.0000001
 44
0.0000000001
 40
0.0
 40
0.0
 40
0.0
 40
0.0
 40
0.6734149081
 40
0.8743998384
 40
1.0
 40
1.0
 40
1.0
 40
1.0
 10
12.3903196266
 20
19.0547379258
 30
0.0
 10
12.3896542085
 20
19.0549774848
 30
0.0
 10
12.3887859219
 20
19.055321672
 30
0.0
 10
12.3879239203
 20
19.0559096072
 30
0.0
 10
12.387719901
 20
19.056227207
 30
0.0
 10
12.3877188651
 20
19.0563591095
 30
0.0
  0
SPLINE
  5
50C
100
AcDbEntity
  8
0
100
AcDbSpline
 62
7
  6
CONTINUOUS
 70
0
 71
3
 72
21
 73
17
 74
0
 42
0.0000001
 43
0.0000001
 44
0.0000000001
 40
0.0
 40
0.0
 40
0.0
 40
0.0
 40
0.1418035573
 40
0.2085172042
 40
0.2721411543
 40
0.332675008
 40
0.3903571812
 40
0.4458027988
 40
0.5000001668
 40
0.5541975786
 40
0.6096432368
 40
0.66732535
 40
0.7278590465
 40
0.7914828915
 40
0.858196441
 40
1.0
 40
1.0
 40
1.0
 40
1.0
 10
12.2815606294
 20
14.0349390918
 30
0.0
 10
12.2899540061
 20
14.0243828585
 30
0.0
 10
12.3030146192
 20
14.0093771776
 30
0.0
 10
12.3220144491
 20
13.9917670595
 30
0.0
 10
12.3363782481
 20
13.9806198286
 30
0.0
 10
12.3511351751
 20
13.9715246365
 30
0.0
 10
12.3662598088
 20
13.9647499376
 30
0.0
 10
12.3816848114
 20
13.9605481062
 30
0.0
 10
12.3972869201
 20
13.9591267331
 30
0.0
 10
12.4128890402
 20
13.9605480985
 30
0.0
 10
12.4283140175
 20
13.964750019
 30
0.0
 10
12.4434386653
 20
13.9715246406
 30
0.0
 10
12.4581955322
 20
13.9806198791
 30
0.0
 10
12.4725593078
 20
13.9917670788
 30
0.0
 10
12.4915591257
 20
14.0093771839
 30
0.0
 10
12.5046197316
 20
14.0243828583
 30
0.0
 10
12.5130131084
 20
14.0349390918
 30
0.0
  0
SPLINE
  5
50D
100
AcDbEntity
  8
0
100
AcDbSpline
 62
7
  6
CONTINUOUS
 70
0
 71
3
 72
20
 73
16
 74
0
 42
0.0000001
 43
0.0000001
 44
0.0000000001
 40
0.0
 40
0.0
 40
0.0
 40
0.0
 40
0.1094608299
 40
0.2566791645
 40
0.4248345513
 40
0.5961817402
 40
0.6775773666
 40
0.7534585148
 40
0.8218845017
 40
0.8809441504
 40
0.9291485572
 40
0.9654253272
 40
0.9888720336
 40
0.9957438344
 40
1.0
 40
1.0
 40
1.0
 40
1.0
 10
12.3180455444
 20
19.0494036089
 30
0.0
 10
12.3164457021
 20
19.0494036089
 30
0.0
 10
12.3126968734
 20
19.0496400731
 30
0.0
 10
12.306520651
 20
19.0502758488
 30
0.0
 10
12.2994715277
 20
19.0512444411
 30
0.0
 10
12.2933996209
 20
19.052235711
 30
0.0
 10
12.2886767424
 20
19.0531107697
 30
0.0
 10
12.2854426513
 20
19.053761302
 30
0.0
 10
12.2825392421
 20
19.0543996915
 30
0.0
 10
12.2800453097
 20
19.0550098061
 30
0.0
 10
12.2780226067
 20
19.0555754369
 30
0.0
 10
12.2765304204
 20
19.0560766044
 30
0.0
 10
12.2756294289
 20
19.0564715274
 30
0.0
 10
12.2752212858
 20
19.0567666481
 30
0.0
 10
12.2751340902
 20
19.0569237133
 30
0.0
 10
12.275137683
 20
19.0569858162
 30
0.0
  0
SPLINE
  5
50E
100
AcDbEntity
  8
0
100
AcDbSpline
 62
7
  6
CONTINUOUS
 70
0
 71
3
 72
21
 73
17
 74
0
 42
0.0000001
 43
0.0000001
 44
0.0000000001
 40
0.0
 40
0.0
 40
0.0
 40
0.0
 40
0.1418035573
 40
0.2085172042
 40
0.2721411543
 40
0.332675008
 40
0.3903571812
 40
0.4458027988
 40
0.5000001668
 40
0.5541975786
 40
0.6096432368
 40
0.66732535
 40
0.7278590465
 40
0.7914828915
 40
0.858196441
 40
1.0
 40
1.0
 40
1.0
 40
1.0
 10
13.3103988091
 20
14.0349390918
 30
0.0
 10
13.3187921858
 20
14.0243828585
 30
0.0
 10
13.3318527989
 20
14.0093771776
 30
0.0
 10
13.3508526288
 20
13.9917670595
 30
0.0
 10
13.3652164278
 20
13.9806198286
 30
0.0
 10
13.3799733548
 20
13.9715246365
 30
0.0
 10
13.3950979885
 20
13.9647499376
 30
0.0
 10
13.4105229911
 20
13.9605481062
 30
0.0
 10
13.4261250998
 20
13.9591267331
 30
0.0
 10
13.4417272199
 20
13.9605480985
 30
0.0
 10
13.4571521972
 20
13.964750019
 30
0.0
 10
13.472276845
 20
13.9715246406
 30
0.0
 10
13.4870337119
 20
13.9806198791
 30
0.0
 10
13.5013974875
 20
13.9917670788
 30
0.0
 10
13.5203973054
 20
14.0093771839
 30
0.0
 10
13.5334579113
 20
14.0243828583
 30
0.0
 10
13.5418512881
 20
14.0349390918
 30
0.0
  0
SPLINE
  5
50F
100
AcDbEntity
  8
0
100
AcDbSpline
 62
7
  6
CONTINUOUS
 70
0
 71
3
 72
13
 73
9
 74
0
 42
0.0000001
 43
0.0000001
 44
0.0000000001
 40
0.0
 40
0.0
 40
0.0
 40
0.0
 40
0.1090676996
 40
0.2384379763
 40
0.5249907388
 40
0.7970681426
 40
0.9101142751
 40
1.0
 40
1.0
 40
1.0
 40
1.0
 10
12.5492805736
 20
18.9903851185
 30
0.0
 10
12.5479220172
 20
18.9903851185
 30
0.0
 10
12.544952271
 20
18.990491102
 30
0.0
 10
12.5384297639
 20
18.9909715513
 30
0.0
 10
12.529918644
 20
18.9920106364
 30
0.0
 10
12.5216665413
 20
18.993421359
 30
0.0
 10
12.5158939509
 20
18.9947225875
 30
0.0
 10
12.5134536339
 20
18.9953907859
 30
0.0
 10
12.5123896554
 20
18.9957393656
 30
0.0
  0
SPLINE
  5
510
100
AcDbEntity
  8
0
100
AcDbSpline
 62
7
  6
CONTINUOUS
 70
0
 71
3
 72
10
 73
6
 74
0
 42
0.0000001
 43
0.0000001
 44
0.0000000001
 40
0.0
 40
0.0
 40
0.0
 40
0.0
 40
0.6846455299
 40
0.8840999681
 40
1.0
 40
1.0
 40
1.0
 40
1.0
 10
12.5123896554
 20
18.9957393656
 30
0.0
 10
12.5115876258
 20
18.9960021258
 30
0.0
 10
12.5105413103
 20
18.996380517
 30
0.0
 10
12.5095002732
 20
18.9969989345
 30
0.0
 10
12.5092316269
 20
18.9973434917
 30
0.0
 10
12.5092312824
 20
18.9974863634
 30
0.0
  0
ENDSEC
  0
SECTION
  2
OBJECTS
  0
DICTIONARY
  5
C
100
AcDbDictionary
280
0
281
1
  3
ACAD_GROUP
350
D
  3
ACAD_MLINESTYLE
350
17
  3
ACAD_LAYOUT
350
1A
  3
ACAD_PLOTSETTINGS
350
19
  3
ACAD_PLOTSTYLENAME
350
E
  0
DICTIONARY
  5
D
102
{ACAD_REACTORS
330
C
102
}
100
AcDbDictionary
280
0
281
1
  0
ACDBDICTIONARYWDFLT
  5
E
102
{ACAD_REACTORS
330
C
102
}
100
AcDbDictionary
281
1
  3
Normal
350
F
100
AcDbDictionaryWithDefault
340
F
  0
DICTIONARY
  5
17
102
{ACAD_REACTORS
330
C
102
}
100
AcDbDictionary
280
0
281
1
  3
Standard
350
18
  0
DICTIONARY
  5
19
102
{ACAD_REACTORS
330
C
102
}
100
AcDbDictionary
281
1
  0
DICTIONARY
  5
1A
102
{ACAD_REACTORS
330
C
102
}
100
AcDbDictionary
281
1
  3
Model
350
511
  3
Layout1
350
512
  0
ACDBPLACEHOLDER
  5
F
102
{ACAD_REACTORS
330
E
102
}
  0
MLINESTYLE
  5
18
102
{ACAD_REACTORS
330
17
102
}
100
AcDbMlineStyle
  2
STANDARD
 70
0
  3

 62
256
 51
90.0
 52
90.0
 71
2
 49
0.5
 62
256
  6
BYLAYER
 49
-0.5
 62
256
  6
BYLAYER
  0
LAYOUT
  5
511
102
{ACAD_REACTORS
330
1A
102
}
100
AcDbPlotSettings
  1

  2
none_device
  4
ANSI_C_(22.00_x_17.00_Inches)
  6

 40
0.0
 41
0.0
 42
0.0
 43
0.0
 44
558.8
 45
431.8
 46
0.0
 47
0.0
 48
0.0
 49
0.0
140
0.0
141
0.0
142
1.0
143
1.0
 70
1024
 72
0
 73
0
 74
0
  7

 75
0
147
1.0
148
0.0
149
0.0
100
AcDbLayout
  1
Model
 70
0
 71
0
 10
0.0
 20
0.0
 11
22.0
 21
17.0
 12
0.0
 22
0.0
 32
0.0
 14
0.0
 24
0.0
 34
0.0
 15
0.0
 25
0.0
 35
0.0
146
0.0
 13
0.0
 23
0.0
 33
0.0
 16
1.0
 26
0.0
 36
0.0
 17
0.0
 27
1.0
 37
0.0
 76
0
330
202
345
0
346
0
  0
LAYOUT
  5
512
102
{ACAD_REACTORS
330
1A
102
}
100
AcDbPlotSettings
  1

  2
none_device
  4
ANSI_C_(22.00_x_17.00_Inches)
  6

 40
0.0
 41
0.0
 42
0.0
 43
0.0
 44
558.8
 45
431.8
 46
0.0
 47
0.0
 48
0.0
 49
0.0
140
0.0
141
0.0
142
1.0
143
1.0
 70
0
 72
0
 73
0
 74
0
  7

 75
0
147
1.0
148
0.0
149
0.0
100
AcDbLayout
  1
Layout1
 70
0
 71
1
 10
0.0
 20
0.0
 11
22.0
 21
17.0
 12
0.0
 22
0.0
 32
0.0
 14
0.0
 24
0.0
 34
0.0
 15
0.0
 25
0.0
 35
0.0
146
0.0
 13
0.0
 23
0.0
 33
0.0
 16
1.0
 26
0.0
 36
0.0
 17
0.0
 27
1.0
 37
0.0
 76
0
330
203
345
0
346
0
  0
ENDSEC
  0
EOF
