999
DXF file: E:\BT Custom\CADOUTPUT\_TOP.dxf
999
Pro/ENGINEER 2018400 by Parametric Technology Corporation
  0
SECTION
  2
HEADER
  9
$ACADVER
  1
AC1018
  9
$DWGCODEPAGE
  3
ANSI_1252
  9
$EXTMAX
 10
22.0
 20
17.0
 30
0.0
  9
$EXTMIN
 10
0.0
 20
0.0
 30
0.0
  9
$LIMMIN
 10
0.0
 20
0.0
  9
$LIMMAX
 10
22.0
 20
17.0
  9
$VIEWCTR
 10
11.0
 20
8.5
  9
$VIEWSIZE
 40
17.0
  9
$CLAYER
  8
0
  9
$LTSCALE
 40
1.21
  9
$CELTYPE
  6
BYLAYER
  9
$DIMSCALE
 40
1.0
  9
$DIMASZ
 40
0.1
  9
$DIMEXO
 40
0.0625
  9
$DIMDLI
 40
0.836
  9
$DIMEXE
 40
0.125
  9
$DIMCEN
 40
0.198
  9
$DIMLFAC
 40
1.0
  9
$DIMBLK
  1
_FILLED
  9
$DIMALT
 70
1
  9
$DIMALTD
 70
2
  9
$DIMALTTD
 70
2
  9
$DIMALTF
 40
25.4
  9
$DIMTXT
 40
0.08
  9
$DIMTOL
 70
1
  9
$DIMLIM
 70
0
  9
$DIMTFAC
 40
1.0
  9
$DIMTP
 40
0.001
  9
$DIMTM
 40
0.001
  9
$DIMGAP
 40
0.09
  9
$DIMDSEP
 70
46
  9
$AUNITS
 70
0
  9
$PDMODE
 70
3
  9
$PDSIZE
 40
0.06
  9
$HANDSEED
  5
4F7
  9
$TILEMODE
 70
1
  9
$MEASUREMENT
 70
0
  9
$INSUNITS
 70
1
  0
ENDSEC
  0
SECTION
  2
CLASSES
  0
CLASS
  1
ACDBDICTIONARYWDFLT
  2
AcDbDictionaryWithDefault
  3
AutoCAD 2000
 90
0
 91
1
280
0
281
0
  0
CLASS
  1
ACDBPLACEHOLDER
  2
AcDbPlaceHolder
  3
AutoCAD 2000
 90
0
 91
1
280
0
281
0
  0
CLASS
  1
LAYOUT
  2
AcDbLayout
  3
AutoCAD 2000
 90
0
 91
0
280
0
281
0
  0
ENDSEC
  0
SECTION
  2
TABLES
  0
TABLE
  2
VPORT
  5
8
100
AcDbSymbolTable
 70
2
  0
VPORT
  5
1F4
100
AcDbSymbolTableRecord
100
AcDbViewportTableRecord
  2
*ACTIVE
 70
0
 10
0.0
 20
0.0
 11
1.0
 21
1.0
 12
11.0
 22
8.5
 13
0.0
 23
0.0
 14
1.0
 24
1.0
 15
0.0
 25
0.0
 16
0.0
 26
0.0
 36
1.0
 17
0.0
 27
0.0
 37
0.0
 40
17.0
 41
1.2941176471
 42
50.0
 43
0.0
 44
0.0
 50
0.0
 51
0.0
 71
0
 72
100
 73
1
 74
1
 75
0
 76
0
 77
0
 78
0
  0
ENDTAB
  0
TABLE
  2
LTYPE
  5
5
100
AcDbSymbolTable
 70
6
  0
LTYPE
  5
14
100
AcDbSymbolTableRecord
100
AcDbLinetypeTableRecord
  2
BYBLOCK
 70
0
  3

 72
65
 73
0
 40
0.0
  0
LTYPE
  5
15
100
AcDbSymbolTableRecord
100
AcDbLinetypeTableRecord
  2
BYLAYER
 70
0
  3

 72
65
 73
0
 40
0.0
  0
LTYPE
  5
16
100
AcDbSymbolTableRecord
100
AcDbLinetypeTableRecord
  2
CONTINUOUS
 70
64
  3
Solid line
 72
65
 73
0
 40
0.0
  0
LTYPE
  5
1F5
100
AcDbSymbolTableRecord
100
AcDbLinetypeTableRecord
  2
CENTER
 70
64
  3
____ _ ____ _ ____ _ ____ _ ____ _ ____ _ ____
 72
65
 73
4
 40
0.6
 49
0.375
 74
0
 49
-0.075
 74
0
 49
0.075
 74
0
 49
-0.075
 74
0
  0
LTYPE
  5
1F6
100
AcDbSymbolTableRecord
100
AcDbLinetypeTableRecord
  2
HIDDEN
 70
64
  3
- - - - - - - - - - - - - - - - - - - -
 72
65
 73
2
 40
0.2
 49
0.1
 74
0
 49
-0.1
 74
0
  0
LTYPE
  5
1F7
100
AcDbSymbolTableRecord
100
AcDbLinetypeTableRecord
  2
PHANTOM
 70
64
  3
_____ _ _ _____ _ _ _____ _ _ _____
 72
65
 73
6
 40
0.8
 49
0.45
 74
0
 49
-0.05
 74
0
 49
0.1
 74
0
 49
-0.05
 74
0
 49
0.1
 74
0
 49
-0.05
 74
0
  0
LTYPE
  5
1F8
100
AcDbSymbolTableRecord
100
AcDbLinetypeTableRecord
  2
DOT
 70
64
  3
. . . . . . . . . . . . . . . . . . . .
 72
65
 73
2
 40
0.2
 49
0.1
 74
0
 49
-0.1
 74
0
  0
LTYPE
  5
1F9
100
AcDbSymbolTableRecord
100
AcDbLinetypeTableRecord
  2
DASHED
 70
64
  3
- - - - - - - - - - - - - - - - - - - -
 72
65
 73
2
 40
0.2
 49
0.1
 74
0
 49
-0.1
 74
0
  0
ENDTAB
  0
TABLE
  2
LAYER
  5
2
100
AcDbSymbolTable
 70
36
  0
LAYER
  5
10
100
AcDbSymbolTableRecord
100
AcDbLayerTableRecord
  2
0
 70
0
 62
7
  6
CONTINUOUS
370
-3
390
F
  0
LAYER
  5
1FA
100
AcDbSymbolTableRecord
100
AcDbLayerTableRecord
  2
DEFAULT_1
 70
0
 62
7
  6
CENTER
370
-3
390
F
  0
LAYER
  5
1FB
100
AcDbSymbolTableRecord
100
AcDbLayerTableRecord
  2
DEFAULT_2
 70
0
 62
8
  6
HIDDEN
370
-3
390
F
  0
LAYER
  5
1FC
100
AcDbSymbolTableRecord
100
AcDbLayerTableRecord
  2
DEFAULT_3
 70
0
 62
7
  6
PHANTOM
370
-3
390
F
  0
LAYER
  5
1FD
100
AcDbSymbolTableRecord
100
AcDbLayerTableRecord
  2
ALL_FEATURES
 70
0
 62
7
  6
CONTINUOUS
370
-3
390
F
  0
LAYER
  5
1FE
100
AcDbSymbolTableRecord
100
AcDbLayerTableRecord
  2
AXES_FEATURES
 70
0
 62
7
  6
CONTINUOUS
370
-3
390
F
  0
LAYER
  5
1FF
100
AcDbSymbolTableRecord
100
AcDbLayerTableRecord
  2
DIMENSIONS
 70
0
 62
7
  6
CONTINUOUS
370
-3
390
F
  0
ENDTAB
  0
TABLE
  2
STYLE
  5
3
100
AcDbSymbolTable
 70
1
  0
STYLE
  5
11
100
AcDbSymbolTableRecord
100
AcDbTextStyleTableRecord
  2
STANDARD
 70
0
 40
0.0
 41
0.8
 50
0.0
 71
0
 42
0.2
  3
txt
  4

  0
STYLE
  5
200
100
AcDbSymbolTableRecord
100
AcDbTextStyleTableRecord
  2
TEXTSTYLE_1
 70
0
 40
0.0
 41
0.8
 50
0.0
 71
0
 42
0.2
  3
gdt
  4

  0
ENDTAB
  0
TABLE
  2
VIEW
  5
6
100
AcDbSymbolTable
 70
0
  0
ENDTAB
  0
TABLE
  2
UCS
  5
7
100
AcDbSymbolTable
 70
0
  0
ENDTAB
  0
TABLE
  2
APPID
  5
9
100
AcDbSymbolTable
 70
1
  0
APPID
  5
201
100
AcDbSymbolTableRecord
100
AcDbRegAppTableRecord
  2
ACAD
 70
0
  0
ENDTAB
  0
TABLE
  2
BLOCK_RECORD
  5
1
100
AcDbSymbolTable
 70
0
  0
BLOCK_RECORD
  5
202
100
AcDbSymbolTableRecord
100
AcDbBlockTableRecord
  2
*Model_Space
  0
BLOCK_RECORD
  5
203
100
AcDbSymbolTableRecord
100
AcDbBlockTableRecord
  2
*Paper_Space
  0
BLOCK_RECORD
  5
204
100
AcDbSymbolTableRecord
100
AcDbBlockTableRecord
  2
_FILLED
  0
ENDTAB
  0
TABLE
  2
DIMSTYLE
  5
A
100
AcDbSymbolTable
 70
1
100
AcDbDimStyleTable
 71
0
  0
DIMSTYLE
105
205
100
AcDbSymbolTableRecord
100
AcDbDimStyleTableRecord
  2
STANDARD
 70
0
  3

  4

 40
1.0
 41
0.1
 42
0.0625
 43
0.38
 44
0.125
 45
0.0
 46
0.0
 47
0.001
 48
0.001
140
0.08
141
0.09
142
0.0
143
25.4
144
1.0
145
0.0
146
1.0
147
0.09
 71
1.0
 72
0.0
 73
1
 74
1
 75
0
 76
0
 77
0
 78
4
 79
1
170
1
171
2
172
0
173
0
174
0
175
0
176
0
177
0
178
0
270
2
179
3
271
3
272
3
273
2
274
2
275
0
280
0
281
0
282
0
283
1
284
4
285
0
286
0
287
3
288
0
340
11
278
46
341
204
342
204
343
204
344
204
  0
ENDTAB
  0
ENDSEC
  0
SECTION
  2
BLOCKS
  0
BLOCK
  5
20
100
AcDbEntity
  8
0
100
AcDbBlockBegin
  2
*Model_Space
 70
0
 10
0.0
 20
0.0
 30
0.0
  3
*Model_Space
  1

  0
ENDBLK
  5
21
100
AcDbEntity
  8
0
100
AcDbBlockEnd
  0
BLOCK
  5
1C
100
AcDbEntity
  8
0
100
AcDbBlockBegin
  2
*Paper_Space
 70
0
 10
0.0
 20
0.0
 30
0.0
  3
*Paper_Space
  1

  0
ENDBLK
  5
1D
100
AcDbEntity
  8
0
100
AcDbBlockEnd
  0
BLOCK
  5
206
100
AcDbEntity
  8
0
100
AcDbBlockBegin
  2
_FILLED
 70
64
 10
0.0
 20
0.0
  3
_FILLED
  1

  0
SOLID
  5
207
100
AcDbEntity
  8
0
  6
BYBLOCK
 62
0
100
AcDbTrace
 10
0.0
 20
0.0
 11
-1.0
 21
0.2
 12
-1.0
 22
-0.2
 13
-1.0
 23
-0.2
  0
ENDBLK
  5
208
100
AcDbEntity
  8
0
  6
BYBLOCK
 62
0
100
AcDbBlockEnd
  0
ENDSEC
  0
SECTION
  2
ENTITIES
  0
LINE
  5
209
100
AcDbEntity
  8
0
100
AcDbLine
 62
7
  6
CONTINUOUS
 10
4.0141050908
 20
6.803042519
 11
4.0141050908
 21
7.278042519
  0
LINE
  5
20A
100
AcDbEntity
  8
0
100
AcDbLine
 62
9
  6
CONTINUOUS
 10
4.1441629263
 20
6.8243459906
 11
4.1441629263
 21
7.2567390473
  0
LINE
  5
20B
100
AcDbEntity
  8
0
100
AcDbLine
 62
7
  6
CONTINUOUS
 10
4.3371050908
 20
6.822042519
 11
4.3371050908
 21
7.259042519
  0
LINE
  5
20C
100
AcDbEntity
  8
0
100
AcDbLine
 62
9
  6
CONTINUOUS
 10
4.6808648357
 20
7.4347918274
 11
4.6808648357
 21
6.6462932106
  0
LINE
  5
20D
100
AcDbEntity
  8
0
100
AcDbLine
 62
9
  6
CONTINUOUS
 10
5.7357010078
 20
6.8513325918
 11
5.7357010078
 21
7.2297524462
  0
LINE
  5
20E
100
AcDbEntity
  8
0
100
AcDbLine
 62
7
  6
CONTINUOUS
 10
6.3851050908
 20
10.8579575516
 11
6.4091050908
 21
10.899526771
  0
LINE
  5
20F
100
AcDbEntity
  8
0
100
AcDbLine
 62
9
  6
CONTINUOUS
 10
11.0891050908
 20
2.68405433
 11
10.9441051011
 21
2.68405433
  0
LINE
  5
210
100
AcDbEntity
  8
0
100
AcDbLine
 62
9
  6
CONTINUOUS
 10
8.8691050908
 20
2.68405433
 11
9.0141043435
 21
2.68405433
  0
LINE
  5
211
100
AcDbEntity
  8
0
100
AcDbLine
 62
7
  6
CONTINUOUS
 10
6.3851050908
 20
10.6799075437
 11
6.3851050908
 21
10.8579575516
  0
LINE
  5
212
100
AcDbEntity
  8
0
100
AcDbLine
 62
7
  6
CONTINUOUS
 10
6.454957873
 20
11.0725267744
 11
6.454957873
 21
11.1675267513
  0
LINE
  5
213
100
AcDbEntity
  8
0
100
AcDbLine
 62
7
  6
CONTINUOUS
 10
6.4691050908
 20
11.072526771
 11
6.4691050908
 21
10.899526771
  0
LINE
  5
214
100
AcDbEntity
  8
0
100
AcDbLine
 62
7
  6
CONTINUOUS
 10
6.4816613643
 20
10.7826133414
 11
6.4816613643
 21
10.6558923692
  0
LINE
  5
215
100
AcDbEntity
  8
0
100
AcDbLine
 62
7
  6
CONTINUOUS
 10
6.5291050908
 20
7.290542519
 11
6.5291050908
 21
6.790542519
  0
LINE
  5
216
100
AcDbEntity
  8
0
100
AcDbLine
 62
7
  6
CONTINUOUS
 10
6.5741050908
 20
6.790542519
 11
6.5741050908
 21
7.290542519
  0
LINE
  5
217
100
AcDbEntity
  8
0
100
AcDbLine
 62
7
  6
CONTINUOUS
 10
6.5991050908
 20
6.8158297056
 11
6.5991050908
 21
7.2655514636
  0
LINE
  5
218
100
AcDbEntity
  8
0
100
AcDbLine
 62
7
  6
CONTINUOUS
 10
6.6266050908
 20
7.673542519
 11
6.6266050908
 21
7.723542519
  0
LINE
  5
219
100
AcDbEntity
  8
0
100
AcDbLine
 62
7
  6
CONTINUOUS
 10
6.6486050908
 20
6.690542519
 11
6.6486050908
 21
6.761542519
  0
LINE
  5
21A
100
AcDbEntity
  8
0
100
AcDbLine
 62
7
  6
CONTINUOUS
 10
6.7071050908
 20
6.619542519
 11
6.7071050908
 21
6.643542519
  0
LINE
  5
21B
100
AcDbEntity
  8
0
100
AcDbLine
 62
7
  6
CONTINUOUS
 10
6.7791050908
 20
7.723542519
 11
6.7791050908
 21
7.743542519
  0
LINE
  5
21C
100
AcDbEntity
  8
0
100
AcDbLine
 62
7
  6
CONTINUOUS
 10
6.8825488173
 20
10.4364402005
 11
6.8825488173
 21
10.7826133414
  0
LINE
  5
21D
100
AcDbEntity
  8
0
100
AcDbLine
 62
7
  6
CONTINUOUS
 10
7.5491050908
 20
10.319526771
 11
7.5731050908
 21
10.3610959903
  0
LINE
  5
21E
100
AcDbEntity
  8
0
100
AcDbLine
 62
7
  6
CONTINUOUS
 10
6.5619698387
 20
7.7875141072
 11
6.454722294
 21
8.670542519
  0
LINE
  5
21F
100
AcDbEntity
  8
0
100
AcDbLine
 62
7
  6
CONTINUOUS
 10
7.0756613643
 20
10.7826133414
 11
7.0756613643
 21
10.4364402005
  0
LINE
  5
220
100
AcDbEntity
  8
0
100
AcDbLine
 62
7
  6
CONTINUOUS
 10
7.1791050908
 20
7.723542519
 11
7.1791050908
 21
7.743542519
  0
LINE
  5
221
100
AcDbEntity
  8
0
100
AcDbLine
 62
7
  6
CONTINUOUS
 10
7.2511050908
 20
6.619542519
 11
7.2511050908
 21
6.643542519
  0
LINE
  5
222
100
AcDbEntity
  8
0
100
AcDbLine
 62
7
  6
CONTINUOUS
 10
7.3096050908
 20
6.690542519
 11
7.3096050908
 21
6.761542519
  0
LINE
  5
223
100
AcDbEntity
  8
0
100
AcDbLine
 62
7
  6
CONTINUOUS
 10
7.3316050908
 20
7.673542519
 11
7.3316050908
 21
7.723542519
  0
LINE
  5
224
100
AcDbEntity
  8
0
100
AcDbLine
 62
7
  6
CONTINUOUS
 10
7.3891050908
 20
10.314566141
 11
7.3891050908
 21
10.319526771
  0
LINE
  5
225
100
AcDbEntity
  8
0
100
AcDbLine
 62
7
  6
CONTINUOUS
 10
7.4765488173
 20
10.4364402005
 11
7.4765488173
 21
10.7826133414
  0
LINE
  5
226
100
AcDbEntity
  8
0
100
AcDbLine
 62
7
  6
CONTINUOUS
 10
7.4891050908
 20
11.072526771
 11
7.4891050908
 21
10.899526771
  0
LINE
  5
227
100
AcDbEntity
  8
0
100
AcDbLine
 62
7
  6
CONTINUOUS
 10
7.5025170213
 20
11.0725267744
 11
7.5025170213
 21
11.1675267513
  0
LWPOLYLINE
  5
228
100
AcDbEntity
  8
0
100
AcDbPolyline
 62
7
  6
CONTINUOUS
 90
12
 70
0
 10
7.503737203
 20
11.1675267183
 10
7.5052666345
 20
11.299937913
 10
7.5011074861
 20
11.4691099592
 10
7.4909354151
 20
11.6161236273
 10
7.475670397
 20
11.74039116
 10
7.454644213
 20
11.8475630435
 10
7.4229357973
 20
11.9501812383
 10
7.3713078072
 20
12.055459562
 10
7.2937830219
 20
12.1556672835
 10
7.1859115642
 20
12.2421997676
 10
7.0465919666
 20
12.3027943378
 10
6.9027326222
 20
12.3223102723
  0
LINE
  5
229
100
AcDbEntity
  8
0
100
AcDbLine
 62
7
  6
CONTINUOUS
 10
7.3962403429
 20
7.7875141072
 11
7.5034878876
 21
8.670542519
  0
LINE
  5
22A
100
AcDbEntity
  8
0
100
AcDbLine
 62
7
  6
CONTINUOUS
 10
7.7836997514
 20
9.2484873538
 11
7.7487830069
 21
9.2040454233
  0
LINE
  5
22B
100
AcDbEntity
  8
0
100
AcDbLine
 62
9
  6
CONTINUOUS
 10
7.8500138343
 20
9.2806412463
 11
7.8150970898
 21
9.2361993158
  0
LINE
  5
22C
100
AcDbEntity
  8
0
100
AcDbLine
 62
9
  6
CONTINUOUS
 10
7.8849265734
 20
9.2361993158
 11
7.9068808138
 21
9.2641426089
  0
LINE
  5
22D
100
AcDbEntity
  8
0
100
AcDbLine
 62
7
  6
CONTINUOUS
 10
6.8091050908
 20
6.553542519
 11
6.7991050908
 21
6.563542519
  0
LINE
  5
22E
100
AcDbEntity
  8
0
100
AcDbLine
 62
7
  6
CONTINUOUS
 10
6.6486050908
 20
6.761542519
 11
6.5991310114
 21
6.8155684396
  0
LINE
  5
22F
100
AcDbEntity
  8
0
100
AcDbLine
 62
7
  6
CONTINUOUS
 10
7.7306230951
 20
9.1510059445
 11
7.7307464775
 21
9.1310843107
  0
LINE
  5
230
100
AcDbEntity
  8
0
100
AcDbLine
 62
9
  6
CONTINUOUS
 10
7.8097153976
 20
9.1440151469
 11
7.8098387799
 21
9.1240935131
  0
LINE
  5
231
100
AcDbEntity
  8
0
100
AcDbLine
 62
9
  6
CONTINUOUS
 10
7.8796682635
 20
9.1240935131
 11
7.8795448811
 21
9.1440151469
  0
LINE
  5
232
100
AcDbEntity
  8
0
100
AcDbLine
 62
9
  6
CONTINUOUS
 10
7.9702438928
 20
9.1515323723
 11
7.9703672751
 21
9.1316107385
  0
LINE
  5
233
100
AcDbEntity
  8
0
100
AcDbLine
 62
7
  6
CONTINUOUS
 10
7.5731050908
 20
10.3610959903
 11
7.5731050908
 21
10.8579575516
  0
LINE
  5
234
100
AcDbEntity
  8
0
100
AcDbLine
 62
9
  6
CONTINUOUS
 10
7.6660320395
 20
9.34405433
 11
7.6660320395
 21
10.02405433
  0
LINE
  5
235
100
AcDbEntity
  8
0
100
AcDbLine
 62
9
  6
CONTINUOUS
 10
7.9070941425
 20
9.2640928617
 11
7.9070941425
 21
10.1040157983
  0
LINE
  5
236
100
AcDbEntity
  8
0
100
AcDbLine
 62
9
  6
CONTINUOUS
 10
7.9415315858
 20
10.1132573511
 11
7.9415315858
 21
9.2548513089
  0
LINE
  5
237
100
AcDbEntity
  8
0
100
AcDbLine
 62
7
  6
CONTINUOUS
 10
7.9915315858
 20
9.23405433
 11
7.9915315858
 21
10.13405433
  0
LINE
  5
238
100
AcDbEntity
  8
0
100
AcDbLine
 62
7
  6
CONTINUOUS
 10
7.7307464775
 20
10.2370243493
 11
7.7306230951
 21
10.2171027155
  0
LINE
  5
239
100
AcDbEntity
  8
0
100
AcDbLine
 62
9
  6
CONTINUOUS
 10
7.8098387799
 20
10.2440151469
 11
7.8097153976
 21
10.2240935131
  0
LINE
  5
23A
100
AcDbEntity
  8
0
100
AcDbLine
 62
9
  6
CONTINUOUS
 10
7.8795448811
 20
10.2240935131
 11
7.8796682635
 21
10.2440151469
  0
LINE
  5
23B
100
AcDbEntity
  8
0
100
AcDbLine
 62
9
  6
CONTINUOUS
 10
7.9703672751
 20
10.2364979215
 11
7.9702438928
 21
10.2165762878
  0
LINE
  5
23C
100
AcDbEntity
  8
0
100
AcDbLine
 62
7
  6
CONTINUOUS
 10
6.5991050908
 20
7.2656029963
 11
6.6026478178
 21
7.2702507381
  0
LINE
  5
23D
100
AcDbEntity
  8
0
100
AcDbLine
 62
9
  6
CONTINUOUS
 10
7.9702438928
 20
9.1515323723
 11
8.0051606373
 21
9.1959743027
  0
LINE
  5
23E
100
AcDbEntity
  8
0
100
AcDbLine
 62
9
  6
CONTINUOUS
 10
8.0052840196
 20
9.176052669
 11
7.9703672751
 21
9.1316107385
  0
LINE
  5
23F
100
AcDbEntity
  8
0
100
AcDbLine
 62
7
  6
CONTINUOUS
 10
7.9873295334
 20
9.123539618
 11
7.9524127889
 21
9.0790976875
  0
LINE
  5
240
100
AcDbEntity
  8
0
100
AcDbLine
 62
7
  6
CONTINUOUS
 10
9.5506962625
 20
10.2730826637
 11
9.5507880006
 21
10.2731494253
  0
LWPOLYLINE
  5
241
100
AcDbEntity
  8
0
100
AcDbPolyline
 62
7
  6
CONTINUOUS
 90
4
 70
0
 10
9.5508069681
 20
10.2731645894
 10
9.5414527817
 20
10.2673880994
 10
9.5038872696
 20
10.2527996347
 10
9.4769611121
 20
10.2476255042
  0
LINE
  5
242
100
AcDbEntity
  8
0
100
AcDbLine
 62
7
  6
CONTINUOUS
 10
6.5991050908
 20
7.265542519
 11
6.5741050908
 21
7.290542519
  0
LWPOLYLINE
  5
243
100
AcDbEntity
  8
0
100
AcDbPolyline
 62
7
  6
CONTINUOUS
 90
10
 70
0
 10
6.4204185801
 20
11.5990242894
 10
6.4193859303
 20
11.6028499061
 10
6.4213610432
 20
11.5931301007
 10
6.4261108256
 20
11.5639200816
 10
6.4319628526
 20
11.5180903142
 10
6.4380108267
 20
11.457802885
 10
6.4436493075
 20
11.3856454528
 10
6.4484767636
 20
11.3040672546
 10
6.4522380347
 20
11.2158882768
 10
6.45373769
 20
11.1675267556
  0
LINE
  5
244
100
AcDbEntity
  8
0
100
AcDbLine
 62
9
  6
CONTINUOUS
 10
8.621992111
 20
10.22405433
 11
8.621992111
 21
9.14405433
  0
LINE
  5
245
100
AcDbEntity
  8
0
100
AcDbLine
 62
7
  6
CONTINUOUS
 10
6.5991310114
 20
6.8155684396
 11
6.5741050908
 21
6.790542519
  0
LINE
  5
246
100
AcDbEntity
  8
0
100
AcDbLine
 62
9
  6
CONTINUOUS
 10
9.3371667276
 20
8.4522916204
 11
9.3366894373
 21
8.4007389522
  0
LINE
  5
247
100
AcDbEntity
  8
0
100
AcDbLine
 62
9
  6
CONTINUOUS
 10
9.0639058762
 20
3.5730351238
 11
9.0636353255
 21
3.5618053256
  0
LINE
  5
248
100
AcDbEntity
  8
0
100
AcDbLine
 62
9
  6
CONTINUOUS
 10
9.0849098322
 20
3.9454213792
 11
9.0846293393
 21
3.9338511386
  0
LINE
  5
249
100
AcDbEntity
  8
0
100
AcDbLine
 62
9
  6
CONTINUOUS
 10
9.0404194214
 20
3.1560292441
 11
9.0401623406
 21
3.1458420456
  0
LINE
  5
24A
100
AcDbEntity
  8
0
100
AcDbLine
 62
9
  6
CONTINUOUS
 10
9.0141125199
 20
2.6842033687
 11
9.3737900638
 21
9.0582184092
  0
LINE
  5
24B
100
AcDbEntity
  8
0
100
AcDbLine
 62
7
  6
CONTINUOUS
 10
9.3721268812
 20
9.060139364
 11
9.0143051111
 21
2.6912291876
  0
LINE
  5
24C
100
AcDbEntity
  8
0
100
AcDbLine
 62
7
  6
CONTINUOUS
 10
7.1491050908
 20
6.553542519
 11
7.1591050908
 21
6.563542519
  0
LINE
  5
24D
100
AcDbEntity
  8
0
100
AcDbLine
 62
7
  6
CONTINUOUS
 10
9.4291050908
 20
8.9050572208
 11
9.4291050908
 21
8.4690937001
  0
LINE
  5
24E
100
AcDbEntity
  8
0
100
AcDbLine
 62
7
  6
CONTINUOUS
 10
9.4291050908
 20
7.6605110229
 11
9.4291050908
 21
8.4305110229
  0
LINE
  5
24F
100
AcDbEntity
  8
0
100
AcDbLine
 62
7
  6
CONTINUOUS
 10
9.4968550908
 20
8.4690937001
 11
9.4968550908
 21
8.4305110229
  0
LINE
  5
250
100
AcDbEntity
  8
0
100
AcDbLine
 62
7
  6
CONTINUOUS
 10
9.6641050908
 20
7.5308259836
 11
9.6641050908
 21
7.5005110229
  0
LINE
  5
251
100
AcDbEntity
  8
0
100
AcDbLine
 62
7
  6
CONTINUOUS
 10
4.6808648357
 20
7.4347918274
 11
5.7357010078
 21
7.2297524462
  0
LINE
  5
252
100
AcDbEntity
  8
0
100
AcDbLine
 62
7
  6
CONTINUOUS
 10
7.5731050908
 20
10.8579575516
 11
7.5491050908
 21
10.899526771
  0
LINE
  5
253
100
AcDbEntity
  8
0
100
AcDbLine
 62
9
  6
CONTINUOUS
 10
9.9791054805
 20
8.7722938641
 11
9.9791061088
 21
9.0089731722
  0
LINE
  5
254
100
AcDbEntity
  8
0
100
AcDbLine
 62
9
  6
CONTINUOUS
 10
9.9791050908
 20
7.5005110229
 11
9.9791050908
 21
2.19655433
  0
LINE
  5
255
100
AcDbEntity
  8
0
100
AcDbLine
 62
7
  6
CONTINUOUS
 10
10.2941050908
 20
7.5308259836
 11
10.2941050908
 21
7.5005110229
  0
LINE
  5
256
100
AcDbEntity
  8
0
100
AcDbLine
 62
7
  6
CONTINUOUS
 10
10.4613550908
 20
8.4690937001
 11
10.4613550908
 21
8.4305110229
  0
LINE
  5
257
100
AcDbEntity
  8
0
100
AcDbLine
 62
7
  6
CONTINUOUS
 10
10.5291050908
 20
7.6605110229
 11
10.5291050908
 21
8.4305110229
  0
LINE
  5
258
100
AcDbEntity
  8
0
100
AcDbLine
 62
7
  6
CONTINUOUS
 10
10.5291050908
 20
8.4690937001
 11
10.5291050908
 21
8.9050572263
  0
LINE
  5
259
100
AcDbEntity
  8
0
100
AcDbLine
 62
7
  6
CONTINUOUS
 10
12.3851050908
 20
10.8579575516
 11
12.4091050908
 21
10.899526771
  0
LINE
  5
25A
100
AcDbEntity
  8
0
100
AcDbLine
 62
7
  6
CONTINUOUS
 10
11.9708806481
 20
10.2445690421
 11
12.0057973926
 21
10.2890109725
  0
LINE
  5
25B
100
AcDbEntity
  8
0
100
AcDbLine
 62
9
  6
CONTINUOUS
 10
11.9878429064
 20
10.2364979215
 11
11.9529261619
 21
10.1920559911
  0
LINE
  5
25C
100
AcDbEntity
  8
0
100
AcDbLine
 62
9
  6
CONTINUOUS
 10
11.9530495443
 20
10.1721343573
 11
11.9879662888
 21
10.2165762878
  0
LINE
  5
25D
100
AcDbEntity
  8
0
100
AcDbLine
 62
9
  6
CONTINUOUS
 10
12.0732836082
 20
10.1319093442
 11
12.0538291279
 21
10.1071477384
  0
LINE
  5
25E
100
AcDbEntity
  8
0
100
AcDbLine
 62
9
  6
CONTINUOUS
 10
12.1239325239
 20
10.1074963735
 11
12.1431130917
 21
10.1319093442
  0
LINE
  5
25F
100
AcDbEntity
  8
0
100
AcDbLine
 62
7
  6
CONTINUOUS
 10
12.1745104301
 20
10.1196213063
 11
12.2094271746
 21
10.1640632367
  0
LINE
  5
260
100
AcDbEntity
  8
0
100
AcDbLine
 62
7
  6
CONTINUOUS
 10
15.2773453459
 20
7.4347918274
 11
14.2225091738
 21
7.2297524462
  0
LINE
  5
261
100
AcDbEntity
  8
0
100
AcDbLine
 62
7
  6
CONTINUOUS
 10
6.8091693741
 20
6.553542519
 11
7.1490408074
 21
6.553542519
  0
LINE
  5
262
100
AcDbEntity
  8
0
100
AcDbLine
 62
7
  6
CONTINUOUS
 10
12.8091693741
 20
6.553542519
 11
13.1490408074
 21
6.553542519
  0
LINE
  5
263
100
AcDbEntity
  8
0
100
AcDbLine
 62
7
  6
CONTINUOUS
 10
13.1591050908
 20
6.563542519
 11
12.7991050908
 21
6.563542519
  0
LINE
  5
264
100
AcDbEntity
  8
0
100
AcDbLine
 62
7
  6
CONTINUOUS
 10
7.1591050908
 20
6.563542519
 11
6.7991050908
 21
6.563542519
  0
LINE
  5
265
100
AcDbEntity
  8
0
100
AcDbLine
 62
7
  6
CONTINUOUS
 10
6.7071083415
 20
6.619542519
 11
7.2511018401
 21
6.619542519
  0
LINE
  5
266
100
AcDbEntity
  8
0
100
AcDbLine
 62
7
  6
CONTINUOUS
 10
12.7071083415
 20
6.619542519
 11
13.2511018401
 21
6.619542519
  0
LINE
  5
267
100
AcDbEntity
  8
0
100
AcDbLine
 62
7
  6
CONTINUOUS
 10
6.6956084789
 20
6.643542519
 11
7.2626050908
 21
6.643542519
  0
LINE
  5
268
100
AcDbEntity
  8
0
100
AcDbLine
 62
7
  6
CONTINUOUS
 10
12.6956084789
 20
6.643542519
 11
13.2626050908
 21
6.643542519
  0
LINE
  5
269
100
AcDbEntity
  8
0
100
AcDbLine
 62
9
  6
CONTINUOUS
 10
6.6486050908
 20
6.690542519
 11
7.3096050908
 21
6.690542519
  0
LINE
  5
26A
100
AcDbEntity
  8
0
100
AcDbLine
 62
9
  6
CONTINUOUS
 10
12.6486050908
 20
6.690542519
 11
13.3096050908
 21
6.690542519
  0
LINE
  5
26B
100
AcDbEntity
  8
0
100
AcDbLine
 62
7
  6
CONTINUOUS
 10
13.3096050908
 20
6.761542519
 11
12.6486050908
 21
6.761542519
  0
LINE
  5
26C
100
AcDbEntity
  8
0
100
AcDbLine
 62
7
  6
CONTINUOUS
 10
7.3096050908
 20
6.761542519
 11
6.6486050908
 21
6.761542519
  0
LINE
  5
26D
100
AcDbEntity
  8
0
100
AcDbLine
 62
7
  6
CONTINUOUS
 10
13.4291050908
 20
6.790542519
 11
13.3841050908
 21
6.790542519
  0
LINE
  5
26E
100
AcDbEntity
  8
0
100
AcDbLine
 62
7
  6
CONTINUOUS
 10
6.5291050908
 20
6.790542519
 11
6.5741050908
 21
6.790542519
  0
LINE
  5
26F
100
AcDbEntity
  8
0
100
AcDbLine
 62
7
  6
CONTINUOUS
 10
7.7487830069
 20
10.1640632367
 11
7.7836997514
 21
10.1196213063
  0
LINE
  5
270
100
AcDbEntity
  8
0
100
AcDbLine
 62
9
  6
CONTINUOUS
 10
7.8150970898
 20
10.1319093442
 11
7.8500138343
 21
10.0874674138
  0
LINE
  5
271
100
AcDbEntity
  8
0
100
AcDbLine
 62
9
  6
CONTINUOUS
 10
7.9068808138
 20
10.1039660511
 11
7.8849265734
 21
10.1319093442
  0
LINE
  5
272
100
AcDbEntity
  8
0
100
AcDbLine
 62
9
  6
CONTINUOUS
 10
7.9702438928
 20
10.2165762878
 11
8.0051606373
 21
10.1721343573
  0
LINE
  5
273
100
AcDbEntity
  8
0
100
AcDbLine
 62
9
  6
CONTINUOUS
 10
8.0052840196
 20
10.1920559911
 11
7.9703672751
 21
10.2364979215
  0
LINE
  5
274
100
AcDbEntity
  8
0
100
AcDbLine
 62
7
  6
CONTINUOUS
 10
7.9524127889
 20
10.2890109725
 11
7.9873295334
 21
10.2445690421
  0
LINE
  5
275
100
AcDbEntity
  8
0
100
AcDbLine
 62
9
  6
CONTINUOUS
 10
10.9441044654
 20
2.6840829006
 11
10.5844203197
 21
9.0582148307
  0
LINE
  5
276
100
AcDbEntity
  8
0
100
AcDbLine
 62
7
  6
CONTINUOUS
 10
10.9439053442
 20
2.6912243267
 11
10.6954305803
 21
7.1093131379
  0
LINE
  5
277
100
AcDbEntity
  8
0
100
AcDbLine
 62
7
  6
CONTINUOUS
 10
10.6954305803
 20
7.1093131379
 11
10.6238916851
 21
8.4008702778
  0
LINE
  5
278
100
AcDbEntity
  8
0
100
AcDbLine
 62
7
  6
CONTINUOUS
 10
10.6238916851
 20
8.4008702778
 11
10.5860835123
 21
9.0601358137
  0
LINE
  5
279
100
AcDbEntity
  8
0
100
AcDbLine
 62
7
  6
CONTINUOUS
 10
10.6210408342
 20
8.4523392975
 11
10.621043454
 21
8.4522916204
  0
LINE
  5
27A
100
AcDbEntity
  8
0
100
AcDbLine
 62
9
  6
CONTINUOUS
 10
10.91779126
 20
3.1560203258
 11
10.9180477757
 21
3.1458295337
  0
LINE
  5
27B
100
AcDbEntity
  8
0
100
AcDbLine
 62
9
  6
CONTINUOUS
 10
10.8733003493
 20
3.9454213792
 11
10.8735808423
 21
3.9338511386
  0
LINE
  5
27C
100
AcDbEntity
  8
0
100
AcDbLine
 62
9
  6
CONTINUOUS
 10
10.8943043053
 20
3.5730351238
 11
10.894574856
 21
3.5618053256
  0
LINE
  5
27D
100
AcDbEntity
  8
0
100
AcDbLine
 62
9
  6
CONTINUOUS
 10
10.621043454
 20
8.4522916204
 11
10.6215207442
 21
8.4007389522
  0
LINE
  5
27E
100
AcDbEntity
  8
0
100
AcDbLine
 62
9
  6
CONTINUOUS
 10
10.8070710606
 20
9.14405433
 11
10.8070710606
 21
10.22405433
  0
LINE
  5
27F
100
AcDbEntity
  8
0
100
AcDbLine
 62
9
  6
CONTINUOUS
 10
6.6026478178
 20
7.2702507381
 11
7.3555623637
 21
7.2702507381
  0
LINE
  5
280
100
AcDbEntity
  8
0
100
AcDbLine
 62
9
  6
CONTINUOUS
 10
12.6026478178
 20
7.2702507381
 11
13.3555623637
 21
7.2702507381
  0
LINE
  5
281
100
AcDbEntity
  8
0
100
AcDbLine
 62
7
  6
CONTINUOUS
 10
13.4291050908
 20
7.290542519
 11
13.3841050908
 21
7.290542519
  0
LINE
  5
282
100
AcDbEntity
  8
0
100
AcDbLine
 62
7
  6
CONTINUOUS
 10
6.5291050908
 20
7.290542519
 11
6.5741050908
 21
7.290542519
  0
LINE
  5
283
100
AcDbEntity
  8
0
100
AcDbLine
 62
7
  6
CONTINUOUS
 10
9.6641111262
 20
7.5005110229
 11
10.2941013262
 21
7.5005110229
  0
LINE
  5
284
100
AcDbEntity
  8
0
100
AcDbLine
 62
9
  6
CONTINUOUS
 10
10.2941050908
 20
7.5308259836
 11
9.6641050908
 21
7.5308259836
  0
LINE
  5
285
100
AcDbEntity
  8
0
100
AcDbLine
 62
7
  6
CONTINUOUS
 10
9.6141094603
 20
7.5505110229
 11
10.3441007213
 21
7.5505110229
  0
LINE
  5
286
100
AcDbEntity
  8
0
100
AcDbLine
 62
7
  6
CONTINUOUS
 10
15.2773453459
 20
6.6462932106
 11
14.2225091738
 21
6.8513325918
  0
LINE
  5
287
100
AcDbEntity
  8
0
100
AcDbLine
 62
7
  6
CONTINUOUS
 10
7.4894395844
 20
10.292244814
 11
7.4894429472
 21
10.2922415686
  0
LINE
  5
288
100
AcDbEntity
  8
0
100
AcDbLine
 62
7
  6
CONTINUOUS
 10
11.4595315858
 20
10.09405433
 11
11.4595315858
 21
9.27405433
  0
LINE
  5
289
100
AcDbEntity
  8
0
100
AcDbLine
 62
7
  6
CONTINUOUS
 10
11.5595315858
 20
9.27405433
 11
11.5595315858
 21
10.09405433
  0
LINE
  5
28A
100
AcDbEntity
  8
0
100
AcDbLine
 62
7
  6
CONTINUOUS
 10
4.6808648357
 20
6.6462932106
 11
5.7357010078
 21
6.8513325918
  0
LINE
  5
28B
100
AcDbEntity
  8
0
100
AcDbLine
 62
7
  6
CONTINUOUS
 10
9.459185554
 20
7.6305110229
 11
10.4990246276
 21
7.6305110229
  0
LINE
  5
28C
100
AcDbEntity
  8
0
100
AcDbLine
 62
9
  6
CONTINUOUS
 10
9.4291050908
 20
7.6605110229
 11
10.5291050908
 21
7.6605110229
  0
LINE
  5
28D
100
AcDbEntity
  8
0
100
AcDbLine
 62
7
  6
CONTINUOUS
 10
6.6266050908
 20
7.673542519
 11
7.3316050908
 21
7.673542519
  0
LINE
  5
28E
100
AcDbEntity
  8
0
100
AcDbLine
 62
7
  6
CONTINUOUS
 10
12.6266050908
 20
7.673542519
 11
13.3316050908
 21
7.673542519
  0
LINE
  5
28F
100
AcDbEntity
  8
0
100
AcDbLine
 62
7
  6
CONTINUOUS
 10
13.331600878
 20
7.723542519
 11
12.6266093035
 21
7.723542519
  0
LINE
  5
290
100
AcDbEntity
  8
0
100
AcDbLine
 62
7
  6
CONTINUOUS
 10
7.331600878
 20
7.723542519
 11
6.6266093035
 21
7.723542519
  0
LINE
  5
291
100
AcDbEntity
  8
0
100
AcDbLine
 62
7
  6
CONTINUOUS
 10
6.6116094828
 20
7.743542519
 11
7.3466050908
 21
7.743542519
  0
LINE
  5
292
100
AcDbEntity
  8
0
100
AcDbLine
 62
7
  6
CONTINUOUS
 10
12.6116094828
 20
7.743542519
 11
13.3466050908
 21
7.743542519
  0
LINE
  5
293
100
AcDbEntity
  8
0
100
AcDbLine
 62
9
  6
CONTINUOUS
 10
6.5619698387
 20
7.7875141072
 11
7.3962403429
 21
7.7875141072
  0
LINE
  5
294
100
AcDbEntity
  8
0
100
AcDbLine
 62
9
  6
CONTINUOUS
 10
12.5619698387
 20
7.7875141072
 11
13.3962403429
 21
7.7875141072
  0
LINE
  5
295
100
AcDbEntity
  8
0
100
AcDbLine
 62
7
  6
CONTINUOUS
 10
12.8091050908
 20
6.553542519
 11
12.7991050908
 21
6.563542519
  0
LINE
  5
296
100
AcDbEntity
  8
0
100
AcDbLine
 62
9
  6
CONTINUOUS
 10
11.9879662888
 20
10.2165762878
 11
11.9878429064
 21
10.2364979215
  0
LINE
  5
297
100
AcDbEntity
  8
0
100
AcDbLine
 62
9
  6
CONTINUOUS
 10
12.0785419181
 20
10.2440151469
 11
12.0786653005
 21
10.2240935131
  0
LINE
  5
298
100
AcDbEntity
  8
0
100
AcDbLine
 62
9
  6
CONTINUOUS
 10
12.148494784
 20
10.2240935131
 11
12.1483714016
 21
10.2440151469
  0
LINE
  5
299
100
AcDbEntity
  8
0
100
AcDbLine
 62
7
  6
CONTINUOUS
 10
12.2275870864
 20
10.2171027155
 11
12.227463704
 21
10.2370243493
  0
LINE
  5
29A
100
AcDbEntity
  8
0
100
AcDbLine
 62
7
  6
CONTINUOUS
 10
12.0285315858
 20
10.1099587639
 11
12.0285315858
 21
9.2581498961
  0
LINE
  5
29B
100
AcDbEntity
  8
0
100
AcDbLine
 62
7
  6
CONTINUOUS
 10
12.1285315858
 20
9.2604885998
 11
12.1285315858
 21
10.1076200603
  0
LINE
  5
29C
100
AcDbEntity
  8
0
100
AcDbLine
 62
7
  6
CONTINUOUS
 10
12.1885315858
 20
9.3163060199
 11
12.1885315858
 21
10.09055433
  0
LINE
  5
29D
100
AcDbEntity
  8
0
100
AcDbLine
 62
7
  6
CONTINUOUS
 10
12.2105315858
 20
10.1339941981
 11
12.2105315858
 21
9.2341144619
  0
LINE
  5
29E
100
AcDbEntity
  8
0
100
AcDbLine
 62
9
  6
CONTINUOUS
 10
11.9878429064
 20
9.1316107385
 11
11.9879662888
 21
9.1515323723
  0
LINE
  5
29F
100
AcDbEntity
  8
0
100
AcDbLine
 62
9
  6
CONTINUOUS
 10
12.0786653005
 20
9.1440151469
 11
12.0785419181
 21
9.1240935131
  0
LINE
  5
2A0
100
AcDbEntity
  8
0
100
AcDbLine
 62
9
  6
CONTINUOUS
 10
12.1483714016
 20
9.1240935131
 11
12.148494784
 21
9.1440151469
  0
LINE
  5
2A1
100
AcDbEntity
  8
0
100
AcDbLine
 62
7
  6
CONTINUOUS
 10
12.227463704
 20
9.1310843107
 11
12.2275870864
 21
9.1510059445
  0
LINE
  5
2A2
100
AcDbEntity
  8
0
100
AcDbLine
 62
7
  6
CONTINUOUS
 10
13.5491050908
 20
10.319526771
 11
13.5731050908
 21
10.3610959903
  0
LINE
  5
2A3
100
AcDbEntity
  8
0
100
AcDbLine
 62
7
  6
CONTINUOUS
 10
10.5290315963
 20
8.4305110229
 11
9.4291785853
 21
8.4305110229
  0
LINE
  5
2A4
100
AcDbEntity
  8
0
100
AcDbLine
 62
7
  6
CONTINUOUS
 10
9.4291785853
 20
8.4690937001
 11
10.5290315963
 21
8.4690937001
  0
LINE
  5
2A5
100
AcDbEntity
  8
0
100
AcDbLine
 62
9
  6
CONTINUOUS
 10
13.5034878876
 20
8.670542519
 11
12.454722294
 21
8.670542519
  0
LINE
  5
2A6
100
AcDbEntity
  8
0
100
AcDbLine
 62
9
  6
CONTINUOUS
 10
7.5034878876
 20
8.670542519
 11
6.454722294
 21
8.670542519
  0
LINE
  5
2A7
100
AcDbEntity
  8
0
100
AcDbLine
 62
7
  6
CONTINUOUS
 10
13.3590791701
 20
6.8155684396
 11
13.3841050908
 21
6.790542519
  0
LINE
  5
2A8
100
AcDbEntity
  8
0
100
AcDbLine
 62
7
  6
CONTINUOUS
 10
12.3851050908
 20
10.3610959903
 11
12.3851050908
 21
10.8579575516
  0
LINE
  5
2A9
100
AcDbEntity
  8
0
100
AcDbLine
 62
7
  6
CONTINUOUS
 10
12.4556931603
 20
11.0725267744
 11
12.4556931603
 21
11.1675267513
  0
LINE
  5
2AA
100
AcDbEntity
  8
0
100
AcDbLine
 62
7
  6
CONTINUOUS
 10
12.4691050908
 20
11.072526771
 11
12.4691050908
 21
10.899526771
  0
LINE
  5
2AB
100
AcDbEntity
  8
0
100
AcDbLine
 62
7
  6
CONTINUOUS
 10
12.4816613643
 20
10.7826133414
 11
12.4816613643
 21
10.4364402005
  0
LINE
  5
2AC
100
AcDbEntity
  8
0
100
AcDbLine
 62
7
  6
CONTINUOUS
 10
12.5691050908
 20
10.314566141
 11
12.5691050908
 21
10.319526771
  0
LINE
  5
2AD
100
AcDbEntity
  8
0
100
AcDbLine
 62
7
  6
CONTINUOUS
 10
12.6266050908
 20
7.673542519
 11
12.6266050908
 21
7.723542519
  0
LINE
  5
2AE
100
AcDbEntity
  8
0
100
AcDbLine
 62
7
  6
CONTINUOUS
 10
12.6486050908
 20
6.690542519
 11
12.6486050908
 21
6.761542519
  0
LINE
  5
2AF
100
AcDbEntity
  8
0
100
AcDbLine
 62
7
  6
CONTINUOUS
 10
12.7071050908
 20
6.619542519
 11
12.7071050908
 21
6.643542519
  0
LINE
  5
2B0
100
AcDbEntity
  8
0
100
AcDbLine
 62
7
  6
CONTINUOUS
 10
12.7791050908
 20
7.723542519
 11
12.7791050908
 21
7.743542519
  0
LINE
  5
2B1
100
AcDbEntity
  8
0
100
AcDbLine
 62
7
  6
CONTINUOUS
 10
12.8305315858
 20
9.2550930457
 11
12.8305315858
 21
10.1130156143
  0
LINE
  5
2B2
100
AcDbEntity
  8
0
100
AcDbLine
 62
7
  6
CONTINUOUS
 10
12.8425315858
 20
9.30655433
 11
12.8425315858
 21
10.06155433
  0
LINE
  5
2B3
100
AcDbEntity
  8
0
100
AcDbLine
 62
7
  6
CONTINUOUS
 10
12.8750315858
 20
10.100659253
 11
12.8750315858
 21
9.2674494071
  0
LINE
  5
2B4
100
AcDbEntity
  8
0
100
AcDbLine
 62
7
  6
CONTINUOUS
 10
12.8800315858
 20
9.2674494065
 11
12.8800315858
 21
10.1006592536
  0
LINE
  5
2B5
100
AcDbEntity
  8
0
100
AcDbLine
 62
7
  6
CONTINUOUS
 10
12.8825488173
 20
10.4364402005
 11
12.8825488173
 21
10.7826133414
  0
LINE
  5
2B6
100
AcDbEntity
  8
0
100
AcDbLine
 62
7
  6
CONTINUOUS
 10
12.9125315858
 20
10.1102410274
 11
12.9125315858
 21
9.2578676326
  0
LINE
  5
2B7
100
AcDbEntity
  8
0
100
AcDbLine
 62
7
  6
CONTINUOUS
 10
13.3591050908
 20
7.265542519
 11
13.3841050908
 21
7.290542519
  0
LINE
  5
2B8
100
AcDbEntity
  8
0
100
AcDbLine
 62
7
  6
CONTINUOUS
 10
11.2633632035
 20
9.2161707841
 11
11.4095530014
 21
9.23405433
  0
LINE
  5
2B9
100
AcDbEntity
  8
0
100
AcDbLine
 62
7
  6
CONTINUOUS
 10
11.4659462097
 20
9.2409529683
 11
11.9173031581
 21
9.2961679206
  0
LINE
  5
2BA
100
AcDbEntity
  8
0
100
AcDbLine
 62
7
  6
CONTINUOUS
 10
12.172544207
 20
9.3273918164
 11
12.188468852
 21
9.3293398943
  0
LINE
  5
2BB
100
AcDbEntity
  8
0
100
AcDbLine
 62
7
  6
CONTINUOUS
 10
13.3732080175
 20
9.2734004022
 11
12.9125315858
 21
9.2578106752
  0
LINE
  5
2BC
100
AcDbEntity
  8
0
100
AcDbLine
 62
7
  6
CONTINUOUS
 10
12.8305315858
 20
9.2550357175
 11
12.2105315858
 21
9.23405433
  0
LINE
  5
2BD
100
AcDbEntity
  8
0
100
AcDbLine
 62
9
  6
CONTINUOUS
 10
12.8007000714
 20
8.9025219003
 11
12.5538885106
 21
8.9025219003
  0
LINE
  5
2BE
100
AcDbEntity
  8
0
100
AcDbLine
 62
9
  6
CONTINUOUS
 10
12.3754834912
 20
8.9025219003
 11
12.3588919412
 21
8.9025219003
  0
LINE
  5
2BF
100
AcDbEntity
  8
0
100
AcDbLine
 62
9
  6
CONTINUOUS
 10
7.5993182404
 20
8.9025219003
 11
7.5827266903
 21
8.9025219003
  0
LINE
  5
2C0
100
AcDbEntity
  8
0
100
AcDbLine
 62
9
  6
CONTINUOUS
 10
7.4043216709
 20
8.9025219003
 11
7.1575101101
 21
8.9025219003
  0
LINE
  5
2C1
100
AcDbEntity
  8
0
100
AcDbLine
 62
9
  6
CONTINUOUS
 10
13.1575101101
 20
8.9025219003
 11
13.4043216709
 21
8.9025219003
  0
LINE
  5
2C2
100
AcDbEntity
  8
0
100
AcDbLine
 62
9
  6
CONTINUOUS
 10
13.5827266903
 20
8.9025219003
 11
13.5993182404
 21
8.9025219003
  0
LINE
  5
2C3
100
AcDbEntity
  8
0
100
AcDbLine
 62
7
  6
CONTINUOUS
 10
7.8157448474
 20
9.0466107385
 11
7.8855743309
 21
9.0466107385
  0
LINE
  5
2C4
100
AcDbEntity
  8
0
100
AcDbLine
 62
7
  6
CONTINUOUS
 10
12.0726358507
 20
9.0466107385
 11
12.1424653342
 21
9.0466107385
  0
LINE
  5
2C5
100
AcDbEntity
  8
0
100
AcDbLine
 62
7
  6
CONTINUOUS
 10
13.5255320639
 20
9.053542519
 11
12.4326781176
 21
9.053542519
  0
LINE
  5
2C6
100
AcDbEntity
  8
0
100
AcDbLine
 62
7
  6
CONTINUOUS
 10
7.5255320639
 20
9.053542519
 11
6.9355885238
 21
9.053542519
  0
LINE
  5
2C7
100
AcDbEntity
  8
0
100
AcDbLine
 62
9
  6
CONTINUOUS
 10
13.4977731257
 20
9.0970383296
 11
12.4882909791
 21
9.0970383273
  0
LINE
  5
2C8
100
AcDbEntity
  8
0
100
AcDbLine
 62
9
  6
CONTINUOUS
 10
7.8098387799
 20
9.1240935131
 11
7.8796682635
 21
9.1240935131
  0
LINE
  5
2C9
100
AcDbEntity
  8
0
100
AcDbLine
 62
9
  6
CONTINUOUS
 10
12.0785419181
 20
9.1240935131
 11
12.1483714016
 21
9.1240935131
  0
LINE
  5
2CA
100
AcDbEntity
  8
0
100
AcDbLine
 62
9
  6
CONTINUOUS
 10
12.148494784
 20
9.1440151469
 11
12.0786653005
 21
9.1440151469
  0
LINE
  5
2CB
100
AcDbEntity
  8
0
100
AcDbLine
 62
9
  6
CONTINUOUS
 10
7.8795448811
 20
9.1440151469
 11
7.8097153976
 21
9.1440151469
  0
LINE
  5
2CC
100
AcDbEntity
  8
0
100
AcDbLine
 62
7
  6
CONTINUOUS
 10
8.621992111
 20
9.14405433
 11
10.8070710606
 21
9.14405433
  0
LINE
  5
2CD
100
AcDbEntity
  8
0
100
AcDbLine
 62
7
  6
CONTINUOUS
 10
11.4548705886
 20
9.23405433
 11
11.3087949688
 21
9.23405433
  0
LINE
  5
2CE
100
AcDbEntity
  8
0
100
AcDbLine
 62
7
  6
CONTINUOUS
 10
7.9879036236
 20
9.23405433
 11
7.9915315858
 21
9.23405433
  0
LINE
  5
2CF
100
AcDbEntity
  8
0
100
AcDbLine
 62
9
  6
CONTINUOUS
 10
7.8150970898
 20
9.2361993158
 11
7.8849265734
 21
9.2361993158
  0
LINE
  5
2D0
100
AcDbEntity
  8
0
100
AcDbLine
 62
9
  6
CONTINUOUS
 10
12.0732836082
 20
9.2361993158
 11
12.1431130917
 21
9.2361993158
  0
LINE
  5
2D1
100
AcDbEntity
  8
0
100
AcDbLine
 62
7
  6
CONTINUOUS
 10
12.8800315858
 20
9.2673937299
 11
12.8750315858
 21
9.2673937299
  0
LINE
  5
2D2
100
AcDbEntity
  8
0
100
AcDbLine
 62
7
  6
CONTINUOUS
 10
11.4595315858
 20
9.27405433
 11
11.5595315858
 21
9.27405433
  0
LINE
  5
2D3
100
AcDbEntity
  8
0
100
AcDbLine
 62
9
  6
CONTINUOUS
 10
7.8650257163
 20
9.2806412463
 11
7.8500138343
 21
9.2806412463
  0
LINE
  5
2D4
100
AcDbEntity
  8
0
100
AcDbLine
 62
7
  6
CONTINUOUS
 10
12.8305315858
 20
9.30655433
 11
12.8425539143
 21
9.30655433
  0
LINE
  5
2D5
100
AcDbEntity
  8
0
100
AcDbLine
 62
7
  6
CONTINUOUS
 10
12.1965821109
 20
9.3162143307
 11
12.1885315858
 21
9.3162143307
  0
LINE
  5
2D6
100
AcDbEntity
  8
0
100
AcDbLine
 62
7
  6
CONTINUOUS
 10
6.767484628
 20
9.34405433
 11
7.6660320395
 21
9.34405433
  0
LINE
  5
2D7
100
AcDbEntity
  8
0
100
AcDbLine
 62
9
  6
CONTINUOUS
 10
7.4699022379
 20
9.0969517759
 11
6.9631128641
 21
9.0970371273
  0
LINE
  5
2D8
100
AcDbEntity
  8
0
100
AcDbLine
 62
7
  6
CONTINUOUS
 10
12.1239325239
 20
9.2606122865
 11
12.0538291279
 21
9.2609609216
  0
LINE
  5
2D9
100
AcDbEntity
  8
0
100
AcDbLine
 62
7
  6
CONTINUOUS
 10
12.0057973926
 20
9.0790976875
 11
11.9708806481
 21
9.123539618
  0
LINE
  5
2DA
100
AcDbEntity
  8
0
100
AcDbLine
 62
9
  6
CONTINUOUS
 10
11.9878429064
 20
9.1316107385
 11
11.9529261619
 21
9.176052669
  0
LINE
  5
2DB
100
AcDbEntity
  8
0
100
AcDbLine
 62
9
  6
CONTINUOUS
 10
11.9530495443
 20
9.1959743027
 11
11.9879662888
 21
9.1515323723
  0
LINE
  5
2DC
100
AcDbEntity
  8
0
100
AcDbLine
 62
7
  6
CONTINUOUS
 10
13.3591050908
 20
7.2656029963
 11
13.3555623637
 21
7.2702507381
  0
LINE
  5
2DD
100
AcDbEntity
  8
0
100
AcDbLine
 62
7
  6
CONTINUOUS
 10
12.5619698387
 20
7.7875141072
 11
12.454722294
 21
8.670542519
  0
LINE
  5
2DE
100
AcDbEntity
  8
0
100
AcDbLine
 62
7
  6
CONTINUOUS
 10
13.0756613643
 20
10.7826133414
 11
13.0756613643
 21
10.4364402005
  0
LINE
  5
2DF
100
AcDbEntity
  8
0
100
AcDbLine
 62
7
  6
CONTINUOUS
 10
13.1425315858
 20
9.4983557305
 11
13.1425315858
 21
9.8697529295
  0
LINE
  5
2E0
100
AcDbEntity
  8
0
100
AcDbLine
 62
7
  6
CONTINUOUS
 10
13.1791050908
 20
7.723542519
 11
13.1791050908
 21
7.743542519
  0
LINE
  5
2E1
100
AcDbEntity
  8
0
100
AcDbLine
 62
7
  6
CONTINUOUS
 10
13.2511050908
 20
6.619542519
 11
13.2511050908
 21
6.643542519
  0
LINE
  5
2E2
100
AcDbEntity
  8
0
100
AcDbLine
 62
7
  6
CONTINUOUS
 10
13.3096050908
 20
6.690542519
 11
13.3096050908
 21
6.761542519
  0
LINE
  5
2E3
100
AcDbEntity
  8
0
100
AcDbLine
 62
7
  6
CONTINUOUS
 10
13.3316050908
 20
7.673542519
 11
13.3316050908
 21
7.723542519
  0
LINE
  5
2E4
100
AcDbEntity
  8
0
100
AcDbLine
 62
7
  6
CONTINUOUS
 10
13.3591050908
 20
7.2655514636
 11
13.3591050908
 21
6.8158297056
  0
LINE
  5
2E5
100
AcDbEntity
  8
0
100
AcDbLine
 62
9
  6
CONTINUOUS
 10
13.3732080175
 20
9.2734004022
 11
13.3732080175
 21
9.516685544
  0
LINE
  5
2E6
100
AcDbEntity
  8
0
100
AcDbLine
 62
9
  6
CONTINUOUS
 10
13.3732080175
 20
9.8514206176
 11
13.3732080175
 21
10.0947082579
  0
LINE
  5
2E7
100
AcDbEntity
  8
0
100
AcDbLine
 62
7
  6
CONTINUOUS
 10
13.3841050908
 20
7.290542519
 11
13.3841050908
 21
6.790542519
  0
LINE
  5
2E8
100
AcDbEntity
  8
0
100
AcDbLine
 62
7
  6
CONTINUOUS
 10
13.3891050908
 20
10.314566141
 11
13.3891050908
 21
10.319526771
  0
LINE
  5
2E9
100
AcDbEntity
  8
0
100
AcDbLine
 62
7
  6
CONTINUOUS
 10
13.3925315858
 20
10.0747197001
 11
13.3925315858
 21
9.2933889599
  0
LINE
  5
2EA
100
AcDbEntity
  8
0
100
AcDbLine
 62
7
  6
CONTINUOUS
 10
13.4291050908
 20
6.790542519
 11
13.4291050908
 21
7.290542519
  0
LINE
  5
2EB
100
AcDbEntity
  8
0
100
AcDbLine
 62
7
  6
CONTINUOUS
 10
13.4765488173
 20
10.4364402005
 11
13.4765488173
 21
10.7826133414
  0
LINE
  5
2EC
100
AcDbEntity
  8
0
100
AcDbLine
 62
7
  6
CONTINUOUS
 10
13.4891050908
 20
11.072526771
 11
13.4891050908
 21
10.899526771
  0
LINE
  5
2ED
100
AcDbEntity
  8
0
100
AcDbLine
 62
7
  6
CONTINUOUS
 10
13.5032523086
 20
11.0725267744
 11
13.5032523086
 21
11.1675267513
  0
LWPOLYLINE
  5
2EE
100
AcDbEntity
  8
0
100
AcDbPolyline
 62
7
  6
CONTINUOUS
 90
9
 70
0
 10
13.5044724916
 20
11.1675267556
 10
13.5059731185
 20
11.2159160409
 10
13.5097357735
 20
11.3041137177
 10
13.5145647617
 20
11.3857022839
 10
13.5202047227
 20
11.4578632623
 10
13.5262539063
 20
11.5181482442
 10
13.5321065032
 20
11.563969359
 10
13.536855123
 20
11.5931621829
 10
13.5384691147
 20
11.6012659588
  0
LINE
  5
2EF
100
AcDbEntity
  8
0
100
AcDbLine
 62
7
  6
CONTINUOUS
 10
13.3962403429
 20
7.7875141072
 11
13.5034878876
 21
8.670542519
  0
LINE
  5
2F0
100
AcDbEntity
  8
0
100
AcDbLine
 62
7
  6
CONTINUOUS
 10
13.3096050908
 20
6.761542519
 11
13.3590791701
 21
6.8155684396
  0
LINE
  5
2F1
100
AcDbEntity
  8
0
100
AcDbLine
 62
7
  6
CONTINUOUS
 10
13.1491050908
 20
6.553542519
 11
13.1591050908
 21
6.563542519
  0
LINE
  5
2F2
100
AcDbEntity
  8
0
100
AcDbLine
 62
9
  6
CONTINUOUS
 10
6.7674846172
 20
9.3440545342
 11
6.7669885608
 21
9.3440527659
  0
LINE
  5
2F3
100
AcDbEntity
  8
0
100
AcDbLine
 62
7
  6
CONTINUOUS
 10
12.1285315858
 20
9.35405433
 11
12.1885315858
 21
9.35405433
  0
LINE
  5
2F4
100
AcDbEntity
  8
0
100
AcDbLine
 62
7
  6
CONTINUOUS
 10
13.3925315858
 20
9.41405433
 11
17.9825315858
 21
9.41405433
  0
LINE
  5
2F5
100
AcDbEntity
  8
0
100
AcDbLine
 62
7
  6
CONTINUOUS
 10
10.4076442199
 20
10.2729913146
 11
10.4074023497
 21
10.2731652156
  0
LINE
  5
2F6
100
AcDbEntity
  8
0
100
AcDbLine
 62
7
  6
CONTINUOUS
 10
10.4074632277
 20
10.2731195789
 11
10.4075653556
 21
10.2730452374
  0
LINE
  5
2F7
100
AcDbEntity
  8
0
100
AcDbLine
 62
7
  6
CONTINUOUS
 10
12.4687717012
 20
9.0758625489
 11
12.4687678532
 21
9.075866185
  0
LINE
  5
2F8
100
AcDbEntity
  8
0
100
AcDbLine
 62
9
  6
CONTINUOUS
 10
12.0538291279
 20
9.2609609216
 11
12.0732836082
 21
9.2361993158
  0
LINE
  5
2F9
100
AcDbEntity
  8
0
100
AcDbLine
 62
9
  6
CONTINUOUS
 10
12.1431130917
 20
9.2361993158
 11
12.1239325239
 21
9.2606122865
  0
LINE
  5
2FA
100
AcDbEntity
  8
0
100
AcDbLine
 62
7
  6
CONTINUOUS
 10
12.2094271746
 20
9.2040454233
 11
12.1745104301
 21
9.2484873538
  0
LINE
  5
2FB
100
AcDbEntity
  8
0
100
AcDbLine
 62
7
  6
CONTINUOUS
 10
12.1959561914
 20
9.3167562863
 11
12.2105315858
 21
9.29154719
  0
LINE
  5
2FC
100
AcDbEntity
  8
0
100
AcDbLine
 62
7
  6
CONTINUOUS
 10
13.5731050908
 20
10.3610959903
 11
13.5731050908
 21
10.8579575516
  0
LINE
  5
2FD
100
AcDbEntity
  8
0
100
AcDbLine
 62
7
  6
CONTINUOUS
 10
9.4769612781
 20
10.2476253101
 11
9.284282202
 21
10.22405433
  0
LINE
  5
2FE
100
AcDbEntity
  8
0
100
AcDbLine
 62
7
  6
CONTINUOUS
 10
13.6016861089
 20
10.8169442424
 11
13.8117716351
 21
10.8402561218
  0
LINE
  5
2FF
100
AcDbEntity
  8
0
100
AcDbLine
 62
7
  6
CONTINUOUS
 10
12.0538291279
 20
10.1071477384
 11
12.1239325239
 21
10.1074963735
  0
LINE
  5
300
100
AcDbEntity
  8
0
100
AcDbLine
 62
7
  6
CONTINUOUS
 10
13.3925315858
 20
9.95405433
 11
17.9825315858
 21
9.95405433
  0
LINE
  5
301
100
AcDbEntity
  8
0
100
AcDbLine
 62
7
  6
CONTINUOUS
 10
12.1285315858
 20
10.01405433
 11
12.1885315858
 21
10.01405433
  0
LINE
  5
302
100
AcDbEntity
  8
0
100
AcDbLine
 62
7
  6
CONTINUOUS
 10
6.767484628
 20
10.02405433
 11
7.6660320395
 21
10.02405433
  0
LINE
  5
303
100
AcDbEntity
  8
0
100
AcDbLine
 62
7
  6
CONTINUOUS
 10
12.8305315858
 20
10.06155433
 11
12.8425539143
 21
10.06155433
  0
LINE
  5
304
100
AcDbEntity
  8
0
100
AcDbLine
 62
9
  6
CONTINUOUS
 10
7.8500138343
 20
10.0874674138
 11
7.8650257163
 21
10.0874674138
  0
LINE
  5
305
100
AcDbEntity
  8
0
100
AcDbLine
 62
7
  6
CONTINUOUS
 10
12.1885315858
 20
10.09055433
 11
12.1920679223
 21
10.09055433
  0
LINE
  5
306
100
AcDbEntity
  8
0
100
AcDbLine
 62
7
  6
CONTINUOUS
 10
11.4595315858
 20
10.09405433
 11
11.5595315858
 21
10.09405433
  0
LINE
  5
307
100
AcDbEntity
  8
0
100
AcDbLine
 62
7
  6
CONTINUOUS
 10
12.8800315858
 20
10.1007149301
 11
12.8750315858
 21
10.1007149301
  0
LINE
  5
308
100
AcDbEntity
  8
0
100
AcDbLine
 62
9
  6
CONTINUOUS
 10
12.1431130917
 20
10.1319093442
 11
12.0732836082
 21
10.1319093442
  0
LINE
  5
309
100
AcDbEntity
  8
0
100
AcDbLine
 62
9
  6
CONTINUOUS
 10
7.8849265734
 20
10.1319093442
 11
7.8150970898
 21
10.1319093442
  0
LINE
  5
30A
100
AcDbEntity
  8
0
100
AcDbLine
 62
7
  6
CONTINUOUS
 10
7.9879036236
 20
10.13405433
 11
7.9915315858
 21
10.13405433
  0
LINE
  5
30B
100
AcDbEntity
  8
0
100
AcDbLine
 62
7
  6
CONTINUOUS
 10
11.3087949688
 20
10.13405433
 11
11.4548705886
 21
10.13405433
  0
LINE
  5
30C
100
AcDbEntity
  8
0
100
AcDbLine
 62
7
  6
CONTINUOUS
 10
8.621992111
 20
10.22405433
 11
10.8070710606
 21
10.22405433
  0
LINE
  5
30D
100
AcDbEntity
  8
0
100
AcDbLine
 62
9
  6
CONTINUOUS
 10
7.8097153976
 20
10.2240935131
 11
7.8795448811
 21
10.2240935131
  0
LINE
  5
30E
100
AcDbEntity
  8
0
100
AcDbLine
 62
9
  6
CONTINUOUS
 10
12.0786653005
 20
10.2240935131
 11
12.148494784
 21
10.2240935131
  0
LINE
  5
30F
100
AcDbEntity
  8
0
100
AcDbLine
 62
9
  6
CONTINUOUS
 10
12.1483714016
 20
10.2440151469
 11
12.0785419181
 21
10.2440151469
  0
LINE
  5
310
100
AcDbEntity
  8
0
100
AcDbLine
 62
9
  6
CONTINUOUS
 10
7.8796682635
 20
10.2440151469
 11
7.8098387799
 21
10.2440151469
  0
LINE
  5
311
100
AcDbEntity
  8
0
100
AcDbLine
 62
9
  6
CONTINUOUS
 10
6.9608543201
 20
10.2710709166
 11
7.469914061
 21
10.2710703327
  0
LINE
  5
312
100
AcDbEntity
  8
0
100
AcDbLine
 62
7
  6
CONTINUOUS
 10
13.4471454759
 20
10.314566141
 11
12.5110645698
 21
10.314566141
  0
LINE
  5
313
100
AcDbEntity
  8
0
100
AcDbLine
 62
7
  6
CONTINUOUS
 10
7.4471716526
 20
10.314566141
 11
6.9308932755
 21
10.314566141
  0
LINE
  5
314
100
AcDbEntity
  8
0
100
AcDbLine
 62
7
  6
CONTINUOUS
 10
6.9274762186
 20
10.319526771
 11
7.5491050908
 21
10.319526771
  0
LINE
  5
315
100
AcDbEntity
  8
0
100
AcDbLine
 62
7
  6
CONTINUOUS
 10
12.4091050908
 20
10.319526771
 11
13.5491050908
 21
10.319526771
  0
LINE
  5
316
100
AcDbEntity
  8
0
100
AcDbLine
 62
7
  6
CONTINUOUS
 10
12.1424653342
 20
10.3214979215
 11
12.0726358507
 21
10.3214979215
  0
LINE
  5
317
100
AcDbEntity
  8
0
100
AcDbLine
 62
7
  6
CONTINUOUS
 10
7.8855743309
 20
10.3214979215
 11
7.8157448474
 21
10.3214979215
  0
LINE
  5
318
100
AcDbEntity
  8
0
100
AcDbLine
 62
7
  6
CONTINUOUS
 10
6.8825488173
 20
10.4364402005
 11
7.0756613643
 21
10.4364402005
  0
LINE
  5
319
100
AcDbEntity
  8
0
100
AcDbLine
 62
7
  6
CONTINUOUS
 10
7.4765488173
 20
10.4364402005
 11
7.5731050908
 21
10.4364402005
  0
LINE
  5
31A
100
AcDbEntity
  8
0
100
AcDbLine
 62
7
  6
CONTINUOUS
 10
12.3851050908
 20
10.4364402005
 11
12.4816613643
 21
10.4364402005
  0
LINE
  5
31B
100
AcDbEntity
  8
0
100
AcDbLine
 62
7
  6
CONTINUOUS
 10
12.8825488173
 20
10.4364402005
 11
13.0756613643
 21
10.4364402005
  0
LINE
  5
31C
100
AcDbEntity
  8
0
100
AcDbLine
 62
7
  6
CONTINUOUS
 10
13.4765488173
 20
10.4364402005
 11
13.5731050908
 21
10.4364402005
  0
LINE
  5
31D
100
AcDbEntity
  8
0
100
AcDbLine
 62
9
  6
CONTINUOUS
 10
12.488308077
 20
10.2711568202
 11
13.4977727996
 21
10.2710703313
  0
LINE
  5
31E
100
AcDbEntity
  8
0
100
AcDbLine
 62
9
  6
CONTINUOUS
 10
6.7674845656
 20
10.0240541766
 11
6.7670018088
 21
10.0240558519
  0
LINE
  5
31F
100
AcDbEntity
  8
0
100
AcDbLine
 62
7
  6
CONTINUOUS
 10
13.3732080175
 20
10.0947082579
 11
12.9125315858
 21
10.1102979848
  0
LINE
  5
320
100
AcDbEntity
  8
0
100
AcDbLine
 62
7
  6
CONTINUOUS
 10
12.8305315858
 20
10.1130729425
 11
12.2105315858
 21
10.13405433
  0
LINE
  5
321
100
AcDbEntity
  8
0
100
AcDbLine
 62
7
  6
CONTINUOUS
 10
6.3565240758
 20
10.8169441511
 11
6.1464442842
 21
10.8402545647
  0
LINE
  5
322
100
AcDbEntity
  8
0
100
AcDbLine
 62
7
  6
CONTINUOUS
 10
10.4816718238
 20
10.2475736663
 11
10.6739279787
 21
10.22405433
  0
LINE
  5
323
100
AcDbEntity
  8
0
100
AcDbLine
 62
7
  6
CONTINUOUS
 10
11.2633304789
 20
10.1519507575
 11
11.4096228017
 21
10.13405433
  0
LINE
  5
324
100
AcDbEntity
  8
0
100
AcDbLine
 62
7
  6
CONTINUOUS
 10
11.4659473431
 20
10.1271639611
 11
11.9173211114
 21
10.0719459035
  0
LINE
  5
325
100
AcDbEntity
  8
0
100
AcDbLine
 62
7
  6
CONTINUOUS
 10
12.1725547586
 20
10.0407223206
 11
12.1884696633
 21
10.0387753973
  0
LWPOLYLINE
  5
326
100
AcDbEntity
  8
0
100
AcDbPolyline
 62
7
  6
CONTINUOUS
 90
4
 70
0
 10
10.4812475821
 20
10.2476257077
 10
10.4544017145
 20
10.2527788959
 10
10.4168175782
 20
10.2673552505
 10
10.4076442199
 20
10.2729913146
  0
LINE
  5
327
100
AcDbEntity
  8
0
100
AcDbLine
 62
7
  6
CONTINUOUS
 10
12.1920954644
 20
10.09055433
 11
12.1926571216
 21
10.0900588313
  0
LINE
  5
328
100
AcDbEntity
  8
0
100
AcDbLine
 62
7
  6
CONTINUOUS
 10
12.4091050908
 20
10.319526771
 11
12.3851050908
 21
10.3610959903
  0
LINE
  5
329
100
AcDbEntity
  8
0
100
AcDbLine
 62
9
  6
CONTINUOUS
 10
14.2225091738
 20
7.2297524462
 11
14.2225091738
 21
6.8513325918
  0
LINE
  5
32A
100
AcDbEntity
  8
0
100
AcDbLine
 62
9
  6
CONTINUOUS
 10
14.6925315858
 20
9.41405433
 11
14.6925315858
 21
9.95405433
  0
LINE
  5
32B
100
AcDbEntity
  8
0
100
AcDbLine
 62
7
  6
CONTINUOUS
 10
13.5852220479
 20
10.8138246286
 11
13.5851639894
 21
10.8138245648
  0
LINE
  5
32C
100
AcDbEntity
  8
0
100
AcDbLine
 62
7
  6
CONTINUOUS
 10
13.5731050908
 20
10.7826133414
 11
13.4765488173
 21
10.7826133414
  0
LINE
  5
32D
100
AcDbEntity
  8
0
100
AcDbLine
 62
7
  6
CONTINUOUS
 10
13.0756613643
 20
10.7826133414
 11
12.8825488173
 21
10.7826133414
  0
LINE
  5
32E
100
AcDbEntity
  8
0
100
AcDbLine
 62
7
  6
CONTINUOUS
 10
12.4816613643
 20
10.7826133414
 11
12.3851050908
 21
10.7826133414
  0
LINE
  5
32F
100
AcDbEntity
  8
0
100
AcDbLine
 62
7
  6
CONTINUOUS
 10
7.5731050908
 20
10.7826133414
 11
7.4765488173
 21
10.7826133414
  0
LINE
  5
330
100
AcDbEntity
  8
0
100
AcDbLine
 62
7
  6
CONTINUOUS
 10
7.0756613643
 20
10.7826133414
 11
6.8825488173
 21
10.7826133414
  0
LINE
  5
331
100
AcDbEntity
  8
0
100
AcDbLine
 62
7
  6
CONTINUOUS
 10
6.4816613643
 20
10.7826133414
 11
6.3851050908
 21
10.7826133414
  0
LINE
  5
332
100
AcDbEntity
  8
0
100
AcDbLine
 62
7
  6
CONTINUOUS
 10
13.5491050908
 20
10.899526771
 11
12.4091050908
 21
10.899526771
  0
LINE
  5
333
100
AcDbEntity
  8
0
100
AcDbLine
 62
7
  6
CONTINUOUS
 10
7.5491050908
 20
10.899526771
 11
6.4091050908
 21
10.899526771
  0
LINE
  5
334
100
AcDbEntity
  8
0
100
AcDbLine
 62
7
  6
CONTINUOUS
 10
6.4561854186
 20
11.072526771
 11
7.5012894757
 21
11.072526771
  0
LINE
  5
335
100
AcDbEntity
  8
0
100
AcDbLine
 62
7
  6
CONTINUOUS
 10
12.4569190705
 20
11.072526771
 11
13.5020263984
 21
11.072526771
  0
LINE
  5
336
100
AcDbEntity
  8
0
100
AcDbLine
 62
7
  6
CONTINUOUS
 10
6.3729924502
 20
10.8138247178
 11
6.3730461088
 21
10.8138246632
  0
LINE
  5
337
100
AcDbEntity
  8
0
100
AcDbLine
 62
9
  6
CONTINUOUS
 10
15.2773453459
 20
6.6462932106
 11
15.2773453459
 21
7.4347918274
  0
LINE
  5
338
100
AcDbEntity
  8
0
100
AcDbLine
 62
7
  6
CONTINUOUS
 10
7.5025170209
 20
11.1675267513
 11
6.454957873
 21
11.1675267513
  0
LINE
  5
339
100
AcDbEntity
  8
0
100
AcDbLine
 62
7
  6
CONTINUOUS
 10
12.4556931607
 20
11.1675267513
 11
13.5032523086
 21
11.1675267513
  0
LINE
  5
33A
100
AcDbEntity
  8
0
100
AcDbLine
 62
7
  6
CONTINUOUS
 10
13.5731050908
 20
10.8579575516
 11
13.5491050908
 21
10.899526771
  0
LINE
  5
33B
100
AcDbEntity
  8
0
100
AcDbLine
 62
7
  6
CONTINUOUS
 10
15.6211050908
 20
6.822042519
 11
15.6211050908
 21
7.259042519
  0
LINE
  5
33C
100
AcDbEntity
  8
0
100
AcDbLine
 62
9
  6
CONTINUOUS
 10
15.8140472553
 20
7.2567390473
 11
15.8140472553
 21
6.8243459906
  0
LWPOLYLINE
  5
33D
100
AcDbEntity
  8
0
100
AcDbPolyline
 62
7
  6
CONTINUOUS
 90
12
 70
0
 10
13.0554775593
 20
12.3223102723
 10
12.9116182149
 20
12.3027943378
 10
12.7722986173
 20
12.2421997676
 10
12.6644271596
 20
12.1556672835
 10
12.5869023743
 20
12.0554595619
 10
12.5352743843
 20
11.9501812382
 10
12.5035659686
 20
11.8475630435
 10
12.4825397846
 20
11.74039116
 10
12.4672747664
 20
11.6161236273
 10
12.4571026954
 20
11.4691099592
 10
12.452943547
 20
11.299937913
 10
12.4544729786
 20
11.1675267183
  0
LINE
  5
33E
100
AcDbEntity
  8
0
100
AcDbLine
 62
7
  6
CONTINUOUS
 10
6.9027326219
 20
12.3223102723
 11
6.9027720044
 21
12.3223103172
  0
LINE
  5
33F
100
AcDbEntity
  8
0
100
AcDbLine
 62
7
  6
CONTINUOUS
 10
13.0554775593
 20
12.3223102723
 11
13.0554381774
 21
12.3223103172
  0
LINE
  5
340
100
AcDbEntity
  8
0
100
AcDbLine
 62
7
  6
CONTINUOUS
 10
15.9441050908
 20
6.803042519
 11
15.9441050908
 21
7.278042519
  0
LINE
  5
341
100
AcDbEntity
  8
0
100
AcDbLine
 62
7
  6
CONTINUOUS
 10
6.8581795709
 20
12.320457571
 11
6.8576025122
 21
12.3204093512
  0
LINE
  5
342
100
AcDbEntity
  8
0
100
AcDbLine
 62
7
  6
CONTINUOUS
 10
6.9027720044
 20
12.3223103172
 11
6.8581001742
 21
12.3204555144
  0
LINE
  5
343
100
AcDbEntity
  8
0
100
AcDbLine
 62
7
  6
CONTINUOUS
 10
6.3729881337
 20
12.7712289158
 11
6.3730461913
 21
12.7712289796
  0
LINE
  5
344
100
AcDbEntity
  8
0
100
AcDbLine
 62
7
  6
CONTINUOUS
 10
13.5852177315
 20
12.771228828
 11
13.5851640721
 21
12.7712288826
  0
LINE
  5
345
100
AcDbEntity
  8
0
100
AcDbLine
 62
7
  6
CONTINUOUS
 10
13.1001099975
 20
12.3204555152
 11
13.0554381771
 21
12.3223103172
  0
LINE
  5
346
100
AcDbEntity
  8
0
100
AcDbLine
 62
7
  6
CONTINUOUS
 10
13.1001099975
 20
12.3204555152
 11
13.1007116314
 21
12.3204051681
  0
LINE
  5
347
100
AcDbEntity
  8
0
100
AcDbLine
 62
7
  6
CONTINUOUS
 10
6.1464398282
 20
12.7447979938
 11
6.3565240758
 21
12.7681093908
  0
LINE
  5
348
100
AcDbEntity
  8
0
100
AcDbLine
 62
7
  6
CONTINUOUS
 10
13.8117642291
 20
12.7447990538
 11
13.6016861185
 21
12.7681092983
  0
ARC
  5
349
100
AcDbEntity
  8
0
100
AcDbCircle
 62
7
  6
CONTINUOUS
 10
6.0219145008
 20
5.3788918166
 40
1.5
100
AcDbArc
 50
70.2371945424
 51
101.0
  0
ARC
  5
34A
100
AcDbEntity
  8
0
100
AcDbCircle
 62
7
  6
CONTINUOUS
 10
6.1984740862
 20
9.447755719
 40
1.5917893798
100
AcDbArc
 50
354.2281405823
 51
355.4350560557
  0
ARC
  5
34B
100
AcDbEntity
  8
0
100
AcDbCircle
 62
7
  6
CONTINUOUS
 10
6.4976664527
 20
9.4100851937
 40
1.5322444499
100
AcDbArc
 50
353.8813104522
 51
354.8040278056
  0
ARC
  5
34C
100
AcDbEntity
  8
0
100
AcDbCircle
 62
7
  6
CONTINUOUS
 10
6.0219145008
 20
8.7021932214
 40
1.5
100
AcDbArc
 50
259.0
 51
289.7628054576
  0
ARC
  5
34D
100
AcDbEntity
  8
0
100
AcDbCircle
 62
7
  6
CONTINUOUS
 10
6.9783216119
 20
8.0924373514
 40
0.9481411976
100
AcDbArc
 50
89.9526546898
 51
93.1402653327
  0
ARC
  5
34E
100
AcDbEntity
  8
0
100
AcDbCircle
 62
7
  6
CONTINUOUS
 10
5.9891436293
 20
8.6139960161
 40
0.469
100
AcDbArc
 50
6.9248982442
 51
11.4110044489
  0
ARC
  5
34F
100
AcDbEntity
  8
0
100
AcDbCircle
 62
7
  6
CONTINUOUS
 10
6.3197237386
 20
7.4894151231
 40
0.3578813522
100
AcDbArc
 50
322.2371948106
 51
30.9635622202
  0
ARC
  5
350
100
AcDbEntity
  8
0
100
AcDbCircle
 62
7
  6
CONTINUOUS
 10
4.6211416201
 20
7.127542519
 40
0.313
100
AcDbArc
 50
79.0
 51
155.157343983
  0
ARC
  5
351
100
AcDbEntity
  8
0
100
AcDbCircle
 62
7
  6
CONTINUOUS
 10
4.6211416201
 20
6.953542519
 40
0.313
100
AcDbArc
 50
204.842656017
 51
281.0
  0
ARC
  5
352
100
AcDbEntity
  8
0
100
AcDbCircle
 62
7
  6
CONTINUOUS
 10
4.0920767478
 20
7.040542519
 40
0.249971657
100
AcDbArc
 50
108.1750968409
 51
251.8249031591
  0
ARC
  5
353
100
AcDbEntity
  8
0
100
AcDbCircle
 62
7
  6
CONTINUOUS
 10
4.2420051434
 20
6.938042519
 40
0.15
100
AcDbArc
 50
229.2861651139
 51
309.3458297661
  0
ARC
  5
354
100
AcDbEntity
  8
0
100
AcDbCircle
 62
7
  6
CONTINUOUS
 10
4.2420051434
 20
7.143042519
 40
0.15
100
AcDbArc
 50
50.6541702339
 51
130.7138348861
  0
ARC
  5
355
100
AcDbEntity
  8
0
100
AcDbCircle
 62
7
  6
CONTINUOUS
 10
4.0880667218
 20
7.3219250569
 40
0.086
100
AcDbArc
 50
210.6812875935
 51
310.7138348857
  0
ARC
  5
356
100
AcDbEntity
  8
0
100
AcDbCircle
 62
7
  6
CONTINUOUS
 10
4.0880667218
 20
6.7591599811
 40
0.086
100
AcDbArc
 50
49.2861651143
 51
149.3187124065
  0
ARC
  5
357
100
AcDbEntity
  8
0
100
AcDbCircle
 62
7
  6
CONTINUOUS
 10
6.7431050908
 20
6.563542519
 40
0.056
100
AcDbArc
 50
0.0
 51
90.0
  0
ARC
  5
358
100
AcDbEntity
  8
0
100
AcDbCircle
 62
7
  6
CONTINUOUS
 10
6.6116050908
 20
7.793542519
 40
0.05
100
AcDbArc
 50
186.9248982442
 51
270.0
  0
ARC
  5
359
100
AcDbEntity
  8
0
100
AcDbCircle
 62
7
  6
CONTINUOUS
 10
6.6956050908
 20
6.690542519
 40
0.047
100
AcDbArc
 50
180.0
 51
270.0
  0
ARC
  5
35A
100
AcDbEntity
  8
0
100
AcDbCircle
 62
7
  6
CONTINUOUS
 10
9.1416681993
 20
2.684089803
 40
0.1275631239
100
AcDbArc
 50
176.7637244205
 51
180.0159328999
  0
ARC
  5
35B
100
AcDbEntity
  8
0
100
AcDbCircle
 62
7
  6
CONTINUOUS
 10
8.621992111
 20
8.72405433
 40
1.5
100
AcDbArc
 50
90.0
 51
114.8539722589
  0
ARC
  5
35C
100
AcDbEntity
  8
0
100
AcDbCircle
 62
9
  6
CONTINUOUS
 10
8.9877272339
 20
9.1516100264
 40
1.178036319
100
AcDbArc
 50
178.7656041297
 51
180.3693923069
  0
ARC
  5
35D
100
AcDbEntity
  8
0
100
AcDbCircle
 62
9
  6
CONTINUOUS
 10
7.8086879754
 20
9.3865338143
 40
0.837560329
100
AcDbArc
 50
89.9297161493
 51
92.1192044212
  0
ARC
  5
35E
100
AcDbEntity
  8
0
100
AcDbCircle
 62
9
  6
CONTINUOUS
 10
9.8983831169
 20
9.1710063797
 40
0.6830471438
100
AcDbArc
 50
337.6780733157
 51
348.7084250227
  0
ARC
  5
35F
100
AcDbEntity
  8
0
100
AcDbCircle
 62
9
  6
CONTINUOUS
 10
9.9204580415
 20
9.1625732449
 40
0.6594236832
100
AcDbArc
 50
337.0862627998
 51
337.6274101116
  0
ARC
  5
360
100
AcDbEntity
  8
0
100
AcDbCircle
 62
7
  6
CONTINUOUS
 10
7.9690665523
 20
8.6139960161
 40
0.469
100
AcDbArc
 50
142.0339977482
 51
173.0751017558
  0
ARC
  5
361
100
AcDbEntity
  8
0
100
AcDbCircle
 62
7
  6
CONTINUOUS
 10
7.0591050908
 20
7.0406029963
 40
0.375
100
AcDbArc
 50
311.9128908834
 51
37.7628051894
  0
ARC
  5
362
100
AcDbEntity
  8
0
100
AcDbCircle
 62
7
  6
CONTINUOUS
 10
7.638486443
 20
7.4894151231
 40
0.3578813522
100
AcDbArc
 50
149.0364377798
 51
217.7628051894
  0
ARC
  5
363
100
AcDbEntity
  8
0
100
AcDbCircle
 62
7
  6
CONTINUOUS
 10
7.6660320395
 20
8.99405433
 40
0.35
100
AcDbArc
 50
53.2130265183
 51
90.0
  0
ARC
  5
364
100
AcDbEntity
  8
0
100
AcDbCircle
 62
7
  6
CONTINUOUS
 10
7.7395204482
 20
9.07971003
 40
0.2514531525
100
AcDbArc
 50
84.8923656229
 51
102.5300047106
  0
ARC
  5
365
100
AcDbEntity
  8
0
100
AcDbCircle
 62
7
  6
CONTINUOUS
 10
9.1790121009
 20
8.9049722148
 40
0.2500996743
100
AcDbArc
 50
0.0194841672
 51
75.152162075
  0
ARC
  5
366
100
AcDbEntity
  8
0
100
AcDbCircle
 62
7
  6
CONTINUOUS
 10
7.739378462
 20
9.0811928308
 40
0.2499753754
100
AcDbArc
 50
102.5719701595
 51
181.169837967
  0
ARC
  5
367
100
AcDbEntity
  8
0
100
AcDbCircle
 62
7
  6
CONTINUOUS
 10
7.5256050908
 20
8.960042519
 40
0.0935
100
AcDbArc
 50
322.0339977482
 51
90.0
  0
ARC
  5
368
100
AcDbEntity
  8
0
100
AcDbCircle
 62
9
  6
CONTINUOUS
 10
7.8152026595
 20
9.1509128756
 40
0.0852865055
100
AcDbArc
 50
90.0709220938
 51
109.3227816603
  0
ARC
  5
369
100
AcDbEntity
  8
0
100
AcDbCircle
 62
9
  6
CONTINUOUS
 10
7.8500875846
 20
9.195561694
 40
0.0850795842
100
AcDbArc
 50
90.0496662129
 51
112.4447165551
  0
ARC
  5
36A
100
AcDbEntity
  8
0
100
AcDbCircle
 62
7
  6
CONTINUOUS
 10
7.8855699126
 20
9.1316198286
 40
0.085008548
100
AcDbArc
 50
270.0029778872
 51
321.8413221801
  0
ARC
  5
36B
100
AcDbEntity
  8
0
100
AcDbCircle
 62
7
  6
CONTINUOUS
 10
7.8157448476
 20
9.1316107387
 40
0.0850000002
100
AcDbArc
 50
180.3548505519
 51
269.9999998384
  0
ARC
  5
36C
100
AcDbEntity
  8
0
100
AcDbCircle
 62
7
  6
CONTINUOUS
 10
7.8156211151
 20
9.1515325486
 40
0.084999616
100
AcDbArc
 50
141.8442478168
 51
180.352131236
  0
ARC
  5
36D
100
AcDbEntity
  8
0
100
AcDbCircle
 62
9
  6
CONTINUOUS
 10
7.9202289115
 20
9.1954170969
 40
0.0849335535
100
AcDbArc
 50
0.3758911297
 51
29.5439210979
  0
ARC
  5
36E
100
AcDbEntity
  8
0
100
AcDbCircle
 62
9
  6
CONTINUOUS
 10
7.9211452746
 20
9.1754950645
 40
0.0841401676
100
AcDbArc
 50
321.8676563461
 51
0.3797051831
  0
ARC
  5
36F
100
AcDbEntity
  8
0
100
AcDbCircle
 62
9
  6
CONTINUOUS
 10
7.8862285301
 20
9.131053134
 40
0.0841401676
100
AcDbArc
 50
321.8676563398
 51
0.3797051959
  0
ARC
  5
370
100
AcDbEntity
  8
0
100
AcDbCircle
 62
9
  6
CONTINUOUS
 10
7.8498065702
 20
9.1965241887
 40
0.0840827801
100
AcDbArc
 50
112.5181366094
 51
141.8309352414
  0
ARC
  5
371
100
AcDbEntity
  8
0
100
AcDbCircle
 62
9
  6
CONTINUOUS
 10
7.8148690147
 20
9.1521013351
 40
0.0840546296
100
AcDbArc
 50
109.3762219939
 51
141.8323920834
  0
ARC
  5
372
100
AcDbEntity
  8
0
100
AcDbCircle
 62
7
  6
CONTINUOUS
 10
9.5341050908
 20
7.5505110229
 40
0.08
100
AcDbArc
 50
0.0
 51
90.0
  0
ARC
  5
373
100
AcDbEntity
  8
0
100
AcDbCircle
 62
7
  6
CONTINUOUS
 10
7.2151050908
 20
6.563542519
 40
0.056
100
AcDbArc
 50
90.0
 51
180.0
  0
ARC
  5
374
100
AcDbEntity
  8
0
100
AcDbCircle
 62
7
  6
CONTINUOUS
 10
7.44717232
 20
9.1047236214
 40
0.0511811024
100
AcDbArc
 50
270.0
 51
325.6957080075
  0
ARC
  5
375
100
AcDbEntity
  8
0
100
AcDbCircle
 62
7
  6
CONTINUOUS
 10
7.3466050908
 20
7.793542519
 40
0.05
100
AcDbArc
 50
270.0
 51
353.0751017558
  0
ARC
  5
376
100
AcDbEntity
  8
0
100
AcDbCircle
 62
7
  6
CONTINUOUS
 10
7.2626050908
 20
6.690542519
 40
0.047
100
AcDbArc
 50
270.0
 51
360.0
  0
ARC
  5
377
100
AcDbEntity
  8
0
100
AcDbCircle
 62
7
  6
CONTINUOUS
 10
9.4591050908
 20
7.6605110229
 40
0.03
100
AcDbArc
 50
180.0
 51
270.0
  0
ARC
  5
378
100
AcDbEntity
  8
0
100
AcDbCircle
 62
7
  6
CONTINUOUS
 10
9.6444200514
 20
7.5308259836
 40
0.0196850394
100
AcDbArc
 50
0.0
 51
90.0
  0
ARC
  5
379
100
AcDbEntity
  8
0
100
AcDbCircle
 62
7
  6
CONTINUOUS
 10
10.534603785
 20
-24.4107027886
 40
34.3795108656
100
AcDbArc
 50
85.2638773722
 51
85.6495328477
  0
ARC
  5
37A
100
AcDbEntity
  8
0
100
AcDbCircle
 62
7
  6
CONTINUOUS
 10
10.8168876697
 20
2.684109269
 40
0.1272167985
100
AcDbArc
 50
359.9881242505
 51
3.2054513584
  0
ARC
  5
37B
100
AcDbEntity
  8
0
100
AcDbCircle
 62
9
  6
CONTINUOUS
 10
10.8254467113
 20
2.6841890237
 40
0.1186509518
100
AcDbArc
 50
350.8883357044
 51
0.0069503242
  0
ARC
  5
37C
100
AcDbEntity
  8
0
100
AcDbCircle
 62
7
  6
CONTINUOUS
 10
10.4241050908
 20
7.5505110229
 40
0.08
100
AcDbArc
 50
90.0
 51
180.0
  0
ARC
  5
37D
100
AcDbEntity
  8
0
100
AcDbCircle
 62
7
  6
CONTINUOUS
 10
10.4991050908
 20
7.6605110229
 40
0.03
100
AcDbArc
 50
270.0
 51
360.0
  0
ARC
  5
37E
100
AcDbEntity
  8
0
100
AcDbCircle
 62
7
  6
CONTINUOUS
 10
10.3137901301
 20
7.5308259836
 40
0.0196850394
100
AcDbArc
 50
90.0
 51
180.0
  0
ARC
  5
37F
100
AcDbEntity
  8
0
100
AcDbCircle
 62
7
  6
CONTINUOUS
 10
10.8070710606
 20
8.72405433
 40
1.5
100
AcDbArc
 50
64.2163806705
 51
90.0
  0
ARC
  5
380
100
AcDbEntity
  8
0
100
AcDbCircle
 62
9
  6
CONTINUOUS
 10
10.9468325608
 20
9.1514314961
 40
1.2016851089
100
AcDbArc
 50
359.6463897201
 51
1.2186138433
  0
ARC
  5
381
100
AcDbEntity
  8
0
100
AcDbCircle
 62
9
  6
CONTINUOUS
 10
10.0598271796
 20
9.1710064015
 40
0.6830472583
100
AcDbArc
 50
191.2906463405
 51
202.3219247098
  0
ARC
  5
382
100
AcDbEntity
  8
0
100
AcDbCircle
 62
9
  6
CONTINUOUS
 10
10.0377518672
 20
9.1625731316
 40
0.6594233878
100
AcDbArc
 50
202.3725898082
 51
202.9138530182
  0
ARC
  5
383
100
AcDbEntity
  8
0
100
AcDbCircle
 62
9
  6
CONTINUOUS
 10
10.1204131137
 20
9.6454775522
 40
0.5980955674
100
AcDbArc
 50
302.1822793789
 51
302.957025137
  0
ARC
  5
384
100
AcDbEntity
  8
0
100
AcDbCircle
 62
7
  6
CONTINUOUS
 10
11.2955315858
 20
9.62805433
 40
0.425
100
AcDbArc
 50
292.0191155054
 51
301.9657187508
  0
ARC
  5
385
100
AcDbEntity
  8
0
100
AcDbCircle
 62
9
  6
CONTINUOUS
 10
10.7208883185
 20
8.9411563399
 40
0.2918534967
100
AcDbArc
 50
135.3976457398
 51
143.535240038
  0
ARC
  5
386
100
AcDbEntity
  8
0
100
AcDbCircle
 62
7
  6
CONTINUOUS
 10
10.7792059997
 20
8.9049698977
 40
0.2501046536
100
AcDbArc
 50
104.8499963552
 51
179.9799854082
  0
ARC
  5
387
100
AcDbEntity
  8
0
100
AcDbCircle
 62
7
  6
CONTINUOUS
 10
12.8991050908
 20
7.0406029963
 40
0.375
100
AcDbArc
 50
142.2371948106
 51
228.0871091166
  0
ARC
  5
388
100
AcDbEntity
  8
0
100
AcDbCircle
 62
7
  6
CONTINUOUS
 10
12.3197237386
 20
7.4894151231
 40
0.3578813522
100
AcDbArc
 50
322.2371948106
 51
30.9635622202
  0
ARC
  5
389
100
AcDbEntity
  8
0
100
AcDbCircle
 62
7
  6
CONTINUOUS
 10
12.7431050908
 20
6.563542519
 40
0.056
100
AcDbArc
 50
0.0
 51
90.0
  0
ARC
  5
38A
100
AcDbEntity
  8
0
100
AcDbCircle
 62
7
  6
CONTINUOUS
 10
12.6116050908
 20
7.793542519
 40
0.05
100
AcDbArc
 50
186.9248982442
 51
270.0
  0
ARC
  5
38B
100
AcDbEntity
  8
0
100
AcDbCircle
 62
7
  6
CONTINUOUS
 10
12.6956050908
 20
6.690542519
 40
0.047
100
AcDbArc
 50
180.0
 51
270.0
  0
ARC
  5
38C
100
AcDbEntity
  8
0
100
AcDbCircle
 62
9
  6
CONTINUOUS
 10
12.1493988237
 20
9.4064554481
 40
0.837560329
100
AcDbArc
 50
87.8807955789
 51
90.0702838507
  0
ARC
  5
38D
100
AcDbEntity
  8
0
100
AcDbCircle
 62
7
  6
CONTINUOUS
 10
11.9891436293
 20
8.6139960161
 40
0.469
100
AcDbArc
 50
6.9248982442
 51
37.9660022518
  0
ARC
  5
38E
100
AcDbEntity
  8
0
100
AcDbCircle
 62
7
  6
CONTINUOUS
 10
11.7631455133
 20
8.8919151295
 40
0.433
100
AcDbArc
 50
57.9057842818
 51
118.0498776996
  0
ARC
  5
38F
100
AcDbEntity
  8
0
100
AcDbCircle
 62
7
  6
CONTINUOUS
 10
12.2179156211
 20
9.0810007598
 40
0.2508960713
100
AcDbArc
 50
358.8300330019
 51
2.9284925763
  0
ARC
  5
390
100
AcDbEntity
  8
0
100
AcDbCircle
 62
7
  6
CONTINUOUS
 10
12.2189320894
 20
9.0812323623
 40
0.2498703278
100
AcDbArc
 50
2.8873626656
 51
39.944316844
  0
ARC
  5
391
100
AcDbEntity
  8
0
100
AcDbCircle
 62
7
  6
CONTINUOUS
 10
12.1234223293
 20
9.1560760302
 40
0.1045375013
100
AcDbArc
 50
87.1985603071
 51
89.7203672169
  0
ARC
  5
392
100
AcDbEntity
  8
0
100
AcDbCircle
 62
7
  6
CONTINUOUS
 10
12.4326050908
 20
8.960042519
 40
0.0935
100
AcDbArc
 50
90.0
 51
217.9660022518
  0
ARC
  5
393
100
AcDbEntity
  8
0
100
AcDbCircle
 62
9
  6
CONTINUOUS
 10
12.0380935166
 20
9.1953942997
 40
0.0850459501
100
AcDbArc
 50
127.8752920406
 51
179.609246715
  0
ARC
  5
394
100
AcDbEntity
  8
0
100
AcDbCircle
 62
9
  6
CONTINUOUS
 10
12.1079652913
 20
9.1956795038
 40
0.0850169962
100
AcDbArc
 50
50.767487748
 51
70.6936171293
  0
ARC
  5
395
100
AcDbEntity
  8
0
100
AcDbCircle
 62
7
  6
CONTINUOUS
 10
12.072640272
 20
9.131619835
 40
0.0850085555
100
AcDbArc
 50
218.1586799183
 51
269.9970200145
  0
ARC
  5
396
100
AcDbEntity
  8
0
100
AcDbCircle
 62
7
  6
CONTINUOUS
 10
12.1425884852
 20
9.151532293
 40
0.0850002309
100
AcDbArc
 50
359.645203984
 51
38.1556455536
  0
ARC
  5
397
100
AcDbEntity
  8
0
100
AcDbCircle
 62
7
  6
CONTINUOUS
 10
12.142510842
 20
9.1315590075
 40
0.0849307472
100
AcDbArc
 50
270.0335175859
 51
359.6329573068
  0
ARC
  5
398
100
AcDbEntity
  8
0
100
AcDbCircle
 62
9
  6
CONTINUOUS
 10
12.037064907
 20
9.1754950644
 40
0.08414017
100
AcDbArc
 50
179.620294803
 51
218.1323436305
  0
ARC
  5
399
100
AcDbEntity
  8
0
100
AcDbCircle
 62
9
  6
CONTINUOUS
 10
12.0719816515
 20
9.131053134
 40
0.0841401677
100
AcDbArc
 50
179.6202948187
 51
218.1323436525
  0
ARC
  5
39A
100
AcDbEntity
  8
0
100
AcDbCircle
 62
9
  6
CONTINUOUS
 10
12.1434743974
 20
9.152257462
 40
0.0838534118
100
AcDbArc
 50
38.1399921064
 51
90.0512370531
  0
ARC
  5
39B
100
AcDbEntity
  8
0
100
AcDbCircle
 62
9
  6
CONTINUOUS
 10
12.1089349391
 20
9.1970084104
 40
0.0833744199
100
AcDbArc
 50
38.1330954448
 51
50.7060395435
  0
ARC
  5
39C
100
AcDbEntity
  8
0
100
AcDbCircle
 62
9
  6
CONTINUOUS
 10
12.1085791903
 20
9.197559886
 40
0.0830394027
100
AcDbArc
 50
70.6644203664
 51
76.0971551446
  0
ARC
  5
39D
100
AcDbEntity
  8
0
100
AcDbCircle
 62
7
  6
CONTINUOUS
 10
12.5110378615
 20
9.1047236214
 40
0.0511811024
100
AcDbArc
 50
214.3042919928
 51
270.0
  0
ARC
  5
39E
100
AcDbEntity
  8
0
100
AcDbCircle
 62
7
  6
CONTINUOUS
 10
12.8775315858
 20
9.30530433
 40
0.035
100
AcDbArc
 50
177.9532869023
 51
265.9039562418
  0
ARC
  5
39F
100
AcDbEntity
  8
0
100
AcDbCircle
 62
7
  6
CONTINUOUS
 10
12.8775315858
 20
9.30530433
 40
0.035
100
AcDbArc
 50
274.0960437582
 51
332.7298233178
  0
ARC
  5
3A0
100
AcDbEntity
  8
0
100
AcDbCircle
 62
7
  6
CONTINUOUS
 10
13.9362956807
 20
5.3788918166
 40
1.5
100
AcDbArc
 50
79.0
 51
109.7628054576
  0
ARC
  5
3A1
100
AcDbEntity
  8
0
100
AcDbCircle
 62
7
  6
CONTINUOUS
 10
14.4896276196
 20
9.5055119761
 40
2.3239630062
100
AcDbArc
 50
183.784726947
 51
184.5226287008
  0
ARC
  5
3A2
100
AcDbEntity
  8
0
100
AcDbCircle
 62
7
  6
CONTINUOUS
 10
13.9362956807
 20
8.7021932214
 40
1.5
100
AcDbArc
 50
250.2371945424
 51
281.0
  0
ARC
  5
3A3
100
AcDbEntity
  8
0
100
AcDbCircle
 62
7
  6
CONTINUOUS
 10
13.9690665523
 20
8.6139960161
 40
0.469
100
AcDbArc
 50
142.0339977482
 51
173.0751017558
  0
ARC
  5
3A4
100
AcDbEntity
  8
0
100
AcDbCircle
 62
7
  6
CONTINUOUS
 10
13.638486443
 20
7.4894151231
 40
0.3578813522
100
AcDbArc
 50
149.0364377798
 51
217.7628051894
  0
ARC
  5
3A5
100
AcDbEntity
  8
0
100
AcDbCircle
 62
7
  6
CONTINUOUS
 10
15.3370685614
 20
7.127542519
 40
0.313
100
AcDbArc
 50
24.842656017
 51
101.0
  0
ARC
  5
3A6
100
AcDbEntity
  8
0
100
AcDbCircle
 62
7
  6
CONTINUOUS
 10
15.3370685614
 20
6.953542519
 40
0.313
100
AcDbArc
 50
259.0
 51
335.157343983
  0
ARC
  5
3A7
100
AcDbEntity
  8
0
100
AcDbCircle
 62
7
  6
CONTINUOUS
 10
15.8661334338
 20
7.040542519
 40
0.249971657
100
AcDbArc
 50
288.1750968409
 51
71.8249031591
  0
ARC
  5
3A8
100
AcDbEntity
  8
0
100
AcDbCircle
 62
7
  6
CONTINUOUS
 10
15.7162050382
 20
6.938042519
 40
0.15
100
AcDbArc
 50
230.6541702339
 51
310.7138348861
  0
ARC
  5
3A9
100
AcDbEntity
  8
0
100
AcDbCircle
 62
7
  6
CONTINUOUS
 10
15.7162050382
 20
7.143042519
 40
0.15
100
AcDbArc
 50
49.2861651139
 51
129.3458297661
  0
ARC
  5
3AA
100
AcDbEntity
  8
0
100
AcDbCircle
 62
7
  6
CONTINUOUS
 10
13.5256050908
 20
8.960042519
 40
0.0935
100
AcDbArc
 50
322.0339977482
 51
90.0
  0
ARC
  5
3AB
100
AcDbEntity
  8
0
100
AcDbCircle
 62
7
  6
CONTINUOUS
 10
15.8701434597
 20
7.3219250569
 40
0.086
100
AcDbArc
 50
229.2861651143
 51
329.3187124065
  0
ARC
  5
3AC
100
AcDbEntity
  8
0
100
AcDbCircle
 62
7
  6
CONTINUOUS
 10
15.8701434597
 20
6.7591599811
 40
0.086
100
AcDbArc
 50
30.6812875935
 51
130.7138348857
  0
ARC
  5
3AD
100
AcDbEntity
  8
0
100
AcDbCircle
 62
7
  6
CONTINUOUS
 10
13.2151050908
 20
6.563542519
 40
0.056
100
AcDbArc
 50
90.0
 51
180.0
  0
ARC
  5
3AE
100
AcDbEntity
  8
0
100
AcDbCircle
 62
7
  6
CONTINUOUS
 10
13.44717232
 20
9.1047236214
 40
0.0511811024
100
AcDbArc
 50
270.0
 51
351.3638693749
  0
ARC
  5
3AF
100
AcDbEntity
  8
0
100
AcDbCircle
 62
7
  6
CONTINUOUS
 10
13.3466050908
 20
7.793542519
 40
0.05
100
AcDbArc
 50
270.0
 51
353.0751017558
  0
ARC
  5
3B0
100
AcDbEntity
  8
0
100
AcDbCircle
 62
7
  6
CONTINUOUS
 10
13.2626050908
 20
6.690542519
 40
0.047
100
AcDbArc
 50
270.0
 51
360.0
  0
ARC
  5
3B1
100
AcDbEntity
  8
0
100
AcDbCircle
 62
7
  6
CONTINUOUS
 10
13.3725315858
 20
9.2933889599
 40
0.02
100
AcDbArc
 50
271.9382038126
 51
360.0
  0
ARC
  5
3B2
100
AcDbEntity
  8
0
100
AcDbCircle
 62
7
  6
CONTINUOUS
 10
7.2741044549
 20
9.7791051949
 40
4.9306812842
100
AcDbArc
 50
2.1501974143
 51
2.764039011
  0
ARC
  5
3B3
100
AcDbEntity
  8
0
100
AcDbCircle
 62
7
  6
CONTINUOUS
 10
6.3343615657
 20
9.9326222633
 40
1.455357239
100
AcDbArc
 50
4.5067011648
 51
5.8661848521
  0
ARC
  5
3B4
100
AcDbEntity
  8
0
100
AcDbCircle
 62
7
  6
CONTINUOUS
 10
6.5895849222
 20
9.9671187314
 40
1.4398801877
100
AcDbArc
 50
5.1648638696
 51
6.2013171855
  0
ARC
  5
3B5
100
AcDbEntity
  8
0
100
AcDbCircle
 62
7
  6
CONTINUOUS
 10
6.1115315858
 20
9.68405433
 40
1.04
100
AcDbArc
 50
19.2273138642
 51
340.7922279637
  0
ARC
  5
3B6
100
AcDbEntity
  8
0
100
AcDbCircle
 62
9
  6
CONTINUOUS
 10
6.1115315858
 20
9.68405433
 40
1.0277893215
100
AcDbArc
 50
19.4427643499
 51
340.5556411479
  0
ARC
  5
3B7
100
AcDbEntity
  8
0
100
AcDbCircle
 62
9
  6
CONTINUOUS
 10
6.1115315858
 20
9.68405433
 40
0.840293406
100
AcDbArc
 50
23.9306738939
 51
336.0657848045
  0
ARC
  5
3B8
100
AcDbEntity
  8
0
100
AcDbCircle
 62
9
  6
CONTINUOUS
 10
6.1115315858
 20
9.68405433
 40
0.7923149729
100
AcDbArc
 50
25.6561591988
 51
334.4730139884
  0
CIRCLE
  5
3B9
100
AcDbEntity
  8
0
100
AcDbCircle
 62
9
  6
CONTINUOUS
 10
6.1115315858
 20
9.68405433
 40
0.0291338583
  0
ARC
  5
3BA
100
AcDbEntity
  8
0
100
AcDbCircle
 62
7
  6
CONTINUOUS
 10
7.44717232
 20
10.2633850387
 40
0.0511811024
100
AcDbArc
 50
34.3042919926
 51
90.0
  0
ARC
  5
3BB
100
AcDbEntity
  8
0
100
AcDbCircle
 62
9
  6
CONTINUOUS
 10
7.8088113578
 20
9.9616532119
 40
0.837560329
100
AcDbArc
 50
267.8807955788
 51
270.0702838507
  0
ARC
  5
3BC
100
AcDbEntity
  8
0
100
AcDbCircle
 62
9
  6
CONTINUOUS
 10
7.6554686306
 20
10.0762401343
 40
0.3648035721
100
AcDbArc
 50
9.6848821556
 51
10.4115929167
  0
ARC
  5
3BD
100
AcDbEntity
  8
0
100
AcDbCircle
 62
9
  6
CONTINUOUS
 10
7.7020266061
 20
10.0847065878
 40
0.3174821471
100
AcDbArc
 50
10.4272610098
 51
10.6887118128
  0
ARC
  5
3BE
100
AcDbEntity
  8
0
100
AcDbCircle
 62
7
  6
CONTINUOUS
 10
8.621992111
 20
10.64405433
 40
1.5
100
AcDbArc
 50
245.1460277411
 51
270.0
  0
ARC
  5
3BF
100
AcDbEntity
  8
0
100
AcDbCircle
 62
9
  6
CONTINUOUS
 10
9.0113776207
 20
10.2166771639
 40
1.2016851089
100
AcDbArc
 50
179.6463897201
 51
181.2186138433
  0
ARC
  5
3C0
100
AcDbEntity
  8
0
100
AcDbCircle
 62
7
  6
CONTINUOUS
 10
7.6660320395
 20
10.37405433
 40
0.35
100
AcDbArc
 50
270.0
 51
306.7869734806
  0
ARC
  5
3C1
100
AcDbEntity
  8
0
100
AcDbCircle
 62
7
  6
CONTINUOUS
 10
7.7395204482
 20
10.2883986306
 40
0.2514531531
100
AcDbArc
 50
257.4699652911
 51
275.1076362228
  0
ARC
  5
3C2
100
AcDbEntity
  8
0
100
AcDbCircle
 62
7
  6
CONTINUOUS
 10
7.7393784517
 20
10.2869158141
 40
0.2499753588
100
AcDbArc
 50
178.8300120531
 51
257.4280011725
  0
ARC
  5
3C3
100
AcDbEntity
  8
0
100
AcDbCircle
 62
9
  6
CONTINUOUS
 10
7.8500875846
 20
10.172546966
 40
0.0850795842
100
AcDbArc
 50
247.5552834448
 51
269.9503337871
  0
ARC
  5
3C4
100
AcDbEntity
  8
0
100
AcDbCircle
 62
7
  6
CONTINUOUS
 10
7.8855699095
 20
10.236488825
 40
0.0850085555
100
AcDbArc
 50
38.1586799297
 51
89.9970200112
  0
ARC
  5
3C5
100
AcDbEntity
  8
0
100
AcDbCircle
 62
7
  6
CONTINUOUS
 10
7.8156214779
 20
10.2165762939
 40
0.0850000139
100
AcDbArc
 50
179.662054736
 51
218.1556977803
  0
ARC
  5
3C6
100
AcDbEntity
  8
0
100
AcDbCircle
 62
7
  6
CONTINUOUS
 10
7.8157448477
 20
10.2364979212
 40
0.0850000003
100
AcDbArc
 50
90.0000002052
 51
179.6451494044
  0
ARC
  5
3C7
100
AcDbEntity
  8
0
100
AcDbCircle
 62
9
  6
CONTINUOUS
 10
7.9202253627
 20
10.1726879926
 40
0.0849370789
100
AcDbArc
 50
327.1152012403
 51
359.6265330703
  0
ARC
  5
3C8
100
AcDbEntity
  8
0
100
AcDbCircle
 62
9
  6
CONTINUOUS
 10
7.9211452746
 20
10.1926135956
 40
0.0841401676
100
AcDbArc
 50
359.6202948018
 51
38.1323436638
  0
ARC
  5
3C9
100
AcDbEntity
  8
0
100
AcDbCircle
 62
9
  6
CONTINUOUS
 10
7.8498065702
 20
10.1715844713
 40
0.0840827801
100
AcDbArc
 50
218.1690647585
 51
247.4818633905
  0
ARC
  5
3CA
100
AcDbEntity
  8
0
100
AcDbCircle
 62
9
  6
CONTINUOUS
 10
7.8147357842
 20
10.2158511981
 40
0.0838534118
100
AcDbArc
 50
218.1399920939
 51
270.0512370531
  0
ARC
  5
3CB
100
AcDbEntity
  8
0
100
AcDbCircle
 62
9
  6
CONTINUOUS
 10
7.88719645
 20
10.2370062145
 40
0.0831723784
100
AcDbArc
 50
359.6498450236
 51
38.1419812103
  0
ARC
  5
3CC
100
AcDbEntity
  8
0
100
AcDbCircle
 62
7
  6
CONTINUOUS
 10
6.3758912423
 20
11.8264949334
 40
1.0128794519
100
AcDbArc
 50
258.0953122671
 51
260.2984112027
  0
ARC
  5
3CD
100
AcDbEntity
  8
0
100
AcDbCircle
 62
7
  6
CONTINUOUS
 10
6.3738701094
 20
11.8147581925
 40
1.0009699659
100
AcDbArc
 50
260.2992349638
 51
265.125923275
  0
ARC
  5
3CE
100
AcDbEntity
  8
0
100
AcDbCircle
 62
7
  6
CONTINUOUS
 10
6.3735109177
 20
11.7730722923
 40
0.9981723398
100
AcDbArc
 50
93.8809589116
 51
99.7527172589
  0
ARC
  5
3CF
100
AcDbEntity
  8
0
100
AcDbCircle
 62
7
  6
CONTINUOUS
 10
6.3731018007
 20
11.8067550479
 40
0.9929304855
100
AcDbArc
 50
265.1308589173
 51
269.9967862488
  0
ARC
  5
3D0
100
AcDbEntity
  8
0
100
AcDbCircle
 62
7
  6
CONTINUOUS
 10
6.3730563151
 20
11.7796623866
 40
0.9915665886
100
AcDbArc
 50
90.0005837434
 51
93.8805245019
  0
ARC
  5
3D1
100
AcDbEntity
  8
0
100
AcDbCircle
 62
7
  6
CONTINUOUS
 10
6.3591798415
 20
11.8054536893
 40
0.9883593781
100
AcDbArc
 50
255.4034715604
 51
257.5704043869
  0
ARC
  5
3D2
100
AcDbEntity
  8
0
100
AcDbCircle
 62
7
  6
CONTINUOUS
 10
6.3591751158
 20
11.7796058232
 40
0.988352294
100
AcDbArc
 50
102.4296670426
 51
104.7543288092
  0
ARC
  5
3D3
100
AcDbEntity
  8
0
100
AcDbCircle
 62
7
  6
CONTINUOUS
 10
6.3727765139
 20
11.8019014071
 40
0.9880705493
100
AcDbArc
 50
270.0124880685
 51
270.7145942061
  0
ARC
  5
3D4
100
AcDbEntity
  8
0
100
AcDbCircle
 62
7
  6
CONTINUOUS
 10
6.9083210615
 20
11.7924186651
 40
0.5326574152
100
AcDbArc
 50
201.5757233415
 51
204.7947180441
  0
ARC
  5
3D5
100
AcDbEntity
  8
0
100
AcDbCircle
 62
7
  6
CONTINUOUS
 10
9.6327964142
 20
9.68405433
 40
3.9093008025
100
AcDbArc
 50
351.3638693749
 51
356.027781181
  0
ARC
  5
3D6
100
AcDbEntity
  8
0
100
AcDbCircle
 62
7
  6
CONTINUOUS
 10
9.6327964142
 20
9.68405433
 40
3.9093008025
100
AcDbArc
 50
3.9722162833
 51
8.636130625
  0
ARC
  5
3D7
100
AcDbEntity
  8
0
100
AcDbCircle
 62
7
  6
CONTINUOUS
 10
9.5045248512
 20
9.8863382924
 40
2.6976847072
100
AcDbArc
 50
2.7735738721
 51
3.1079941669
  0
ARC
  5
3D8
100
AcDbEntity
  8
0
100
AcDbCircle
 62
7
  6
CONTINUOUS
 10
10.8070710606
 20
10.64405433
 40
1.5
100
AcDbArc
 50
270.0
 51
295.7836193295
  0
ARC
  5
3D9
100
AcDbEntity
  8
0
100
AcDbCircle
 62
9
  6
CONTINUOUS
 10
10.9704829477
 20
10.2164986337
 40
1.1780363189
100
AcDbArc
 50
358.7656041297
 51
0.3693923069
  0
ARC
  5
3DA
100
AcDbEntity
  8
0
100
AcDbCircle
 62
7
  6
CONTINUOUS
 10
9.9791050908
 20
9.68405433
 40
0.7283464567
100
AcDbArc
 50
53.9759954784
 51
126.0200121797
  0
ARC
  5
3DB
100
AcDbEntity
  8
0
100
AcDbCircle
 62
7
  6
CONTINUOUS
 10
9.9791090665
 20
9.684050835
 40
0.6799924429
100
AcDbArc
 50
233.2766398441
 51
307.2704622529
  0
ARC
  5
3DC
100
AcDbEntity
  8
0
100
AcDbCircle
 62
7
  6
CONTINUOUS
 10
9.9791080872
 20
9.6840664386
 40
0.6799839324
100
AcDbArc
 50
52.7526878395
 51
126.7175947732
  0
ARC
  5
3DD
100
AcDbEntity
  8
0
100
AcDbCircle
 62
7
  6
CONTINUOUS
 10
11.7631455133
 20
10.4761935305
 40
0.433
100
AcDbArc
 50
241.9501223004
 51
302.0942157182
  0
ARC
  5
3DE
100
AcDbEntity
  8
0
100
AcDbCircle
 62
7
  6
CONTINUOUS
 10
11.2955315858
 20
9.74005433
 40
0.425
100
AcDbArc
 50
58.0342812492
 51
67.9808844946
  0
ARC
  5
3DF
100
AcDbEntity
  8
0
100
AcDbCircle
 62
9
  6
CONTINUOUS
 10
10.3234448515
 20
10.1578724902
 40
0.1426252615
100
AcDbArc
 50
51.0163742744
 51
53.8664375649
  0
ARC
  5
3E0
100
AcDbEntity
  8
0
100
AcDbCircle
 62
9
  6
CONTINUOUS
 10
12.0370648968
 20
10.1926135966
 40
0.0841401635
100
AcDbArc
 50
141.867652601
 51
180.3797059235
  0
ARC
  5
3E1
100
AcDbEntity
  8
0
100
AcDbCircle
 62
7
  6
CONTINUOUS
 10
10.5346731638
 20
43.7779695718
 40
34.3786691078
100
AcDbArc
 50
274.3504579169
 51
274.736098493
  0
ARC
  5
3E2
100
AcDbEntity
  8
0
100
AcDbCircle
 62
7
  6
CONTINUOUS
 10
14.3694944053
 20
9.8712508333
 40
2.2035213713
100
AcDbArc
 50
175.4183254236
 51
176.2685333902
  0
ARC
  5
3E3
100
AcDbEntity
  8
0
100
AcDbCircle
 62
7
  6
CONTINUOUS
 10
13.6215111022
 20
9.9328513928
 40
1.4530085478
100
AcDbArc
 50
174.1333822949
 51
175.4835753595
  0
ARC
  5
3E4
100
AcDbEntity
  8
0
100
AcDbCircle
 62
9
  6
CONTINUOUS
 10
12.1495222061
 20
9.9815748457
 40
0.837560329
100
AcDbArc
 50
269.9297161493
 51
272.1192044212
  0
ARC
  5
3E5
100
AcDbEntity
  8
0
100
AcDbCircle
 62
7
  6
CONTINUOUS
 10
12.2179204427
 20
10.287107868
 40
0.2508912515
100
AcDbArc
 50
357.0916776835
 51
1.1698379516
  0
ARC
  5
3E6
100
AcDbEntity
  8
0
100
AcDbCircle
 62
7
  6
CONTINUOUS
 10
12.2189315448
 20
10.2868765641
 40
0.2498709262
100
AcDbArc
 50
320.0557283014
 51
357.132884411
  0
ARC
  5
3E7
100
AcDbEntity
  8
0
100
AcDbCircle
 62
7
  6
CONTINUOUS
 10
12.1234223293
 20
10.2120326298
 40
0.1045375013
100
AcDbArc
 50
270.2796327832
 51
272.8014396928
  0
ARC
  5
3E8
100
AcDbEntity
  8
0
100
AcDbCircle
 62
7
  6
CONTINUOUS
 10
12.0726402689
 20
10.2364888314
 40
0.0850085481
100
AcDbArc
 50
90.0029778962
 51
141.8413221769
  0
ARC
  5
3E9
100
AcDbEntity
  8
0
100
AcDbCircle
 62
7
  6
CONTINUOUS
 10
12.1425975485
 20
10.2165732638
 40
0.084991187
100
AcDbArc
 50
321.8422246915
 51
0.3569257697
  0
ARC
  5
3EA
100
AcDbEntity
  8
0
100
AcDbCircle
 62
7
  6
CONTINUOUS
 10
12.1425105242
 20
10.2365494394
 40
0.0849311088
100
AcDbArc
 50
0.3671058411
 51
89.9238665501
  0
ARC
  5
3EB
100
AcDbEntity
  8
0
100
AcDbCircle
 62
9
  6
CONTINUOUS
 10
12.0719816515
 20
10.237055526
 40
0.0841401677
100
AcDbArc
 50
141.8676563606
 51
180.3797051715
  0
ARC
  5
3EC
100
AcDbEntity
  8
0
100
AcDbCircle
 62
9
  6
CONTINUOUS
 10
12.1434337539
 20
10.2159044715
 40
0.0839182806
100
AcDbArc
 50
269.9571972485
 51
321.8485382758
  0
ARC
  5
3ED
100
AcDbEntity
  8
0
100
AcDbCircle
 62
9
  6
CONTINUOUS
 10
12.1085731371
 20
10.1714264368
 40
0.0838604296
100
AcDbArc
 50
316.0699801144
 51
321.8442469431
  0
ARC
  5
3EE
100
AcDbEntity
  8
0
100
AcDbCircle
 62
9
  6
CONTINUOUS
 10
12.1085791903
 20
10.170548774
 40
0.0830394027
100
AcDbArc
 50
283.9028448552
 51
289.3355796333
  0
ARC
  5
3EF
100
AcDbEntity
  8
0
100
AcDbCircle
 62
7
  6
CONTINUOUS
 10
13.44717232
 20
10.2633850387
 40
0.0511811024
100
AcDbArc
 50
8.636130625
 51
90.0
  0
ARC
  5
3F0
100
AcDbEntity
  8
0
100
AcDbCircle
 62
7
  6
CONTINUOUS
 10
12.5110378615
 20
10.2633850387
 40
0.0511811024
100
AcDbArc
 50
90.0
 51
145.695708007
  0
ARC
  5
3F1
100
AcDbEntity
  8
0
100
AcDbCircle
 62
7
  6
CONTINUOUS
 10
12.8775315858
 20
10.06280433
 40
0.035
100
AcDbArc
 50
94.0960437582
 51
182.0467130977
  0
ARC
  5
3F2
100
AcDbEntity
  8
0
100
AcDbCircle
 62
7
  6
CONTINUOUS
 10
12.8775315858
 20
10.06280433
 40
0.035
100
AcDbArc
 50
27.2701766822
 51
85.9039562418
  0
ARC
  5
3F3
100
AcDbEntity
  8
0
100
AcDbCircle
 62
7
  6
CONTINUOUS
 10
13.3725315858
 20
10.0747197001
 40
0.02
100
AcDbArc
 50
0.0
 51
88.0617961874
  0
ARC
  5
3F4
100
AcDbEntity
  8
0
100
AcDbCircle
 62
7
  6
CONTINUOUS
 10
13.5823189439
 20
11.7585586055
 40
1.0128794525
100
AcDbArc
 50
78.0953113441
 51
80.298410455
  0
ARC
  5
3F5
100
AcDbEntity
  8
0
100
AcDbCircle
 62
7
  6
CONTINUOUS
 10
13.5843400772
 20
11.770295348
 40
1.0009699649
100
AcDbArc
 50
80.2992342158
 51
85.1259229569
  0
ARC
  5
3F6
100
AcDbEntity
  8
0
100
AcDbCircle
 62
7
  6
CONTINUOUS
 10
13.5846992694
 20
11.8119812471
 40
0.9981723348
100
AcDbArc
 50
273.8809576135
 51
279.752715706
  0
ARC
  5
3F7
100
AcDbEntity
  8
0
100
AcDbCircle
 62
7
  6
CONTINUOUS
 10
13.5851083861
 20
11.7782984938
 40
0.9929304833
100
AcDbArc
 50
85.1308586003
 51
89.9967865896
  0
ARC
  5
3F8
100
AcDbEntity
  8
0
100
AcDbCircle
 62
7
  6
CONTINUOUS
 10
13.5851364175
 20
11.8058138187
 40
0.9919894617
100
AcDbArc
 50
270.6808906366
 51
273.879876885
  0
ARC
  5
3F9
100
AcDbEntity
  8
0
100
AcDbCircle
 62
7
  6
CONTINUOUS
 10
13.585164353
 20
11.8041198449
 40
0.9902952756
100
AcDbArc
 50
269.9999777229
 51
270.6804391639
  0
ARC
  5
3FA
100
AcDbEntity
  8
0
100
AcDbCircle
 62
7
  6
CONTINUOUS
 10
13.5854426186
 20
11.8025182307
 40
0.9886864238
100
AcDbArc
 50
269.2853552423
 51
269.987258585
  0
ARC
  5
3FB
100
AcDbEntity
  8
0
100
AcDbCircle
 62
7
  6
CONTINUOUS
 10
13.5989841078
 20
11.7794253153
 40
0.9885392475
100
AcDbArc
 50
75.4030088363
 51
77.5700579482
  0
ARC
  5
3FC
100
AcDbEntity
  8
0
100
AcDbCircle
 62
7
  6
CONTINUOUS
 10
13.5989941554
 20
11.8055639807
 40
0.9884745752
100
AcDbArc
 50
282.4306144702
 51
284.7545630358
  0
ARC
  5
3FD
100
AcDbEntity
  8
0
100
AcDbCircle
 62
7
  6
CONTINUOUS
 10
13.0499043036
 20
11.7924117173
 40
0.5326407175
100
AcDbArc
 50
335.2064104537
 51
338.676579589
  0
ARC
  5
3FE
100
AcDbEntity
  8
0
100
AcDbCircle
 62
7
  6
CONTINUOUS
 10
17.9825315858
 20
9.68405433
 40
0.27
100
AcDbArc
 50
270.0
 51
90.0
  0
ARC
  5
3FF
100
AcDbEntity
  8
0
100
AcDbCircle
 62
7
  6
CONTINUOUS
 10
58.4079530589
 20
10.937567756
 40
46.2239278259
100
AcDbArc
 50
181.5542866377
 51
181.8176148703
  0
SPLINE
  5
400
100
AcDbEntity
  8
0
100
AcDbSpline
 62
7
  6
CONTINUOUS
 70
0
 71
3
 72
23
 73
19
 74
0
 42
0.0000001
 43
0.0000001
 44
0.0000000001
 40
0.0
 40
0.0
 40
0.0
 40
0.0
 40
0.125
 40
0.25
 40
0.375
 40
0.5
 40
0.625
 40
0.6875
 40
0.75
 40
0.8125
 40
0.84375
 40
0.875
 40
0.90625
 40
0.9375
 40
0.953125
 40
0.96875
 40
0.984375
 40
1.0
 40
1.0
 40
1.0
 40
1.0
 10
9.9791050908
 20
2.19655433
 30
0.0
 10
9.9218198201
 20
2.19655433
 30
0.0
 10
9.8102720089
 20
2.1998835644
 30
0.0
 10
9.6516930097
 20
2.2141657947
 30
0.0
 10
9.5006167333
 20
2.2370949254
 30
0.0
 10
9.3562594913
 20
2.2695235449
 30
0.0
 10
9.2416954619
 20
2.3058333623
 30
0.0
 10
9.1529192697
 20
2.3427795154
 30
0.0
 10
9.0878423133
 20
2.375891728
 30
0.0
 10
9.0349381325
 20
2.409299758
 30
0.0
 10
8.9927766721
 20
2.4425422748
 30
0.0
 10
8.96237742
 20
2.4707647653
 30
0.0
 10
8.931654052
 20
2.5056108028
 30
0.0
 10
8.9077196018
 20
2.541548351
 30
0.0
 10
8.8907683302
 20
2.576673933
 30
0.0
 10
8.8799884687
 20
2.6059497504
 30
0.0
 10
8.871444418
 20
2.6416920812
 30
0.0
 10
8.8691050908
 20
2.6697457778
 30
0.0
 10
8.8691050908
 20
2.68405433
 30
0.0
  0
SPLINE
  5
401
100
AcDbEntity
  8
0
100
AcDbSpline
 62
7
  6
CONTINUOUS
 70
0
 71
3
 72
15
 73
11
 74
0
 42
0.0000001
 43
0.0000001
 44
0.0000000001
 40
0.0
 40
0.0
 40
0.0
 40
0.0
 40
0.0822112157
 40
0.1644224313
 40
0.246633647
 40
0.3288448626
 40
0.4932672939
 40
0.6576897252
 40
0.9865345879
 40
1.0
 40
1.0
 40
1.0
 40
1.0
 10
8.8691050908
 20
2.68405433
 30
0.0
 10
8.8691050908
 20
2.6983628822
 30
0.0
 10
8.8714606099
 20
2.7264795115
 30
0.0
 10
8.8799470828
 20
2.7619805398
 30
0.0
 10
8.8908261345
 20
2.7915910882
 30
0.0
 10
8.9076275181
 20
2.826379721
 30
0.0
 10
8.9318039461
 20
2.8626586885
 30
0.0
 10
8.9722660274
 20
2.908576948
 30
0.0
 10
9.0042367967
 20
2.935245477
 30
0.0
 10
9.0261084922
 20
2.9511889507
 30
0.0
 10
9.0269692781
 20
2.9518129575
 30
0.0
  0
SPLINE
  5
402
100
AcDbEntity
  8
0
100
AcDbSpline
 62
7
  6
CONTINUOUS
 70
0
 71
3
 72
15
 73
11
 74
0
 42
0.0000001
 43
0.0000001
 44
0.0000000001
 40
0.0
 40
0.0
 40
0.0
 40
0.0
 40
0.0216203029
 40
0.3477468686
 40
0.5108101514
 40
0.6738734343
 40
0.7554050757
 40
0.8369367172
 40
0.9184683586
 40
1.0
 40
1.0
 40
1.0
 40
1.0
 10
10.9296389862
 20
2.9529692378
 30
0.0
 10
10.9310318866
 20
2.951966655
 30
0.0
 10
10.9534151546
 20
2.9357110763
 30
0.0
 10
10.9857988641
 20
2.9086959628
 30
0.0
 10
11.0265127848
 20
2.8625681571
 30
0.0
 10
11.050507454
 20
2.8264469579
 30
0.0
 10
11.0674303202
 20
2.7915465512
 30
0.0
 10
11.0782370425
 20
2.7620005642
 30
0.0
 10
11.0867684521
 20
2.7264645694
 30
0.0
 10
11.0891050908
 20
2.6983628822
 30
0.0
 10
11.0891050908
 20
2.68405433
 30
0.0
  0
SPLINE
  5
403
100
AcDbEntity
  8
0
100
AcDbSpline
 62
7
  6
CONTINUOUS
 70
0
 71
3
 72
21
 73
17
 74
0
 42
0.0000001
 43
0.0000001
 44
0.0000000001
 40
0.0
 40
0.0
 40
0.0
 40
0.0
 40
0.015625
 40
0.03125
 40
0.0625
 40
0.09375
 40
0.125
 40
0.1875
 40
0.25
 40
0.3125
 40
0.375
 40
0.5
 40
0.625
 40
0.75
 40
0.875
 40
1.0
 40
1.0
 40
1.0
 40
1.0
 10
11.0891050908
 20
2.68405433
 30
0.0
 10
11.0891050908
 20
2.6697457778
 30
0.0
 10
11.0867543378
 20
2.64158737
 30
0.0
 10
11.0754164453
 20
2.5943946536
 30
0.0
 10
11.0553476591
 20
2.5491077253
 30
0.0
 10
11.02647175
 20
2.5054396059
 30
0.0
 10
10.9858225786
 20
2.45947097
 30
0.0
 10
10.9341021866
 20
2.4162732529
 30
0.0
 10
10.8703075878
 20
2.3758258419
 30
0.0
 10
10.8052827325
 20
2.3427511706
 30
0.0
 10
10.716519245
 20
2.3058497134
 30
0.0
 10
10.6019508592
 20
2.2695181085
 30
0.0
 10
10.4575873761
 20
2.2370959623
 30
0.0
 10
10.3065412918
 20
2.2141670834
 30
0.0
 10
10.1478477651
 20
2.1998773728
 30
0.0
 10
10.0363903614
 20
2.19655433
 30
0.0
 10
9.9791050908
 20
2.19655433
 30
0.0
  0
SPLINE
  5
404
100
AcDbEntity
  8
0
100
AcDbSpline
 62
7
  6
CONTINUOUS
 70
0
 71
3
 72
9
 73
5
 74
0
 42
0.0000001
 43
0.0000001
 44
0.0000000001
 40
0.0
 40
0.0
 40
0.0
 40
0.0
 40
0.4239045207
 40
1.0
 40
1.0
 40
1.0
 40
1.0
 10
7.7752295001
 20
10.1309851975
 30
0.0
 10
7.7759358226
 20
10.1275432291
 30
0.0
 10
7.7773805016
 20
10.1193783983
 30
0.0
 10
7.7785527157
 20
10.1111718574
 30
0.0
 10
7.7791794544
 20
10.1064379803
 30
0.0
  0
LINE
  5
405
100
AcDbEntity
  8
0
100
AcDbLine
 62
7
  6
CONTINUOUS
 10
7.7791794544
 20
10.1064379803
 11
7.7820975507
 21
10.0813677187
  0
LINE
  5
406
100
AcDbEntity
  8
0
100
AcDbLine
 62
7
  6
CONTINUOUS
 10
7.7821934475
 20
9.2876731961
 11
7.7792536707
 21
9.2622329268
  0
SPLINE
  5
407
100
AcDbEntity
  8
0
100
AcDbSpline
 62
7
  6
CONTINUOUS
 70
0
 71
3
 72
9
 73
5
 74
0
 42
0.0000001
 43
0.0000001
 44
0.0000000001
 40
0.0
 40
0.0
 40
0.0
 40
0.0
 40
0.5767659838
 40
1.0
 40
1.0
 40
1.0
 40
1.0
 10
7.7792536707
 20
9.2622329268
 30
0.0
 10
7.7786163275
 20
9.257386487
 30
0.0
 10
7.7774245718
 20
9.2489945684
 30
0.0
 10
7.7759518967
 20
9.2406454102
 30
0.0
 10
7.7752312525
 20
9.2371315827
 30
0.0
  0
SPLINE
  5
408
100
AcDbEntity
  8
0
100
AcDbSpline
 62
7
  6
CONTINUOUS
 70
0
 71
3
 72
9
 73
5
 74
0
 42
0.0000001
 43
0.0000001
 44
0.0000000001
 40
0.0
 40
0.0
 40
0.0
 40
0.0
 40
0.5371589634
 40
1.0
 40
1.0
 40
1.0
 40
1.0
 10
7.9873295334
 20
10.2445690421
 30
0.0
 10
7.990185471
 20
10.240934013
 30
0.0
 10
7.9950157427
 20
10.2337689982
 30
0.0
 10
7.9988927692
 20
10.2260683163
 30
0.0
 10
8.000523395
 20
10.2224342078
 30
0.0
  0
SPLINE
  5
409
100
AcDbEntity
  8
0
100
AcDbSpline
 62
7
  6
CONTINUOUS
 70
0
 71
3
 72
10
 73
6
 74
0
 42
0.0000001
 43
0.0000001
 44
0.0000000001
 40
0.0
 40
0.0
 40
0.0
 40
0.0
 40
0.2748244376
 40
0.51822172
 40
1.0
 40
1.0
 40
1.0
 40
1.0
 10
8.000523395
 20
10.2224342078
 30
0.0
 10
8.0021238183
 20
10.2188674103
 30
0.0
 10
8.0048472805
 20
10.2120022573
 30
0.0
 10
8.0089007821
 20
10.1983586487
 30
0.0
 10
8.0112130914
 20
10.1882947164
 30
0.0
 10
8.0125498022
 20
10.1815730068
 30
0.0
  0
SPLINE
  5
40A
100
AcDbEntity
  8
0
100
AcDbSpline
 62
7
  6
CONTINUOUS
 70
0
 71
3
 72
9
 73
5
 74
0
 42
0.0000001
 43
0.0000001
 44
0.0000000001
 40
0.0
 40
0.0
 40
0.0
 40
0.0
 40
0.2379518412
 40
1.0
 40
1.0
 40
1.0
 40
1.0
 10
8.0125498022
 20
10.1815730068
 30
0.0
 10
8.0129525781
 20
10.17954763
 30
0.0
 10
8.0145727153
 20
10.1710214588
 30
0.0
 10
8.0159308752
 20
10.1624471674
 30
0.0
 10
8.0168782359
 20
10.1559020271
 30
0.0
  0
SPLINE
  5
40B
100
AcDbEntity
  8
0
100
AcDbSpline
 62
7
  6
CONTINUOUS
 70
0
 71
3
 72
9
 73
5
 74
0
 42
0.0000001
 43
0.0000001
 44
0.0000000001
 40
0.0
 40
0.0
 40
0.0
 40
0.0
 40
0.2349265484
 40
1.0
 40
1.0
 40
1.0
 40
1.0
 10
8.0168782359
 20
10.1559020271
 30
0.0
 10
8.0172540826
 20
10.1533053712
 30
0.0
 10
8.0187939341
 20
10.1422436356
 30
0.0
 10
8.0201144332
 20
10.1311520566
 30
0.0
 10
8.0210396235
 20
10.122657772
 30
0.0
  0
SPLINE
  5
40C
100
AcDbEntity
  8
0
100
AcDbSpline
 62
7
  6
CONTINUOUS
 70
0
 71
3
 72
9
 73
5
 74
0
 42
0.0000001
 43
0.0000001
 44
0.0000000001
 40
0.0
 40
0.0
 40
0.0
 40
0.0
 40
0.2654232696
 40
1.0
 40
1.0
 40
1.0
 40
1.0
 10
8.0211820561
 20
9.2467656897
 30
0.0
 10
8.0208585009
 20
9.2437659726
 30
0.0
 10
8.0195991175
 20
9.2324688294
 30
0.0
 10
8.0181696742
 20
9.2211898786
 30
0.0
 10
8.0169820474
 20
9.2129246961
 30
0.0
  0
SPLINE
  5
40D
100
AcDbEntity
  8
0
100
AcDbSpline
 62
7
  6
CONTINUOUS
 70
0
 71
3
 72
9
 73
5
 74
0
 42
0.0000001
 43
0.0000001
 44
0.0000000001
 40
0.0
 40
0.0
 40
0.0
 40
0.0
 40
0.2632518702
 40
1.0
 40
1.0
 40
1.0
 40
1.0
 10
8.0169820474
 20
9.2129246961
 30
0.0
 10
8.0166524832
 20
9.210631124
 30
0.0
 10
8.0153594915
 20
9.2019248404
 30
0.0
 10
8.0138772472
 20
9.1932449632
 30
0.0
 10
8.0126184886
 20
9.1868834871
 30
0.0
  0
SPLINE
  5
40E
100
AcDbEntity
  8
0
100
AcDbSpline
 62
7
  6
CONTINUOUS
 70
0
 71
3
 72
10
 73
6
 74
0
 42
0.0000001
 43
0.0000001
 44
0.0000000001
 40
0.0
 40
0.0
 40
0.0
 40
0.0
 40
0.482176858
 40
0.725418978
 40
1.0
 40
1.0
 40
1.0
 40
1.0
 10
8.0126184886
 20
9.1868834871
 30
0.0
 10
8.0112779687
 20
9.1801088084
 30
0.0
 10
8.0089593628
 20
9.1699701185
 30
0.0
 10
8.0048916441
 20
9.1562288985
 30
0.0
 10
8.0021564771
 20
9.1493199683
 30
0.0
 10
8.0005485228
 20
9.1457309928
 30
0.0
  0
SPLINE
  5
40F
100
AcDbEntity
  8
0
100
AcDbSpline
 62
7
  6
CONTINUOUS
 70
0
 71
3
 72
9
 73
5
 74
0
 42
0.0000001
 43
0.0000001
 44
0.0000000001
 40
0.0
 40
0.0
 40
0.0
 40
0.0
 40
0.4626309283
 40
1.0
 40
1.0
 40
1.0
 40
1.0
 10
8.0005485228
 20
9.1457309928
 30
0.0
 10
7.998916779
 20
9.1420889188
 30
0.0
 10
7.995034768
 20
9.1343675427
 30
0.0
 10
7.9901934296
 20
9.1271847767
 30
0.0
 10
7.9873295334
 20
9.123539618
 30
0.0
  0
SPLINE
  5
410
100
AcDbEntity
  8
0
100
AcDbSpline
 62
7
  6
CONTINUOUS
 70
0
 71
3
 72
9
 73
5
 74
0
 42
0.0000001
 43
0.0000001
 44
0.0000000001
 40
0.0
 40
0.0
 40
0.0
 40
0.0
 40
0.5371589634
 40
1.0
 40
1.0
 40
1.0
 40
1.0
 10
11.9708806481
 20
10.2445690421
 30
0.0
 10
11.9680247105
 20
10.240934013
 30
0.0
 10
11.9631944389
 20
10.2337689982
 30
0.0
 10
11.9593174123
 20
10.2260683163
 30
0.0
 10
11.9576867865
 20
10.2224342078
 30
0.0
  0
SPLINE
  5
411
100
AcDbEntity
  8
0
100
AcDbSpline
 62
7
  6
CONTINUOUS
 70
0
 71
3
 72
10
 73
6
 74
0
 42
0.0000001
 43
0.0000001
 44
0.0000000001
 40
0.0
 40
0.0
 40
0.0
 40
0.0
 40
0.2748244376
 40
0.51822172
 40
1.0
 40
1.0
 40
1.0
 40
1.0
 10
11.9576867865
 20
10.2224342078
 30
0.0
 10
11.9560863632
 20
10.2188674103
 30
0.0
 10
11.953362901
 20
10.2120022573
 30
0.0
 10
11.9493093995
 20
10.1983586487
 30
0.0
 10
11.9469970902
 20
10.1882947164
 30
0.0
 10
11.9456603794
 20
10.1815730068
 30
0.0
  0
SPLINE
  5
412
100
AcDbEntity
  8
0
100
AcDbSpline
 62
7
  6
CONTINUOUS
 70
0
 71
3
 72
9
 73
5
 74
0
 42
0.0000001
 43
0.0000001
 44
0.0000000001
 40
0.0
 40
0.0
 40
0.0
 40
0.0
 40
0.2379518412
 40
1.0
 40
1.0
 40
1.0
 40
1.0
 10
11.9456603794
 20
10.1815730068
 30
0.0
 10
11.9452576034
 20
10.17954763
 30
0.0
 10
11.9436374662
 20
10.1710214588
 30
0.0
 10
11.9422793064
 20
10.1624471674
 30
0.0
 10
11.9413319457
 20
10.1559020271
 30
0.0
  0
SPLINE
  5
413
100
AcDbEntity
  8
0
100
AcDbSpline
 62
7
  6
CONTINUOUS
 70
0
 71
3
 72
9
 73
5
 74
0
 42
0.0000001
 43
0.0000001
 44
0.0000000001
 40
0.0
 40
0.0
 40
0.0
 40
0.0
 40
0.2349265484
 40
1.0
 40
1.0
 40
1.0
 40
1.0
 10
11.9413319457
 20
10.1559020271
 30
0.0
 10
11.940956099
 20
10.1533053712
 30
0.0
 10
11.9394162474
 20
10.1422436356
 30
0.0
 10
11.9380957484
 20
10.1311520566
 30
0.0
 10
11.9371705581
 20
10.122657772
 30
0.0
  0
SPLINE
  5
414
100
AcDbEntity
  8
0
100
AcDbSpline
 62
7
  6
CONTINUOUS
 70
0
 71
3
 72
9
 73
5
 74
0
 42
0.0000001
 43
0.0000001
 44
0.0000000001
 40
0.0
 40
0.0
 40
0.0
 40
0.0
 40
0.2353230717
 40
1.0
 40
1.0
 40
1.0
 40
1.0
 10
11.9371705581
 20
10.122657772
 30
0.0
 10
11.9367996743
 20
10.1192526433
 30
0.0
 10
11.9352832021
 20
10.1047761406
 30
0.0
 10
11.9339837239
 20
10.0902774009
 30
0.0
 10
11.9330758119
 20
10.0791841645
 30
0.0
  0
LINE
  5
415
100
AcDbEntity
  8
0
100
AcDbLine
 62
7
  6
CONTINUOUS
 10
11.9328988478
 20
9.291099878
 11
11.9330790413
 21
9.2888843472
  0
SPLINE
  5
416
100
AcDbEntity
  8
0
100
AcDbSpline
 62
7
  6
CONTINUOUS
 70
0
 71
3
 72
9
 73
5
 74
0
 42
0.0000001
 43
0.0000001
 44
0.0000000001
 40
0.0
 40
0.0
 40
0.0
 40
0.0
 40
0.2640728189
 40
1.0
 40
1.0
 40
1.0
 40
1.0
 10
11.9330790413
 20
9.2888843472
 30
0.0
 10
11.9333828523
 20
9.2851729817
 30
0.0
 10
11.9345708654
 20
9.2711218151
 30
0.0
 10
11.9359152376
 20
9.2570834008
 30
0.0
 10
11.9370281255
 20
9.2467656897
 30
0.0
  0
SPLINE
  5
417
100
AcDbEntity
  8
0
100
AcDbSpline
 62
7
  6
CONTINUOUS
 70
0
 71
3
 72
9
 73
5
 74
0
 42
0.0000001
 43
0.0000001
 44
0.0000000001
 40
0.0
 40
0.0
 40
0.0
 40
0.0
 40
0.2654232696
 40
1.0
 40
1.0
 40
1.0
 40
1.0
 10
11.9370281255
 20
9.2467656897
 30
0.0
 10
11.9373516806
 20
9.2437659726
 30
0.0
 10
11.938611064
 20
9.2324688294
 30
0.0
 10
11.9400405073
 20
9.2211898786
 30
0.0
 10
11.9412281342
 20
9.2129246961
 30
0.0
  0
SPLINE
  5
418
100
AcDbEntity
  8
0
100
AcDbSpline
 62
7
  6
CONTINUOUS
 70
0
 71
3
 72
9
 73
5
 74
0
 42
0.0000001
 43
0.0000001
 44
0.0000000001
 40
0.0
 40
0.0
 40
0.0
 40
0.0
 40
0.2632518702
 40
1.0
 40
1.0
 40
1.0
 40
1.0
 10
11.9412281342
 20
9.2129246961
 30
0.0
 10
11.9415576983
 20
9.210631124
 30
0.0
 10
11.9428506901
 20
9.2019248404
 30
0.0
 10
11.9443329344
 20
9.1932449632
 30
0.0
 10
11.945591693
 20
9.1868834871
 30
0.0
  0
SPLINE
  5
419
100
AcDbEntity
  8
0
100
AcDbSpline
 62
7
  6
CONTINUOUS
 70
0
 71
3
 72
10
 73
6
 74
0
 42
0.0000001
 43
0.0000001
 44
0.0000000001
 40
0.0
 40
0.0
 40
0.0
 40
0.0
 40
0.482176858
 40
0.725418978
 40
1.0
 40
1.0
 40
1.0
 40
1.0
 10
11.945591693
 20
9.1868834871
 30
0.0
 10
11.9469322128
 20
9.1801088084
 30
0.0
 10
11.9492508187
 20
9.1699701185
 30
0.0
 10
11.9533185374
 20
9.1562288985
 30
0.0
 10
11.9560537045
 20
9.1493199683
 30
0.0
 10
11.9576616588
 20
9.1457309928
 30
0.0
  0
SPLINE
  5
41A
100
AcDbEntity
  8
0
100
AcDbSpline
 62
7
  6
CONTINUOUS
 70
0
 71
3
 72
9
 73
5
 74
0
 42
0.0000001
 43
0.0000001
 44
0.0000000001
 40
0.0
 40
0.0
 40
0.0
 40
0.0
 40
0.4626309283
 40
1.0
 40
1.0
 40
1.0
 40
1.0
 10
11.9576616588
 20
9.1457309928
 30
0.0
 10
11.9592934026
 20
9.1420889188
 30
0.0
 10
11.9631754135
 20
9.1343675427
 30
0.0
 10
11.9680167519
 20
9.1271847767
 30
0.0
 10
11.9708806481
 20
9.123539618
 30
0.0
  0
LINE
  5
41B
100
AcDbEntity
  8
0
100
AcDbLine
 62
7
  6
CONTINUOUS
 10
12.1829806815
 20
10.1309851975
 11
12.1816092463
 21
10.1236687733
  0
LINE
  5
41C
100
AcDbEntity
  8
0
100
AcDbLine
 62
7
  6
CONTINUOUS
 10
12.1816092463
 20
10.1236687733
 11
12.1790307272
 21
10.1064379803
  0
LINE
  5
41D
100
AcDbEntity
  8
0
100
AcDbLine
 62
7
  6
CONTINUOUS
 10
12.1790307272
 20
10.1064379803
 11
12.1761126308
 21
10.0813677187
  0
LINE
  5
41E
100
AcDbEntity
  8
0
100
AcDbLine
 62
7
  6
CONTINUOUS
 10
12.1729008092
 20
9.3222609455
 11
12.1760167341
 21
9.2876731961
  0
LINE
  5
41F
100
AcDbEntity
  8
0
100
AcDbLine
 62
7
  6
CONTINUOUS
 10
12.1760167341
 20
9.2876731961
 11
12.1789565108
 21
9.2622329268
  0
SPLINE
  5
420
100
AcDbEntity
  8
0
100
AcDbSpline
 62
7
  6
CONTINUOUS
 70
0
 71
3
 72
9
 73
5
 74
0
 42
0.0000001
 43
0.0000001
 44
0.0000000001
 40
0.0
 40
0.0
 40
0.0
 40
0.0
 40
0.5767659838
 40
1.0
 40
1.0
 40
1.0
 40
1.0
 10
12.1789565108
 20
9.2622329268
 30
0.0
 10
12.179593854
 20
9.257386487
 30
0.0
 10
12.1807856098
 20
9.2489945684
 30
0.0
 10
12.1822582848
 20
9.2406454102
 30
0.0
 10
12.182978929
 20
9.2371315827
 30
0.0
  0
SPLINE
  5
421
100
AcDbEntity
  8
0
100
AcDbSpline
 62
7
  6
CONTINUOUS
 70
0
 71
3
 72
17
 73
13
 74
0
 42
0.0000001
 43
0.0000001
 44
0.0000000001
 40
0.0
 40
0.0
 40
0.0
 40
0.0
 40
0.1250276264
 40
0.1875821612
 40
0.250135735
 40
0.3751605472
 40
0.5001859596
 40
0.625202604
 40
0.7501929473
 40
0.8127260186
 40
0.875255059
 40
1.0
 40
1.0
 40
1.0
 40
1.0
 10
7.2771560344
 20
12.1716685471
 30
0.0
 10
7.2585981161
 20
12.215809085
 30
0.0
 10
7.2258104815
 20
12.2801116684
 30
0.0
 10
7.1731620708
 20
12.3602182719
 30
0.0
 10
7.1147455588
 20
12.43623941
 30
0.0
 10
7.0315021545
 20
12.5229327453
 30
0.0
 10
6.9174660167
 20
12.6111130413
 30
0.0
 10
6.7917933908
 20
12.6816986674
 30
0.0
 10
6.6795286708
 20
12.7245394463
 30
0.0
 10
6.5867858541
 20
12.7487146025
 30
0.0
 10
6.4926246156
 20
12.7659908825
 30
0.0
 10
6.4207621809
 20
12.7712111613
 30
0.0
 10
6.3729874267
 20
12.7712217066
 30
0.0
  0
SPLINE
  5
422
100
AcDbEntity
  8
0
100
AcDbSpline
 62
7
  6
CONTINUOUS
 70
0
 71
3
 72
10
 73
6
 74
0
 42
0.0000001
 43
0.0000001
 44
0.0000000001
 40
0.0
 40
0.0
 40
0.0
 40
0.0
 40
0.5374792897
 40
0.7908719699
 40
1.0
 40
1.0
 40
1.0
 40
1.0
 10
6.2044242727
 20
12.7568190719
 30
0.0
 10
6.1874426677
 20
12.7539030478
 30
0.0
 10
6.1625602907
 20
12.7489648536
 30
0.0
 10
6.1313646805
 20
12.7415735285
 30
0.0
 10
6.1170152964
 20
12.7378356874
 30
0.0
 10
6.1105402585
 20
12.7360982593
 30
0.0
  0
LINE
  5
423
100
AcDbEntity
  8
0
100
AcDbLine
 62
7
  6
CONTINUOUS
 10
6.1105402585
 20
12.7360982593
 11
6.1072877053
 21
12.7352203063
  0
SPLINE
  5
424
100
AcDbEntity
  8
0
100
AcDbSpline
 62
7
  6
CONTINUOUS
 70
0
 71
3
 72
15
 73
11
 74
0
 42
0.0000001
 43
0.0000001
 44
0.0000000001
 40
0.0
 40
0.0
 40
0.0
 40
0.0
 40
0.0499540524
 40
0.0804241412
 40
0.1871653694
 40
0.3297159489
 40
0.487771979
 40
0.6542431197
 40
0.8256089609
 40
1.0
 40
1.0
 40
1.0
 40
1.0
 10
6.1099343823
 20
10.8491277435
 30
0.0
 10
6.1088858075
 20
10.8494067225
 30
0.0
 10
6.1052857387
 20
10.8503744264
 30
0.0
 10
6.1112412426
 20
10.8487663251
 30
0.0
 10
6.1156869915
 20
10.8475744112
 30
0.0
 10
6.1249019795
 20
10.8451734222
 30
0.0
 10
6.134532285
 20
10.8427683369
 30
0.0
 10
6.145069877
 20
10.8402436226
 30
0.0
 10
6.1558995065
 20
10.8377728594
 30
0.0
 10
6.1632436805
 20
10.8361817131
 30
0.0
 10
6.1669501716
 20
10.8354003803
 30
0.0
  0
SPLINE
  5
425
100
AcDbEntity
  8
0
100
AcDbSpline
 62
7
  6
CONTINUOUS
 70
0
 71
3
 72
29
 73
25
 74
0
 42
0.0000001
 43
0.0000001
 44
0.0000000001
 40
0.0
 40
0.0
 40
0.0
 40
0.0
 40
0.0624840641
 40
0.1249577159
 40
0.1874401675
 40
0.2499199848
 40
0.2811856
 40
0.3124529451
 40
0.3749338237
 40
0.4374149448
 40
0.4686814391
 40
0.4999486647
 40
0.531215771
 40
0.5624817753
 40
0.5937482464
 40
0.625014819
 40
0.6562806475
 40
0.6875472058
 40
0.718813699
 40
0.7500787386
 40
0.8125581035
 40
0.8750408435
 40
0.9375153543
 40
1.0
 40
1.0
 40
1.0
 40
1.0
 10
6.1101026789
 20
10.848994162
 30
0.0
 10
6.0583272708
 20
10.8624781503
 30
0.0
 10
5.956783084
 20
10.8979199682
 30
0.0
 10
5.8152084769
 20
10.9749482992
 30
0.0
 10
5.6879210853
 20
11.0738577983
 30
0.0
 10
5.5966600112
 20
11.1725532226
 30
0.0
 10
5.5341201542
 20
11.2595555787
 30
0.0
 10
5.4789660581
 20
11.3514206586
 30
0.0
 10
5.4244940824
 20
11.474310385
 30
0.0
 10
5.3911252709
 20
11.604534218
 30
0.0
 10
5.3776270185
 20
11.7108287927
 30
0.0
 10
5.3741819256
 20
11.7911694064
 30
0.0
 10
5.3774018434
 20
11.8715134356
 30
0.0
 10
5.387304737
 20
11.9513116971
 30
0.0
 10
5.4038149435
 20
12.0300066164
 30
0.0
 10
5.4267721615
 20
12.1070676933
 30
0.0
 10
5.4560533145
 20
12.1819557955
 30
0.0
 10
5.4914301164
 20
12.2541609214
 30
0.0
 10
5.5326236519
 20
12.3232186763
 30
0.0
 10
5.5949175887
 20
12.4103891584
 30
0.0
 10
5.6859040756
 20
12.5093402693
 30
0.0
 10
5.8129173586
 20
12.6086014938
 30
0.0
 10
5.954280284
 20
12.686021351
 30
0.0
 10
6.0557279449
 20
12.7217421605
 30
0.0
 10
6.1074664857
 20
12.735368881
 30
0.0
  0
SPLINE
  5
426
100
AcDbEntity
  8
0
100
AcDbSpline
 62
7
  6
CONTINUOUS
 70
0
 71
3
 72
21
 73
17
 74
0
 42
0.0000001
 43
0.0000001
 44
0.0000000001
 40
0.0
 40
0.0
 40
0.0
 40
0.0
 40
0.0622357851
 40
0.1244218413
 40
0.1866937403
 40
0.2490522661
 40
0.3114582461
 40
0.37390908
 40
0.4364104109
 40
0.4989646834
 40
0.6240173929
 40
0.7492021648
 40
0.8119176934
 40
0.8746321169
 40
0.9373318605
 40
1.0
 40
1.0
 40
1.0
 40
1.0
 10
6.8576021293
 20
12.3204138859
 30
0.0
 10
6.8372436837
 20
12.3187024515
 30
0.0
 10
6.7967034857
 20
12.3128860363
 30
0.0
 10
6.7373492585
 20
12.2970837792
 30
0.0
 10
6.6802205645
 20
12.274396872
 30
0.0
 10
6.6260510922
 20
12.2451996698
 30
0.0
 10
6.5756126564
 20
12.2098366984
 30
0.0
 10
6.5296363479
 20
12.1687762085
 30
0.0
 10
6.4886877621
 20
12.1226252103
 30
0.0
 10
6.4416438495
 20
12.0551463431
 30
0.0
 10
6.3979434416
 20
11.961139342
 30
0.0
 10
6.3771158166
 20
11.8595351362
 30
0.0
 10
6.3747056566
 20
11.7771474159
 30
0.0
 10
6.3800836776
 20
11.7154781173
 30
0.0
 10
6.3925012517
 20
11.6548657594
 30
0.0
 10
6.4054208473
 20
11.6156750657
 30
0.0
 10
6.4129856839
 20
11.5965442522
 30
0.0
  0
SPLINE
  5
427
100
AcDbEntity
  8
0
100
AcDbSpline
 62
7
  6
CONTINUOUS
 70
0
 71
3
 72
11
 73
7
 74
0
 42
0.0000001
 43
0.0000001
 44
0.0000000001
 40
0.0
 40
0.0
 40
0.0
 40
0.0
 40
0.3398858285
 40
0.6206996609
 40
0.8431076627
 40
1.0
 40
1.0
 40
1.0
 40
1.0
 10
6.857622416
 20
12.3204140181
 30
0.0
 10
6.8498119486
 20
12.3197660283
 30
0.0
 10
6.8355571199
 20
12.3184753451
 30
0.0
 10
6.8162185545
 20
12.3164818854
 30
0.0
 10
6.8010823704
 20
12.3148739582
 30
0.0
 10
6.7923797257
 20
12.3140023013
 30
0.0
 10
6.788779501
 20
12.3136469196
 30
0.0
  0
SPLINE
  5
428
100
AcDbEntity
  8
0
100
AcDbSpline
 62
7
  6
CONTINUOUS
 70
0
 71
3
 72
17
 73
13
 74
0
 42
0.0000001
 43
0.0000001
 44
0.0000000001
 40
0.0
 40
0.0
 40
0.0
 40
0.0
 40
0.1247415416
 40
0.18727211
 40
0.2498064591
 40
0.3747972618
 40
0.499813385
 40
0.6248392174
 40
0.7498641742
 40
0.8124178023
 40
0.8749722014
 40
1.0
 40
1.0
 40
1.0
 40
1.0
 10
13.58521831
 20
12.7712226645
 30
0.0
 10
13.5374807323
 20
12.7712123419
 30
0.0
 10
13.4656734792
 20
12.7659964131
 30
0.0
 10
13.3715806637
 20
12.748747863
 30
0.0
 10
13.2789016021
 20
12.7246087352
 30
0.0
 10
13.1667099064
 20
12.6818301609
 30
0.0
 10
13.0411057683
 20
12.6113452212
 30
0.0
 10
12.9271111874
 20
12.5232892355
 30
0.0
 10
12.8438799297
 20
12.4367100219
 30
0.0
 10
12.7854542858
 20
12.3607869194
 30
0.0
 10
12.7327855579
 20
12.2807798035
 30
0.0
 10
12.6999715411
 20
12.2165521577
 30
0.0
 10
12.6813882216
 20
12.1724612539
 30
0.0
  0
SPLINE
  5
429
100
AcDbEntity
  8
0
100
AcDbSpline
 62
7
  6
CONTINUOUS
 70
0
 71
3
 72
28
 73
24
 74
0
 42
0.0000001
 43
0.0000001
 44
0.0000000001
 40
0.0
 40
0.0
 40
0.0
 40
0.0
 40
0.0624865784
 40
0.1249635028
 40
0.1874491207
 40
0.249932086
 40
0.2811993298
 40
0.312468371
 40
0.3437376586
 40
0.3750062922
 40
0.4374910448
 40
0.4687594343
 40
0.5000286359
 40
0.5312976604
 40
0.5625655427
 40
0.6250485027
 40
0.6875308125
 40
0.7187989077
 40
0.7500655035
 40
0.8125481021
 40
0.8750340956
 40
0.9375113784
 40
1.0
 40
1.0
 40
1.0
 40
1.0
 10
13.8507378351
 20
10.8496837029
 30
0.0
 10
13.9024750569
 20
10.8633102429
 30
0.0
 10
14.0039211859
 20
10.8990283638
 30
0.0
 10
14.1452822932
 20
10.9764462395
 30
0.0
 10
14.2722942486
 20
11.0757067652
 30
0.0
 10
14.3632838209
 20
11.1746546707
 30
0.0
 10
14.4255792093
 20
11.2618262988
 30
0.0
 10
14.4667737167
 20
11.3308838236
 30
0.0
 10
14.5021539714
 20
11.4030969126
 30
0.0
 10
14.5411716202
 20
11.5028779216
 30
0.0
 10
14.5676138564
 20
11.6072143459
 30
0.0
 10
14.5808063587
 20
11.7135382567
 30
0.0
 10
14.5840269465
 20
11.7938893963
 30
0.0
 10
14.5805807251
 20
11.8742283602
 30
0.0
 10
14.5670833341
 20
11.980521925
 30
0.0
 10
14.5337134746
 20
12.1107416142
 30
0.0
 10
14.4792452123
 20
12.2336285009
 30
0.0
 10
14.4240934673
 20
12.3254912483
 30
0.0
 10
14.3615548278
 20
12.4124919194
 30
0.0
 10
14.2702949914
 20
12.5111866912
 30
0.0
 10
14.1430101965
 20
12.6100987587
 30
0.0
 10
14.0014356116
 20
12.687129764
 30
0.0
 10
13.8998905132
 20
12.7225722265
 30
0.0
 10
13.8481143252
 20
12.7360568946
 30
0.0
  0
SPLINE
  5
42A
100
AcDbEntity
  8
0
100
AcDbSpline
 62
7
  6
CONTINUOUS
 70
0
 71
3
 72
10
 73
6
 74
0
 42
0.0000001
 43
0.0000001
 44
0.0000000001
 40
0.0
 40
0.0
 40
0.0
 40
0.0
 40
0.5374791795
 40
0.7908718388
 40
1.0
 40
1.0
 40
1.0
 40
1.0
 10
13.7537858869
 20
10.8282344678
 30
0.0
 10
13.7707674907
 20
10.8311504913
 30
0.0
 10
13.795649867
 20
10.8360886846
 30
0.0
 10
13.8268454815
 20
10.8434800098
 30
0.0
 10
13.841194871
 20
10.8472178519
 30
0.0
 10
13.8476699138
 20
10.8489552813
 30
0.0
  0
LINE
  5
42B
100
AcDbEntity
  8
0
100
AcDbLine
 62
7
  6
CONTINUOUS
 10
13.8476699138
 20
10.8489552813
 11
13.8509224846
 21
10.8498332391
  0
SPLINE
  5
42C
100
AcDbEntity
  8
0
100
AcDbSpline
 62
7
  6
CONTINUOUS
 70
0
 71
3
 72
15
 73
11
 74
0
 42
0.0000001
 43
0.0000001
 44
0.0000000001
 40
0.0
 40
0.0
 40
0.0
 40
0.0
 40
0.049954098
 40
0.0804241374
 40
0.1871653436
 40
0.3297159185
 40
0.4877719533
 40
0.6542431013
 40
0.8256089511
 40
1.0
 40
1.0
 40
1.0
 40
1.0
 10
13.8482758157
 20
12.7359257929
 30
0.0
 10
13.8493243915
 20
12.7356468135
 30
0.0
 10
13.8529244623
 20
12.7346791091
 30
0.0
 10
13.8469689622
 20
12.7362872094
 30
0.0
 10
13.8425232128
 20
12.7374791236
 30
0.0
 10
13.8333082257
 20
12.7398801125
 30
0.0
 10
13.8236779196
 20
12.7422851981
 30
0.0
 10
13.8131403271
 20
12.7448099128
 30
0.0
 10
13.8023106967
 20
12.7472806764
 30
0.0
 10
13.7949665222
 20
12.7488718229
 30
0.0
 10
13.7912600307
 20
12.7496531558
 30
0.0
  0
SPLINE
  5
42D
100
AcDbEntity
  8
0
100
AcDbSpline
 62
7
  6
CONTINUOUS
 70
0
 71
3
 72
21
 73
17
 74
0
 42
0.0000001
 43
0.0000001
 44
0.0000000001
 40
0.0
 40
0.0
 40
0.0
 40
0.0
 40
0.0622358395
 40
0.1244219383
 40
0.1866935239
 40
0.2490517744
 40
0.3114575222
 40
0.3739079218
 40
0.436408689
 40
0.4989621339
 40
0.6240145016
 40
0.7491993556
 40
0.8119150146
 40
0.8746297277
 40
0.9373305251
 40
1.0
 40
1.0
 40
1.0
 40
1.0
 10
13.1007116314
 20
12.3204051681
 30
0.0
 10
13.1210192845
 20
12.3186939386
 30
0.0
 10
13.1614581555
 20
12.3128898379
 30
0.0
 10
13.220668279
 20
12.2971410849
 30
0.0
 10
13.2776665307
 20
12.2745409424
 30
0.0
 10
13.331724444
 20
12.2454603764
 30
0.0
 10
13.3820763039
 20
12.2102417965
 30
0.0
 10
13.4279949939
 20
12.1693478611
 30
0.0
 10
13.468918181
 20
12.1233807152
 30
0.0
 10
13.5159777817
 20
12.0561632036
 30
0.0
 10
13.5597910356
 20
11.962497963
 30
0.0
 10
13.5808659756
 20
11.8612125359
 30
0.0
 10
13.5835498154
 20
11.7790383419
 30
0.0
 10
13.5784117604
 20
11.7175027303
 30
0.0
 10
13.5662633271
 20
11.6569921396
 30
0.0
 10
13.5535439529
 20
11.6178433393
 30
0.0
 10
13.5460818576
 20
11.5987264859
 30
0.0
  0
SPLINE
  5
42E
100
AcDbEntity
  8
0
100
AcDbSpline
 62
7
  6
CONTINUOUS
 70
0
 71
3
 72
16
 73
12
 74
0
 42
0.0000001
 43
0.0000001
 44
0.0000000001
 40
0.0
 40
0.0
 40
0.0
 40
0.0
 40
0.0243290996
 40
0.0346878518
 40
0.0543237198
 40
0.1223517354
 40
0.2320884212
 40
0.3769280421
 40
0.553158026
 40
0.7607660486
 40
1.0
 40
1.0
 40
1.0
 40
1.0
 10
13.1720664601
 20
12.3132610196
 30
0.0
 10
13.1726916361
 20
12.3132337501
 30
0.0
 10
13.1733718522
 20
12.3132037786
 30
0.0
 10
13.1753774101
 20
12.3130625205
 30
0.0
 10
13.1708862391
 20
12.3135118473
 30
0.0
 10
13.1676429056
 20
12.3138216859
 30
0.0
 10
13.1583824068
 20
12.3147494664
 30
0.0
 10
13.1477749935
 20
12.3158621515
 30
0.0
 10
13.1341023677
 20
12.3173079988
 30
0.0
 10
13.1182066156
 20
12.3188831905
 30
0.0
 10
13.1067445597
 20
12.3199032475
 30
0.0
 10
13.1006122788
 20
12.3204120457
 30
0.0
  0
SPLINE
  5
42F
100
AcDbEntity
  8
0
100
AcDbSpline
 62
9
  6
CONTINUOUS
 70
0
 71
3
 72
9
 73
5
 74
0
 42
0.0000001
 43
0.0000001
 44
0.0000000001
 40
0.0
 40
0.0
 40
0.0
 40
0.0
 40
0.4892854706
 40
1.0
 40
1.0
 40
1.0
 40
1.0
 10
9.0141043386
 20
2.6840543374
 30
0.0
 10
9.0141031108
 20
2.6799124551
 30
0.0
 10
9.0144617759
 20
2.6714378015
 30
0.0
 10
9.0158104312
 20
2.6630598309
 30
0.0
 10
9.0167031507
 20
2.6588297212
 30
0.0
  0
SPLINE
  5
430
100
AcDbEntity
  8
0
100
AcDbSpline
 62
9
  6
CONTINUOUS
 70
0
 71
3
 72
29
 73
25
 74
0
 42
0.0000001
 43
0.0000001
 44
0.0000000001
 40
0.0
 40
0.0
 40
0.0
 40
0.0
 40
0.0185558668
 40
0.0365096426
 40
0.0540331637
 40
0.0713143133
 40
0.088414239
 40
0.1053348983
 40
0.1220323858
 40
0.1384738972
 40
0.1707864148
 40
0.2026486358
 40
0.2342368367
 40
0.2656044896
 40
0.2967913216
 40
0.3278418476
 40
0.3896394154
 40
0.4511432278
 40
0.5124498653
 40
0.5736184943
 40
0.6346815214
 40
0.7565728337
 40
0.8783345347
 40
1.0
 40
1.0
 40
1.0
 40
1.0
 10
9.0167031507
 20
2.6588297212
 30
0.0
 10
9.018057778
 20
2.6524108823
 30
0.0
 10
9.0216130172
 20
2.6399490942
 30
0.0
 10
9.0293458121
 20
2.6224269727
 30
0.0
 10
9.0388230044
 20
2.6063228686
 30
0.0
 10
9.0495785219
 20
2.5914267523
 30
0.0
 10
9.0613890435
 20
2.5776382664
 30
0.0
 10
9.0739902995
 20
2.5648649607
 30
0.0
 10
9.0871367792
 20
2.5530042
 30
0.0
 10
9.1050462708
 20
2.5383399032
 30
0.0
 10
9.1282868655
 20
2.5217837413
 30
0.0
 10
9.1571620521
 20
2.5040715429
 30
0.0
 10
9.1866615146
 20
2.488119992
 30
0.0
 10
9.2166473723
 20
2.4736539507
 30
0.0
 10
9.2470037654
 20
2.4604570764
 30
0.0
 10
9.2878290238
 20
2.4444287843
 30
0.0
 10
9.3395284743
 20
2.4268711357
 30
0.0
 10
9.4022703965
 20
2.4088247345
 30
0.0
 10
9.4655019791
 20
2.3935048309
 30
0.0
 10
9.5290929218
 20
2.3805311038
 30
0.0
 10
9.6141911938
 20
2.3660650907
 30
0.0
 10
9.7211474133
 20
2.3526855305
 30
0.0
 10
9.8500148456
 20
2.3433589641
 30
0.0
 10
9.93609161
 20
2.3413690742
 30
0.0
 10
9.9791050908
 20
2.3413690317
 30
0.0
  0
SPLINE
  5
431
100
AcDbEntity
  8
0
100
AcDbSpline
 62
9
  6
CONTINUOUS
 70
0
 71
3
 72
27
 73
23
 74
0
 42
0.0000001
 43
0.0000001
 44
0.0000000001
 40
0.0
 40
0.0
 40
0.0
 40
0.0
 40
0.1353020904
 40
0.2638790476
 40
0.3868300158
 40
0.4464703323
 40
0.5049868592
 40
0.5624735909
 40
0.6190860892
 40
0.6750665949
 40
0.7308779338
 40
0.758942023
 40
0.7872611766
 40
0.816077857
 40
0.8460290095
 40
0.8778786545
 40
0.8947290816
 40
0.9123490562
 40
0.9310015056
 40
0.9514359651
 40
0.9744225078
 40
1.0
 40
1.0
 40
1.0
 40
1.0
 10
9.9791050908
 20
2.2634890174
 30
0.0
 10
9.924607565
 20
2.2634890174
 30
0.0
 10
9.818288876
 20
2.2664946095
 30
0.0
 10
9.6630042668
 20
2.2802586407
 30
0.0
 10
9.5389686556
 20
2.2989267838
 30
0.0
 10
9.4438202602
 20
2.3184685023
 30
0.0
 10
9.3751111217
 20
2.3354078931
 30
0.0
 10
9.3083650649
 20
2.3549649448
 30
0.0
 10
9.2436525887
 20
2.3775421973
 30
0.0
 10
9.1809663249
 20
2.4035774559
 30
0.0
 10
9.1307061711
 20
2.4291910433
 30
0.0
 10
9.0919919219
 20
2.4525372101
 30
0.0
 10
9.0636448834
 20
2.4719154907
 30
0.0
 10
9.0360334467
 20
2.4936067633
 30
0.0
 10
9.0093727827
 20
2.5186039146
 30
0.0
 10
8.9884963417
 20
2.5425424952
 30
0.0
 10
8.9731006062
 20
2.5644009336
 30
0.0
 10
8.9621434228
 20
2.5828039875
 30
0.0
 10
8.952114919
 20
2.6033655818
 30
0.0
 10
8.94372676
 20
2.6269795823
 30
0.0
 10
8.9375829481
 20
2.6541566824
 30
0.0
 10
8.9360397782
 20
2.6737521238
 30
0.0
 10
8.9360397782
 20
2.68405433
 30
0.0
  0
SPLINE
  5
432
100
AcDbEntity
  8
0
100
AcDbSpline
 62
7
  6
CONTINUOUS
 70
0
 71
3
 72
12
 73
8
 74
0
 42
0.0000001
 43
0.0000001
 44
0.0000000001
 40
0.0
 40
0.0
 40
0.0
 40
0.0
 40
0.2012520911
 40
0.4406161895
 40
0.5717127989
 40
0.7092121285
 40
1.0
 40
1.0
 40
1.0
 40
1.0
 10
7.469914061
 20
10.2710703327
 30
0.0
 10
7.4637832937
 20
10.2589369654
 30
0.0
 10
7.4499956637
 20
10.2325570657
 30
0.0
 10
7.431562326
 20
10.1986214162
 30
0.0
 10
7.4150460811
 20
10.1685460819
 30
0.0
 10
7.3968268044
 20
10.1354430741
 30
0.0
 10
7.3828222257
 20
10.1101283836
 30
0.0
 10
7.3732739419
 20
10.0929629893
 30
0.0
  0
SPLINE
  5
433
100
AcDbEntity
  8
0
100
AcDbSpline
 62
7
  6
CONTINUOUS
 70
0
 71
3
 72
10
 73
6
 74
0
 42
0.0000001
 43
0.0000001
 44
0.0000000001
 40
0.0
 40
0.0
 40
0.0
 40
0.0
 40
0.2322338401
 40
0.4793009425
 40
1.0
 40
1.0
 40
1.0
 40
1.0
 10
7.3732739419
 20
10.0929629893
 30
0.0
 10
7.3694295901
 20
10.0882904706
 30
0.0
 10
7.3623855782
 20
10.0779140005
 30
0.0
 10
7.3501672561
 20
10.0548813787
 30
0.0
 10
7.3422564344
 20
10.0364915408
 30
0.0
 10
7.3365162485
 20
10.0241991882
 30
0.0
  0
SPLINE
  5
434
100
AcDbEntity
  8
0
100
AcDbSpline
 62
7
  6
CONTINUOUS
 70
0
 71
3
 72
9
 73
5
 74
0
 42
0.0000001
 43
0.0000001
 44
0.0000000001
 40
0.0
 40
0.0
 40
0.0
 40
0.0
 40
0.2542912498
 40
1.0
 40
1.0
 40
1.0
 40
1.0
 10
7.3364212796
 20
9.3439936754
 30
0.0
 10
7.3394912801
 20
9.3381330643
 30
0.0
 10
7.3516384945
 20
9.3151251804
 30
0.0
 10
7.36403104
 20
9.2922476952
 30
0.0
 10
7.3733371627
 20
9.2752238108
 30
0.0
  0
SPLINE
  5
435
100
AcDbEntity
  8
0
100
AcDbSpline
 62
7
  6
CONTINUOUS
 70
0
 71
3
 72
12
 73
8
 74
0
 42
0.0000001
 43
0.0000001
 44
0.0000000001
 40
0.0
 40
0.0
 40
0.0
 40
0.0
 40
0.2907073123
 40
0.4282107694
 40
0.5592618898
 40
0.7986107719
 40
1.0
 40
1.0
 40
1.0
 40
1.0
 10
7.373273991
 20
9.2751454822
 30
0.0
 10
7.3828580897
 20
9.2579983967
 30
0.0
 10
7.3968565479
 20
9.2326744153
 30
0.0
 10
7.4150487437
 20
9.1995507904
 30
0.0
 10
7.4315724431
 20
9.1694702942
 30
0.0
 10
7.4500302819
 20
9.135525917
 30
0.0
 10
7.4637595474
 20
9.1090948457
 30
0.0
 10
7.4699022379
 20
9.0969517759
 30
0.0
  0
SPLINE
  5
436
100
AcDbEntity
  8
0
100
AcDbSpline
 62
9
  6
CONTINUOUS
 70
0
 71
3
 72
12
 73
8
 74
0
 42
0.0000001
 43
0.0000001
 44
0.0000000001
 40
0.0
 40
0.0
 40
0.0
 40
0.0
 40
0.2241849931
 40
0.4670005596
 40
0.5958329566
 40
0.7286966962
 40
1.0
 40
1.0
 40
1.0
 40
1.0
 10
6.7670018094
 20
10.0240559676
 30
0.0
 10
6.7600364606
 20
10.0241076066
 30
0.0
 10
6.7454825343
 20
10.0265144241
 30
0.0
 10
6.7285994941
 20
10.034784949
 30
0.0
 10
6.7163972123
 20
10.0447076736
 30
0.0
 10
6.705057072
 20
10.0568220907
 30
0.0
 10
6.6982652462
 20
10.0675936944
 30
0.0
 10
6.6947013231
 20
10.0752327665
 30
0.0
  0
SPLINE
  5
437
100
AcDbEntity
  8
0
100
AcDbSpline
 62
9
  6
CONTINUOUS
 70
0
 71
3
 72
11
 73
7
 74
0
 42
0.0000001
 43
0.0000001
 44
0.0000000001
 40
0.0
 40
0.0
 40
0.0
 40
0.0
 40
0.232825106
 40
0.4795766199
 40
0.7379385416
 40
1.0
 40
1.0
 40
1.0
 40
1.0
 10
6.7669885616
 20
9.3440526212
 30
0.0
 10
6.7597605542
 20
9.3439969156
 30
0.0
 10
6.7448255307
 20
9.3413983791
 30
0.0
 10
6.7240692831
 20
9.3309204897
 30
0.0
 10
6.7067739318
 20
9.3141068975
 30
0.0
 10
6.698141056
 20
9.3002488841
 30
0.0
 10
6.6947012851
 20
9.2928759193
 30
0.0
  0
SPLINE
  5
438
100
AcDbEntity
  8
0
100
AcDbSpline
 62
9
  6
CONTINUOUS
 70
0
 71
3
 72
17
 73
13
 74
0
 42
0.0000001
 43
0.0000001
 44
0.0000000001
 40
0.0
 40
0.0
 40
0.0
 40
0.0
 40
0.1688766488
 40
0.3183391703
 40
0.3860308155
 40
0.4500929618
 40
0.5114572761
 40
0.5708875042
 40
0.6850735692
 40
0.7940907408
 40
0.8988529986
 40
1.0
 40
1.0
 40
1.0
 40
1.0
 10
8.9360390602
 20
2.68405433
 30
0.0
 10
8.9360390602
 20
2.6955377699
 30
0.0
 10
8.9379491261
 20
2.7172285657
 30
0.0
 10
8.9443503533
 20
2.74277589
 30
0.0
 10
8.9508308975
 20
2.7607781876
 30
0.0
 10
8.9560587658
 20
2.7728339455
 30
0.0
 10
8.9617133833
 20
2.7840666232
 30
0.0
 10
8.969562958
 20
2.7979892162
 30
0.0
 10
8.9801031998
 20
2.8140910812
 30
0.0
 10
8.9938216801
 20
2.8317012753
 30
0.0
 10
9.0081593133
 20
2.8476266918
 30
0.0
 10
9.0181091833
 20
2.8574887024
 30
0.0
 10
9.0231203213
 20
2.8621997434
 30
0.0
  0
SPLINE
  5
439
100
AcDbEntity
  8
0
100
AcDbSpline
 62
9
  6
CONTINUOUS
 70
0
 71
3
 72
13
 73
9
 74
0
 42
0.0000001
 43
0.0000001
 44
0.0000000001
 40
0.0
 40
0.0
 40
0.0
 40
0.0
 40
0.2364040055
 40
0.3593258488
 40
0.4848125867
 40
0.6124967639
 40
0.7417046779
 40
1.0
 40
1.0
 40
1.0
 40
1.0
 10
9.5027265403
 20
9.1455113903
 30
0.0
 10
9.5112717829
 20
9.134179602
 30
0.0
 10
9.5218240935
 20
9.1149931386
 30
0.0
 10
9.5310071639
 20
9.0873327533
 30
0.0
 10
9.5355024818
 20
9.0651445803
 30
0.0
 10
9.5374404682
 20
9.0422241287
 30
0.0
 10
9.5369182724
 20
9.0112637974
 30
0.0
 10
9.5333095956
 20
8.9881198506
 30
0.0
 10
9.5296317866
 20
8.9730554206
 30
0.0
  0
SPLINE
  5
43A
100
AcDbEntity
  8
0
100
AcDbSpline
 62
9
  6
CONTINUOUS
 70
0
 71
3
 72
13
 73
9
 74
0
 42
0.0000001
 43
0.0000001
 44
0.0000000001
 40
0.0
 40
0.0
 40
0.0
 40
0.0
 40
0.2353905326
 40
0.3590347218
 40
0.4856623683
 40
0.6142257763
 40
0.7435518115
 40
1.0
 40
1.0
 40
1.0
 40
1.0
 10
9.5296267572
 20
8.9730546628
 30
0.0
 10
9.5275574536
 20
8.9881279841
 30
0.0
 10
9.5226205045
 20
9.0109187113
 30
0.0
 10
9.5126205002
 20
9.0406964238
 30
0.0
 10
9.5030162802
 20
9.0632499819
 30
0.0
 10
9.4915113828
 20
9.0853111872
 30
0.0
 10
9.4738420515
 20
9.1134995905
 30
0.0
 10
9.4579479056
 20
9.1329193868
 30
0.0
 10
9.446376042
 20
9.1447873463
 30
0.0
  0
SPLINE
  5
43B
100
AcDbEntity
  8
0
100
AcDbSpline
 62
9
  6
CONTINUOUS
 70
0
 71
3
 72
25
 73
21
 74
0
 42
0.0000001
 43
0.0000001
 44
0.0000000001
 40
0.0
 40
0.0
 40
0.0
 40
0.0
 40
0.2160484029
 40
0.4114249223
 40
0.5832720413
 40
0.6594605074
 40
0.7286647447
 40
0.7905386588
 40
0.8448455098
 40
0.891375638
 40
0.9299188286
 40
0.9461294942
 40
0.9602643556
 40
0.9722969918
 40
0.9822009515
 40
0.9899497548
 40
0.9955168927
 40
0.9974740458
 40
0.9988758292
 40
1.0
 40
1.0
 40
1.0
 40
1.0
 10
10.4285739582
 20
8.973046278
 30
0.0
 10
10.4360684749
 20
8.9685422177
 30
0.0
 10
10.4502313317
 20
8.9597821155
 30
0.0
 10
10.4700161023
 20
8.9469026385
 30
0.0
 10
10.4848619861
 20
8.936819002
 30
0.0
 10
10.4953952438
 20
8.9294775216
 30
0.0
 10
10.5022461422
 20
8.9246369353
 30
0.0
 10
10.5083529916
 20
8.9202781281
 30
0.0
 10
10.5136952359
 20
8.9164278275
 30
0.0
 10
10.5182566583
 20
8.9131090082
 30
0.0
 10
10.521560617
 20
8.9106830377
 30
0.0
 10
10.5238025116
 20
8.9090251261
 30
0.0
 10
10.5251788864
 20
8.9080029443
 30
0.0
 10
10.5263504578
 20
8.9071285661
 30
0.0
 10
10.5273079864
 20
8.9064122997
 30
0.0
 10
10.5280692451
 20
8.9058368002
 30
0.0
 10
10.5285409854
 20
8.9054862303
 30
0.0
 10
10.5288579317
 20
8.9052383247
 30
0.0
 10
10.5289512699
 20
8.905180974
 30
0.0
 10
10.5291317903
 20
8.9050175875
 30
0.0
 10
10.5291050808
 20
8.9050544192
 30
0.0
  0
SPLINE
  5
43C
100
AcDbEntity
  8
0
100
AcDbSpline
 62
7
  6
CONTINUOUS
 70
0
 71
3
 72
17
 73
13
 74
0
 42
0.0000001
 43
0.0000001
 44
0.0000000001
 40
0.0
 40
0.0
 40
0.0
 40
0.0
 40
0.1274851314
 40
0.2531725147
 40
0.3770929192
 40
0.4386264004
 40
0.5000002041
 40
0.561374057
 40
0.6229075483
 40
0.7468276933
 40
0.8725148683
 40
1.0
 40
1.0
 40
1.0
 40
1.0
 10
7.4765488173
 20
10.7826133414
 30
0.0
 10
7.4615826498
 20
10.7934806562
 30
0.0
 10
7.4308362407
 20
10.8137204329
 30
0.0
 10
7.3816674068
 20
10.8380826596
 30
0.0
 10
7.3382906357
 20
10.8515122431
 30
0.0
 10
7.3028531046
 20
10.857026713
 30
0.0
 10
7.276104996
 20
10.8584193204
 30
0.0
 10
7.2493568827
 20
10.8570267186
 30
0.0
 10
7.2139193963
 20
10.8515121533
 30
0.0
 10
7.170542684
 20
10.8380826295
 30
0.0
 10
7.121373916
 20
10.8137204129
 30
0.0
 10
7.0906275318
 20
10.7934806562
 30
0.0
 10
7.0756613643
 20
10.7826133414
 30
0.0
  0
SPLINE
  5
43D
100
AcDbEntity
  8
0
100
AcDbSpline
 62
7
  6
CONTINUOUS
 70
0
 71
3
 72
17
 73
13
 74
0
 42
0.0000001
 43
0.0000001
 44
0.0000000001
 40
0.0
 40
0.0
 40
0.0
 40
0.0
 40
0.1274851314
 40
0.2531725147
 40
0.3770929192
 40
0.4386264004
 40
0.5000002041
 40
0.561374057
 40
0.6229075483
 40
0.7468276933
 40
0.8725148683
 40
1.0
 40
1.0
 40
1.0
 40
1.0
 10
6.8825488173
 20
10.7826133414
 30
0.0
 10
6.8675826498
 20
10.7934806562
 30
0.0
 10
6.8368362407
 20
10.8137204329
 30
0.0
 10
6.7876674068
 20
10.8380826596
 30
0.0
 10
6.7442906357
 20
10.8515122431
 30
0.0
 10
6.7088531046
 20
10.857026713
 30
0.0
 10
6.682104996
 20
10.8584193204
 30
0.0
 10
6.6553568827
 20
10.8570267186
 30
0.0
 10
6.6199193963
 20
10.8515121533
 30
0.0
 10
6.576542684
 20
10.8380826295
 30
0.0
 10
6.527373916
 20
10.8137204129
 30
0.0
 10
6.4966275318
 20
10.7934806562
 30
0.0
 10
6.4816613643
 20
10.7826133414
 30
0.0
  0
SPLINE
  5
43E
100
AcDbEntity
  8
0
100
AcDbSpline
 62
9
  6
CONTINUOUS
 70
0
 71
3
 72
15
 73
11
 74
0
 42
0.0000001
 43
0.0000001
 44
0.0000000001
 40
0.0
 40
0.0
 40
0.0
 40
0.0
 40
0.0344721224
 40
0.0592055747
 40
0.0902781967
 40
0.1729222868
 40
0.2839766833
 40
0.42334827
 40
0.5899896194
 40
1.0
 40
1.0
 40
1.0
 40
1.0
 10
7.7307501444
 20
9.1310843337
 30
0.0
 10
7.7307544825
 20
9.1308335785
 30
0.0
 10
7.7310309353
 20
9.1304323504
 30
0.0
 10
7.7315561979
 20
9.1300526992
 30
0.0
 10
7.7324486493
 20
9.1295712739
 30
0.0
 10
7.73399366
 20
9.1290242022
 30
0.0
 10
7.7363417344
 20
9.1284186926
 30
0.0
 10
7.7393210294
 20
9.1278371381
 30
0.0
 10
7.7444692233
 20
9.1270371667
 30
0.0
 10
7.7486414914
 20
9.1265782218
 30
0.0
 10
7.7516109611
 20
9.1262952575
 30
0.0
  0
SPLINE
  5
43F
100
AcDbEntity
  8
0
100
AcDbSpline
 62
9
  6
CONTINUOUS
 70
0
 71
3
 72
9
 73
5
 74
0
 42
0.0000001
 43
0.0000001
 44
0.0000000001
 40
0.0
 40
0.0
 40
0.0
 40
0.0
 40
0.4621236854
 40
1.0
 40
1.0
 40
1.0
 40
1.0
 10
7.7516109611
 20
9.1262952575
 30
0.0
 10
7.7556411593
 20
9.125911215
 30
0.0
 10
7.7643795641
 20
9.1252631118
 30
0.0
 10
7.7731307632
 20
9.1248434977
 30
0.0
 10
7.7778394976
 20
9.1246657278
 30
0.0
  0
SPLINE
  5
440
100
AcDbEntity
  8
0
100
AcDbSpline
 62
9
  6
CONTINUOUS
 70
0
 71
3
 72
16
 73
12
 74
0
 42
0.0000001
 43
0.0000001
 44
0.0000000001
 40
0.0
 40
0.0
 40
0.0
 40
0.0
 40
0.0274681468
 40
0.0510735886
 40
0.0822276849
 40
0.1211431595
 40
0.1678066597
 40
0.2834933896
 40
0.4272549298
 40
0.5967299562
 40
1.0
 40
1.0
 40
1.0
 40
1.0
 10
12.2275834195
 20
9.1510059675
 30
0.0
 10
12.2275758056
 20
9.150565854
 30
0.0
 10
12.2267952785
 20
9.149936486
 30
0.0
 10
12.2256502805
 20
9.1494111616
 30
0.0
 10
12.2242089211
 20
9.1489155116
 30
0.0
 10
12.2224047866
 20
9.1484467563
 30
0.0
 10
12.2192442127
 20
9.1477825101
 30
0.0
 10
12.2143948911
 20
9.1470377013
 30
0.0
 10
12.2075635973
 20
9.1462615526
 30
0.0
 10
12.1961211756
 20
9.1452979641
 30
0.0
 10
12.1869519019
 20
9.1448311657
 30
0.0
 10
12.1804940663
 20
9.1445873616
 30
0.0
  0
SPLINE
  5
441
100
AcDbEntity
  8
0
100
AcDbSpline
 62
7
  6
CONTINUOUS
 70
0
 71
3
 72
9
 73
5
 74
0
 42
0.0000001
 43
0.0000001
 44
0.0000000001
 40
0.0
 40
0.0
 40
0.0
 40
0.0
 40
0.2490879701
 40
1.0
 40
1.0
 40
1.0
 40
1.0
 10
6.8461306714
 20
10.4121300004
 30
0.0
 10
6.8492383115
 20
10.4140179334
 30
0.0
 10
6.8616273822
 20
10.4217402021
 30
0.0
 10
6.8736788087
 20
10.4299994617
 30
0.0
 10
6.8825488173
 20
10.4364402005
 30
0.0
  0
SPLINE
  5
442
100
AcDbEntity
  8
0
100
AcDbSpline
 62
7
  6
CONTINUOUS
 70
0
 71
3
 72
17
 73
13
 74
0
 42
0.0000001
 43
0.0000001
 44
0.0000000001
 40
0.0
 40
0.0
 40
0.0
 40
0.0
 40
0.1274851314
 40
0.2531725147
 40
0.3770929192
 40
0.4386264004
 40
0.5000002041
 40
0.561374057
 40
0.6229075483
 40
0.7468276933
 40
0.8725148683
 40
1.0
 40
1.0
 40
1.0
 40
1.0
 10
7.0756613643
 20
10.4364402005
 30
0.0
 10
7.0906275318
 20
10.4255728857
 30
0.0
 10
7.1213739408
 20
10.4053331091
 30
0.0
 10
7.1705427747
 20
10.3809708823
 30
0.0
 10
7.2139195458
 20
10.3675412988
 30
0.0
 10
7.249357077
 20
10.3620268289
 30
0.0
 10
7.2761051855
 20
10.3606342215
 30
0.0
 10
7.3028532988
 20
10.3620268233
 30
0.0
 10
7.3382907852
 20
10.3675413886
 30
0.0
 10
7.3816674976
 20
10.3809709124
 30
0.0
 10
7.4308362655
 20
10.405333129
 30
0.0
 10
7.4615826498
 20
10.4255728857
 30
0.0
 10
7.4765488173
 20
10.4364402005
 30
0.0
  0
SPLINE
  5
443
100
AcDbEntity
  8
0
100
AcDbSpline
 62
9
  6
CONTINUOUS
 70
0
 71
3
 72
18
 73
14
 74
0
 42
0.0000001
 43
0.0000001
 44
0.0000000001
 40
0.0
 40
0.0
 40
0.0
 40
0.0
 40
0.0084579591
 40
0.0152491577
 40
0.0240777782
 40
0.0481472402
 40
0.0809406794
 40
0.1717694314
 40
0.2936787236
 40
0.4428502118
 40
0.6143971644
 40
0.8026292844
 40
1.0
 40
1.0
 40
1.0
 40
1.0
 10
7.8855743312
 20
9.0466159794
 30
0.0
 10
7.8853539352
 20
9.0466191793
 30
0.0
 10
7.8850167983
 20
9.0469471662
 30
0.0
 10
7.8847220535
 20
9.0474799458
 30
0.0
 10
7.8843191362
 20
9.0484441709
 30
0.0
 10
7.8838686944
 20
9.0500942961
 30
0.0
 10
7.883111814
 20
9.0538722375
 30
0.0
 10
7.8823037681
 20
9.0602236908
 30
0.0
 10
7.8814685745
 20
9.0696189883
 30
0.0
 10
7.8807639883
 20
9.0811338816
 30
0.0
 10
7.8802065339
 20
9.0943862346
 30
0.0
 10
7.8798277125
 20
9.1089014701
 30
0.0
 10
7.8797001191
 20
9.1189500174
 30
0.0
 10
7.8796682635
 20
9.1240935131
 30
0.0
  0
SPLINE
  5
444
100
AcDbEntity
  8
0
100
AcDbSpline
 62
9
  6
CONTINUOUS
 70
0
 71
3
 72
11
 73
7
 74
0
 42
0.0000001
 43
0.0000001
 44
0.0000000001
 40
0.0
 40
0.0
 40
0.0
 40
0.0
 40
0.2352071975
 40
0.4831693625
 40
0.7399812633
 40
1.0
 40
1.0
 40
1.0
 40
1.0
 10
10.428564765
 20
8.9730474262
 30
0.0
 10
10.430209734
 20
8.9850337047
 30
0.0
 10
10.4351051266
 20
9.0094697365
 30
0.0
 10
10.4469975919
 20
9.0457254208
 30
0.0
 10
10.463878309
 20
9.081368223
 30
0.0
 10
10.4782233716
 20
9.1038572566
 30
0.0
 10
10.4861731531
 20
9.1146131203
 30
0.0
  0
SPLINE
  5
445
100
AcDbEntity
  8
0
100
AcDbSpline
 62
7
  6
CONTINUOUS
 70
0
 71
3
 72
26
 73
22
 74
0
 42
0.0000001
 43
0.0000001
 44
0.0000000001
 40
0.0
 40
0.0
 40
0.0
 40
0.0
 40
0.0008136397
 40
0.0032244254
 40
0.0072602318
 40
0.0129159567
 40
0.020187065
 40
0.0290761097
 40
0.0517820369
 40
0.0811885829
 40
0.1174753776
 40
0.1608714679
 40
0.2116560733
 40
0.2702297899
 40
0.337084515
 40
0.4128630556
 40
0.4986402574
 40
0.5959210447
 40
0.7063966335
 40
0.836736093
 40
1.0
 40
1.0
 40
1.0
 40
1.0
 10
7.4894390253
 20
10.2922473168
 30
0.0
 10
7.4894346013
 20
10.2922538241
 30
0.0
 10
7.4893983439
 20
10.2922195826
 30
0.0
 10
7.4893549913
 20
10.2921898746
 30
0.0
 10
7.4892606281
 20
10.2921043438
 30
0.0
 10
7.4891383412
 20
10.2920019205
 30
0.0
 10
7.488974255
 20
10.2918664993
 30
0.0
 10
7.4886790735
 20
10.2916351126
 30
0.0
 10
7.4882098716
 20
10.2912765947
 30
0.0
 10
7.487534086
 20
10.2907533269
 30
0.0
 10
7.4867086863
 20
10.2900960513
 30
0.0
 10
7.4857297106
 20
10.2893000587
 30
0.0
 10
7.4845933989
 20
10.2883559442
 30
0.0
 10
7.4832994991
 20
10.287246763
 30
0.0
 10
7.4818457629
 20
10.285953085
 30
0.0
 10
7.4802254776
 20
10.284451446
 30
0.0
 10
7.4784386512
 20
10.2826973919
 30
0.0
 10
7.4764994129
 20
10.2806236043
 30
0.0
 10
7.4743258895
 20
10.2781794292
 30
0.0
 10
7.4719878858
 20
10.2750368943
 30
0.0
 10
7.4706145217
 20
10.2725417474
 30
0.0
 10
7.4699070531
 20
10.2711301801
 30
0.0
  0
SPLINE
  5
446
100
AcDbEntity
  8
0
100
AcDbSpline
 62
9
  6
CONTINUOUS
 70
0
 71
3
 72
11
 73
7
 74
0
 42
0.0000001
 43
0.0000001
 44
0.0000000001
 40
0.0
 40
0.0
 40
0.0
 40
0.0
 40
0.3052061589
 40
0.5735877934
 40
0.8048856117
 40
1.0
 40
1.0
 40
1.0
 40
1.0
 10
10.5308732599
 20
10.2252460008
 30
0.0
 10
10.5262945982
 20
10.2283638466
 30
0.0
 10
10.5174932507
 20
10.2339447168
 30
0.0
 10
10.504523927
 20
10.2407166608
 30
0.0
 10
10.4927675893
 20
10.2453465524
 30
0.0
 10
10.4851904276
 20
10.2471427949
 30
0.0
 10
10.4816753792
 20
10.2475729953
 30
0.0
  0
SPLINE
  5
447
100
AcDbEntity
  8
0
100
AcDbSpline
 62
7
  6
CONTINUOUS
 70
0
 71
3
 72
9
 73
5
 74
0
 42
0.0000001
 43
0.0000001
 44
0.0000000001
 40
0.0
 40
0.0
 40
0.0
 40
0.0
 40
0.3990154624
 40
1.0
 40
1.0
 40
1.0
 40
1.0
 10
12.1861520826
 20
10.0348739948
 30
0.0
 10
12.1846734118
 20
10.0322972983
 30
0.0
 10
12.1811029836
 20
10.0257620393
 30
0.0
 10
12.1777524299
 20
10.0191112344
 30
0.0
 10
12.175800834
 20
10.0150846902
 30
0.0
  0
SPLINE
  5
448
100
AcDbEntity
  8
0
100
AcDbSpline
 62
7
  6
CONTINUOUS
 70
0
 71
3
 72
11
 73
7
 74
0
 42
0.0000001
 43
0.0000001
 44
0.0000000001
 40
0.0
 40
0.0
 40
0.0
 40
0.0
 40
0.3165931287
 40
0.5920252754
 40
0.8228483507
 40
1.0
 40
1.0
 40
1.0
 40
1.0
 10
12.1757527893
 20
9.3530091226
 30
0.0
 10
12.1767500209
 20
9.3508121734
 30
0.0
 10
12.1786790316
 20
9.3467277651
 30
0.0
 10
12.1819270827
 20
9.3413511692
 30
0.0
 10
12.1849479764
 20
9.3371087776
 30
0.0
 10
12.1867967674
 20
9.3346055687
 30
0.0
 10
12.1875231993
 20
9.3334676374
 30
0.0
  0
SPLINE
  5
449
100
AcDbEntity
  8
0
100
AcDbSpline
 62
7
  6
CONTINUOUS
 70
0
 71
3
 72
11
 73
7
 74
0
 42
0.0000001
 43
0.0000001
 44
0.0000000001
 40
0.0
 40
0.0
 40
0.0
 40
0.0
 40
0.1990284702
 40
0.4225398166
 40
0.686653948
 40
1.0
 40
1.0
 40
1.0
 40
1.0
 10
13.4043216709
 20
8.9025219003
 30
0.0
 10
13.4007357806
 20
8.9051656146
 30
0.0
 10
13.393554363
 20
8.9113988751
 30
0.0
 10
13.3839849486
 20
8.9235677832
 30
0.0
 10
13.3763836213
 20
8.9400097035
 30
0.0
 10
13.3743979206
 20
8.9530285218
 30
0.0
 10
13.3743979206
 20
8.960042519
 30
0.0
  0
SPLINE
  5
44A
100
AcDbEntity
  8
0
100
AcDbSpline
 62
7
  6
CONTINUOUS
 70
0
 71
3
 72
14
 73
10
 74
0
 42
0.0000001
 43
0.0000001
 44
0.0000000001
 40
0.0
 40
0.0
 40
0.0
 40
0.0
 40
0.0987963057
 40
0.1894017151
 40
0.3419906523
 40
0.4699113179
 40
0.5848192807
 40
0.7967182628
 40
1.0
 40
1.0
 40
1.0
 40
1.0
 10
13.3743979206
 20
8.960042519
 30
0.0
 10
13.3743979206
 20
8.9644429957
 30
0.0
 10
13.3752047124
 20
8.9729034505
 30
0.0
 10
13.3793874913
 20
8.9876163439
 30
0.0
 10
13.3876292698
 20
9.0022486528
 30
0.0
 10
13.4000670365
 20
9.0149234649
 30
0.0
 10
13.4169490217
 20
9.0262984773
 30
0.0
 10
13.4392538722
 20
9.0348131955
 30
0.0
 10
13.4575237051
 20
9.038052226
 30
0.0
 10
13.4665193286
 20
9.0390818142
 30
0.0
  0
SPLINE
  5
44B
100
AcDbEntity
  8
0
100
AcDbSpline
 62
7
  6
CONTINUOUS
 70
0
 71
3
 72
17
 73
13
 74
0
 42
0.0000001
 43
0.0000001
 44
0.0000000001
 40
0.0
 40
0.0
 40
0.0
 40
0.0
 40
0.1075857908
 40
0.2149844537
 40
0.3227632245
 40
0.43182524
 40
0.5442004784
 40
0.664905405
 40
0.7321218344
 40
0.8077241822
 40
0.896479748
 40
1.0
 40
1.0
 40
1.0
 40
1.0
 10
13.4665193286
 20
9.0390818142
 30
0.0
 10
13.4732086699
 20
9.0398474383
 30
0.0
 10
13.4866522696
 20
9.0407532084
 30
0.0
 10
13.5068691982
 20
9.0404998896
 30
0.0
 10
13.5270963802
 20
9.0385752976
 30
0.0
 10
13.5473483847
 20
9.03453153
 30
0.0
 10
13.5676348429
 20
9.0274008302
 30
0.0
 10
13.5838854436
 20
9.0175287261
 30
0.0
 10
13.5958251102
 20
9.0060514692
 30
0.0
 10
13.6043350062
 20
8.9941985672
 30
0.0
 10
13.6109467273
 20
8.9786273618
 30
0.0
 10
13.6126504392
 20
8.9665210997
 30
0.0
 10
13.6126504392
 20
8.960042519
 30
0.0
  0
SPLINE
  5
44C
100
AcDbEntity
  8
0
100
AcDbSpline
 62
7
  6
CONTINUOUS
 70
0
 71
3
 72
11
 73
7
 74
0
 42
0.0000001
 43
0.0000001
 44
0.0000000001
 40
0.0
 40
0.0
 40
0.0
 40
0.0
 40
0.3133448868
 40
0.5774596656
 40
0.8009712896
 40
1.0
 40
1.0
 40
1.0
 40
1.0
 10
13.6126504392
 20
8.960042519
 30
0.0
 10
13.6126504392
 20
8.9530285479
 30
0.0
 10
13.6106647531
 20
8.940009741
 30
0.0
 10
13.6030634331
 20
8.9235678218
 30
0.0
 10
13.5934940109
 20
8.9113988869
 30
0.0
 10
13.586312585
 20
8.9051656178
 30
0.0
 10
13.5827266903
 20
8.9025219003
 30
0.0
  0
SPLINE
  5
44D
100
AcDbEntity
  8
0
100
AcDbSpline
 62
7
  6
CONTINUOUS
 70
0
 71
3
 72
11
 73
7
 74
0
 42
0.0000001
 43
0.0000001
 44
0.0000000001
 40
0.0
 40
0.0
 40
0.0
 40
0.0
 40
0.2042934283
 40
0.4436525011
 40
0.7107230817
 40
1.0
 40
1.0
 40
1.0
 40
1.0
 10
12.4882909791
 20
9.0970383273
 30
0.0
 10
12.4934680867
 20
9.107279831
 30
0.0
 10
12.5049721781
 20
9.1293886753
 30
0.0
 10
12.5239169455
 20
9.164531172
 30
0.0
 10
12.5454348443
 20
9.2037076464
 30
0.0
 10
12.5605152372
 20
9.2310797485
 30
0.0
 10
12.5683805011
 20
9.245298765
 30
0.0
  0
SPLINE
  5
44E
100
AcDbEntity
  8
0
100
AcDbSpline
 62
9
  6
CONTINUOUS
 70
0
 71
3
 72
9
 73
5
 74
0
 42
0.0000001
 43
0.0000001
 44
0.0000000001
 40
0.0
 40
0.0
 40
0.0
 40
0.0
 40
0.4778596563
 40
1.0
 40
1.0
 40
1.0
 40
1.0
 10
13.5851661024
 20
10.8138245648
 30
0.0
 10
13.5831275405
 20
10.813824569
 30
0.0
 10
13.5788291123
 20
10.8143397016
 30
0.0
 10
13.5748966587
 20
10.8162039708
 30
0.0
 10
13.5730399441
 20
10.8174345028
 30
0.0
  0
SPLINE
  5
44F
100
AcDbEntity
  8
0
100
AcDbSpline
 62
9
  6
CONTINUOUS
 70
0
 71
3
 72
9
 73
5
 74
0
 42
0.0000001
 43
0.0000001
 44
0.0000000001
 40
0.0
 40
0.0
 40
0.0
 40
0.0
 40
0.2417952676
 40
1.0
 40
1.0
 40
1.0
 40
1.0
 10
13.5311539431
 20
10.8945944234
 30
0.0
 10
13.5298394724
 20
10.8981385103
 30
0.0
 10
13.5244915636
 20
10.9128287397
 30
0.0
 10
13.5194152584
 20
10.9276160712
 30
0.0
 10
13.5156147537
 20
10.9388433175
 30
0.0
  0
SPLINE
  5
450
100
AcDbEntity
  8
0
100
AcDbSpline
 62
9
  6
CONTINUOUS
 70
0
 71
3
 72
9
 73
5
 74
0
 42
0.0000001
 43
0.0000001
 44
0.0000000001
 40
0.0
 40
0.0
 40
0.0
 40
0.0
 40
0.5068161764
 40
1.0
 40
1.0
 40
1.0
 40
1.0
 10
13.5156147537
 20
10.9388433175
 30
0.0
 10
13.5111826697
 20
10.951936341
 30
0.0
 10
13.5025737783
 20
10.9778153351
 30
0.0
 10
13.4937432002
 20
11.0036226133
 30
0.0
 10
13.4891840902
 20
11.0162774363
 30
0.0
  0
SPLINE
  5
451
100
AcDbEntity
  8
0
100
AcDbSpline
 62
9
  6
CONTINUOUS
 70
0
 71
3
 72
40
 73
36
 74
0
 42
0.0000001
 43
0.0000001
 44
0.0000000001
 40
0.0
 40
0.0
 40
0.0
 40
0.0
 40
0.0098750406
 40
0.0151353542
 40
0.0208510155
 40
0.0272087494
 40
0.0342936828
 40
0.0507361403
 40
0.070168112
 40
0.0923519508
 40
0.1169574306
 40
0.1436082779
 40
0.2014260852
 40
0.2624648044
 40
0.3232984735
 40
0.3525675984
 40
0.3805075302
 40
0.4748749867
 40
0.5129184238
 40
0.5462260377
 40
0.5758073673
 40
0.6026112662
 40
0.6274838158
 40
0.6511396109
 40
0.674164766
 40
0.6970571082
 40
0.7201473978
 40
0.7433817895
 40
0.7897873288
 40
0.8353024266
 40
0.8791119158
 40
0.9002279271
 40
0.9208045588
 40
0.9607598619
 40
1.0
 40
1.0
 40
1.0
 40
1.0
 10
13.5851619037
 20
12.7712288826
 30
0.0
 10
13.5829884282
 20
12.7712288833
 30
0.0
 10
13.5796215127
 20
12.7707894178
 30
0.0
 10
13.5753424946
 20
12.7690787311
 30
0.0
 10
13.572074786
 20
12.7670751066
 30
0.0
 10
13.5688473673
 20
12.7643422674
 30
0.0
 10
13.5643325919
 20
12.7595447313
 30
0.0
 10
13.5588088059
 20
12.7518275408
 30
0.0
 10
13.5524618934
 20
12.7407255537
 30
0.0
 10
13.5460968421
 20
12.7276040349
 30
0.0
 10
13.5397156786
 20
12.71274921
 30
0.0
 10
13.5309533236
 20
12.690395222
 30
0.0
 10
13.5202660491
 20
12.6601988449
 30
0.0
 10
13.5077112038
 20
12.6226958425
 30
0.0
 10
13.4971245171
 20
12.5911592822
 30
0.0
 10
13.4884713162
 20
12.5666589927
 30
0.0
 10
13.4768517637
 20
12.5353936713
 30
0.0
 10
13.4626427788
 20
12.5029419395
 30
0.0
 10
13.4439946713
 20
12.4715485626
 30
0.0
 10
13.4309910287
 20
12.4534976249
 30
0.0
 10
13.417949649
 20
12.4386356453
 30
0.0
 10
13.4048820911
 20
12.4263857792
 30
0.0
 10
13.3918088206
 20
12.4161583813
 30
0.0
 10
13.37874677
 20
12.4073451592
 30
0.0
 10
13.3656964863
 20
12.3993318973
 30
0.0
 10
13.3526850799
 20
12.3914962265
 30
0.0
 10
13.3398001469
 20
12.3833661611
 30
0.0
 10
13.3226395957
 20
12.3723179501
 30
0.0
 10
13.3013589379
 20
12.3585495049
 30
0.0
 10
13.2757840069
 20
12.3430952396
 30
0.0
 10
13.254139065
 20
12.3319482261
 30
0.0
 10
13.2367151626
 20
12.3248023298
 30
0.0
 10
13.2196220826
 20
12.3192024607
 30
0.0
 10
13.1980167035
 20
12.3148311984
 30
0.0
 10
13.1805899244
 20
12.3136051553
 30
0.0
 10
13.1719554093
 20
12.3134121808
 30
0.0
  0
SPLINE
  5
452
100
AcDbEntity
  8
0
100
AcDbSpline
 62
9
  6
CONTINUOUS
 70
0
 71
3
 72
27
 73
23
 74
0
 42
0.0000001
 43
0.0000001
 44
0.0000000001
 40
0.0
 40
0.0
 40
0.0
 40
0.0
 40
0.0029794918
 40
0.0060723223
 40
0.0129628272
 40
0.0212761568
 40
0.0313340596
 40
0.0433073661
 40
0.0572874256
 40
0.0733231837
 40
0.0914397836
 40
0.111637725
 40
0.1338814182
 40
0.1843137107
 40
0.2423269992
 40
0.3074719937
 40
0.3792243909
 40
0.4568522353
 40
0.5395735138
 40
0.6266015638
 40
0.8101650737
 40
1.0
 40
1.0
 40
1.0
 40
1.0
 10
13.0554381774
 20
12.3223103172
 30
0.0
 10
13.054265296
 20
12.322310335
 30
0.0
 10
13.0518686197
 20
12.3220659389
 30
0.0
 10
13.0469617917
 20
12.3205679997
 30
0.0
 10
13.0407751174
 20
12.3166518301
 30
0.0
 10
13.0338435789
 20
12.3094478606
 30
0.0
 10
13.0270037107
 20
12.299611323
 30
0.0
 10
13.0202433649
 20
12.2871288171
 30
0.0
 10
13.0135588892
 20
12.2719971933
 30
0.0
 10
13.0069663782
 20
12.2542242314
 30
0.0
 10
13.0004843662
 20
12.2338280472
 30
0.0
 10
12.9941322057
 20
12.2108462827
 30
0.0
 10
12.9854852636
 20
12.1753188932
 30
0.0
 10
12.9752974753
 20
12.1248723098
 30
0.0
 10
12.9642376022
 20
12.0574286328
 30
0.0
 10
12.9540342056
 20
11.9813737821
 30
0.0
 10
12.9448173542
 20
11.8974235245
 30
0.0
 10
12.9366591323
 20
11.8064161578
 30
0.0
 10
12.9296466785
 20
11.7092841372
 30
0.0
 10
12.9218069309
 20
11.5704182766
 30
0.0
 10
12.9155658163
 20
11.3892547845
 30
0.0
 10
12.9141950396
 20
11.2422550675
 30
0.0
 10
12.9144455709
 20
11.1675266832
 30
0.0
  0
SPLINE
  5
453
100
AcDbEntity
  8
0
100
AcDbSpline
 62
7
  6
CONTINUOUS
 70
0
 71
3
 72
12
 73
8
 74
0
 42
0.0000001
 43
0.0000001
 44
0.0000000001
 40
0.0
 40
0.0
 40
0.0
 40
0.0
 40
0.0546702469
 40
0.2229589382
 40
0.5207209583
 40
0.7307512886
 40
1.0
 40
1.0
 40
1.0
 40
1.0
 10
12.4687594008
 20
10.2922300902
 30
0.0
 10
12.4691002507
 20
10.291972553
 30
0.0
 10
12.4704843129
 20
10.2909145239
 30
0.0
 10
12.47366013
 20
10.2883708839
 30
0.0
 10
12.4776344826
 20
10.2848796119
 30
0.0
 10
12.4818653263
 20
10.2805255439
 30
0.0
 10
12.4843116186
 20
10.2776702862
 30
0.0
 10
12.4855076407
 20
10.2759394968
 30
0.0
  0
LINE
  5
454
100
AcDbEntity
  8
0
100
AcDbLine
 62
7
  6
CONTINUOUS
 10
12.4855076407
 20
10.2759394968
 11
12.488306996
 21
10.2711585861
  0
SPLINE
  5
455
100
AcDbEntity
  8
0
100
AcDbSpline
 62
7
  6
CONTINUOUS
 70
0
 71
3
 72
11
 73
7
 74
0
 42
0.0000001
 43
0.0000001
 44
0.0000000001
 40
0.0
 40
0.0
 40
0.0
 40
0.0
 40
0.2046705918
 40
0.4437806832
 40
0.7108177715
 40
1.0
 40
1.0
 40
1.0
 40
1.0
 10
12.488308077
 20
10.2711568202
 30
0.0
 10
12.493413269
 20
10.2608488403
 30
0.0
 10
12.5049440964
 20
10.2387285298
 30
0.0
 10
12.5239361622
 20
10.2035827278
 30
0.0
 10
12.5454315988
 20
10.1643908516
 30
0.0
 10
12.5605252332
 20
10.1370154489
 30
0.0
 10
12.5683929617
 20
10.1227940531
 30
0.0
  0
SPLINE
  5
456
100
AcDbEntity
  8
0
100
AcDbSpline
 62
9
  6
CONTINUOUS
 70
0
 71
3
 72
11
 73
7
 74
0
 42
0.0000001
 43
0.0000001
 44
0.0000000001
 40
0.0
 40
0.0
 40
0.0
 40
0.0
 40
0.1965240166
 40
0.4282671587
 40
0.6961518072
 40
1.0
 40
1.0
 40
1.0
 40
1.0
 10
9.4765345303
 20
10.247572943
 30
0.0
 10
9.4731531863
 20
10.2471591006
 30
0.0
 10
9.4658808344
 20
10.2454656845
 30
0.0
 10
9.4546002616
 20
10.2411152165
 30
0.0
 10
9.442180444
 20
10.2347667911
 30
0.0
 10
9.4337509532
 20
10.2295353758
 30
0.0
 10
9.4293680777
 20
10.2266145647
 30
0.0
  0
SPLINE
  5
457
100
AcDbEntity
  8
0
100
AcDbSpline
 62
9
  6
CONTINUOUS
 70
0
 71
3
 72
13
 73
9
 74
0
 42
0.0000001
 43
0.0000001
 44
0.0000000001
 40
0.0
 40
0.0
 40
0.0
 40
0.0
 40
0.1416712417
 40
0.2754759337
 40
0.4041907617
 40
0.5289919817
 40
0.7693746264
 40
1.0
 40
1.0
 40
1.0
 40
1.0
 10
10.6215207442
 20
8.4007389522
 30
0.0
 10
10.6208812479
 20
8.3865356274
 30
0.0
 10
10.6180755442
 20
8.3589818037
 30
0.0
 10
10.6109398418
 20
8.3190274618
 30
0.0
 10
10.601743099
 20
8.2812352438
 30
0.0
 10
10.5873037012
 20
8.2337979113
 30
0.0
 10
10.56545792
 20
8.17801743
 30
0.0
 10
10.5436810345
 20
8.1359511364
 30
0.0
 10
10.5319544215
 20
8.1159968744
 30
0.0
  0
SPLINE
  5
458
100
AcDbEntity
  8
0
100
AcDbSpline
 62
9
  6
CONTINUOUS
 70
0
 71
3
 72
18
 73
14
 74
0
 42
0.0000001
 43
0.0000001
 44
0.0000000001
 40
0.0
 40
0.0
 40
0.0
 40
0.0
 40
0.0084579591
 40
0.0152491577
 40
0.0240777782
 40
0.0481472402
 40
0.0809406794
 40
0.1717694314
 40
0.2936787236
 40
0.4428502118
 40
0.6143971644
 40
0.8026292844
 40
1.0
 40
1.0
 40
1.0
 40
1.0
 10
7.8157448477
 20
10.3214926806
 30
0.0
 10
7.8155244517
 20
10.3214894808
 30
0.0
 10
7.8151873148
 20
10.3211614938
 30
0.0
 10
7.81489257
 20
10.3206287142
 30
0.0
 10
7.8144896527
 20
10.3196644892
 30
0.0
 10
7.8140392109
 20
10.3180143639
 30
0.0
 10
7.8132823305
 20
10.3142364225
 30
0.0
 10
7.8124742846
 20
10.3078849692
 30
0.0
 10
7.811639091
 20
10.2984896718
 30
0.0
 10
7.8109345048
 20
10.2869747785
 30
0.0
 10
7.8103770504
 20
10.2737224254
 30
0.0
 10
7.809998229
 20
10.2592071899
 30
0.0
 10
7.8098706356
 20
10.2491586426
 30
0.0
 10
7.8098387799
 20
10.2440151469
 30
0.0
  0
SPLINE
  5
459
100
AcDbEntity
  8
0
100
AcDbSpline
 62
9
  6
CONTINUOUS
 70
0
 71
3
 72
16
 73
12
 74
0
 42
0.0000001
 43
0.0000001
 44
0.0000000001
 40
0.0
 40
0.0
 40
0.0
 40
0.0
 40
0.0274681468
 40
0.0510735886
 40
0.0822276849
 40
0.1211431595
 40
0.1678066597
 40
0.2834933896
 40
0.4272549298
 40
0.5967299562
 40
1.0
 40
1.0
 40
1.0
 40
1.0
 10
7.730626762
 20
10.2171026925
 30
0.0
 10
7.730634376
 20
10.217542806
 30
0.0
 10
7.7314149031
 20
10.218172174
 30
0.0
 10
7.7325599011
 20
10.2186974984
 30
0.0
 10
7.7340012604
 20
10.2191931484
 30
0.0
 10
7.735805395
 20
10.2196619037
 30
0.0
 10
7.7389659689
 20
10.22032615
 30
0.0
 10
7.7438152904
 20
10.2210709588
 30
0.0
 10
7.7506465843
 20
10.2218471074
 30
0.0
 10
7.762089006
 20
10.222810696
 30
0.0
 10
7.7712582796
 20
10.2232774943
 30
0.0
 10
7.7777161152
 20
10.2235212984
 30
0.0
  0
SPLINE
  5
45A
100
AcDbEntity
  8
0
100
AcDbSpline
 62
9
  6
CONTINUOUS
 70
0
 71
3
 72
13
 73
9
 74
0
 42
0.0000001
 43
0.0000001
 44
0.0000000001
 40
0.0
 40
0.0
 40
0.0
 40
0.0
 40
0.1416712417
 40
0.2754759337
 40
0.4041907617
 40
0.5289919817
 40
0.7693746264
 40
1.0
 40
1.0
 40
1.0
 40
1.0
 10
9.3366894373
 20
8.4007389522
 30
0.0
 10
9.3373289336
 20
8.3865356274
 30
0.0
 10
9.3401346374
 20
8.3589818037
 30
0.0
 10
9.3472703398
 20
8.3190274618
 30
0.0
 10
9.3564670826
 20
8.2812352438
 30
0.0
 10
9.3709064803
 20
8.2337979113
 30
0.0
 10
9.3927522616
 20
8.17801743
 30
0.0
 10
9.4145291471
 20
8.1359511364
 30
0.0
 10
9.42625576
 20
8.1159968744
 30
0.0
  0
SPLINE
  5
45B
100
AcDbEntity
  8
0
100
AcDbSpline
 62
7
  6
CONTINUOUS
 70
0
 71
3
 72
17
 73
13
 74
0
 42
0.0000001
 43
0.0000001
 44
0.0000000001
 40
0.0
 40
0.0
 40
0.0
 40
0.0
 40
0.1274851314
 40
0.2531725147
 40
0.3770929192
 40
0.4386264004
 40
0.5000002041
 40
0.561374057
 40
0.6229075483
 40
0.7468276933
 40
0.8725148683
 40
1.0
 40
1.0
 40
1.0
 40
1.0
 10
13.4765488173
 20
10.7826133414
 30
0.0
 10
13.4615826498
 20
10.7934806562
 30
0.0
 10
13.4308362407
 20
10.8137204329
 30
0.0
 10
13.3816674068
 20
10.8380826596
 30
0.0
 10
13.3382906357
 20
10.8515122431
 30
0.0
 10
13.3028531046
 20
10.857026713
 30
0.0
 10
13.276104996
 20
10.8584193204
 30
0.0
 10
13.2493568827
 20
10.8570267186
 30
0.0
 10
13.2139193963
 20
10.8515121533
 30
0.0
 10
13.170542684
 20
10.8380826295
 30
0.0
 10
13.121373916
 20
10.8137204129
 30
0.0
 10
13.0906275318
 20
10.7934806562
 30
0.0
 10
13.0756613643
 20
10.7826133414
 30
0.0
  0
SPLINE
  5
45C
100
AcDbEntity
  8
0
100
AcDbSpline
 62
7
  6
CONTINUOUS
 70
0
 71
3
 72
17
 73
13
 74
0
 42
0.0000001
 43
0.0000001
 44
0.0000000001
 40
0.0
 40
0.0
 40
0.0
 40
0.0
 40
0.1274851314
 40
0.2531725147
 40
0.3770929192
 40
0.4386264004
 40
0.5000002041
 40
0.561374057
 40
0.6229075483
 40
0.7468276933
 40
0.8725148683
 40
1.0
 40
1.0
 40
1.0
 40
1.0
 10
12.8825488173
 20
10.7826133414
 30
0.0
 10
12.8675826498
 20
10.7934806562
 30
0.0
 10
12.8368362407
 20
10.8137204329
 30
0.0
 10
12.7876674068
 20
10.8380826596
 30
0.0
 10
12.7442906357
 20
10.8515122431
 30
0.0
 10
12.7088531046
 20
10.857026713
 30
0.0
 10
12.682104996
 20
10.8584193204
 30
0.0
 10
12.6553568827
 20
10.8570267186
 30
0.0
 10
12.6199193963
 20
10.8515121533
 30
0.0
 10
12.576542684
 20
10.8380826295
 30
0.0
 10
12.527373916
 20
10.8137204129
 30
0.0
 10
12.4966275318
 20
10.7934806562
 30
0.0
 10
12.4816613643
 20
10.7826133414
 30
0.0
  0
SPLINE
  5
45D
100
AcDbEntity
  8
0
100
AcDbSpline
 62
9
  6
CONTINUOUS
 70
0
 71
3
 72
11
 73
7
 74
0
 42
0.0000001
 43
0.0000001
 44
0.0000000001
 40
0.0
 40
0.0
 40
0.0
 40
0.0
 40
0.2718975619
 40
0.5256684025
 40
0.7670765662
 40
1.0
 40
1.0
 40
1.0
 40
1.0
 10
10.8735808423
 20
3.9338511386
 30
0.0
 10
10.8735422231
 20
3.9285609054
 30
0.0
 10
10.8730211828
 20
3.9183298282
 30
0.0
 10
10.8709727494
 20
3.9035303956
 30
0.0
 10
10.8680087617
 20
3.8896671284
 30
0.0
 10
10.8655477895
 20
3.8807662423
 30
0.0
 10
10.8642165514
 20
3.8764341249
 30
0.0
  0
SPLINE
  5
45E
100
AcDbEntity
  8
0
100
AcDbSpline
 62
9
  6
CONTINUOUS
 70
0
 71
3
 72
21
 73
17
 74
0
 42
0.0000001
 43
0.0000001
 44
0.0000000001
 40
0.0
 40
0.0
 40
0.0
 40
0.0
 40
0.0315494632
 40
0.061856114
 40
0.0914814123
 40
0.1207459642
 40
0.1787987712
 40
0.2078041155
 40
0.236867815
 40
0.2953092432
 40
0.3543509493
 40
0.4746716073
 40
0.5986851428
 40
0.7270150239
 40
0.8604099576
 40
1.0
 40
1.0
 40
1.0
 40
1.0
 10
10.8642165514
 20
3.8764341249
 30
0.0
 10
10.8610083386
 20
3.8659939529
 30
0.0
 10
10.8533654459
 20
3.845922365
 30
0.0
 10
10.8389175765
 20
3.8176885033
 30
0.0
 10
10.8224353907
 20
3.7915369166
 30
0.0
 10
10.7984722879
 20
3.7588755863
 30
0.0
 10
10.7715997124
 20
3.7287440486
 30
0.0
 10
10.7426585944
 20
3.700832157
 30
0.0
 10
10.7123765998
 20
3.6741689909
 30
0.0
 10
10.6721654233
 20
3.6431359334
 30
0.0
 10
10.6033753615
 20
3.5978072205
 30
0.0
 10
10.5100053518
 20
3.5490465138
 30
0.0
 10
10.3891336241
 20
3.5032033118
 30
0.0
 10
10.2596161418
 20
3.4696561974
 30
0.0
 10
10.1220113522
 20
3.448897138
 30
0.0
 10
10.0274292333
 20
3.4443689527
 30
0.0
 10
9.9791050908
 20
3.4443689527
 30
0.0
  0
SPLINE
  5
45F
100
AcDbEntity
  8
0
100
AcDbSpline
 62
9
  6
CONTINUOUS
 70
0
 71
3
 72
25
 73
21
 74
0
 42
0.0000001
 43
0.0000001
 44
0.0000000001
 40
0.0
 40
0.0
 40
0.0
 40
0.0
 40
0.0011270129
 40
0.0025298823
 40
0.0044879136
 40
0.010056232
 40
0.0178055264
 40
0.0277093831
 40
0.0397414169
 40
0.0538752722
 40
0.0700846235
 40
0.1086246444
 40
0.1551515243
 40
0.2094558233
 40
0.2713286608
 40
0.3405338157
 40
0.416724718
 40
0.5885783334
 40
0.7839582525
 40
1.0
 40
1.0
 40
1.0
 40
1.0
 10
9.4291078972
 20
8.9050597443
 30
0.0
 10
9.4291343226
 20
8.9050969185
 30
0.0
 10
9.4292312346
 20
8.9051440134
 30
0.0
 10
9.4293678788
 20
8.9052615942
 30
0.0
 10
9.4296603383
 20
8.905475564
 30
0.0
 10
9.4301502142
 20
8.9058514874
 30
0.0
 10
9.4309027135
 20
8.9064150033
 30
0.0
 10
9.4318634788
 20
8.9071359881
 30
0.0
 10
9.4330336657
 20
8.9080086772
 30
0.0
 10
9.4344102318
 20
8.909031361
 30
0.0
 10
9.4366516057
 20
8.910688866
 30
0.0
 10
9.4399552308
 20
8.9131146642
 30
0.0
 10
9.444516151
 20
8.9164329042
 30
0.0
 10
9.449858085
 20
8.9202825708
 30
0.0
 10
9.4559648288
 20
8.9246406032
 30
0.0
 10
9.462815895
 20
8.9294803044
 30
0.0
 10
9.4733496206
 20
8.9368205549
 30
0.0
 10
9.48819586
 20
8.9469027634
 30
0.0
 10
9.5079796898
 20
8.9597814845
 30
0.0
 10
9.522140789
 20
8.9685423739
 30
0.0
 10
9.5296339587
 20
8.9730472045
 30
0.0
  0
SPLINE
  5
460
100
AcDbEntity
  8
0
100
AcDbSpline
 62
9
  6
CONTINUOUS
 70
0
 71
3
 72
10
 73
6
 74
0
 42
0.0000001
 43
0.0000001
 44
0.0000000001
 40
0.0
 40
0.0
 40
0.0
 40
0.0
 40
0.5582044898
 40
0.7937112411
 40
1.0
 40
1.0
 40
1.0
 40
1.0
 10
9.5031362284
 20
10.2244718017
 30
0.0
 10
9.5108996938
 20
10.234510717
 30
0.0
 10
9.5226337152
 20
10.2482994415
 30
0.0
 10
9.5391085882
 20
10.2639874983
 30
0.0
 10
9.5469174199
 20
10.2703302666
 30
0.0
 10
9.5507070804
 20
10.2730931821
 30
0.0
  0
SPLINE
  5
461
100
AcDbEntity
  8
0
100
AcDbSpline
 62
7
  6
CONTINUOUS
 70
0
 71
3
 72
17
 73
13
 74
0
 42
0.0000001
 43
0.0000001
 44
0.0000000001
 40
0.0
 40
0.0
 40
0.0
 40
0.0
 40
0.1274851314
 40
0.2531725147
 40
0.3770929192
 40
0.4386264004
 40
0.5000002041
 40
0.561374057
 40
0.6229075483
 40
0.7468276933
 40
0.8725148683
 40
1.0
 40
1.0
 40
1.0
 40
1.0
 10
12.4816613643
 20
10.4364402005
 30
0.0
 10
12.4966275318
 20
10.4255728857
 30
0.0
 10
12.5273739408
 20
10.4053331091
 30
0.0
 10
12.5765427747
 20
10.3809708823
 30
0.0
 10
12.6199195458
 20
10.3675412988
 30
0.0
 10
12.655357077
 20
10.3620268289
 30
0.0
 10
12.6821051855
 20
10.3606342215
 30
0.0
 10
12.7088532988
 20
10.3620268233
 30
0.0
 10
12.7442907852
 20
10.3675413886
 30
0.0
 10
12.7876674976
 20
10.3809709124
 30
0.0
 10
12.8368362655
 20
10.405333129
 30
0.0
 10
12.8675826498
 20
10.4255728857
 30
0.0
 10
12.8825488173
 20
10.4364402005
 30
0.0
  0
SPLINE
  5
462
100
AcDbEntity
  8
0
100
AcDbSpline
 62
7
  6
CONTINUOUS
 70
0
 71
3
 72
17
 73
13
 74
0
 42
0.0000001
 43
0.0000001
 44
0.0000000001
 40
0.0
 40
0.0
 40
0.0
 40
0.0
 40
0.1274851314
 40
0.2531725147
 40
0.3770929192
 40
0.4386264004
 40
0.5000002041
 40
0.561374057
 40
0.6229075483
 40
0.7468276933
 40
0.8725148683
 40
1.0
 40
1.0
 40
1.0
 40
1.0
 10
13.0756613643
 20
10.4364402005
 30
0.0
 10
13.0906275318
 20
10.4255728857
 30
0.0
 10
13.1213739408
 20
10.4053331091
 30
0.0
 10
13.1705427747
 20
10.3809708823
 30
0.0
 10
13.2139195458
 20
10.3675412988
 30
0.0
 10
13.249357077
 20
10.3620268289
 30
0.0
 10
13.2761051855
 20
10.3606342215
 30
0.0
 10
13.3028532988
 20
10.3620268233
 30
0.0
 10
13.3382907852
 20
10.3675413886
 30
0.0
 10
13.3816674976
 20
10.3809709124
 30
0.0
 10
13.4308362655
 20
10.405333129
 30
0.0
 10
13.4615826498
 20
10.4255728857
 30
0.0
 10
13.4765488173
 20
10.4364402005
 30
0.0
  0
SPLINE
  5
463
100
AcDbEntity
  8
0
100
AcDbSpline
 62
9
  6
CONTINUOUS
 70
0
 71
3
 72
15
 73
11
 74
0
 42
0.0000001
 43
0.0000001
 44
0.0000000001
 40
0.0
 40
0.0
 40
0.0
 40
0.0
 40
0.1056170984
 40
0.2182002239
 40
0.3368849117
 40
0.4611410969
 40
0.5905946834
 40
0.7243144595
 40
0.8613343295
 40
1.0
 40
1.0
 40
1.0
 40
1.0
 10
9.5296306246
 20
8.9730590233
 30
0.0
 10
9.5418006037
 20
8.9600492874
 30
0.0
 10
9.5680780634
 20
8.9342110304
 30
0.0
 10
9.6118339093
 20
8.8978528183
 30
0.0
 10
9.6612518668
 20
8.8637320191
 30
0.0
 10
9.7162125963
 20
8.8331079462
 30
0.0
 10
9.7763774341
 20
8.8072923801
 30
0.0
 10
9.8410745976
 20
8.7875249999
 30
0.0
 10
9.9091728827
 20
8.7751889641
 30
0.0
 10
9.9557161256
 20
8.7722987886
 30
0.0
 10
9.97910514
 20
8.7722944837
 30
0.0
  0
SPLINE
  5
464
100
AcDbEntity
  8
0
100
AcDbSpline
 62
9
  6
CONTINUOUS
 70
0
 71
3
 72
15
 73
11
 74
0
 42
0.0000001
 43
0.0000001
 44
0.0000000001
 40
0.0
 40
0.0
 40
0.0
 40
0.0
 40
0.1386696999
 40
0.2756942332
 40
0.4094148787
 40
0.5388671117
 40
0.663121984
 40
0.7818052957
 40
0.8943863237
 40
1.0
 40
1.0
 40
1.0
 40
1.0
 10
9.9791051392
 20
8.7722944968
 30
0.0
 10
10.0024943981
 20
8.7722989405
 30
0.0
 10
10.0490382107
 20
8.775189406
 30
0.0
 10
10.1171368589
 20
8.7875252308
 30
0.0
 10
10.181833529
 20
8.807292396
 30
0.0
 10
10.2419968573
 20
8.8331076221
 30
0.0
 10
10.2969559582
 20
8.8637307824
 30
0.0
 10
10.3463725284
 20
8.8978501843
 30
0.0
 10
10.3901270603
 20
8.934206489
 30
0.0
 10
10.416403727
 20
8.9600432437
 30
0.0
 10
10.4285732562
 20
8.9730521565
 30
0.0
  0
SPLINE
  5
465
100
AcDbEntity
  8
0
100
AcDbSpline
 62
9
  6
CONTINUOUS
 70
0
 71
3
 72
9
 73
5
 74
0
 42
0.0000001
 43
0.0000001
 44
0.0000000001
 40
0.0
 40
0.0
 40
0.0
 40
0.0
 40
0.5279879489
 40
1.0
 40
1.0
 40
1.0
 40
1.0
 10
10.2073731045
 20
9.04354045
 30
0.0
 10
10.2378992347
 20
9.0510548958
 30
0.0
 10
10.2950228484
 20
9.0683251879
 30
0.0
 10
10.3499512752
 20
9.0916155992
 30
0.0
 10
10.3752020057
 20
9.1039551311
 30
0.0
  0
SPLINE
  5
466
100
AcDbEntity
  8
0
100
AcDbSpline
 62
9
  6
CONTINUOUS
 70
0
 71
3
 72
9
 73
5
 74
0
 42
0.0000001
 43
0.0000001
 44
0.0000000001
 40
0.0
 40
0.0
 40
0.0
 40
0.0
 40
0.2624103365
 40
1.0
 40
1.0
 40
1.0
 40
1.0
 10
10.3752020057
 20
9.1039551311
 30
0.0
 10
10.3809321291
 20
9.1067553289
 30
0.0
 10
10.4026365049
 20
9.117692918
 30
0.0
 10
10.4237952432
 20
9.1297264123
 30
0.0
 10
10.4389675076
 20
9.1392746226
 30
0.0
  0
SPLINE
  5
467
100
AcDbEntity
  8
0
100
AcDbSpline
 62
7
  6
CONTINUOUS
 70
0
 71
3
 72
18
 73
14
 74
0
 42
0.0000001
 43
0.0000001
 44
0.0000000001
 40
0.0
 40
0.0
 40
0.0
 40
0.0
 40
0.1250154266
 40
0.2500302001
 40
0.375042191
 40
0.5000489313
 40
0.6250413346
 40
0.6875591627
 40
0.7500779657
 40
0.8125993608
 40
0.8751167906
 40
0.9376235688
 40
1.0
 40
1.0
 40
1.0
 40
1.0
 10
13.3925315858
 20
9.7935734216
 30
0.0
 10
13.3925315858
 20
9.7962646073
 30
0.0
 10
13.3924465429
 20
9.8016475648
 30
0.0
 10
13.3920054986
 20
9.8097113297
 30
0.0
 10
13.3911750037
 20
9.8177459778
 30
0.0
 10
13.3898488313
 20
9.8257149345
 30
0.0
 10
13.3881984368
 20
9.8322501707
 30
0.0
 10
13.3864140836
 20
9.8373322577
 30
0.0
 10
13.3847854299
 20
9.8410322173
 30
0.0
 10
13.3827902838
 20
9.8445530865
 30
0.0
 10
13.3803061824
 20
9.8477600261
 30
0.0
 10
13.377186001
 20
9.8503874249
 30
0.0
 10
13.3745492139
 20
9.8513091538
 30
0.0
 10
13.3732110521
 20
9.851420265
 30
0.0
  0
SPLINE
  5
468
100
AcDbEntity
  8
0
100
AcDbSpline
 62
9
  6
CONTINUOUS
 70
0
 71
3
 72
42
 73
38
 74
0
 42
0.0000001
 43
0.0000001
 44
0.0000000001
 40
0.0
 40
0.0
 40
0.0
 40
0.0
 40
0.0098992515
 40
0.0151773386
 40
0.0209187954
 40
0.0273111834
 40
0.0344386538
 40
0.0509867916
 40
0.0705459596
 40
0.0928712641
 40
0.1176253497
 40
0.1444249417
 40
0.2025131991
 40
0.2637412175
 40
0.3246304707
 40
0.3538616042
 40
0.3817119655
 40
0.4320447
 40
0.4755799754
 40
0.513362983
 40
0.5464413638
 40
0.5758367331
 40
0.6025054195
 40
0.6272955672
 40
0.6509198224
 40
0.6739619979
 40
0.6969205513
 40
0.720087264
 40
0.7433844984
 40
0.7898665874
 40
0.8353859716
 40
0.8575245218
 40
0.8791473462
 40
0.9002193292
 40
0.920755929
 40
0.9607001455
 40
1.0
 40
1.0
 40
1.0
 40
1.0
 10
6.3730441075
 20
12.7712289796
 30
0.0
 10
6.3752317145
 20
12.7712289751
 30
0.0
 10
6.3786220886
 20
12.7707831819
 30
0.0
 10
6.3829278811
 20
12.7690480454
 30
0.0
 10
6.3862159489
 20
12.7670145837
 30
0.0
 10
6.3894632356
 20
12.7642435973
 30
0.0
 10
6.3940069737
 20
12.7593813337
 30
0.0
 10
6.3995650323
 20
12.7515668306
 30
0.0
 10
6.405951548
 20
12.7403328379
 30
0.0
 10
6.4123565792
 20
12.7270628351
 30
0.0
 10
6.4187779862
 20
12.7120487393
 30
0.0
 10
6.4275929059
 20
12.6894764722
 30
0.0
 10
6.4383429634
 20
12.6590225321
 30
0.0
 10
6.4509739659
 20
12.6212567838
 30
0.0
 10
6.4616307594
 20
12.5895527582
 30
0.0
 10
6.4703437973
 20
12.5649807582
 30
0.0
 10
6.4786569271
 20
12.5427459624
 30
0.0
 10
6.4890448169
 20
12.5179157348
 30
0.0
 10
6.5020619455
 20
12.4918688563
 30
0.0
 10
6.5151099538
 20
12.4701816608
 30
0.0
 10
6.5281998107
 20
12.4522662728
 30
0.0
 10
6.5413286947
 20
12.4375369443
 30
0.0
 10
6.5544826315
 20
12.4254049921
 30
0.0
 10
6.5676407853
 20
12.4152684383
 30
0.0
 10
6.5807859684
 20
12.4065046426
 30
0.0
 10
6.5939212405
 20
12.3984906575
 30
0.0
 10
6.6070021535
 20
12.390582901
 30
0.0
 10
6.6199625774
 20
12.3823722675
 30
0.0
 10
6.637226343
 20
12.3712436239
 30
0.0
 10
6.6586311464
 20
12.3574231151
 30
0.0
 10
6.680277026
 20
12.3444467665
 30
0.0
 10
6.6977314153
 20
12.3352356212
 30
0.0
 10
6.710712971
 20
12.32915808
 30
0.0
 10
6.7237090161
 20
12.3239935859
 30
0.0
 10
6.7409288664
 20
12.3186187922
 30
0.0
 10
6.7626772842
 20
12.3145159834
 30
0.0
 10
6.7801958592
 20
12.3134778858
 30
0.0
 10
6.7888799006
 20
12.3133660608
 30
0.0
  0
SPLINE
  5
469
100
AcDbEntity
  8
0
100
AcDbSpline
 62
7
  6
CONTINUOUS
 70
0
 71
3
 72
18
 73
14
 74
0
 42
0.0000001
 43
0.0000001
 44
0.0000000001
 40
0.0
 40
0.0
 40
0.0
 40
0.0
 40
0.0623799596
 40
0.1248852569
 40
0.1874027281
 40
0.2499239001
 40
0.3124425535
 40
0.3749602916
 40
0.4999523259
 40
0.6249587497
 40
0.7499704262
 40
0.8749848845
 40
1.0
 40
1.0
 40
1.0
 40
1.0
 10
13.3731964976
 20
9.5166842061
 30
0.0
 10
13.3745350523
 20
9.5167953499
 30
0.0
 10
13.3771731561
 20
9.5177138397
 30
0.0
 10
13.3802972874
 20
9.5203387013
 30
0.0
 10
13.3827835067
 20
9.5235452316
 30
0.0
 10
13.3847804144
 20
9.527066213
 30
0.0
 10
13.3864103051
 20
9.5307666793
 30
0.0
 10
13.3881959183
 20
9.5358496678
 30
0.0
 10
13.3898473627
 20
9.5423862874
 30
0.0
 10
13.3911742978
 20
9.5503570408
 30
0.0
 10
13.3920052374
 20
9.5583935505
 30
0.0
 10
13.3924465031
 20
9.5664592013
 30
0.0
 10
13.3925315858
 20
9.5718434215
 30
0.0
 10
13.3925315858
 20
9.5745352384
 30
0.0
  0
SPLINE
  5
46A
100
AcDbEntity
  8
0
100
AcDbSpline
 62
9
  6
CONTINUOUS
 70
0
 71
3
 72
11
 73
7
 74
0
 42
0.0000001
 43
0.0000001
 44
0.0000000001
 40
0.0
 40
0.0
 40
0.0
 40
0.0
 40
0.273046616
 40
0.5269526128
 40
0.7678943249
 40
1.0
 40
1.0
 40
1.0
 40
1.0
 10
9.0636353255
 20
3.5618053256
 30
0.0
 10
9.0636769158
 20
3.5564914343
 30
0.0
 10
9.0642254005
 20
3.5462324163
 30
0.0
 10
9.0663862151
 20
3.5314272344
 30
0.0
 10
9.0695085215
 20
3.5176168673
 30
0.0
 10
9.0720990515
 20
3.508775747
 30
0.0
 10
9.0734992963
 20
3.50448099
 30
0.0
  0
SPLINE
  5
46B
100
AcDbEntity
  8
0
100
AcDbSpline
 62
9
  6
CONTINUOUS
 70
0
 71
3
 72
23
 73
19
 74
0
 42
0.0000001
 43
0.0000001
 44
0.0000000001
 40
0.0
 40
0.0
 40
0.0
 40
0.0
 40
0.0157778339
 40
0.0311448844
 40
0.0610333477
 40
0.0757085271
 40
0.0902718517
 40
0.1191757082
 40
0.1766149752
 40
0.2053679702
 40
0.2342132613
 40
0.2923181963
 40
0.3511486417
 40
0.4713913409
 40
0.5957352075
 40
0.7247546756
 40
0.8591470522
 40
1.0
 40
1.0
 40
1.0
 40
1.0
 10
9.0734992963
 20
3.50448099
 30
0.0
 10
9.0752040235
 20
3.4992523407
 30
0.0
 10
9.0789460809
 20
3.4890509498
 30
0.0
 10
9.0874998808
 20
3.4695618966
 30
0.0
 10
9.0975380021
 20
3.4511887458
 30
0.0
 10
9.1086897208
 20
3.4338529593
 30
0.0
 10
9.1203299455
 20
3.4172565817
 30
0.0
 10
9.1421271926
 20
3.3896174917
 30
0.0
 10
9.170013182
 20
3.3606271322
 30
0.0
 10
9.1999444587
 20
3.3339327933
 30
0.0
 10
9.231247938
 20
3.3084837531
 30
0.0
 10
9.2727171335
 20
3.2790141845
 30
0.0
 10
9.3434907973
 20
3.2361798989
 30
0.0
 10
9.4391766132
 20
3.1904577154
 30
0.0
 10
9.5624541768
 20
3.1477804575
 30
0.0
 10
9.6942102158
 20
3.1166839809
 30
0.0
 10
9.8340026182
 20
3.0974624763
 30
0.0
 10
9.9300092822
 20
3.0932824556
 30
0.0
 10
9.9791050906
 20
3.0932824556
 30
0.0
  0
SPLINE
  5
46C
100
AcDbEntity
  8
0
100
AcDbSpline
 62
9
  6
CONTINUOUS
 70
0
 71
3
 72
9
 73
5
 74
0
 42
0.0000001
 43
0.0000001
 44
0.0000000001
 40
0.0
 40
0.0
 40
0.0
 40
0.0
 40
0.4778592884
 40
1.0
 40
1.0
 40
1.0
 40
1.0
 10
6.3730483076
 20
10.8138246632
 30
0.0
 10
6.375086857
 20
10.8138246625
 30
0.0
 10
6.379385265
 20
10.8143397902
 30
0.0
 10
6.3833176891
 20
10.8162040747
 30
0.0
 10
6.3851743854
 20
10.8174346157
 30
0.0
  0
SPLINE
  5
46D
100
AcDbEntity
  8
0
100
AcDbSpline
 62
9
  6
CONTINUOUS
 70
0
 71
3
 72
9
 73
5
 74
0
 42
0.0000001
 43
0.0000001
 44
0.0000000001
 40
0.0
 40
0.0
 40
0.0
 40
0.0
 40
0.2417951993
 40
1.0
 40
1.0
 40
1.0
 40
1.0
 10
6.4270595454
 20
10.8945944166
 30
0.0
 10
6.4283739935
 20
10.898138517
 30
0.0
 10
6.4337218099
 20
10.9128288056
 30
0.0
 10
6.438798022
 20
10.9276161944
 30
0.0
 10
6.4425984569
 20
10.9388434846
 30
0.0
  0
SPLINE
  5
46E
100
AcDbEntity
  8
0
100
AcDbSpline
 62
9
  6
CONTINUOUS
 70
0
 71
3
 72
9
 73
5
 74
0
 42
0.0000001
 43
0.0000001
 44
0.0000000001
 40
0.0
 40
0.0
 40
0.0
 40
0.0
 40
0.5068162058
 40
1.0
 40
1.0
 40
1.0
 40
1.0
 10
6.4425984569
 20
10.9388434846
 30
0.0
 10
6.4470304362
 20
10.9519364908
 30
0.0
 10
6.4556391225
 20
10.9778154474
 30
0.0
 10
6.4644694936
 20
11.0036226905
 30
0.0
 10
6.4690284992
 20
11.0162774978
 30
0.0
  0
SPLINE
  5
46F
100
AcDbEntity
  8
0
100
AcDbSpline
 62
9
  6
CONTINUOUS
 70
0
 71
3
 72
11
 73
7
 74
0
 42
0.0000001
 43
0.0000001
 44
0.0000000001
 40
0.0
 40
0.0
 40
0.0
 40
0.0
 40
0.274083361
 40
0.5284545205
 40
0.7689911373
 40
1.0
 40
1.0
 40
1.0
 40
1.0
 10
10.9180477757
 20
3.1458295337
 30
0.0
 10
10.9180217547
 20
3.1408753457
 30
0.0
 10
10.917547121
 20
3.1313188713
 30
0.0
 10
10.9156045416
 20
3.1175385642
 30
0.0
 10
10.9127389097
 20
3.1047226982
 30
0.0
 10
10.9103460668
 20
3.096535509
 30
0.0
 10
10.9090505832
 20
3.0925658991
 30
0.0
  0
SPLINE
  5
470
100
AcDbEntity
  8
0
100
AcDbSpline
 62
9
  6
CONTINUOUS
 70
0
 71
3
 72
22
 73
18
 74
0
 42
0.0000001
 43
0.0000001
 44
0.0000000001
 40
0.0
 40
0.0
 40
0.0
 40
0.0
 40
0.0308721919
 40
0.0602970832
 40
0.0889638994
 40
0.1172588824
 40
0.1453902262
 40
0.1734945121
 40
0.2016630629
 40
0.2299570175
 40
0.2870923704
 40
0.3451682579
 40
0.4646406578
 40
0.5892726959
 40
0.7196144505
 40
0.8562304929
 40
1.0
 40
1.0
 40
1.0
 40
1.0
 10
10.9090505832
 20
3.0925658991
 30
0.0
 10
10.9057070602
 20
3.0823207042
 30
0.0
 10
10.8975913821
 20
3.0628033069
 30
0.0
 10
10.8820395999
 20
3.0358473198
 30
0.0
 10
10.8642294978
 20
3.0114558662
 30
0.0
 10
10.8447801
 20
2.9889663536
 30
0.0
 10
10.8238533337
 20
2.9681285036
 30
0.0
 10
10.801683844
 20
2.9486949455
 30
0.0
 10
10.7784043645
 20
2.9305185102
 30
0.0
 10
10.7459668684
 20
2.9076844342
 30
0.0
 10
10.7030389107
 20
2.8817315175
 30
0.0
 10
10.6298282014
 20
2.8448337274
 30
0.0
 10
10.5311279696
 20
2.8068358294
 30
0.0
 10
10.4047269627
 20
2.772836169
 30
0.0
 10
10.2699833514
 20
2.7489263148
 30
0.0
 10
10.1272092353
 20
2.7345542623
 30
0.0
 10
10.0292926581
 20
2.7315428787
 30
0.0
 10
9.979105091
 20
2.7315428787
 30
0.0
  0
SPLINE
  5
471
100
AcDbEntity
  8
0
100
AcDbSpline
 62
9
  6
CONTINUOUS
 70
0
 71
3
 72
11
 73
7
 74
0
 42
0.0000001
 43
0.0000001
 44
0.0000000001
 40
0.0
 40
0.0
 40
0.0
 40
0.0
 40
0.273046616
 40
0.5269526128
 40
0.7678943249
 40
1.0
 40
1.0
 40
1.0
 40
1.0
 10
10.894574856
 20
3.5618053256
 30
0.0
 10
10.8945332657
 20
3.5564914343
 30
0.0
 10
10.893984781
 20
3.5462324163
 30
0.0
 10
10.8918239664
 20
3.5314272344
 30
0.0
 10
10.8887016601
 20
3.5176168673
 30
0.0
 10
10.8861111301
 20
3.508775747
 30
0.0
 10
10.8847108853
 20
3.50448099
 30
0.0
  0
SPLINE
  5
472
100
AcDbEntity
  8
0
100
AcDbSpline
 62
9
  6
CONTINUOUS
 70
0
 71
3
 72
23
 73
19
 74
0
 42
0.0000001
 43
0.0000001
 44
0.0000000001
 40
0.0
 40
0.0
 40
0.0
 40
0.0
 40
0.0157778339
 40
0.0311448844
 40
0.0610333477
 40
0.0757085271
 40
0.0902718517
 40
0.1191757082
 40
0.1766149752
 40
0.2053679702
 40
0.2342132613
 40
0.2923181963
 40
0.3511486417
 40
0.4713913409
 40
0.5957352074
 40
0.7247546756
 40
0.8591470522
 40
1.0
 40
1.0
 40
1.0
 40
1.0
 10
10.8847108853
 20
3.50448099
 30
0.0
 10
10.8830061581
 20
3.4992523407
 30
0.0
 10
10.8792641006
 20
3.4890509498
 30
0.0
 10
10.8707103007
 20
3.4695618966
 30
0.0
 10
10.8606721794
 20
3.4511887458
 30
0.0
 10
10.8495204608
 20
3.4338529593
 30
0.0
 10
10.8378802361
 20
3.4172565817
 30
0.0
 10
10.8160829889
 20
3.3896174916
 30
0.0
 10
10.7881969995
 20
3.3606271321
 30
0.0
 10
10.7582657228
 20
3.3339327933
 30
0.0
 10
10.7269622435
 20
3.308483753
 30
0.0
 10
10.685493048
 20
3.2790141845
 30
0.0
 10
10.6147193842
 20
3.2361798988
 30
0.0
 10
10.5190335683
 20
3.1904577154
 30
0.0
 10
10.3957560046
 20
3.1477804575
 30
0.0
 10
10.2639999655
 20
3.1166839808
 30
0.0
 10
10.1242075631
 20
3.0974624762
 30
0.0
 10
10.0282008991
 20
3.0932824556
 30
0.0
 10
9.9791050907
 20
3.0932824556
 30
0.0
  0
SPLINE
  5
473
100
AcDbEntity
  8
0
100
AcDbSpline
 62
7
  6
CONTINUOUS
 70
0
 71
3
 72
12
 73
8
 74
0
 42
0.0000001
 43
0.0000001
 44
0.0000000001
 40
0.0
 40
0.0
 40
0.0
 40
0.0
 40
0.0546703216
 40
0.2229592158
 40
0.5207214404
 40
0.7307519153
 40
1.0
 40
1.0
 40
1.0
 40
1.0
 10
7.4894507808
 20
9.0758785698
 30
0.0
 10
7.4891099327
 20
9.0761361055
 30
0.0
 10
7.4877258786
 20
9.0771941284
 30
0.0
 10
7.484550082
 20
9.0797377532
 30
0.0
 10
7.4805757434
 20
9.0832289931
 30
0.0
 10
7.4763449532
 20
9.0875830455
 30
0.0
 10
7.473898624
 20
9.0904382378
 30
0.0
 10
7.4727026379
 20
9.0921690279
 30
0.0
  0
LINE
  5
474
100
AcDbEntity
  8
0
100
AcDbLine
 62
7
  6
CONTINUOUS
 10
7.4727026379
 20
9.0921690279
 11
7.4699033572
 21
9.096949951
  0
SPLINE
  5
475
100
AcDbEntity
  8
0
100
AcDbSpline
 62
7
  6
CONTINUOUS
 70
0
 71
3
 72
26
 73
22
 74
0
 42
0.0000001
 43
0.0000001
 44
0.0000000001
 40
0.0
 40
0.0
 40
0.0
 40
0.0
 40
0.0008158543
 40
0.003227483
 40
0.0072659241
 40
0.0129245909
 40
0.0201977156
 40
0.0290874864
 40
0.0517930276
 40
0.0811985634
 40
0.1174848628
 40
0.1608806746
 40
0.211664692
 40
0.2702376198
 40
0.3370915187
 40
0.41286908
 40
0.4986451603
 40
0.5959247233
 40
0.7063982326
 40
0.8367363231
 40
1.0
 40
1.0
 40
1.0
 40
1.0
 10
12.4687723533
 20
9.0758595894
 30
0.0
 10
12.4687767896
 20
9.0758530644
 30
0.0
 10
12.4688134165
 20
9.075886587
 30
0.0
 10
12.4688562442
 20
9.075917363
 30
0.0
 10
12.4689503703
 20
9.0760030467
 30
0.0
 10
12.4690721113
 20
9.0761063179
 30
0.0
 10
12.4692358521
 20
9.076242216
 30
0.0
 10
12.469530791
 20
9.0764739737
 30
0.0
 10
12.4700001696
 20
9.0768322455
 30
0.0
 10
12.4706761706
 20
9.0773552175
 30
0.0
 10
12.471501522
 20
9.0780125357
 30
0.0
 10
12.4724804251
 20
9.078808606
 30
0.0
 10
12.4736167404
 20
9.079752702
 30
0.0
 10
12.4749106481
 20
9.0808618543
 30
0.0
 10
12.4763643675
 20
9.0821555281
 30
0.0
 10
12.4779846405
 20
9.0836571545
 30
0.0
 10
12.4797714581
 20
9.0854111895
 30
0.0
 10
12.4817106657
 20
9.0874849661
 30
0.0
 10
12.4838842087
 20
9.0899290843
 30
0.0
 10
12.4862221893
 20
9.0930716228
 30
0.0
 10
12.4875954767
 20
9.0955668085
 30
0.0
 10
12.4883029537
 20
9.0969783778
 30
0.0
  0
SPLINE
  5
476
100
AcDbEntity
  8
0
100
AcDbSpline
 62
9
  6
CONTINUOUS
 70
0
 71
3
 72
11
 73
7
 74
0
 42
0.0000001
 43
0.0000001
 44
0.0000000001
 40
0.0
 40
0.0
 40
0.0
 40
0.0
 40
0.2718975619
 40
0.5256684025
 40
0.7670765662
 40
1.0
 40
1.0
 40
1.0
 40
1.0
 10
9.0846293393
 20
3.9338511386
 30
0.0
 10
9.0846679585
 20
3.9285609054
 30
0.0
 10
9.0851889988
 20
3.9183298282
 30
0.0
 10
9.0872374321
 20
3.9035303956
 30
0.0
 10
9.0902014199
 20
3.8896671284
 30
0.0
 10
9.0926623921
 20
3.8807662423
 30
0.0
 10
9.0939936302
 20
3.8764341249
 30
0.0
  0
SPLINE
  5
477
100
AcDbEntity
  8
0
100
AcDbSpline
 62
9
  6
CONTINUOUS
 70
0
 71
3
 72
21
 73
17
 74
0
 42
0.0000001
 43
0.0000001
 44
0.0000000001
 40
0.0
 40
0.0
 40
0.0
 40
0.0
 40
0.0315494632
 40
0.061856114
 40
0.0914814123
 40
0.1207459642
 40
0.1787987712
 40
0.2078041155
 40
0.236867815
 40
0.2953092432
 40
0.3543509493
 40
0.4746716073
 40
0.5986851428
 40
0.7270150239
 40
0.8604099575
 40
1.0
 40
1.0
 40
1.0
 40
1.0
 10
9.0939936302
 20
3.8764341249
 30
0.0
 10
9.0972018429
 20
3.8659939529
 30
0.0
 10
9.1048447356
 20
3.845922365
 30
0.0
 10
9.1192926051
 20
3.8176885033
 30
0.0
 10
9.1357747908
 20
3.7915369166
 30
0.0
 10
9.1597378936
 20
3.7588755863
 30
0.0
 10
9.1866104692
 20
3.7287440486
 30
0.0
 10
9.2155515872
 20
3.700832157
 30
0.0
 10
9.2458335817
 20
3.6741689908
 30
0.0
 10
9.2860447583
 20
3.6431359334
 30
0.0
 10
9.3548348201
 20
3.5978072205
 30
0.0
 10
9.4482048298
 20
3.5490465138
 30
0.0
 10
9.5690765575
 20
3.5032033118
 30
0.0
 10
9.6985940398
 20
3.4696561974
 30
0.0
 10
9.8361988294
 20
3.448897138
 30
0.0
 10
9.9307809483
 20
3.4443689527
 30
0.0
 10
9.9791050908
 20
3.4443689527
 30
0.0
  0
SPLINE
  5
478
100
AcDbEntity
  8
0
100
AcDbSpline
 62
9
  6
CONTINUOUS
 70
0
 71
3
 72
9
 73
5
 74
0
 42
0.0000001
 43
0.0000001
 44
0.0000000001
 40
0.0
 40
0.0
 40
0.0
 40
0.0
 40
0.455222605
 40
1.0
 40
1.0
 40
1.0
 40
1.0
 10
10.4131701566
 20
10.2687387829
 30
0.0
 10
10.4193829039
 20
10.2637234051
 30
0.0
 10
10.432238905
 20
10.2517230672
 30
0.0
 10
10.4438181181
 20
10.2385166507
 30
0.0
 10
10.4498328465
 20
10.231091946
 30
0.0
  0
SPLINE
  5
479
100
AcDbEntity
  8
0
100
AcDbSpline
 62
9
  6
CONTINUOUS
 70
0
 71
3
 72
25
 73
21
 74
0
 42
0.0000001
 43
0.0000001
 44
0.0000000001
 40
0.0
 40
0.0
 40
0.0
 40
0.0
 40
0.0311507026
 40
0.0623528589
 40
0.0935821107
 40
0.1248361376
 40
0.1560945097
 40
0.1873506819
 40
0.2186071727
 40
0.2498670059
 40
0.3123732678
 40
0.3748806443
 40
0.4373918635
 40
0.4999053695
 40
0.5624179288
 40
0.6249295761
 40
0.6874422801
 40
0.7499558791
 40
0.8749750998
 40
1.0
 40
1.0
 40
1.0
 40
1.0
 10
10.9426004765
 20
2.6653995679
 30
0.0
 10
10.9408427858
 20
2.6544787318
 30
0.0
 10
10.9341489582
 20
2.6330824642
 30
0.0
 10
10.9176299513
 20
2.6040421463
 30
0.0
 10
10.8963685177
 20
2.5782929632
 30
0.0
 10
10.8721683016
 20
2.555354143
 30
0.0
 10
10.8459109695
 20
2.5348133547
 30
0.0
 10
10.8181818576
 20
2.5163345501
 30
0.0
 10
10.7893896049
 20
2.4995749327
 30
0.0
 10
10.7499224696
 20
2.4792133982
 30
0.0
 10
10.6989817242
 20
2.457052916
 30
0.0
 10
10.6362902038
 20
2.4345071859
 30
0.0
 10
10.5724949496
 20
2.4153206921
 30
0.0
 10
10.5079165399
 20
2.3989886706
 30
0.0
 10
10.4427576442
 20
2.3851706876
 30
0.0
 10
10.3771664112
 20
2.3735963022
 30
0.0
 10
10.3112480055
 20
2.364069348
 30
0.0
 10
10.2230378784
 20
2.3538595484
 30
0.0
 10
10.1123049319
 20
2.3455890913
 30
0.0
 10
10.0235004966
 20
2.3434930084
 30
0.0
 10
9.9791050942
 20
2.3434940262
 30
0.0
  0
SPLINE
  5
47A
100
AcDbEntity
  8
0
100
AcDbSpline
 62
7
  6
CONTINUOUS
 70
0
 71
3
 72
9
 73
5
 74
0
 42
0.0000001
 43
0.0000001
 44
0.0000000001
 40
0.0
 40
0.0
 40
0.0
 40
0.0
 40
0.5000022639
 40
1.0
 40
1.0
 40
1.0
 40
1.0
 10
6.9791050908
 20
9.0405782254
 30
0.0
 10
6.9902780714
 20
9.0405782254
 30
0.0
 10
7.0126253767
 20
9.0402109035
 30
0.0
 10
7.0349478741
 20
9.0390541481
 30
0.0
 10
7.0460907219
 20
9.0382355043
 30
0.0
  0
SPLINE
  5
47B
100
AcDbEntity
  8
0
100
AcDbSpline
 62
7
  6
CONTINUOUS
 70
0
 71
3
 72
18
 73
14
 74
0
 42
0.0000001
 43
0.0000001
 44
0.0000000001
 40
0.0
 40
0.0
 40
0.0
 40
0.0
 40
0.1250168003
 40
0.2500327344
 40
0.3750457185
 40
0.5000511424
 40
0.6250369126
 40
0.6875580843
 40
0.7500828
 40
0.8126099597
 40
0.8751325312
 40
0.9376071877
 40
1.0
 40
1.0
 40
1.0
 40
1.0
 10
7.0460907219
 20
9.0382355043
 30
0.0
 10
7.0544660398
 20
9.0376201857
 30
0.0
 10
7.0711985715
 20
9.0361167292
 30
0.0
 10
7.0961877969
 20
9.0328541836
 30
0.0
 10
7.1209821809
 20
9.0283056011
 30
0.0
 10
7.1454096029
 20
9.0220606587
 30
0.0
 10
7.1652131671
 20
9.0149272897
 30
0.0
 10
7.1803252066
 20
9.0075579117
 30
0.0
 10
7.1911129853
 20
9.0010032659
 30
0.0
 10
7.2010455899
 20
8.9931853356
 30
0.0
 10
7.2095810226
 20
8.9838138102
 30
0.0
 10
7.2157711327
 20
8.9726812128
 30
0.0
 10
7.2173574999
 20
8.9642336998
 30
0.0
 10
7.2173574999
 20
8.960042519
 30
0.0
  0
SPLINE
  5
47C
100
AcDbEntity
  8
0
100
AcDbSpline
 62
7
  6
CONTINUOUS
 70
0
 71
3
 72
13
 73
9
 74
0
 42
0.0000001
 43
0.0000001
 44
0.0000000001
 40
0.0
 40
0.0
 40
0.0
 40
0.0
 40
0.1249665794
 40
0.2500307669
 40
0.3751059103
 40
0.5001971645
 40
0.7500360717
 40
1.0
 40
1.0
 40
1.0
 40
1.0
 10
7.2173574999
 20
8.960042519
 30
0.0
 10
7.2173574999
 20
8.9563819651
 30
0.0
 10
7.2161604112
 20
8.9490143648
 30
0.0
 10
7.2113299805
 20
8.9390199679
 30
0.0
 10
7.2044557597
 20
8.9303581161
 30
0.0
 10
7.1935613638
 20
8.9204995651
 30
0.0
 10
7.1778709131
 20
8.9108207174
 30
0.0
 10
7.1643802071
 20
8.9050544057
 30
0.0
 10
7.1575101101
 20
8.9025219003
 30
0.0
  0
LINE
  5
47D
100
AcDbEntity
  8
0
100
AcDbLine
 62
7
  6
CONTINUOUS
 10
12.2010322122
 20
9.6837856709
 11
12.2007818401
 21
9.6927358332
  0
SPLINE
  5
47E
100
AcDbEntity
  8
0
100
AcDbSpline
 62
7
  6
CONTINUOUS
 70
0
 71
3
 72
10
 73
6
 74
0
 42
0.0000001
 43
0.0000001
 44
0.0000000001
 40
0.0
 40
0.0
 40
0.0
 40
0.0
 40
0.5511792924
 40
0.7938351569
 40
1.0
 40
1.0
 40
1.0
 40
1.0
 10
12.2007818401
 20
9.6927358332
 30
0.0
 10
12.19923145
 20
9.7481505174
 30
0.0
 10
12.1970066308
 20
9.8279619479
 30
0.0
 10
12.1937484073
 20
9.9284869993
 30
0.0
 10
12.19204988
 20
9.9735969888
 30
0.0
 10
12.1911533574
 20
9.994313193
 30
0.0
  0
LINE
  5
47F
100
AcDbEntity
  8
0
100
AcDbLine
 62
7
  6
CONTINUOUS
 10
12.1911533574
 20
9.994313193
 11
12.1910313318
 21
9.9971146805
  0
SPLINE
  5
480
100
AcDbEntity
  8
0
100
AcDbSpline
 62
7
  6
CONTINUOUS
 70
0
 71
3
 72
11
 73
7
 74
0
 42
0.0000001
 43
0.0000001
 44
0.0000000001
 40
0.0
 40
0.0
 40
0.0
 40
0.0
 40
0.2500050168
 40
0.5000201684
 40
0.7500168288
 40
1.0
 40
1.0
 40
1.0
 40
1.0
 10
6.9791050908
 20
8.8653434271
 30
0.0
 10
6.9943691089
 20
8.8653434271
 30
0.0
 10
7.0249265921
 20
8.8672330036
 30
0.0
 10
7.0700933611
 20
8.8752262276
 30
0.0
 10
7.114315394
 20
8.8872881234
 30
0.0
 10
7.1431894338
 20
8.8972429078
 30
0.0
 10
7.1575101101
 20
8.9025219003
 30
0.0
  0
SPLINE
  5
481
100
AcDbEntity
  8
0
100
AcDbSpline
 62
7
  6
CONTINUOUS
 70
0
 71
3
 72
17
 73
13
 74
0
 42
0.0000001
 43
0.0000001
 44
0.0000000001
 40
0.0
 40
0.0
 40
0.0
 40
0.0
 40
0.1334364578
 40
0.2611581422
 40
0.3826569317
 40
0.4416357709
 40
0.4999999987
 40
0.5583642263
 40
0.6173430665
 40
0.7388418567
 40
0.8665635415
 40
1.0
 40
1.0
 40
1.0
 40
1.0
 10
7.4043216709
 20
8.9025219003
 30
0.0
 10
7.4113563994
 20
8.8973355141
 30
0.0
 10
7.4254435371
 20
8.8875956567
 30
0.0
 10
7.4474557128
 20
8.8754852117
 30
0.0
 10
7.4665856686
 20
8.8686246084
 30
0.0
 10
7.4820082316
 20
8.8658129934
 30
0.0
 10
7.4935241803
 20
8.8651152111
 30
0.0
 10
7.5050401292
 20
8.8658129931
 30
0.0
 10
7.5204626921
 20
8.8686246089
 30
0.0
 10
7.5395926483
 20
8.8754852114
 30
0.0
 10
7.5616048241
 20
8.8875956566
 30
0.0
 10
7.5756919618
 20
8.8973355141
 30
0.0
 10
7.5827266903
 20
8.9025219003
 30
0.0
  0
SPLINE
  5
482
100
AcDbEntity
  8
0
100
AcDbSpline
 62
7
  6
CONTINUOUS
 70
0
 71
3
 72
9
 73
5
 74
0
 42
0.0000001
 43
0.0000001
 44
0.0000000001
 40
0.0
 40
0.0
 40
0.0
 40
0.0
 40
0.553713682
 40
1.0
 40
1.0
 40
1.0
 40
1.0
 10
12.188531394
 20
9.4042453764
 30
0.0
 10
12.1890066505
 20
9.3942555396
 30
0.0
 10
12.1899254637
 20
9.3762168697
 30
0.0
 10
12.1910500317
 20
9.3581890127
 30
0.0
 10
12.1916431132
 20
9.3501500704
 30
0.0
  0
SPLINE
  5
483
100
AcDbEntity
  8
0
100
AcDbSpline
 62
7
  6
CONTINUOUS
 70
0
 71
3
 72
12
 73
8
 74
0
 42
0.0000001
 43
0.0000001
 44
0.0000000001
 40
0.0
 40
0.0
 40
0.0
 40
0.0
 40
0.3656081868
 40
0.6555885728
 40
0.8675959353
 40
0.9437558008
 40
1.0
 40
1.0
 40
1.0
 40
1.0
 10
12.1916431132
 20
9.3501500704
 30
0.0
 10
12.1919355571
 20
9.3461861289
 30
0.0
 10
12.1924995639
 20
9.3390804783
 30
0.0
 10
12.1934357267
 20
9.3296954737
 30
0.0
 10
12.1942510192
 20
9.3234587834
 30
0.0
 10
12.1949549834
 20
9.3197809902
 30
0.0
 10
12.1953126819
 20
9.3183837752
 30
0.0
 10
12.1955075535
 20
9.3178041996
 30
0.0
  0
LINE
  5
484
100
AcDbEntity
  8
0
100
AcDbLine
 62
7
  6
CONTINUOUS
 10
12.1955075535
 20
9.3178041996
 11
12.1959449415
 21
9.316775742
  0
SPLINE
  5
485
100
AcDbEntity
  8
0
100
AcDbSpline
 62
9
  6
CONTINUOUS
 70
0
 71
3
 72
25
 73
21
 74
0
 42
0.0000001
 43
0.0000001
 44
0.0000000001
 40
0.0
 40
0.0
 40
0.0
 40
0.0
 40
0.1249693027
 40
0.24995918
 40
0.3749198909
 40
0.4374033708
 40
0.4998868619
 40
0.5623680121
 40
0.6248464055
 40
0.6873224286
 40
0.7497903805
 40
0.7810300244
 40
0.8122677191
 40
0.8435013641
 40
0.8747312028
 40
0.9060062713
 40
0.9373143463
 40
0.9530011203
 40
0.968742344
 40
1.0
 40
1.0
 40
1.0
 40
1.0
 10
9.9791050908
 20
2.3413690353
 30
0.0
 10
10.0243364206
 20
2.3413694556
 30
0.0
 10
10.1148248049
 20
2.3435805758
 30
0.0
 10
10.2501887576
 20
2.3538886074
 30
0.0
 10
10.3623731696
 20
2.3686866032
 30
0.0
 10
10.4514014926
 20
2.384792512
 30
0.0
 10
10.5177122743
 20
2.3992152031
 30
0.0
 10
10.583391836
 20
2.416294081
 30
0.0
 10
10.6482091716
 20
2.4364187199
 30
0.0
 10
10.7118189593
 20
2.4601000044
 30
0.0
 10
10.7633246698
 20
2.4835728334
 30
0.0
 10
10.8030531802
 20
2.5052151222
 30
0.0
 10
10.8318942741
 20
2.5231071283
 30
0.0
 10
10.859424826
 20
2.5429678162
 30
0.0
 10
10.8851746188
 20
2.565143148
 30
0.0
 10
10.9083354458
 20
2.5900868236
 30
0.0
 10
10.9243993798
 20
2.6136211768
 30
0.0
 10
10.9341902858
 20
2.6341633821
 30
0.0
 10
10.9415552234
 20
2.6556510408
 30
0.0
 10
10.9441083799
 20
2.6727409492
 30
0.0
 10
10.9441058381
 20
2.68405433
 30
0.0
  0
SPLINE
  5
486
100
AcDbEntity
  8
0
100
AcDbSpline
 62
9
  6
CONTINUOUS
 70
0
 71
3
 72
27
 73
23
 74
0
 42
0.0000001
 43
0.0000001
 44
0.0000000001
 40
0.0
 40
0.0
 40
0.0
 40
0.0
 40
0.0029794919
 40
0.0060723224
 40
0.0129628274
 40
0.0212761571
 40
0.0313340599
 40
0.0433073663
 40
0.0572874258
 40
0.0733231838
 40
0.0914397835
 40
0.1116377248
 40
0.1338814178
 40
0.1843137098
 40
0.2423269978
 40
0.3074719918
 40
0.3792243884
 40
0.4568522324
 40
0.5395735107
 40
0.6266015607
 40
0.8101650714
 40
1.0
 40
1.0
 40
1.0
 40
1.0
 10
6.9027720044
 20
12.3223103172
 30
0.0
 10
6.9039448858
 20
12.322310335
 30
0.0
 10
6.906341562
 20
12.3220659388
 30
0.0
 10
6.9112483899
 20
12.3205679996
 30
0.0
 10
6.9174350639
 20
12.3166518302
 30
0.0
 10
6.9243666022
 20
12.3094478611
 30
0.0
 10
6.9312064703
 20
12.299611324
 30
0.0
 10
6.9379668158
 20
12.2871288188
 30
0.0
 10
6.9446512913
 20
12.2719971958
 30
0.0
 10
6.9512438022
 20
12.254224235
 30
0.0
 10
6.9577258139
 20
12.2338280519
 30
0.0
 10
6.9640779743
 20
12.2108462888
 30
0.0
 10
6.9727249162
 20
12.1753189015
 30
0.0
 10
6.9829127042
 20
12.124872321
 30
0.0
 10
6.993972577
 20
12.0574286479
 30
0.0
 10
7.0041759736
 20
11.9813738015
 30
0.0
 10
7.013392825
 20
11.8974235485
 30
0.0
 10
7.0215510469
 20
11.8064161866
 30
0.0
 10
7.0285635009
 20
11.709284171
 30
0.0
 10
7.0364032488
 20
11.570418317
 30
0.0
 10
7.0426443641
 20
11.3892548323
 30
0.0
 10
7.0440151416
 20
11.2422551212
 30
0.0
 10
7.0437646108
 20
11.1675267395
 30
0.0
  0
SPLINE
  5
487
100
AcDbEntity
  8
0
100
AcDbSpline
 62
7
  6
CONTINUOUS
 70
0
 71
3
 72
11
 73
7
 74
0
 42
0.0000001
 43
0.0000001
 44
0.0000000001
 40
0.0
 40
0.0
 40
0.0
 40
0.0
 40
0.1990284702
 40
0.4225398166
 40
0.686653948
 40
1.0
 40
1.0
 40
1.0
 40
1.0
 10
7.4043216709
 20
8.9025219003
 30
0.0
 10
7.4007357806
 20
8.9051656146
 30
0.0
 10
7.393554363
 20
8.9113988751
 30
0.0
 10
7.3839849486
 20
8.9235677832
 30
0.0
 10
7.3763836213
 20
8.9400097035
 30
0.0
 10
7.3743979206
 20
8.9530285218
 30
0.0
 10
7.3743979206
 20
8.960042519
 30
0.0
  0
SPLINE
  5
488
100
AcDbEntity
  8
0
100
AcDbSpline
 62
7
  6
CONTINUOUS
 70
0
 71
3
 72
14
 73
10
 74
0
 42
0.0000001
 43
0.0000001
 44
0.0000000001
 40
0.0
 40
0.0
 40
0.0
 40
0.0
 40
0.1854704847
 40
0.3404957484
 40
0.4713447554
 40
0.5880034684
 40
0.6964787022
 40
0.8001623056
 40
1.0
 40
1.0
 40
1.0
 40
1.0
 10
7.3743979206
 20
8.960042519
 30
0.0
 10
7.3743979206
 20
8.9673294508
 30
0.0
 10
7.3765355899
 20
8.9808117509
 30
0.0
 10
7.3846624928
 20
8.9976754886
 30
0.0
 10
7.3947873264
 20
9.0099825833
 30
0.0
 10
7.4056270534
 20
9.0189266778
 30
0.0
 10
7.4167744056
 20
9.0255381908
 30
0.0
 10
7.431639066
 20
9.032018341
 30
0.0
 10
7.443223319
 20
9.0351393682
 30
0.0
 10
7.4509243959
 20
9.0366684052
 30
0.0
  0
SPLINE
  5
489
100
AcDbEntity
  8
0
100
AcDbSpline
 62
7
  6
CONTINUOUS
 70
0
 71
3
 72
9
 73
5
 74
0
 42
0.0000001
 43
0.0000001
 44
0.0000000001
 40
0.0
 40
0.0
 40
0.0
 40
0.0
 40
0.2509729532
 40
1.0
 40
1.0
 40
1.0
 40
1.0
 10
7.4509243959
 20
9.0366684052
 30
0.0
 10
7.4522194973
 20
9.0369255456
 30
0.0
 10
7.4573913777
 20
9.0378915865
 30
0.0
 10
7.4626042176
 20
9.0386337127
 30
0.0
 10
7.4665193286
 20
9.0390818142
 30
0.0
  0
SPLINE
  5
48A
100
AcDbEntity
  8
0
100
AcDbSpline
 62
7
  6
CONTINUOUS
 70
0
 71
3
 72
17
 73
13
 74
0
 42
0.0000001
 43
0.0000001
 44
0.0000000001
 40
0.0
 40
0.0
 40
0.0
 40
0.0
 40
0.1075857908
 40
0.2149844537
 40
0.3227632245
 40
0.43182524
 40
0.5442004784
 40
0.664905405
 40
0.7321218344
 40
0.8077241822
 40
0.896479748
 40
1.0
 40
1.0
 40
1.0
 40
1.0
 10
7.4665193286
 20
9.0390818142
 30
0.0
 10
7.4732086699
 20
9.0398474383
 30
0.0
 10
7.4866522696
 20
9.0407532084
 30
0.0
 10
7.5068691982
 20
9.0404998896
 30
0.0
 10
7.5270963802
 20
9.0385752976
 30
0.0
 10
7.5473483847
 20
9.03453153
 30
0.0
 10
7.5676348429
 20
9.0274008302
 30
0.0
 10
7.5838854436
 20
9.0175287261
 30
0.0
 10
7.5958251102
 20
9.0060514692
 30
0.0
 10
7.6043350062
 20
8.9941985672
 30
0.0
 10
7.6109467273
 20
8.9786273618
 30
0.0
 10
7.6126504392
 20
8.9665210997
 30
0.0
 10
7.6126504392
 20
8.960042519
 30
0.0
  0
SPLINE
  5
48B
100
AcDbEntity
  8
0
100
AcDbSpline
 62
7
  6
CONTINUOUS
 70
0
 71
3
 72
11
 73
7
 74
0
 42
0.0000001
 43
0.0000001
 44
0.0000000001
 40
0.0
 40
0.0
 40
0.0
 40
0.0
 40
0.3133448868
 40
0.5774596656
 40
0.8009712896
 40
1.0
 40
1.0
 40
1.0
 40
1.0
 10
7.6126504392
 20
8.960042519
 30
0.0
 10
7.6126504392
 20
8.9530285479
 30
0.0
 10
7.6106647531
 20
8.940009741
 30
0.0
 10
7.6030634331
 20
8.9235678218
 30
0.0
 10
7.5934940109
 20
8.9113988869
 30
0.0
 10
7.586312585
 20
8.9051656178
 30
0.0
 10
7.5827266903
 20
8.9025219003
 30
0.0
  0
SPLINE
  5
48C
100
AcDbEntity
  8
0
100
AcDbSpline
 62
9
  6
CONTINUOUS
 70
0
 71
3
 72
18
 73
14
 74
0
 42
0.0000001
 43
0.0000001
 44
0.0000000001
 40
0.0
 40
0.0
 40
0.0
 40
0.0
 40
0.0084579591
 40
0.0152491577
 40
0.0240777782
 40
0.0481472402
 40
0.0809406794
 40
0.1717694314
 40
0.2936787236
 40
0.4428502118
 40
0.6143971644
 40
0.8026292844
 40
1.0
 40
1.0
 40
1.0
 40
1.0
 10
12.0726358503
 20
10.3214926806
 30
0.0
 10
12.0728562464
 20
10.3214894808
 30
0.0
 10
12.0731933833
 20
10.3211614938
 30
0.0
 10
12.073488128
 20
10.3206287142
 30
0.0
 10
12.0738910453
 20
10.3196644892
 30
0.0
 10
12.0743414871
 20
10.3180143639
 30
0.0
 10
12.0750983675
 20
10.3142364225
 30
0.0
 10
12.0759064134
 20
10.3078849692
 30
0.0
 10
12.076741607
 20
10.2984896718
 30
0.0
 10
12.0774461933
 20
10.2869747785
 30
0.0
 10
12.0780036476
 20
10.2737224254
 30
0.0
 10
12.0783824691
 20
10.2592071899
 30
0.0
 10
12.0785100624
 20
10.2491586426
 30
0.0
 10
12.0785419181
 20
10.2440151469
 30
0.0
  0
SPLINE
  5
48D
100
AcDbEntity
  8
0
100
AcDbSpline
 62
9
  6
CONTINUOUS
 70
0
 71
3
 72
27
 73
23
 74
0
 42
0.0000001
 43
0.0000001
 44
0.0000000001
 40
0.0
 40
0.0
 40
0.0
 40
0.0
 40
0.025561538
 40
0.0485282637
 40
0.0689692158
 40
0.0876380097
 40
0.105263277
 40
0.1221089927
 40
0.1539432345
 40
0.1838974549
 40
0.2127266302
 40
0.2410532345
 40
0.2691200025
 40
0.3249324421
 40
0.3809122281
 40
0.437524469
 40
0.4950117843
 40
0.5535293131
 40
0.6131689494
 40
0.7361202462
 40
0.8647192972
 40
1.0
 40
1.0
 40
1.0
 40
1.0
 10
11.0221711366
 20
2.68405433
 30
0.0
 10
11.0221711366
 20
2.6737585741
 30
0.0
 10
11.0206309942
 20
2.6541772599
 30
0.0
 10
11.014483602
 20
2.6270130154
 30
0.0
 10
11.0060950425
 20
2.6033984209
 30
0.0
 10
10.9960710618
 20
2.5828222172
 30
0.0
 10
10.9851169871
 20
2.5644092803
 30
0.0
 10
10.9697277799
 20
2.5425534088
 30
0.0
 10
10.9488512913
 20
2.5186238313
 30
0.0
 10
10.9221902126
 20
2.4936276708
 30
0.0
 10
10.8945754003
 20
2.4719258558
 30
0.0
 10
10.8662226447
 20
2.4525397741
 30
0.0
 10
10.8275051247
 20
2.4291904358
 30
0.0
 10
10.7772440679
 20
2.4035761182
 30
0.0
 10
10.7145576289
 20
2.377541567
 30
0.0
 10
10.6498454734
 20
2.3549644101
 30
0.0
 10
10.5830991097
 20
2.3354070589
 30
0.0
 10
10.514389713
 20
2.3184678901
 30
0.0
 10
10.4192413419
 20
2.2989258908
 30
0.0
 10
10.2951973173
 20
2.2802567756
 30
0.0
 10
10.1399126042
 20
2.2664928651
 30
0.0
 10
10.0335938739
 20
2.2634882842
 30
0.0
 10
9.9791050908
 20
2.2634882842
 30
0.0
  0
SPLINE
  5
48E
100
AcDbEntity
  8
0
100
AcDbSpline
 62
9
  6
CONTINUOUS
 70
0
 71
3
 72
18
 73
14
 74
0
 42
0.0000001
 43
0.0000001
 44
0.0000000001
 40
0.0
 40
0.0
 40
0.0
 40
0.0
 40
0.0084579591
 40
0.0152491577
 40
0.0240777782
 40
0.0481472402
 40
0.0809406794
 40
0.1717694314
 40
0.2936787236
 40
0.4428502118
 40
0.6143971644
 40
0.8026292844
 40
1.0
 40
1.0
 40
1.0
 40
1.0
 10
12.1424653338
 20
9.0466159794
 30
0.0
 10
12.1426857299
 20
9.0466191793
 30
0.0
 10
12.1430228668
 20
9.0469471662
 30
0.0
 10
12.1433176115
 20
9.0474799458
 30
0.0
 10
12.1437205288
 20
9.0484441709
 30
0.0
 10
12.1441709706
 20
9.0500942961
 30
0.0
 10
12.144927851
 20
9.0538722375
 30
0.0
 10
12.1457358969
 20
9.0602236908
 30
0.0
 10
12.1465710906
 20
9.0696189883
 30
0.0
 10
12.1472756768
 20
9.0811338816
 30
0.0
 10
12.1478331312
 20
9.0943862346
 30
0.0
 10
12.1482119526
 20
9.1089014701
 30
0.0
 10
12.148339546
 20
9.1189500174
 30
0.0
 10
12.1483714016
 20
9.1240935131
 30
0.0
  0
SPLINE
  5
48F
100
AcDbEntity
  8
0
100
AcDbSpline
 62
7
  6
CONTINUOUS
 70
0
 71
3
 72
17
 73
13
 74
0
 42
0.0000001
 43
0.0000001
 44
0.0000000001
 40
0.0
 40
0.0
 40
0.0
 40
0.0
 40
0.133436458
 40
0.2611581427
 40
0.3826569331
 40
0.4416357734
 40
0.5000000013
 40
0.5583642294
 40
0.6173430687
 40
0.7388418584
 40
0.8665635426
 40
1.0
 40
1.0
 40
1.0
 40
1.0
 10
12.3754834912
 20
8.9025219003
 30
0.0
 10
12.3825182197
 20
8.8973355141
 30
0.0
 10
12.3966053574
 20
8.8875956567
 30
0.0
 10
12.4186175331
 20
8.8754852114
 30
0.0
 10
12.4377474893
 20
8.868624609
 30
0.0
 10
12.4531700523
 20
8.8658129931
 30
0.0
 10
12.4646860012
 20
8.8651152113
 30
0.0
 10
12.47620195
 20
8.8658129934
 30
0.0
 10
12.491624513
 20
8.8686246085
 30
0.0
 10
12.5107544689
 20
8.8754852116
 30
0.0
 10
12.5327666445
 20
8.8875956568
 30
0.0
 10
12.5468537822
 20
8.8973355141
 30
0.0
 10
12.5538885106
 20
8.9025219003
 30
0.0
  0
SPLINE
  5
490
100
AcDbEntity
  8
0
100
AcDbSpline
 62
7
  6
CONTINUOUS
 70
0
 71
3
 72
11
 73
7
 74
0
 42
0.0000001
 43
0.0000001
 44
0.0000000001
 40
0.0
 40
0.0
 40
0.0
 40
0.0
 40
0.2500155379
 40
0.5000321534
 40
0.7500233349
 40
1.0
 40
1.0
 40
1.0
 40
1.0
 10
6.8007000714
 20
8.9025219003
 30
0.0
 10
6.8150226293
 20
8.8972422142
 30
0.0
 10
6.8439010877
 20
8.8872902525
 30
0.0
 10
6.8881235669
 20
8.8752242891
 30
0.0
 10
6.9332879889
 20
8.8672260548
 30
0.0
 10
6.9638427745
 20
8.8653434271
 30
0.0
 10
6.9791050908
 20
8.8653434271
 30
0.0
  0
SPLINE
  5
491
100
AcDbEntity
  8
0
100
AcDbSpline
 62
7
  6
CONTINUOUS
 70
0
 71
3
 72
9
 73
5
 74
0
 42
0.0000001
 43
0.0000001
 44
0.0000000001
 40
0.0
 40
0.0
 40
0.0
 40
0.0
 40
0.2650310462
 40
1.0
 40
1.0
 40
1.0
 40
1.0
 10
12.0538291279
 20
9.2609609216
 30
0.0
 10
12.0515776567
 20
9.2609721264
 30
0.0
 10
12.0430820703
 20
9.2607438093
 30
0.0
 10
12.0346228095
 20
9.2595214427
 30
0.0
 10
12.0285315858
 20
9.2581498961
 30
0.0
  0
SPLINE
  5
492
100
AcDbEntity
  8
0
100
AcDbSpline
 62
7
  6
CONTINUOUS
 70
0
 71
3
 72
9
 73
5
 74
0
 42
0.0000001
 43
0.0000001
 44
0.0000000001
 40
0.0
 40
0.0
 40
0.0
 40
0.0
 40
0.2313646008
 40
1.0
 40
1.0
 40
1.0
 40
1.0
 10
12.0285315858
 20
10.1099587639
 30
0.0
 10
12.0304487652
 20
10.1095270771
 30
0.0
 10
12.0387784526
 20
10.1078644935
 30
0.0
 10
12.0473005239
 20
10.1071152479
 30
0.0
 10
12.0538291279
 20
10.1071477384
 30
0.0
  0
SPLINE
  5
493
100
AcDbEntity
  8
0
100
AcDbSpline
 62
7
  6
CONTINUOUS
 70
0
 71
3
 72
11
 73
7
 74
0
 42
0.0000001
 43
0.0000001
 44
0.0000000001
 40
0.0
 40
0.0
 40
0.0
 40
0.0
 40
0.2500155379
 40
0.5000321534
 40
0.7500233349
 40
1.0
 40
1.0
 40
1.0
 40
1.0
 10
12.8007000714
 20
8.9025219003
 30
0.0
 10
12.8150226293
 20
8.8972422142
 30
0.0
 10
12.8439010877
 20
8.8872902525
 30
0.0
 10
12.8881235669
 20
8.8752242891
 30
0.0
 10
12.9332879889
 20
8.8672260548
 30
0.0
 10
12.9638427745
 20
8.8653434271
 30
0.0
 10
12.9791050908
 20
8.8653434271
 30
0.0
  0
SPLINE
  5
494
100
AcDbEntity
  8
0
100
AcDbSpline
 62
7
  6
CONTINUOUS
 70
0
 71
3
 72
12
 73
8
 74
0
 42
0.0000001
 43
0.0000001
 44
0.0000000001
 40
0.0
 40
0.0
 40
0.0
 40
0.0
 40
0.148814659
 40
0.2456479411
 40
0.3596840429
 40
0.6426355207
 40
1.0
 40
1.0
 40
1.0
 40
1.0
 10
11.9932040664
 20
10.1093665112
 30
0.0
 10
11.9947009635
 20
10.1103053024
 30
0.0
 10
11.9976515208
 20
10.1110105036
 30
0.0
 10
12.0018940897
 20
10.1112872722
 30
0.0
 10
12.0077693745
 20
10.1111915347
 30
0.0
 10
12.0166959536
 20
10.1105120933
 30
0.0
 10
12.0242898637
 20
10.1100672423
 30
0.0
 10
12.0285315858
 20
10.1099587639
 30
0.0
  0
SPLINE
  5
495
100
AcDbEntity
  8
0
100
AcDbSpline
 62
7
  6
CONTINUOUS
 70
0
 71
3
 72
12
 73
8
 74
0
 42
0.0000001
 43
0.0000001
 44
0.0000000001
 40
0.0
 40
0.0
 40
0.0
 40
0.0
 40
0.3573628941
 40
0.6403211434
 40
0.7543525343
 40
0.8511816367
 40
1.0
 40
1.0
 40
1.0
 40
1.0
 10
12.0285315858
 20
9.2581498961
 30
0.0
 10
12.0242898786
 20
9.2580414181
 30
0.0
 10
12.0166959017
 20
9.2575966359
 30
0.0
 10
12.0077692915
 20
9.256917216
 30
0.0
 10
12.001894048
 20
9.2568215304
 30
0.0
 10
11.9976514809
 20
9.2570977886
 30
0.0
 10
11.9947010021
 20
9.2578033334
 30
0.0
 10
11.9932040664
 20
9.2587421489
 30
0.0
  0
SPLINE
  5
496
100
AcDbEntity
  8
0
100
AcDbSpline
 62
9
  6
CONTINUOUS
 70
0
 71
3
 72
9
 73
5
 74
0
 42
0.0000001
 43
0.0000001
 44
0.0000000001
 40
0.0
 40
0.0
 40
0.0
 40
0.0
 40
0.5001249187
 40
1.0
 40
1.0
 40
1.0
 40
1.0
 10
12.1360735708
 20
10.0921931651
 30
0.0
 10
12.1422594317
 20
10.0943622213
 30
0.0
 10
12.1541653525
 20
10.1001496468
 30
0.0
 10
12.1644225476
 20
10.108527537
 30
0.0
 10
12.1689683876
 20
10.1132458098
 30
0.0
  0
SPLINE
  5
497
100
AcDbEntity
  8
0
100
AcDbSpline
 62
9
  6
CONTINUOUS
 70
0
 71
3
 72
16
 73
12
 74
0
 42
0.0000001
 43
0.0000001
 44
0.0000000001
 40
0.0
 40
0.0
 40
0.0
 40
0.0
 40
0.0274681468
 40
0.0510735886
 40
0.0822276849
 40
0.1211431595
 40
0.1678066597
 40
0.2834933896
 40
0.4272549298
 40
0.5967299562
 40
1.0
 40
1.0
 40
1.0
 40
1.0
 10
12.2274600372
 20
10.2370243263
 30
0.0
 10
12.2274524232
 20
10.2374644398
 30
0.0
 10
12.2266718961
 20
10.2380938078
 30
0.0
 10
12.2255268981
 20
10.2386191322
 30
0.0
 10
12.2240855388
 20
10.2391147821
 30
0.0
 10
12.2222814042
 20
10.2395835375
 30
0.0
 10
12.2191208303
 20
10.2402477837
 30
0.0
 10
12.2142715087
 20
10.2409925925
 30
0.0
 10
12.2074402149
 20
10.2417687412
 30
0.0
 10
12.1959977932
 20
10.2427323297
 30
0.0
 10
12.1868285195
 20
10.2431991281
 30
0.0
 10
12.180370684
 20
10.2434429322
 30
0.0
  0
SPLINE
  5
498
100
AcDbEntity
  8
0
100
AcDbSpline
 62
9
  6
CONTINUOUS
 70
0
 71
3
 72
11
 73
7
 74
0
 42
0.0000001
 43
0.0000001
 44
0.0000000001
 40
0.0
 40
0.0
 40
0.0
 40
0.0
 40
0.249960314
 40
0.500238856
 40
0.7503776445
 40
1.0
 40
1.0
 40
1.0
 40
1.0
 10
12.0732836082
 20
10.1319093442
 30
0.0
 10
12.0622429923
 20
10.1319093442
 30
0.0
 10
12.0399103994
 20
10.1363260842
 30
0.0
 10
12.0116388174
 20
10.1551529412
 30
0.0
 10
11.9926004324
 20
10.1832664777
 30
0.0
 10
11.9880345738
 20
10.2055508108
 30
0.0
 10
11.9879662888
 20
10.2165762878
 30
0.0
  0
SPLINE
  5
499
100
AcDbEntity
  8
0
100
AcDbSpline
 62
9
  6
CONTINUOUS
 70
0
 71
3
 72
14
 73
10
 74
0
 42
0.0000001
 43
0.0000001
 44
0.0000000001
 40
0.0
 40
0.0
 40
0.0
 40
0.0
 40
0.0414055373
 40
0.106644558
 40
0.1968450734
 40
0.3119015597
 40
0.4512065084
 40
0.6133944202
 40
1.0
 40
1.0
 40
1.0
 40
1.0
 10
11.9879662888
 20
10.2165762878
 30
0.0
 10
11.9882196926
 20
10.2168988194
 30
0.0
 10
11.989156568
 20
10.2174667645
 30
0.0
 10
11.9909691702
 20
10.218151951
 30
0.0
 10
11.993568271
 20
10.2188438646
 30
0.0
 10
11.9969119991
 20
10.2195213831
 30
0.0
 10
12.0009882214
 20
10.220174793
 30
0.0
 10
12.0077474755
 20
10.221057095
 30
0.0
 10
12.0131610881
 20
10.2215754369
 30
0.0
 10
12.0169777875
 20
10.2218917688
 30
0.0
  0
SPLINE
  5
49A
100
AcDbEntity
  8
0
100
AcDbSpline
 62
9
  6
CONTINUOUS
 70
0
 71
3
 72
9
 73
5
 74
0
 42
0.0000001
 43
0.0000001
 44
0.0000000001
 40
0.0
 40
0.0
 40
0.0
 40
0.0
 40
0.4670527075
 40
1.0
 40
1.0
 40
1.0
 40
1.0
 10
12.0169777875
 20
10.2218917688
 30
0.0
 10
12.0265566659
 20
10.2226856759
 30
0.0
 10
12.0471175801
 20
10.2237473245
 30
0.0
 10
12.0676974993
 20
10.2240935131
 30
0.0
 10
12.0786653005
 20
10.2240935131
 30
0.0
  0
SPLINE
  5
49B
100
AcDbEntity
  8
0
100
AcDbSpline
 62
9
  6
CONTINUOUS
 70
0
 71
3
 72
18
 73
14
 74
0
 42
0.0000001
 43
0.0000001
 44
0.0000000001
 40
0.0
 40
0.0
 40
0.0
 40
0.0
 40
0.1795705517
 40
0.3560926495
 40
0.5218105521
 40
0.6705574357
 40
0.7968046947
 40
0.8500442206
 40
0.8959758348
 40
0.9341251501
 40
0.9642390607
 40
0.9861740375
 40
1.0
 40
1.0
 40
1.0
 40
1.0
 10
12.0786653005
 20
10.2240935131
 30
0.0
 10
12.0786996286
 20
10.2185508084
 30
0.0
 10
12.078691006
 20
10.2075588864
 30
0.0
 10
12.0784630498
 20
10.1914532755
 30
0.0
 10
12.0780224323
 20
10.1763036511
 30
0.0
 10
12.0773929326
 20
10.1627141644
 30
0.0
 10
12.0767015457
 20
10.1526044742
 30
0.0
 10
12.076046674
 20
10.1456772765
 30
0.0
 10
12.075555406
 20
10.1414659784
 30
0.0
 10
12.0750389268
 20
10.1379804357
 30
0.0
 10
12.0745109128
 20
10.1352401839
 30
0.0
 10
12.0739751952
 20
10.133287561
 30
0.0
 10
12.0735472648
 20
10.1322449256
 30
0.0
 10
12.0732836082
 20
10.1319093442
 30
0.0
  0
SPLINE
  5
49C
100
AcDbEntity
  8
0
100
AcDbSpline
 62
9
  6
CONTINUOUS
 70
0
 71
3
 72
15
 73
11
 74
0
 42
0.0000001
 43
0.0000001
 44
0.0000000001
 40
0.0
 40
0.0
 40
0.0
 40
0.0
 40
0.0224636478
 40
0.0500257166
 40
0.1211692866
 40
0.2141571509
 40
0.329028509
 40
0.4656025524
 40
0.623429136
 40
1.0
 40
1.0
 40
1.0
 40
1.0
 10
11.9530495443
 20
10.1721343573
 30
0.0
 10
11.9526321261
 20
10.1716030687
 30
0.0
 10
11.9518187185
 20
10.1703293653
 30
0.0
 10
11.9502158563
 20
10.1670521144
 30
0.0
 10
11.9483184288
 20
10.1615902551
 30
0.0
 10
11.9461905012
 20
10.1534707596
 30
0.0
 10
11.9440898833
 20
10.1433217926
 30
0.0
 10
11.9420300762
 20
10.1311839388
 30
0.0
 10
11.9391885897
 20
10.1112019424
 30
0.0
 10
11.9374302819
 20
10.0952208531
 30
0.0
 10
11.93631978
 20
10.0839490884
 30
0.0
  0
SPLINE
  5
49D
100
AcDbEntity
  8
0
100
AcDbSpline
 62
9
  6
CONTINUOUS
 70
0
 71
3
 72
15
 73
11
 74
0
 42
0.0000001
 43
0.0000001
 44
0.0000000001
 40
0.0
 40
0.0
 40
0.0
 40
0.0
 40
0.376570864
 40
0.5343974476
 40
0.670971491
 40
0.7858428491
 40
0.8788307134
 40
0.9499742834
 40
0.9775363522
 40
1.0
 40
1.0
 40
1.0
 40
1.0
 10
11.93631978
 20
9.2841595716
 30
0.0
 10
11.9374302819
 20
9.2728878069
 30
0.0
 10
11.9391885897
 20
9.2569067176
 30
0.0
 10
11.9420300762
 20
9.2369247213
 30
0.0
 10
11.9440898833
 20
9.2247868675
 30
0.0
 10
11.9461905012
 20
9.2146379004
 30
0.0
 10
11.9483184288
 20
9.2065184049
 30
0.0
 10
11.9502158563
 20
9.2010565456
 30
0.0
 10
11.9518187185
 20
9.1977792947
 30
0.0
 10
11.9526321261
 20
9.1965055914
 30
0.0
 10
11.9530495443
 20
9.1959743027
 30
0.0
  0
SPLINE
  5
49E
100
AcDbEntity
  8
0
100
AcDbSpline
 62
9
  6
CONTINUOUS
 70
0
 71
3
 72
15
 73
11
 74
0
 42
0.0000001
 43
0.0000001
 44
0.0000000001
 40
0.0
 40
0.0
 40
0.0
 40
0.0
 40
0.0211546564
 40
0.0476199005
 40
0.1172320977
 40
0.2095360235
 40
0.3245122039
 40
0.4617847561
 40
0.6206487364
 40
1.0
 40
1.0
 40
1.0
 40
1.0
 10
11.9529261619
 20
9.176052669
 30
0.0
 10
11.9524352927
 20
9.1766774459
 30
0.0
 10
11.9514846327
 20
9.1782034226
 30
0.0
 10
11.9496164642
 20
9.1821954719
 30
0.0
 10
11.9474228939
 20
9.1889441482
 30
0.0
 10
11.9449709507
 20
9.1990523264
 30
0.0
 10
11.9425625171
 20
9.211772715
 30
0.0
 10
11.9402120737
 20
9.2270351946
 30
0.0
 10
11.9369854655
 20
9.2522018069
 30
0.0
 10
11.9350189505
 20
9.2723253721
 30
0.0
 10
11.9337873888
 20
9.2865200182
 30
0.0
  0
SPLINE
  5
49F
100
AcDbEntity
  8
0
100
AcDbSpline
 62
9
  6
CONTINUOUS
 70
0
 71
3
 72
15
 73
11
 74
0
 42
0.0000001
 43
0.0000001
 44
0.0000000001
 40
0.0
 40
0.0
 40
0.0
 40
0.0
 40
0.3793512159
 40
0.5382151387
 40
0.6754876526
 40
0.7904638336
 40
0.8827677732
 40
0.9523800123
 40
0.9788452935
 40
1.0
 40
1.0
 40
1.0
 40
1.0
 10
11.933787455
 20
10.0815894044
 30
0.0
 10
11.9350190143
 20
10.0957839518
 30
0.0
 10
11.9369855239
 20
10.1159073757
 30
0.0
 10
11.9402121226
 20
10.14107381
 30
0.0
 10
11.942562558
 20
10.1563361812
 30
0.0
 10
11.9449709818
 20
10.1690564812
 30
0.0
 10
11.9474229157
 20
10.1791645912
 30
0.0
 10
11.9496164777
 20
10.1859132233
 30
0.0
 10
11.9514846388
 20
10.1899052483
 30
0.0
 10
11.9524352948
 20
10.1914312169
 30
0.0
 10
11.9529261619
 20
10.1920559911
 30
0.0
  0
SPLINE
  5
4A0
100
AcDbEntity
  8
0
100
AcDbSpline
 62
9
  6
CONTINUOUS
 70
0
 71
3
 72
11
 73
7
 74
0
 42
0.0000001
 43
0.0000001
 44
0.0000000001
 40
0.0
 40
0.0
 40
0.0
 40
0.0
 40
0.2493729617
 40
0.4993793193
 40
0.7495490411
 40
1.0
 40
1.0
 40
1.0
 40
1.0
 10
11.9530495443
 20
10.1721343573
 30
0.0
 10
11.953089105
 20
10.1657467873
 30
0.0
 10
11.9546407353
 20
10.1529199041
 30
0.0
 10
11.9611976848
 20
10.1347063029
 30
0.0
 10
11.9716989214
 20
10.1184091991
 30
0.0
 10
11.9809722443
 20
10.1093693436
 30
0.0
 10
11.9860361827
 20
10.1054307307
 30
0.0
  0
SPLINE
  5
4A1
100
AcDbEntity
  8
0
100
AcDbSpline
 62
9
  6
CONTINUOUS
 70
0
 71
3
 72
11
 73
7
 74
0
 42
0.0000001
 43
0.0000001
 44
0.0000000001
 40
0.0
 40
0.0
 40
0.0
 40
0.0
 40
0.2496223555
 40
0.499761144
 40
0.750039686
 40
1.0
 40
1.0
 40
1.0
 40
1.0
 10
11.9879662888
 20
9.1515323723
 30
0.0
 10
11.9880345738
 20
9.1625578492
 30
0.0
 10
11.9926004324
 20
9.1848421823
 30
0.0
 10
12.0116388174
 20
9.2129557188
 30
0.0
 10
12.0399103994
 20
9.2317825758
 30
0.0
 10
12.0622429923
 20
9.2361993158
 30
0.0
 10
12.0732836082
 20
9.2361993158
 30
0.0
  0
SPLINE
  5
4A2
100
AcDbEntity
  8
0
100
AcDbSpline
 62
9
  6
CONTINUOUS
 70
0
 71
3
 72
18
 73
14
 74
0
 42
0.0000001
 43
0.0000001
 44
0.0000000001
 40
0.0
 40
0.0
 40
0.0
 40
0.0
 40
0.0138259625
 40
0.0357609393
 40
0.0658748499
 40
0.1040241652
 40
0.1499557794
 40
0.2031953053
 40
0.3294425643
 40
0.4781894479
 40
0.6439073505
 40
0.8204294483
 40
1.0
 40
1.0
 40
1.0
 40
1.0
 10
12.0732836082
 20
9.2361993158
 30
0.0
 10
12.0735472648
 20
9.2358637344
 30
0.0
 10
12.0739751952
 20
9.2348210991
 30
0.0
 10
12.0745109128
 20
9.2328684761
 30
0.0
 10
12.0750389268
 20
9.2301282243
 30
0.0
 10
12.075555406
 20
9.2266426816
 30
0.0
 10
12.076046674
 20
9.2224313835
 30
0.0
 10
12.0767015457
 20
9.2155041858
 30
0.0
 10
12.0773929326
 20
9.2053944956
 30
0.0
 10
12.0780224323
 20
9.191805009
 30
0.0
 10
12.0784630498
 20
9.1766553845
 30
0.0
 10
12.078691006
 20
9.1605497736
 30
0.0
 10
12.0786996286
 20
9.1495578516
 30
0.0
 10
12.0786653005
 20
9.1440151469
 30
0.0
  0
SPLINE
  5
4A3
100
AcDbEntity
  8
0
100
AcDbSpline
 62
9
  6
CONTINUOUS
 70
0
 71
3
 72
9
 73
5
 74
0
 42
0.0000001
 43
0.0000001
 44
0.0000000001
 40
0.0
 40
0.0
 40
0.0
 40
0.0
 40
0.5329472925
 40
1.0
 40
1.0
 40
1.0
 40
1.0
 10
12.0786653005
 20
9.1440151469
 30
0.0
 10
12.0676974993
 20
9.1440151469
 30
0.0
 10
12.0471175801
 20
9.1443613355
 30
0.0
 10
12.0265566659
 20
9.1454229841
 30
0.0
 10
12.0169777875
 20
9.1462168912
 30
0.0
  0
SPLINE
  5
4A4
100
AcDbEntity
  8
0
100
AcDbSpline
 62
9
  6
CONTINUOUS
 70
0
 71
3
 72
14
 73
10
 74
0
 42
0.0000001
 43
0.0000001
 44
0.0000000001
 40
0.0
 40
0.0
 40
0.0
 40
0.0
 40
0.3866055798
 40
0.5487934916
 40
0.6880984403
 40
0.8031549266
 40
0.893355442
 40
0.9585944627
 40
1.0
 40
1.0
 40
1.0
 40
1.0
 10
12.0169777875
 20
9.1462168912
 30
0.0
 10
12.0131610881
 20
9.1465332231
 30
0.0
 10
12.0077474755
 20
9.147051565
 30
0.0
 10
12.0009882214
 20
9.147933867
 30
0.0
 10
11.9969119991
 20
9.1485872769
 30
0.0
 10
11.993568271
 20
9.1492647954
 30
0.0
 10
11.9909691702
 20
9.149956709
 30
0.0
 10
11.989156568
 20
9.1506418955
 30
0.0
 10
11.9882196926
 20
9.1512098406
 30
0.0
 10
11.9879662888
 20
9.1515323723
 30
0.0
  0
SPLINE
  5
4A5
100
AcDbEntity
  8
0
100
AcDbSpline
 62
7
  6
CONTINUOUS
 70
0
 71
3
 72
11
 73
7
 74
0
 42
0.0000001
 43
0.0000001
 44
0.0000000001
 40
0.0
 40
0.0
 40
0.0
 40
0.0
 40
0.1990284702
 40
0.4225398166
 40
0.686653948
 40
1.0
 40
1.0
 40
1.0
 40
1.0
 10
12.3754834912
 20
8.9025219003
 30
0.0
 10
12.3718976009
 20
8.9051656146
 30
0.0
 10
12.3647161834
 20
8.9113988751
 30
0.0
 10
12.3551467689
 20
8.9235677832
 30
0.0
 10
12.3475454416
 20
8.9400097035
 30
0.0
 10
12.3455597409
 20
8.9530285218
 30
0.0
 10
12.3455597409
 20
8.960042519
 30
0.0
  0
SPLINE
  5
4A6
100
AcDbEntity
  8
0
100
AcDbSpline
 62
7
  6
CONTINUOUS
 70
0
 71
3
 72
17
 73
13
 74
0
 42
0.0000001
 43
0.0000001
 44
0.0000000001
 40
0.0
 40
0.0
 40
0.0
 40
0.0
 40
0.1034963362
 40
0.1922873236
 40
0.2679414342
 40
0.3352017831
 40
0.4559559338
 40
0.5683380203
 40
0.6773799643
 40
0.7851226697
 40
0.8924744295
 40
1.0
 40
1.0
 40
1.0
 40
1.0
 10
12.3455597409
 20
8.960042519
 30
0.0
 10
12.3455597409
 20
8.9665013765
 30
0.0
 10
12.3472534247
 20
8.9785738267
 30
0.0
 10
12.3538297701
 20
8.9941118763
 30
0.0
 10
12.3623010182
 20
9.0059516788
 30
0.0
 10
12.3741916911
 20
9.0174254506
 30
0.0
 10
12.3903812459
 20
9.027306859
 30
0.0
 10
12.4105988978
 20
9.0344583288
 30
0.0
 10
12.4307838702
 20
9.0385258796
 30
0.0
 10
12.4509446243
 20
9.0404770964
 30
0.0
 10
12.4710951969
 20
9.0407632205
 30
0.0
 10
12.4844958156
 20
9.039887927
 30
0.0
 10
12.4911644687
 20
9.0391413986
 30
0.0
  0
SPLINE
  5
4A7
100
AcDbEntity
  8
0
100
AcDbSpline
 62
7
  6
CONTINUOUS
 70
0
 71
3
 72
9
 73
5
 74
0
 42
0.0000001
 43
0.0000001
 44
0.0000000001
 40
0.0
 40
0.0
 40
0.0
 40
0.0
 40
0.493769879
 40
1.0
 40
1.0
 40
1.0
 40
1.0
 10
12.4911644687
 20
9.0391413986
 30
0.0
 10
12.498354502
 20
9.0383365038
 30
0.0
 10
12.5128467804
 20
9.0359828253
 30
0.0
 10
12.5269323283
 20
9.0316585427
 30
0.0
 10
12.5337770812
 20
9.028800407
 30
0.0
  0
SPLINE
  5
4A8
100
AcDbEntity
  8
0
100
AcDbSpline
 62
7
  6
CONTINUOUS
 70
0
 71
3
 72
13
 73
9
 74
0
 42
0.0000001
 43
0.0000001
 44
0.0000000001
 40
0.0
 40
0.0
 40
0.0
 40
0.0
 40
0.19593613
 40
0.4109656163
 40
0.532185392
 40
0.6682750267
 40
0.8246310163
 40
1.0
 40
1.0
 40
1.0
 40
1.0
 10
12.5337770812
 20
9.028800407
 30
0.0
 10
12.5392171303
 20
9.0265288278
 30
0.0
 10
12.5502838238
 20
9.0208621372
 30
0.0
 10
12.5628369962
 20
9.0106482097
 30
0.0
 10
12.571848302
 20
8.9995955379
 30
0.0
 10
12.5780728348
 20
8.9887412452
 30
0.0
 10
12.5826666992
 20
8.9753391684
 30
0.0
 10
12.5838122595
 20
8.9653189704
 30
0.0
 10
12.5838122595
 20
8.960042519
 30
0.0
  0
SPLINE
  5
4A9
100
AcDbEntity
  8
0
100
AcDbSpline
 62
7
  6
CONTINUOUS
 70
0
 71
3
 72
11
 73
7
 74
0
 42
0.0000001
 43
0.0000001
 44
0.0000000001
 40
0.0
 40
0.0
 40
0.0
 40
0.0
 40
0.3133448868
 40
0.5774596656
 40
0.8009712896
 40
1.0
 40
1.0
 40
1.0
 40
1.0
 10
12.5838122595
 20
8.960042519
 30
0.0
 10
12.5838122595
 20
8.9530285479
 30
0.0
 10
12.5818265734
 20
8.940009741
 30
0.0
 10
12.5742252534
 20
8.9235678218
 30
0.0
 10
12.5646558312
 20
8.9113988869
 30
0.0
 10
12.5574744053
 20
8.9051656178
 30
0.0
 10
12.5538885106
 20
8.9025219003
 30
0.0
  0
SPLINE
  5
4AA
100
AcDbEntity
  8
0
100
AcDbSpline
 62
7
  6
CONTINUOUS
 70
0
 71
3
 72
13
 73
9
 74
0
 42
0.0000001
 43
0.0000001
 44
0.0000000001
 40
0.0
 40
0.0
 40
0.0
 40
0.0
 40
0.2499636479
 40
0.4998023342
 40
0.624893514
 40
0.7499682081
 40
0.875031728
 40
1.0
 40
1.0
 40
1.0
 40
1.0
 10
12.8007000714
 20
8.9025219003
 30
0.0
 10
12.7938299825
 20
8.9050544027
 30
0.0
 10
12.7803392925
 20
8.9108207094
 30
0.0
 10
12.7646488449
 20
8.9204995314
 30
0.0
 10
12.7537544737
 20
8.9303580749
 30
0.0
 10
12.7468802569
 20
8.9390198836
 30
0.0
 10
12.7420498021
 20
8.9490142851
 30
0.0
 10
12.740852693
 20
8.9563819158
 30
0.0
 10
12.740852693
 20
8.960042519
 30
0.0
  0
SPLINE
  5
4AB
100
AcDbEntity
  8
0
100
AcDbSpline
 62
7
  6
CONTINUOUS
 70
0
 71
3
 72
18
 73
14
 74
0
 42
0.0000001
 43
0.0000001
 44
0.0000000001
 40
0.0
 40
0.0
 40
0.0
 40
0.0
 40
0.0623918966
 40
0.1248667608
 40
0.1873893297
 40
0.2499166589
 40
0.312441501
 40
0.3749627297
 40
0.499948594
 40
0.6249540917
 40
0.7499671417
 40
0.874983138
 40
1.0
 40
1.0
 40
1.0
 40
1.0
 10
12.740852693
 20
8.960042519
 30
0.0
 10
12.740852693
 20
8.964233762
 30
0.0
 10
12.7424391525
 20
8.9726814681
 30
0.0
 10
12.7486294754
 20
8.9838143281
 30
0.0
 10
12.7571653169
 20
8.9931860281
 30
0.0
 10
12.7670983288
 20
9.0010040737
 30
0.0
 10
12.7778865425
 20
9.0075587679
 30
0.0
 10
12.792999136
 20
9.0149281824
 30
0.0
 10
12.8128033848
 20
9.0220615274
 30
0.0
 10
12.8372316087
 20
9.0283063969
 30
0.0
 10
12.8620267815
 20
9.032854876
 30
0.0
 10
12.8870167852
 20
9.0361173012
 30
0.0
 10
12.903749831
 20
9.037620669
 30
0.0
 10
12.912125405
 20
9.0382359411
 30
0.0
  0
SPLINE
  5
4AC
100
AcDbEntity
  8
0
100
AcDbSpline
 62
7
  6
CONTINUOUS
 70
0
 71
3
 72
9
 73
5
 74
0
 42
0.0000001
 43
0.0000001
 44
0.0000000001
 40
0.0
 40
0.0
 40
0.0
 40
0.0
 40
0.4999977375
 40
1.0
 40
1.0
 40
1.0
 40
1.0
 10
12.912125405
 20
9.0382359411
 30
0.0
 10
12.9232672685
 20
9.0390544256
 30
0.0
 10
12.9455877854
 20
9.040210968
 30
0.0
 10
12.9679331035
 20
9.0405782254
 30
0.0
 10
12.9791050908
 20
9.0405782254
 30
0.0
  0
SPLINE
  5
4AD
100
AcDbEntity
  8
0
100
AcDbSpline
 62
7
  6
CONTINUOUS
 70
0
 71
3
 72
9
 73
5
 74
0
 42
0.0000001
 43
0.0000001
 44
0.0000000001
 40
0.0
 40
0.0
 40
0.0
 40
0.0
 40
0.5000022639
 40
1.0
 40
1.0
 40
1.0
 40
1.0
 10
12.9791050908
 20
9.0405782254
 30
0.0
 10
12.9902780714
 20
9.0405782254
 30
0.0
 10
13.0126253767
 20
9.0402109035
 30
0.0
 10
13.0349478741
 20
9.0390541481
 30
0.0
 10
13.0460907219
 20
9.0382355043
 30
0.0
  0
SPLINE
  5
4AE
100
AcDbEntity
  8
0
100
AcDbSpline
 62
7
  6
CONTINUOUS
 70
0
 71
3
 72
18
 73
14
 74
0
 42
0.0000001
 43
0.0000001
 44
0.0000000001
 40
0.0
 40
0.0
 40
0.0
 40
0.0
 40
0.1250168003
 40
0.2500327344
 40
0.3750457185
 40
0.5000511424
 40
0.6250369126
 40
0.6875580843
 40
0.7500828
 40
0.8126099597
 40
0.8751325312
 40
0.9376071877
 40
1.0
 40
1.0
 40
1.0
 40
1.0
 10
13.0460907219
 20
9.0382355043
 30
0.0
 10
13.0544660398
 20
9.0376201857
 30
0.0
 10
13.0711985715
 20
9.0361167292
 30
0.0
 10
13.0961877969
 20
9.0328541836
 30
0.0
 10
13.1209821809
 20
9.0283056011
 30
0.0
 10
13.1454096029
 20
9.0220606587
 30
0.0
 10
13.1652131671
 20
9.0149272897
 30
0.0
 10
13.1803252066
 20
9.0075579117
 30
0.0
 10
13.1911129853
 20
9.0010032659
 30
0.0
 10
13.2010455899
 20
8.9931853356
 30
0.0
 10
13.2095810226
 20
8.9838138102
 30
0.0
 10
13.2157711327
 20
8.9726812128
 30
0.0
 10
13.2173574999
 20
8.9642336998
 30
0.0
 10
13.2173574999
 20
8.960042519
 30
0.0
  0
SPLINE
  5
4AF
100
AcDbEntity
  8
0
100
AcDbSpline
 62
9
  6
CONTINUOUS
 70
0
 71
3
 72
18
 73
14
 74
0
 42
0.0000001
 43
0.0000001
 44
0.0000000001
 40
0.0
 40
0.0
 40
0.0
 40
0.0
 40
0.1973707156
 40
0.3856028356
 40
0.5571497882
 40
0.7063212764
 40
0.8282305686
 40
0.9190593206
 40
0.9518527598
 40
0.9759222218
 40
0.9847508423
 40
0.9915420409
 40
1.0
 40
1.0
 40
1.0
 40
1.0
 10
12.1483714016
 20
10.2440151469
 30
0.0
 10
12.148339546
 20
10.2491586426
 30
0.0
 10
12.1482119526
 20
10.2592071899
 30
0.0
 10
12.1478331312
 20
10.2737224254
 30
0.0
 10
12.1472756768
 20
10.2869747785
 30
0.0
 10
12.1465710906
 20
10.2984896718
 30
0.0
 10
12.1457358969
 20
10.3078849692
 30
0.0
 10
12.144927851
 20
10.3142364225
 30
0.0
 10
12.1441709706
 20
10.3180143639
 30
0.0
 10
12.1437205288
 20
10.3196644892
 30
0.0
 10
12.1433176115
 20
10.3206287142
 30
0.0
 10
12.1430228668
 20
10.3211614938
 30
0.0
 10
12.1426857299
 20
10.3214894808
 30
0.0
 10
12.1424653338
 20
10.3214926806
 30
0.0
  0
SPLINE
  5
4B0
100
AcDbEntity
  8
0
100
AcDbSpline
 62
9
  6
CONTINUOUS
 70
0
 71
3
 72
9
 73
5
 74
0
 42
0.0000001
 43
0.0000001
 44
0.0000000001
 40
0.0
 40
0.0
 40
0.0
 40
0.0
 40
0.5329472925
 40
1.0
 40
1.0
 40
1.0
 40
1.0
 10
12.0785419181
 20
10.2440151469
 30
0.0
 10
12.0675741169
 20
10.2440151469
 30
0.0
 10
12.0469941977
 20
10.2436689583
 30
0.0
 10
12.0264332836
 20
10.2426073096
 30
0.0
 10
12.0168544051
 20
10.2418134026
 30
0.0
  0
SPLINE
  5
4B1
100
AcDbEntity
  8
0
100
AcDbSpline
 62
9
  6
CONTINUOUS
 70
0
 71
3
 72
14
 73
10
 74
0
 42
0.0000001
 43
0.0000001
 44
0.0000000001
 40
0.0
 40
0.0
 40
0.0
 40
0.0
 40
0.3866055798
 40
0.5487934916
 40
0.6880984403
 40
0.8031549266
 40
0.893355442
 40
0.9585944627
 40
1.0
 40
1.0
 40
1.0
 40
1.0
 10
12.0168544051
 20
10.2418134026
 30
0.0
 10
12.0130377057
 20
10.2414970707
 30
0.0
 10
12.0076240932
 20
10.2409787288
 30
0.0
 10
12.000864839
 20
10.2400964267
 30
0.0
 10
11.9967886167
 20
10.2394430169
 30
0.0
 10
11.9934448886
 20
10.2387654984
 30
0.0
 10
11.9908457878
 20
10.2380735848
 30
0.0
 10
11.9890331856
 20
10.2373883983
 30
0.0
 10
11.9880963102
 20
10.2368204531
 30
0.0
 10
11.9878429064
 20
10.2364979215
 30
0.0
  0
SPLINE
  5
4B2
100
AcDbEntity
  8
0
100
AcDbSpline
 62
7
  6
CONTINUOUS
 70
0
 71
3
 72
13
 73
9
 74
0
 42
0.0000001
 43
0.0000001
 44
0.0000000001
 40
0.0
 40
0.0
 40
0.0
 40
0.0
 40
0.1249665794
 40
0.2500307669
 40
0.3751059103
 40
0.5001971645
 40
0.7500360717
 40
1.0
 40
1.0
 40
1.0
 40
1.0
 10
13.2173574999
 20
8.960042519
 30
0.0
 10
13.2173574999
 20
8.9563819651
 30
0.0
 10
13.2161604112
 20
8.9490143648
 30
0.0
 10
13.2113299805
 20
8.9390199679
 30
0.0
 10
13.2044557597
 20
8.9303581161
 30
0.0
 10
13.1935613638
 20
8.9204995651
 30
0.0
 10
13.1778709131
 20
8.9108207174
 30
0.0
 10
13.1643802071
 20
8.9050544057
 30
0.0
 10
13.1575101101
 20
8.9025219003
 30
0.0
  0
SPLINE
  5
4B3
100
AcDbEntity
  8
0
100
AcDbSpline
 62
9
  6
CONTINUOUS
 70
0
 71
3
 72
10
 73
6
 74
0
 42
0.0000001
 43
0.0000001
 44
0.0000000001
 40
0.0
 40
0.0
 40
0.0
 40
0.0
 40
0.4670140789
 40
0.7221814651
 40
1.0
 40
1.0
 40
1.0
 40
1.0
 10
10.9359881298
 20
2.8613466452
 30
0.0
 10
10.9502306829
 20
2.8478680657
 30
0.0
 10
10.9708498129
 20
2.8253350203
 30
0.0
 10
10.9938544354
 20
2.7901230171
 30
0.0
 10
11.0036990394
 20
2.7699122168
 30
0.0
 10
11.0079038188
 20
2.7590311943
 30
0.0
  0
SPLINE
  5
4B4
100
AcDbEntity
  8
0
100
AcDbSpline
 62
9
  6
CONTINUOUS
 70
0
 71
3
 72
11
 73
7
 74
0
 42
0.0000001
 43
0.0000001
 44
0.0000000001
 40
0.0
 40
0.0
 40
0.0
 40
0.0
 40
0.2217030229
 40
0.4621726567
 40
0.7215868271
 40
1.0
 40
1.0
 40
1.0
 40
1.0
 10
11.0079038188
 20
2.7590311943
 30
0.0
 10
11.0099476479
 20
2.7537422247
 30
0.0
 10
11.0137650775
 20
2.742540732
 30
0.0
 10
11.0183085352
 20
2.7246315867
 30
0.0
 10
11.0214257306
 20
2.7049416419
 30
0.0
 10
11.0221706536
 20
2.6911748483
 30
0.0
 10
11.0221706536
 20
2.68405433
 30
0.0
  0
SPLINE
  5
4B5
100
AcDbEntity
  8
0
100
AcDbSpline
 62
7
  6
CONTINUOUS
 70
0
 71
3
 72
11
 73
7
 74
0
 42
0.0000001
 43
0.0000001
 44
0.0000000001
 40
0.0
 40
0.0
 40
0.0
 40
0.0
 40
0.2500050168
 40
0.5000201684
 40
0.7500168288
 40
1.0
 40
1.0
 40
1.0
 40
1.0
 10
12.9791050908
 20
8.8653434271
 30
0.0
 10
12.9943691089
 20
8.8653434271
 30
0.0
 10
13.024926592
 20
8.8672330036
 30
0.0
 10
13.0700933611
 20
8.8752262276
 30
0.0
 10
13.114315394
 20
8.8872881234
 30
0.0
 10
13.1431894338
 20
8.8972429078
 30
0.0
 10
13.1575101101
 20
8.9025219003
 30
0.0
  0
SPLINE
  5
4B6
100
AcDbEntity
  8
0
100
AcDbSpline
 62
9
  6
CONTINUOUS
 70
0
 71
3
 72
11
 73
7
 74
0
 42
0.0000001
 43
0.0000001
 44
0.0000000001
 40
0.0
 40
0.0
 40
0.0
 40
0.0
 40
0.253314435
 40
0.5072238559
 40
0.7569937284
 40
1.0
 40
1.0
 40
1.0
 40
1.0
 10
10.4285741111
 20
8.9730422846
 30
0.0
 10
10.4258806881
 20
8.9840732466
 30
0.0
 10
10.421868201
 20
9.0065251521
 30
0.0
 10
10.42027148
 20
9.0405225758
 30
0.0
 10
10.4236261889
 20
9.0739656306
 30
0.0
 10
10.4296589364
 20
9.0953617771
 30
0.0
 10
10.4335574834
 20
9.1055331985
 30
0.0
  0
SPLINE
  5
4B7
100
AcDbEntity
  8
0
100
AcDbSpline
 62
9
  6
CONTINUOUS
 70
0
 71
3
 72
9
 73
5
 74
0
 42
0.0000001
 43
0.0000001
 44
0.0000000001
 40
0.0
 40
0.0
 40
0.0
 40
0.0
 40
0.2555213028
 40
1.0
 40
1.0
 40
1.0
 40
1.0
 10
10.4335574834
 20
9.1055331985
 30
0.0
 10
10.4349497252
 20
9.1091655974
 30
0.0
 10
10.440860025
 20
9.123197026
 30
0.0
 10
10.448654004
 20
9.1364581184
 30
0.0
 10
10.4554782114
 20
9.1455074
 30
0.0
  0
SPLINE
  5
4B8
100
AcDbEntity
  8
0
100
AcDbSpline
 62
9
  6
CONTINUOUS
 70
0
 71
3
 72
9
 73
5
 74
0
 42
0.0000001
 43
0.0000001
 44
0.0000000001
 40
0.0
 40
0.0
 40
0.0
 40
0.0
 40
0.257757369
 40
1.0
 40
1.0
 40
1.0
 40
1.0
 10
12.148494784
 20
10.2240935131
 30
0.0
 10
12.1512446604
 20
10.2240935131
 30
0.0
 10
12.1619130027
 20
10.2240457477
 30
0.0
 10
12.1725811115
 20
10.2238200379
 30
0.0
 10
12.1804940663
 20
10.2235212984
 30
0.0
  0
SPLINE
  5
4B9
100
AcDbEntity
  8
0
100
AcDbSpline
 62
9
  6
CONTINUOUS
 70
0
 71
3
 72
12
 73
8
 74
0
 42
0.0000001
 43
0.0000001
 44
0.0000000001
 40
0.0
 40
0.0
 40
0.0
 40
0.0
 40
0.3292223441
 40
0.6120781584
 40
0.8382308927
 40
0.9275832418
 40
1.0
 40
1.0
 40
1.0
 40
1.0
 10
12.1804940663
 20
10.2235212984
 30
0.0
 10
12.1852028008
 20
10.2233435285
 30
0.0
 10
12.1939545135
 20
10.2229249288
 30
0.0
 10
12.2059197018
 20
10.2220335859
 30
0.0
 10
12.21443617
 20
10.2210869781
 30
0.0
 10
12.2199167674
 20
10.2201923252
 30
0.0
 10
12.222183659
 20
10.2197117212
 30
0.0
 10
12.2231873364
 20
10.2194530054
 30
0.0
  0
SPLINE
  5
4BA
100
AcDbEntity
  8
0
100
AcDbSpline
 62
9
  6
CONTINUOUS
 70
0
 71
3
 72
12
 73
8
 74
0
 42
0.0000001
 43
0.0000001
 44
0.0000000001
 40
0.0
 40
0.0
 40
0.0
 40
0.0
 40
0.3849315481
 40
0.6732215353
 40
0.7828494013
 40
0.8714204012
 40
1.0
 40
1.0
 40
1.0
 40
1.0
 10
12.2231873364
 20
10.2194530054
 30
0.0
 10
12.223830092
 20
10.2192873236
 30
0.0
 10
12.2249460705
 20
10.2189644
 30
0.0
 10
12.2262052434
 20
10.2184657652
 30
0.0
 10
12.2269290729
 20
10.2180320455
 30
0.0
 10
12.2273637634
 20
10.2176813784
 30
0.0
 10
12.2275795844
 20
10.2173243786
 30
0.0
 10
12.2275834195
 20
10.2171026925
 30
0.0
  0
SPLINE
  5
4BB
100
AcDbEntity
  8
0
100
AcDbSpline
 62
9
  6
CONTINUOUS
 70
0
 71
3
 72
17
 73
13
 74
0
 42
0.0000001
 43
0.0000001
 44
0.0000000001
 40
0.0
 40
0.0
 40
0.0
 40
0.0
 40
0.0149715299
 40
0.0369464127
 40
0.0660834531
 40
0.1023444294
 40
0.1957774579
 40
0.3155882401
 40
0.4590582806
 40
0.6232929815
 40
0.8048637946
 40
1.0
 40
1.0
 40
1.0
 40
1.0
 10
12.1431130917
 20
10.1319093442
 30
0.0
 10
12.1432969362
 20
10.1321433409
 30
0.0
 10
12.1436214726
 20
10.132813899
 30
0.0
 10
12.1440299967
 20
10.1340602703
 30
0.0
 10
12.1444380051
 20
10.1357510912
 30
0.0
 10
12.1450260047
 20
10.13885284
 30
0.0
 10
12.1456872555
 20
10.1437710962
 30
0.0
 10
12.1463789459
 20
10.1508276924
 30
0.0
 10
12.1469981642
 20
10.1593034203
 30
0.0
 10
12.1475280095
 20
10.1690143173
 30
0.0
 10
12.147956106
 20
10.1797580583
 30
0.0
 10
12.148161138
 20
10.1872429979
 30
0.0
 10
12.1482458811
 20
10.1911206619
 30
0.0
  0
SPLINE
  5
4BC
100
AcDbEntity
  8
0
100
AcDbSpline
 62
9
  6
CONTINUOUS
 70
0
 71
3
 72
17
 73
13
 74
0
 42
0.0000001
 43
0.0000001
 44
0.0000000001
 40
0.0
 40
0.0
 40
0.0
 40
0.0
 40
0.1951362054
 40
0.3767070185
 40
0.5409417194
 40
0.6844117598
 40
0.8042225421
 40
0.8976555706
 40
0.9339165469
 40
0.9630535873
 40
0.9850284701
 40
1.0
 40
1.0
 40
1.0
 40
1.0
 10
12.1482458811
 20
9.1769879982
 30
0.0
 10
12.148161138
 20
9.1808656621
 30
0.0
 10
12.147956106
 20
9.1883506017
 30
0.0
 10
12.1475280095
 20
9.1990943428
 30
0.0
 10
12.1469981642
 20
9.2088052398
 30
0.0
 10
12.1463789459
 20
9.2172809676
 30
0.0
 10
12.1456872555
 20
9.2243375638
 30
0.0
 10
12.1450260047
 20
9.2292558201
 30
0.0
 10
12.1444380051
 20
9.2323575688
 30
0.0
 10
12.1440299967
 20
9.2340483897
 30
0.0
 10
12.1436214726
 20
9.2352947611
 30
0.0
 10
12.1432969362
 20
9.2359653191
 30
0.0
 10
12.1431130917
 20
9.2361993158
 30
0.0
  0
SPLINE
  5
4BD
100
AcDbEntity
  8
0
100
AcDbSpline
 62
9
  6
CONTINUOUS
 70
0
 71
3
 72
9
 73
5
 74
0
 42
0.0000001
 43
0.0000001
 44
0.0000000001
 40
0.0
 40
0.0
 40
0.0
 40
0.0
 40
0.257757369
 40
1.0
 40
1.0
 40
1.0
 40
1.0
 10
12.1483714016
 20
9.1240935131
 30
0.0
 10
12.151121278
 20
9.1240935131
 30
0.0
 10
12.1617896203
 20
9.1241412786
 30
0.0
 10
12.1724577291
 20
9.1243669883
 30
0.0
 10
12.180370684
 20
9.1246657278
 30
0.0
  0
SPLINE
  5
4BE
100
AcDbEntity
  8
0
100
AcDbSpline
 62
9
  6
CONTINUOUS
 70
0
 71
3
 72
16
 73
12
 74
0
 42
0.0000001
 43
0.0000001
 44
0.0000000001
 40
0.0
 40
0.0
 40
0.0
 40
0.0
 40
0.4032700438
 40
0.5727450702
 40
0.7165066104
 40
0.8321933403
 40
0.8788568405
 40
0.9177723151
 40
0.9489264114
 40
0.9725318532
 40
1.0
 40
1.0
 40
1.0
 40
1.0
 10
12.180370684
 20
9.1246657278
 30
0.0
 10
12.1868285195
 20
9.1249095319
 30
0.0
 10
12.1959977932
 20
9.1253763303
 30
0.0
 10
12.2074402149
 20
9.1263399188
 30
0.0
 10
12.2142715087
 20
9.1271160675
 30
0.0
 10
12.2191208303
 20
9.1278608763
 30
0.0
 10
12.2222814042
 20
9.1285251226
 30
0.0
 10
12.2240855388
 20
9.1289938779
 30
0.0
 10
12.2255268981
 20
9.1294895279
 30
0.0
 10
12.2266718961
 20
9.1300148522
 30
0.0
 10
12.2274524232
 20
9.1306442203
 30
0.0
 10
12.2274600372
 20
9.1310843337
 30
0.0
  0
SPLINE
  5
4BF
100
AcDbEntity
  8
0
100
AcDbSpline
 62
9
  6
CONTINUOUS
 70
0
 71
3
 72
18
 73
14
 74
0
 42
0.0000001
 43
0.0000001
 44
0.0000000001
 40
0.0
 40
0.0
 40
0.0
 40
0.0
 40
0.1973707156
 40
0.3856028356
 40
0.5571497882
 40
0.7063212764
 40
0.8282305686
 40
0.9190593206
 40
0.9518527598
 40
0.9759222218
 40
0.9847508423
 40
0.9915420409
 40
1.0
 40
1.0
 40
1.0
 40
1.0
 10
12.0785419181
 20
9.1240935131
 30
0.0
 10
12.0785100624
 20
9.1189500174
 30
0.0
 10
12.0783824691
 20
9.1089014701
 30
0.0
 10
12.0780036476
 20
9.0943862346
 30
0.0
 10
12.0774461933
 20
9.0811338816
 30
0.0
 10
12.076741607
 20
9.0696189883
 30
0.0
 10
12.0759064134
 20
9.0602236908
 30
0.0
 10
12.0750983675
 20
9.0538722375
 30
0.0
 10
12.0743414871
 20
9.0500942961
 30
0.0
 10
12.0738910453
 20
9.0484441709
 30
0.0
 10
12.073488128
 20
9.0474799458
 30
0.0
 10
12.0731933833
 20
9.0469471662
 30
0.0
 10
12.0728562464
 20
9.0466191793
 30
0.0
 10
12.0726358503
 20
9.0466159794
 30
0.0
  0
SPLINE
  5
4C0
100
AcDbEntity
  8
0
100
AcDbSpline
 62
9
  6
CONTINUOUS
 70
0
 71
3
 72
14
 73
10
 74
0
 42
0.0000001
 43
0.0000001
 44
0.0000000001
 40
0.0
 40
0.0
 40
0.0
 40
0.0
 40
0.0414055373
 40
0.106644558
 40
0.1968450734
 40
0.3119015597
 40
0.4512065084
 40
0.6133944202
 40
1.0
 40
1.0
 40
1.0
 40
1.0
 10
11.9878429064
 20
9.1316107385
 30
0.0
 10
11.9880963102
 20
9.1312882069
 30
0.0
 10
11.9890331856
 20
9.1307202617
 30
0.0
 10
11.9908457878
 20
9.1300350752
 30
0.0
 10
11.9934448886
 20
9.1293431616
 30
0.0
 10
11.9967886167
 20
9.1286656432
 30
0.0
 10
12.000864839
 20
9.1280122333
 30
0.0
 10
12.0076240932
 20
9.1271299312
 30
0.0
 10
12.0130377057
 20
9.1266115894
 30
0.0
 10
12.0168544051
 20
9.1262952575
 30
0.0
  0
SPLINE
  5
4C1
100
AcDbEntity
  8
0
100
AcDbSpline
 62
9
  6
CONTINUOUS
 70
0
 71
3
 72
9
 73
5
 74
0
 42
0.0000001
 43
0.0000001
 44
0.0000000001
 40
0.0
 40
0.0
 40
0.0
 40
0.0
 40
0.4670527075
 40
1.0
 40
1.0
 40
1.0
 40
1.0
 10
12.0168544051
 20
9.1262952575
 30
0.0
 10
12.0264332836
 20
9.1255013504
 30
0.0
 10
12.0469941977
 20
9.1244397018
 30
0.0
 10
12.0675741169
 20
9.1240935131
 30
0.0
 10
12.0785419181
 20
9.1240935131
 30
0.0
  0
SPLINE
  5
4C2
100
AcDbEntity
  8
0
100
AcDbSpline
 62
7
  6
CONTINUOUS
 70
0
 71
3
 72
17
 73
13
 74
0
 42
0.0000001
 43
0.0000001
 44
0.0000000001
 40
0.0
 40
0.0
 40
0.0
 40
0.0
 40
0.1334364578
 40
0.2611581422
 40
0.3826569317
 40
0.4416357709
 40
0.4999999987
 40
0.5583642263
 40
0.6173430665
 40
0.7388418567
 40
0.8665635415
 40
1.0
 40
1.0
 40
1.0
 40
1.0
 10
13.4043216709
 20
8.9025219003
 30
0.0
 10
13.4113563994
 20
8.8973355141
 30
0.0
 10
13.4254435371
 20
8.8875956567
 30
0.0
 10
13.4474557128
 20
8.8754852117
 30
0.0
 10
13.4665856686
 20
8.8686246084
 30
0.0
 10
13.4820082316
 20
8.8658129934
 30
0.0
 10
13.4935241803
 20
8.8651152111
 30
0.0
 10
13.5050401292
 20
8.8658129931
 30
0.0
 10
13.5204626921
 20
8.8686246089
 30
0.0
 10
13.5395926483
 20
8.8754852114
 30
0.0
 10
13.5616048241
 20
8.8875956566
 30
0.0
 10
13.5756919618
 20
8.8973355141
 30
0.0
 10
13.5827266903
 20
8.9025219003
 30
0.0
  0
SPLINE
  5
4C3
100
AcDbEntity
  8
0
100
AcDbSpline
 62
9
  6
CONTINUOUS
 70
0
 71
3
 72
9
 73
5
 74
0
 42
0.0000001
 43
0.0000001
 44
0.0000000001
 40
0.0
 40
0.0
 40
0.0
 40
0.0
 40
0.257757369
 40
1.0
 40
1.0
 40
1.0
 40
1.0
 10
7.8098387799
 20
10.2440151469
 30
0.0
 10
7.8070889036
 20
10.2440151469
 30
0.0
 10
7.7964205612
 20
10.2439673815
 30
0.0
 10
7.7857524525
 20
10.2437416717
 30
0.0
 10
7.7778394976
 20
10.2434429322
 30
0.0
  0
SPLINE
  5
4C4
100
AcDbEntity
  8
0
100
AcDbSpline
 62
9
  6
CONTINUOUS
 70
0
 71
3
 72
16
 73
12
 74
0
 42
0.0000001
 43
0.0000001
 44
0.0000000001
 40
0.0
 40
0.0
 40
0.0
 40
0.0
 40
0.4032700438
 40
0.5727450702
 40
0.7165066104
 40
0.8321933403
 40
0.8788568405
 40
0.9177723151
 40
0.9489264114
 40
0.9725318532
 40
1.0
 40
1.0
 40
1.0
 40
1.0
 10
7.7778394976
 20
10.2434429322
 30
0.0
 10
7.771381662
 20
10.2431991281
 30
0.0
 10
7.7622123884
 20
10.2427323297
 30
0.0
 10
7.7507699667
 20
10.2417687412
 30
0.0
 10
7.7439386728
 20
10.2409925925
 30
0.0
 10
7.7390893512
 20
10.2402477837
 30
0.0
 10
7.7359287774
 20
10.2395835375
 30
0.0
 10
7.7341246428
 20
10.2391147821
 30
0.0
 10
7.7326832835
 20
10.2386191322
 30
0.0
 10
7.7315382855
 20
10.2380938078
 30
0.0
 10
7.7307577584
 20
10.2374644398
 30
0.0
 10
7.7307501444
 20
10.2370243263
 30
0.0
  0
SPLINE
  5
4C5
100
AcDbEntity
  8
0
100
AcDbSpline
 62
9
  6
CONTINUOUS
 70
0
 71
3
 72
14
 73
10
 74
0
 42
0.0000001
 43
0.0000001
 44
0.0000000001
 40
0.0
 40
0.0
 40
0.0
 40
0.0
 40
0.0414055373
 40
0.106644558
 40
0.1968450734
 40
0.3119015597
 40
0.4512065084
 40
0.6133944202
 40
1.0
 40
1.0
 40
1.0
 40
1.0
 10
7.9703672751
 20
10.2364979215
 30
0.0
 10
7.9701138713
 20
10.2368204531
 30
0.0
 10
7.969176996
 20
10.2373883983
 30
0.0
 10
7.9673643937
 20
10.2380735848
 30
0.0
 10
7.9647652929
 20
10.2387654984
 30
0.0
 10
7.9614215649
 20
10.2394430169
 30
0.0
 10
7.9573453426
 20
10.2400964267
 30
0.0
 10
7.9505860884
 20
10.2409787288
 30
0.0
 10
7.9451724759
 20
10.2414970707
 30
0.0
 10
7.9413557764
 20
10.2418134026
 30
0.0
  0
SPLINE
  5
4C6
100
AcDbEntity
  8
0
100
AcDbSpline
 62
9
  6
CONTINUOUS
 70
0
 71
3
 72
9
 73
5
 74
0
 42
0.0000001
 43
0.0000001
 44
0.0000000001
 40
0.0
 40
0.0
 40
0.0
 40
0.0
 40
0.4670527075
 40
1.0
 40
1.0
 40
1.0
 40
1.0
 10
7.9413557764
 20
10.2418134026
 30
0.0
 10
7.931776898
 20
10.2426073096
 30
0.0
 10
7.9112159838
 20
10.2436689583
 30
0.0
 10
7.8906360646
 20
10.2440151469
 30
0.0
 10
7.8796682635
 20
10.2440151469
 30
0.0
  0
SPLINE
  5
4C7
100
AcDbEntity
  8
0
100
AcDbSpline
 62
9
  6
CONTINUOUS
 70
0
 71
3
 72
18
 73
14
 74
0
 42
0.0000001
 43
0.0000001
 44
0.0000000001
 40
0.0
 40
0.0
 40
0.0
 40
0.0
 40
0.1973707156
 40
0.3856028356
 40
0.5571497882
 40
0.7063212764
 40
0.8282305686
 40
0.9190593206
 40
0.9518527598
 40
0.9759222218
 40
0.9847508423
 40
0.9915420409
 40
1.0
 40
1.0
 40
1.0
 40
1.0
 10
7.8796682635
 20
10.2440151469
 30
0.0
 10
7.8797001191
 20
10.2491586426
 30
0.0
 10
7.8798277125
 20
10.2592071899
 30
0.0
 10
7.8802065339
 20
10.2737224254
 30
0.0
 10
7.8807639883
 20
10.2869747785
 30
0.0
 10
7.8814685745
 20
10.2984896718
 30
0.0
 10
7.8823037681
 20
10.3078849692
 30
0.0
 10
7.883111814
 20
10.3142364225
 30
0.0
 10
7.8838686944
 20
10.3180143639
 30
0.0
 10
7.8843191362
 20
10.3196644892
 30
0.0
 10
7.8847220535
 20
10.3206287142
 30
0.0
 10
7.8850167983
 20
10.3211614938
 30
0.0
 10
7.8853539352
 20
10.3214894808
 30
0.0
 10
7.8855743312
 20
10.3214926806
 30
0.0
  0
SPLINE
  5
4C8
100
AcDbEntity
  8
0
100
AcDbSpline
 62
9
  6
CONTINUOUS
 70
0
 71
3
 72
13
 73
9
 74
0
 42
0.0000001
 43
0.0000001
 44
0.0000000001
 40
0.0
 40
0.0
 40
0.0
 40
0.0
 40
0.0589685357
 40
0.1361516395
 40
0.2322797118
 40
0.3476037171
 40
0.6358670659
 40
1.0
 40
1.0
 40
1.0
 40
1.0
 10
8.0052840196
 20
10.1920559911
 30
0.0
 10
8.0059171987
 20
10.1912500826
 30
0.0
 10
8.0071211646
 20
10.1891927506
 30
0.0
 10
8.0086975543
 20
10.185473117
 30
0.0
 10
8.0102729609
 20
10.180705054
 30
0.0
 10
8.0125319361
 20
10.1723161927
 30
0.0
 10
8.0151890007
 20
10.1592291956
 30
0.0
 10
8.0169409451
 20
10.148024914
 30
0.0
 10
8.0178301054
 20
10.1417589386
 30
0.0
  0
SPLINE
  5
4C9
100
AcDbEntity
  8
0
100
AcDbSpline
 62
9
  6
CONTINUOUS
 70
0
 71
3
 72
9
 73
5
 74
0
 42
0.0000001
 43
0.0000001
 44
0.0000000001
 40
0.0
 40
0.0
 40
0.0
 40
0.0
 40
0.4649719172
 40
1.0
 40
1.0
 40
1.0
 40
1.0
 10
8.0178301054
 20
10.1417589386
 30
0.0
 10
8.0188244471
 20
10.1347517434
 30
0.0
 10
8.0207233856
 20
10.1196475193
 30
0.0
 10
8.0222960158
 20
10.1045069846
 30
0.0
 10
8.0230727791
 20
10.0964003868
 30
0.0
  0
SPLINE
  5
4CA
100
AcDbEntity
  8
0
100
AcDbSpline
 62
9
  6
CONTINUOUS
 70
0
 71
3
 72
10
 73
6
 74
0
 42
0.0000001
 43
0.0000001
 44
0.0000000001
 40
0.0
 40
0.0
 40
0.0
 40
0.0
 40
0.5612223528
 40
0.7964259498
 40
1.0
 40
1.0
 40
1.0
 40
1.0
 10
8.0230720527
 20
9.2717006924
 30
0.0
 10
8.0219003935
 20
9.25947346
 30
0.0
 10
8.0200415142
 20
9.2421371553
 30
0.0
 10
8.017028446
 20
9.2204575615
 30
0.0
 10
8.0154574109
 20
9.2109816225
 30
0.0
 10
8.0146430659
 20
9.2066011333
 30
0.0
  0
SPLINE
  5
4CB
100
AcDbEntity
  8
0
100
AcDbSpline
 62
9
  6
CONTINUOUS
 70
0
 71
3
 72
12
 73
8
 74
0
 42
0.0000001
 43
0.0000001
 44
0.0000000001
 40
0.0
 40
0.0
 40
0.0
 40
0.0
 40
0.3503816308
 40
0.6333973273
 40
0.8491851601
 40
0.9324325241
 40
1.0
 40
1.0
 40
1.0
 40
1.0
 10
8.0146430659
 20
9.2066011333
 30
0.0
 10
8.0139570398
 20
9.2029108915
 30
0.0
 10
8.0126090117
 20
9.1962573083
 30
0.0
 10
8.0103402916
 20
9.1874459916
 30
0.0
 10
8.0083153758
 20
9.1815297714
 30
0.0
 10
8.006601498
 20
9.177991751
 30
0.0
 10
8.0057311944
 20
9.1766218318
 30
0.0
 10
8.0052840196
 20
9.176052669
 30
0.0
  0
SPLINE
  5
4CC
100
AcDbEntity
  8
0
100
AcDbSpline
 62
9
  6
CONTINUOUS
 70
0
 71
3
 72
12
 73
8
 74
0
 42
0.0000001
 43
0.0000001
 44
0.0000000001
 40
0.0
 40
0.0
 40
0.0
 40
0.0
 40
0.0646579501
 40
0.1458551234
 40
0.3601492647
 40
0.6449259209
 40
1.0
 40
1.0
 40
1.0
 40
1.0
 10
8.0051606373
 20
9.1959743027
 30
0.0
 10
8.0056417072
 20
9.1965866072
 30
0.0
 10
8.0065721725
 20
9.198087601
 30
0.0
 10
8.0083998493
 20
9.2020258077
 30
0.0
 10
8.0105431736
 20
9.2086989693
 30
0.0
 10
8.0129388824
 20
9.2187038211
 30
0.0
 10
8.0143532043
 20
9.2262827028
 30
0.0
 10
8.0150729826
 20
9.2304978799
 30
0.0
  0
SPLINE
  5
4CD
100
AcDbEntity
  8
0
100
AcDbSpline
 62
9
  6
CONTINUOUS
 70
0
 71
3
 72
9
 73
5
 74
0
 42
0.0000001
 43
0.0000001
 44
0.0000000001
 40
0.0
 40
0.0
 40
0.0
 40
0.0
 40
0.4591785228
 40
1.0
 40
1.0
 40
1.0
 40
1.0
 10
8.0150729826
 20
9.2304978799
 30
0.0
 10
8.0160708031
 20
9.2363413314
 30
0.0
 10
8.0179682995
 20
9.2491141953
 30
0.0
 10
8.0195183946
 20
9.2619319159
 30
0.0
 10
8.0202906538
 20
9.2688711261
 30
0.0
  0
SPLINE
  5
4CE
100
AcDbEntity
  8
0
100
AcDbSpline
 62
9
  6
CONTINUOUS
 70
0
 71
3
 72
9
 73
5
 74
0
 42
0.0000001
 43
0.0000001
 44
0.0000000001
 40
0.0
 40
0.0
 40
0.0
 40
0.0
 40
0.5408214772
 40
1.0
 40
1.0
 40
1.0
 40
1.0
 10
8.0202906538
 20
10.0992375339
 30
0.0
 10
8.0195183946
 20
10.1061767441
 30
0.0
 10
8.0179682995
 20
10.1189944647
 30
0.0
 10
8.0160708031
 20
10.1317673286
 30
0.0
 10
8.0150729826
 20
10.1376107802
 30
0.0
  0
SPLINE
  5
4CF
100
AcDbEntity
  8
0
100
AcDbSpline
 62
9
  6
CONTINUOUS
 70
0
 71
3
 72
12
 73
8
 74
0
 42
0.0000001
 43
0.0000001
 44
0.0000000001
 40
0.0
 40
0.0
 40
0.0
 40
0.0
 40
0.349503411
 40
0.6322537123
 40
0.84835255
 40
0.9319567757
 40
1.0
 40
1.0
 40
1.0
 40
1.0
 10
8.0140002338
 20
10.1435909608
 30
0.0
 10
8.0133507143
 20
10.1470317123
 30
0.0
 10
8.0120745961
 20
10.153239425
 30
0.0
 10
8.0099304662
 20
10.1614656282
 30
0.0
 10
8.0080183409
 20
10.1669964161
 30
0.0
 10
8.0064021277
 20
10.1703114942
 30
0.0
 10
8.0055817889
 20
10.1715983167
 30
0.0
 10
8.0051606373
 20
10.1721343573
 30
0.0
  0
SPLINE
  5
4D0
100
AcDbEntity
  8
0
100
AcDbSpline
 62
9
  6
CONTINUOUS
 70
0
 71
3
 72
11
 73
7
 74
0
 42
0.0000001
 43
0.0000001
 44
0.0000000001
 40
0.0
 40
0.0
 40
0.0
 40
0.0
 40
0.2496223555
 40
0.499761144
 40
0.750039686
 40
1.0
 40
1.0
 40
1.0
 40
1.0
 10
7.9702438928
 20
10.2165762878
 30
0.0
 10
7.9701756077
 20
10.2055508108
 30
0.0
 10
7.9656097492
 20
10.1832664777
 30
0.0
 10
7.9465713642
 20
10.1551529412
 30
0.0
 10
7.9182997821
 20
10.1363260842
 30
0.0
 10
7.8959671892
 20
10.1319093442
 30
0.0
 10
7.8849265734
 20
10.1319093442
 30
0.0
  0
SPLINE
  5
4D1
100
AcDbEntity
  8
0
100
AcDbSpline
 62
9
  6
CONTINUOUS
 70
0
 71
3
 72
18
 73
14
 74
0
 42
0.0000001
 43
0.0000001
 44
0.0000000001
 40
0.0
 40
0.0
 40
0.0
 40
0.0
 40
0.0138259625
 40
0.0357609393
 40
0.0658748499
 40
0.1040241652
 40
0.1499557794
 40
0.2031953053
 40
0.3294425643
 40
0.4781894479
 40
0.6439073505
 40
0.8204294483
 40
1.0
 40
1.0
 40
1.0
 40
1.0
 10
7.8849265734
 20
10.1319093442
 30
0.0
 10
7.8846629168
 20
10.1322449256
 30
0.0
 10
7.8842349864
 20
10.133287561
 30
0.0
 10
7.8836992688
 20
10.1352401839
 30
0.0
 10
7.8831712548
 20
10.1379804357
 30
0.0
 10
7.8826547755
 20
10.1414659784
 30
0.0
 10
7.8821635076
 20
10.1456772765
 30
0.0
 10
7.8815086358
 20
10.1526044742
 30
0.0
 10
7.8808172489
 20
10.1627141644
 30
0.0
 10
7.8801877492
 20
10.1763036511
 30
0.0
 10
7.8797471317
 20
10.1914532755
 30
0.0
 10
7.8795191756
 20
10.2075588864
 30
0.0
 10
7.879510553
 20
10.2185508084
 30
0.0
 10
7.8795448811
 20
10.2240935131
 30
0.0
  0
SPLINE
  5
4D2
100
AcDbEntity
  8
0
100
AcDbSpline
 62
9
  6
CONTINUOUS
 70
0
 71
3
 72
9
 73
5
 74
0
 42
0.0000001
 43
0.0000001
 44
0.0000000001
 40
0.0
 40
0.0
 40
0.0
 40
0.0
 40
0.5329472925
 40
1.0
 40
1.0
 40
1.0
 40
1.0
 10
7.8795448811
 20
10.2240935131
 30
0.0
 10
7.8905126823
 20
10.2240935131
 30
0.0
 10
7.9110926015
 20
10.2237473245
 30
0.0
 10
7.9316535156
 20
10.2226856759
 30
0.0
 10
7.9412323941
 20
10.2218917688
 30
0.0
  0
SPLINE
  5
4D3
100
AcDbEntity
  8
0
100
AcDbSpline
 62
9
  6
CONTINUOUS
 70
0
 71
3
 72
14
 73
10
 74
0
 42
0.0000001
 43
0.0000001
 44
0.0000000001
 40
0.0
 40
0.0
 40
0.0
 40
0.0
 40
0.3866055798
 40
0.5487934916
 40
0.6880984403
 40
0.8031549266
 40
0.893355442
 40
0.9585944627
 40
1.0
 40
1.0
 40
1.0
 40
1.0
 10
7.9412323941
 20
10.2218917688
 30
0.0
 10
7.9450490935
 20
10.2215754369
 30
0.0
 10
7.950462706
 20
10.221057095
 30
0.0
 10
7.9572219602
 20
10.220174793
 30
0.0
 10
7.9612981825
 20
10.2195213831
 30
0.0
 10
7.9646419105
 20
10.2188438646
 30
0.0
 10
7.9672410113
 20
10.218151951
 30
0.0
 10
7.9690536136
 20
10.2174667645
 30
0.0
 10
7.969990489
 20
10.2168988194
 30
0.0
 10
7.9702438928
 20
10.2165762878
 30
0.0
  0
SPLINE
  5
4D4
100
AcDbEntity
  8
0
100
AcDbSpline
 62
7
  6
CONTINUOUS
 70
0
 71
3
 72
11
 73
7
 74
0
 42
0.0000001
 43
0.0000001
 44
0.0000000001
 40
0.0
 40
0.0
 40
0.0
 40
0.0
 40
0.1394568006
 40
0.3406489852
 40
0.6209562599
 40
1.0
 40
1.0
 40
1.0
 40
1.0
 10
7.9879016202
 20
10.1340510474
 30
0.0
 10
7.9865837128
 20
10.1340510474
 30
0.0
 10
7.9834009082
 20
10.1332083367
 30
0.0
 10
7.9781269489
 20
10.1306578981
 30
0.0
 10
7.9710238139
 20
10.1266825197
 30
0.0
 10
7.9655557869
 20
10.1236963319
 30
0.0
 10
7.9623638722
 20
10.1220706218
 30
0.0
  0
SPLINE
  5
4D5
100
AcDbEntity
  8
0
100
AcDbSpline
 62
7
  6
CONTINUOUS
 70
0
 71
3
 72
9
 73
5
 74
0
 42
0.0000001
 43
0.0000001
 44
0.0000000001
 40
0.0
 40
0.0
 40
0.0
 40
0.0
 40
0.211387447
 40
1.0
 40
1.0
 40
1.0
 40
1.0
 10
7.9623638722
 20
10.1220706218
 30
0.0
 10
7.9609429813
 20
10.1213469319
 30
0.0
 10
7.9541820717
 20
10.1180031153
 30
0.0
 10
7.9471782323
 20
10.1151291034
 30
0.0
 10
7.9415315858
 20
10.1132573511
 30
0.0
  0
SPLINE
  5
4D6
100
AcDbEntity
  8
0
100
AcDbSpline
 62
7
  6
CONTINUOUS
 70
0
 71
3
 72
12
 73
8
 74
0
 42
0.0000001
 43
0.0000001
 44
0.0000000001
 40
0.0
 40
0.0
 40
0.0
 40
0.0
 40
0.3794682146
 40
0.6565424941
 40
0.8578526989
 40
0.9354987988
 40
1.0
 40
1.0
 40
1.0
 40
1.0
 10
7.9415315858
 20
9.2548513089
 30
0.0
 10
7.9470881056
 20
9.2530094319
 30
0.0
 10
7.9564929528
 20
9.24916217
 30
0.0
 10
7.9682195576
 20
9.2430194612
 30
0.0
 10
7.9756799909
 20
9.2387841611
 30
0.0
 10
7.9803881607
 20
9.236352601
 30
0.0
 10
7.9823924125
 20
9.2354560764
 30
0.0
 10
7.9833212954
 20
9.235099359
 30
0.0
  0
SPLINE
  5
4D7
100
AcDbEntity
  8
0
100
AcDbSpline
 62
7
  6
CONTINUOUS
 70
0
 71
3
 72
9
 73
5
 74
0
 42
0.0000001
 43
0.0000001
 44
0.0000000001
 40
0.0
 40
0.0
 40
0.0
 40
0.0
 40
0.5530928628
 40
1.0
 40
1.0
 40
1.0
 40
1.0
 10
7.9833212954
 20
9.235099359
 30
0.0
 10
7.9841329823
 20
9.2347876483
 30
0.0
 10
7.9856283691
 20
9.2342908839
 30
0.0
 10
7.9871990659
 20
9.2340576127
 30
0.0
 10
7.9879016202
 20
9.2340576127
 30
0.0
  0
SPLINE
  5
4D8
100
AcDbEntity
  8
0
100
AcDbSpline
 62
7
  6
CONTINUOUS
 70
0
 71
3
 72
12
 73
8
 74
0
 42
0.0000001
 43
0.0000001
 44
0.0000000001
 40
0.0
 40
0.0
 40
0.0
 40
0.0
 40
0.0535773123
 40
0.1270539298
 40
0.3353851639
 40
0.6263782402
 40
1.0
 40
1.0
 40
1.0
 40
1.0
 10
12.1926632481
 20
10.0900546788
 30
0.0
 10
12.1927911249
 20
10.0898291178
 30
0.0
 10
12.1930258037
 20
10.0892570118
 30
0.0
 10
12.1934863283
 20
10.087700427
 30
0.0
 10
12.1940153935
 20
10.0849740327
 30
0.0
 10
12.1946204508
 20
10.0807937279
 30
0.0
 10
12.1949812884
 20
10.0775967264
 30
0.0
 10
12.1951690729
 20
10.0757983582
 30
0.0
  0
SPLINE
  5
4D9
100
AcDbEntity
  8
0
100
AcDbSpline
 62
7
  6
CONTINUOUS
 70
0
 71
3
 72
9
 73
5
 74
0
 42
0.0000001
 43
0.0000001
 44
0.0000000001
 40
0.0
 40
0.0
 40
0.0
 40
0.0
 40
0.421694697
 40
1.0
 40
1.0
 40
1.0
 40
1.0
 10
12.1951690729
 20
10.0757983582
 30
0.0
 10
12.1958013046
 20
10.0697436237
 30
0.0
 10
12.1969272756
 20
10.0553481267
 30
0.0
 10
12.1977881224
 20
10.0409379063
 30
0.0
 10
12.1982415751
 20
10.0326017202
 30
0.0
  0
SPLINE
  5
4DA
100
AcDbEntity
  8
0
100
AcDbSpline
 62
7
  6
CONTINUOUS
 70
0
 71
3
 72
10
 73
6
 74
0
 42
0.0000001
 43
0.0000001
 44
0.0000000001
 40
0.0
 40
0.0
 40
0.0
 40
0.0
 40
0.2167230973
 40
0.4615204099
 40
1.0
 40
1.0
 40
1.0
 40
1.0
 10
12.2013140776
 20
9.9641004925
 30
0.0
 10
12.2020943177
 20
9.943873883
 30
0.0
 10
12.2036019923
 20
9.9007946065
 30
0.0
 10
12.2065114486
 20
9.8074411682
 30
0.0
 10
12.2085485231
 20
9.7343123759
 30
0.0
 10
12.2099545136
 20
9.6840387458
 30
0.0
  0
SPLINE
  5
4DB
100
AcDbEntity
  8
0
100
AcDbSpline
 62
7
  6
CONTINUOUS
 70
0
 71
3
 72
10
 73
6
 74
0
 42
0.0000001
 43
0.0000001
 44
0.0000000001
 40
0.0
 40
0.0
 40
0.0
 40
0.0
 40
0.3724367779
 40
0.702728245
 40
1.0
 40
1.0
 40
1.0
 40
1.0
 10
7.9068770798
 20
9.2641378563
 30
0.0
 10
7.9112181745
 20
9.2631321868
 30
0.0
 10
7.9194305008
 20
9.2613242705
 30
0.0
 10
7.9309914628
 20
9.2582247114
 30
0.0
 10
7.9381554936
 20
9.2559704171
 30
0.0
 10
7.9415315858
 20
9.2548513089
 30
0.0
  0
SPLINE
  5
4DC
100
AcDbEntity
  8
0
100
AcDbSpline
 62
9
  6
CONTINUOUS
 70
0
 71
3
 72
11
 73
7
 74
0
 42
0.0000001
 43
0.0000001
 44
0.0000000001
 40
0.0
 40
0.0
 40
0.0
 40
0.0
 40
0.249960314
 40
0.500238856
 40
0.7503776445
 40
1.0
 40
1.0
 40
1.0
 40
1.0
 10
7.8849265734
 20
9.2361993158
 30
0.0
 10
7.8959671892
 20
9.2361993158
 30
0.0
 10
7.9182997821
 20
9.2317825758
 30
0.0
 10
7.9465713642
 20
9.2129557188
 30
0.0
 10
7.9656097492
 20
9.1848421823
 30
0.0
 10
7.9701756077
 20
9.1625578492
 30
0.0
 10
7.9702438928
 20
9.1515323723
 30
0.0
  0
SPLINE
  5
4DD
100
AcDbEntity
  8
0
100
AcDbSpline
 62
9
  6
CONTINUOUS
 70
0
 71
3
 72
14
 73
10
 74
0
 42
0.0000001
 43
0.0000001
 44
0.0000000001
 40
0.0
 40
0.0
 40
0.0
 40
0.0
 40
0.0414055373
 40
0.106644558
 40
0.1968450734
 40
0.3119015597
 40
0.4512065084
 40
0.6133944202
 40
1.0
 40
1.0
 40
1.0
 40
1.0
 10
7.9702438928
 20
9.1515323723
 30
0.0
 10
7.969990489
 20
9.1512098406
 30
0.0
 10
7.9690536136
 20
9.1506418955
 30
0.0
 10
7.9672410113
 20
9.149956709
 30
0.0
 10
7.9646419106
 20
9.1492647954
 30
0.0
 10
7.9612981825
 20
9.1485872769
 30
0.0
 10
7.9572219602
 20
9.147933867
 30
0.0
 10
7.950462706
 20
9.147051565
 30
0.0
 10
7.9450490935
 20
9.1465332231
 30
0.0
 10
7.9412323941
 20
9.1462168912
 30
0.0
  0
SPLINE
  5
4DE
100
AcDbEntity
  8
0
100
AcDbSpline
 62
9
  6
CONTINUOUS
 70
0
 71
3
 72
9
 73
5
 74
0
 42
0.0000001
 43
0.0000001
 44
0.0000000001
 40
0.0
 40
0.0
 40
0.0
 40
0.0
 40
0.4670527075
 40
1.0
 40
1.0
 40
1.0
 40
1.0
 10
7.9412323941
 20
9.1462168912
 30
0.0
 10
7.9316535156
 20
9.1454229841
 30
0.0
 10
7.9110926015
 20
9.1443613355
 30
0.0
 10
7.8905126823
 20
9.1440151469
 30
0.0
 10
7.8795448811
 20
9.1440151469
 30
0.0
  0
SPLINE
  5
4DF
100
AcDbEntity
  8
0
100
AcDbSpline
 62
9
  6
CONTINUOUS
 70
0
 71
3
 72
18
 73
14
 74
0
 42
0.0000001
 43
0.0000001
 44
0.0000000001
 40
0.0
 40
0.0
 40
0.0
 40
0.0
 40
0.1795705517
 40
0.3560926495
 40
0.5218105521
 40
0.6705574357
 40
0.7968046947
 40
0.8500442206
 40
0.8959758348
 40
0.9341251501
 40
0.9642390607
 40
0.9861740375
 40
1.0
 40
1.0
 40
1.0
 40
1.0
 10
7.8795448811
 20
9.1440151469
 30
0.0
 10
7.879510553
 20
9.1495578516
 30
0.0
 10
7.8795191756
 20
9.1605497736
 30
0.0
 10
7.8797471317
 20
9.1766553845
 30
0.0
 10
7.8801877492
 20
9.191805009
 30
0.0
 10
7.8808172489
 20
9.2053944956
 30
0.0
 10
7.8815086358
 20
9.2155041858
 30
0.0
 10
7.8821635076
 20
9.2224313835
 30
0.0
 10
7.8826547755
 20
9.2266426816
 30
0.0
 10
7.8831712548
 20
9.2301282243
 30
0.0
 10
7.8836992688
 20
9.2328684761
 30
0.0
 10
7.8842349864
 20
9.2348210991
 30
0.0
 10
7.8846629168
 20
9.2358637344
 30
0.0
 10
7.8849265734
 20
9.2361993158
 30
0.0
  0
SPLINE
  5
4E0
100
AcDbEntity
  8
0
100
AcDbSpline
 62
9
  6
CONTINUOUS
 70
0
 71
3
 72
9
 73
5
 74
0
 42
0.0000001
 43
0.0000001
 44
0.0000000001
 40
0.0
 40
0.0
 40
0.0
 40
0.0
 40
0.5329472925
 40
1.0
 40
1.0
 40
1.0
 40
1.0
 10
7.8796682635
 20
9.1240935131
 30
0.0
 10
7.8906360646
 20
9.1240935131
 30
0.0
 10
7.9112159838
 20
9.1244397018
 30
0.0
 10
7.931776898
 20
9.1255013504
 30
0.0
 10
7.9413557764
 20
9.1262952575
 30
0.0
  0
SPLINE
  5
4E1
100
AcDbEntity
  8
0
100
AcDbSpline
 62
9
  6
CONTINUOUS
 70
0
 71
3
 72
14
 73
10
 74
0
 42
0.0000001
 43
0.0000001
 44
0.0000000001
 40
0.0
 40
0.0
 40
0.0
 40
0.0
 40
0.3866055798
 40
0.5487934916
 40
0.6880984403
 40
0.8031549266
 40
0.893355442
 40
0.9585944627
 40
1.0
 40
1.0
 40
1.0
 40
1.0
 10
7.9413557764
 20
9.1262952575
 30
0.0
 10
7.9451724759
 20
9.1266115894
 30
0.0
 10
7.9505860884
 20
9.1271299312
 30
0.0
 10
7.9573453426
 20
9.1280122333
 30
0.0
 10
7.9614215649
 20
9.1286656432
 30
0.0
 10
7.9647652929
 20
9.1293431616
 30
0.0
 10
7.9673643937
 20
9.1300350752
 30
0.0
 10
7.969176996
 20
9.1307202617
 30
0.0
 10
7.9701138713
 20
9.1312882069
 30
0.0
 10
7.9703672751
 20
9.1316107385
 30
0.0
  0
SPLINE
  5
4E2
100
AcDbEntity
  8
0
100
AcDbSpline
 62
9
  6
CONTINUOUS
 70
0
 71
3
 72
18
 73
14
 74
0
 42
0.0000001
 43
0.0000001
 44
0.0000000001
 40
0.0
 40
0.0
 40
0.0
 40
0.0
 40
0.1973707156
 40
0.3856028356
 40
0.5571497882
 40
0.7063212764
 40
0.8282305686
 40
0.9190593206
 40
0.9518527598
 40
0.9759222218
 40
0.9847508423
 40
0.9915420409
 40
1.0
 40
1.0
 40
1.0
 40
1.0
 10
7.8098387799
 20
9.1240935131
 30
0.0
 10
7.8098706356
 20
9.1189500174
 30
0.0
 10
7.809998229
 20
9.1089014701
 30
0.0
 10
7.8103770504
 20
9.0943862346
 30
0.0
 10
7.8109345048
 20
9.0811338816
 30
0.0
 10
7.811639091
 20
9.0696189883
 30
0.0
 10
7.8124742846
 20
9.0602236908
 30
0.0
 10
7.8132823305
 20
9.0538722375
 30
0.0
 10
7.8140392109
 20
9.0500942961
 30
0.0
 10
7.8144896527
 20
9.0484441709
 30
0.0
 10
7.81489257
 20
9.0474799458
 30
0.0
 10
7.8151873148
 20
9.0469471662
 30
0.0
 10
7.8155244517
 20
9.0466191793
 30
0.0
 10
7.8157448477
 20
9.0466159794
 30
0.0
  0
SPLINE
  5
4E3
100
AcDbEntity
  8
0
100
AcDbSpline
 62
9
  6
CONTINUOUS
 70
0
 71
3
 72
17
 73
13
 74
0
 42
0.0000001
 43
0.0000001
 44
0.0000000001
 40
0.0
 40
0.0
 40
0.0
 40
0.0
 40
0.0149715299
 40
0.0369464127
 40
0.0660834531
 40
0.1023444294
 40
0.1957774579
 40
0.3155882401
 40
0.4590582806
 40
0.6232929815
 40
0.8048637946
 40
1.0
 40
1.0
 40
1.0
 40
1.0
 10
7.8150970898
 20
9.2361993158
 30
0.0
 10
7.8149132454
 20
9.2359653191
 30
0.0
 10
7.814588709
 20
9.2352947611
 30
0.0
 10
7.8141801849
 20
9.2340483897
 30
0.0
 10
7.8137721764
 20
9.2323575688
 30
0.0
 10
7.8131841769
 20
9.2292558201
 30
0.0
 10
7.8125229261
 20
9.2243375638
 30
0.0
 10
7.8118312357
 20
9.2172809676
 30
0.0
 10
7.8112120174
 20
9.2088052398
 30
0.0
 10
7.8106821721
 20
9.1990943428
 30
0.0
 10
7.8102540756
 20
9.1883506017
 30
0.0
 10
7.8100490435
 20
9.1808656621
 30
0.0
 10
7.8099643005
 20
9.1769879982
 30
0.0
  0
SPLINE
  5
4E4
100
AcDbEntity
  8
0
100
AcDbSpline
 62
9
  6
CONTINUOUS
 70
0
 71
3
 72
9
 73
5
 74
0
 42
0.0000001
 43
0.0000001
 44
0.0000000001
 40
0.0
 40
0.0
 40
0.0
 40
0.0
 40
0.257757369
 40
1.0
 40
1.0
 40
1.0
 40
1.0
 10
7.8097153976
 20
9.1440151469
 30
0.0
 10
7.8069655212
 20
9.1440151469
 30
0.0
 10
7.7962971788
 20
9.1440629123
 30
0.0
 10
7.7856290701
 20
9.1442886221
 30
0.0
 10
7.7777161152
 20
9.1445873616
 30
0.0
  0
SPLINE
  5
4E5
100
AcDbEntity
  8
0
100
AcDbSpline
 62
9
  6
CONTINUOUS
 70
0
 71
3
 72
12
 73
8
 74
0
 42
0.0000001
 43
0.0000001
 44
0.0000000001
 40
0.0
 40
0.0
 40
0.0
 40
0.0
 40
0.3292223441
 40
0.6120781584
 40
0.8382308927
 40
0.9275832418
 40
1.0
 40
1.0
 40
1.0
 40
1.0
 10
7.7777161152
 20
9.1445873616
 30
0.0
 10
7.7730073808
 20
9.1447651315
 30
0.0
 10
7.7642556681
 20
9.1451837312
 30
0.0
 10
7.7522904798
 20
9.1460750741
 30
0.0
 10
7.7437740115
 20
9.1470216819
 30
0.0
 10
7.7382934142
 20
9.1479163348
 30
0.0
 10
7.7360265226
 20
9.1483969388
 30
0.0
 10
7.7350228451
 20
9.1486556547
 30
0.0
  0
SPLINE
  5
4E6
100
AcDbEntity
  8
0
100
AcDbSpline
 62
9
  6
CONTINUOUS
 70
0
 71
3
 72
12
 73
8
 74
0
 42
0.0000001
 43
0.0000001
 44
0.0000000001
 40
0.0
 40
0.0
 40
0.0
 40
0.0
 40
0.3849315481
 40
0.6732215353
 40
0.7828494013
 40
0.8714204012
 40
1.0
 40
1.0
 40
1.0
 40
1.0
 10
7.7350228451
 20
9.1486556547
 30
0.0
 10
7.7343800895
 20
9.1488213364
 30
0.0
 10
7.733264111
 20
9.14914426
 30
0.0
 10
7.7320049382
 20
9.1496428948
 30
0.0
 10
7.7312811087
 20
9.1500766145
 30
0.0
 10
7.7308464182
 20
9.1504272816
 30
0.0
 10
7.7306305972
 20
9.1507842814
 30
0.0
 10
7.730626762
 20
9.1510059675
 30
0.0
  0
SPLINE
  5
4E7
100
AcDbEntity
  8
0
100
AcDbSpline
 62
9
  6
CONTINUOUS
 70
0
 71
3
 72
9
 73
5
 74
0
 42
0.0000001
 43
0.0000001
 44
0.0000000001
 40
0.0
 40
0.0
 40
0.0
 40
0.0
 40
0.4401367119
 40
1.0
 40
1.0
 40
1.0
 40
1.0
 10
7.8500138343
 20
10.0874674138
 30
0.0
 10
7.850442371
 20
10.0869219735
 30
0.0
 10
7.8512670411
 20
10.0855680168
 30
0.0
 10
7.8519165355
 20
10.0841304336
 30
0.0
 10
7.852250689
 20
10.0833138196
 30
0.0
  0
SPLINE
  5
4E8
100
AcDbEntity
  8
0
100
AcDbSpline
 62
9
  6
CONTINUOUS
 70
0
 71
3
 72
9
 73
5
 74
0
 42
0.0000001
 43
0.0000001
 44
0.0000000001
 40
0.0
 40
0.0
 40
0.0
 40
0.0
 40
0.5598632881
 40
1.0
 40
1.0
 40
1.0
 40
1.0
 10
7.852250689
 20
9.2847948405
 30
0.0
 10
7.8519165355
 20
9.2839782264
 30
0.0
 10
7.8512670411
 20
9.2825406433
 30
0.0
 10
7.850442371
 20
9.2811866865
 30
0.0
 10
7.8500138343
 20
9.2806412463
 30
0.0
  0
SPLINE
  5
4E9
100
AcDbEntity
  8
0
100
AcDbSpline
 62
9
  6
CONTINUOUS
 70
0
 71
3
 72
17
 73
13
 74
0
 42
0.0000001
 43
0.0000001
 44
0.0000000001
 40
0.0
 40
0.0
 40
0.0
 40
0.0
 40
0.1951362054
 40
0.3767070185
 40
0.5409417194
 40
0.6844117598
 40
0.8042225421
 40
0.8976555706
 40
0.9339165469
 40
0.9630535873
 40
0.9850284701
 40
1.0
 40
1.0
 40
1.0
 40
1.0
 10
7.8099643005
 20
10.1911206619
 30
0.0
 10
7.8100490435
 20
10.1872429979
 30
0.0
 10
7.8102540756
 20
10.1797580583
 30
0.0
 10
7.8106821721
 20
10.1690143173
 30
0.0
 10
7.8112120174
 20
10.1593034203
 30
0.0
 10
7.8118312357
 20
10.1508276924
 30
0.0
 10
7.8125229261
 20
10.1437710962
 30
0.0
 10
7.8131841769
 20
10.13885284
 30
0.0
 10
7.8137721764
 20
10.1357510912
 30
0.0
 10
7.8141801849
 20
10.1340602703
 30
0.0
 10
7.814588709
 20
10.132813899
 30
0.0
 10
7.8149132454
 20
10.1321433409
 30
0.0
 10
7.8150970898
 20
10.1319093442
 30
0.0
  0
SPLINE
  5
4EA
100
AcDbEntity
  8
0
100
AcDbSpline
 62
7
  6
CONTINUOUS
 70
0
 71
3
 72
12
 73
8
 74
0
 42
0.0000001
 43
0.0000001
 44
0.0000000001
 40
0.0
 40
0.0
 40
0.0
 40
0.0
 40
0.0757663016
 40
0.1686209651
 40
0.4007247739
 40
0.6826955141
 40
1.0
 40
1.0
 40
1.0
 40
1.0
 10
7.8756265758
 20
10.0937506904
 30
0.0
 10
7.8762944379
 20
10.0942500783
 30
0.0
 10
7.8778947851
 20
10.0952065835
 30
0.0
 10
7.8819032171
 20
10.0970538899
 30
0.0
 10
7.8882436209
 20
10.0992011819
 30
0.0
 10
7.8970638913
 20
10.1016351604
 30
0.0
 10
7.9034784151
 20
10.1031782268
 30
0.0
 10
7.9068808138
 20
10.1039660511
 30
0.0
  0
SPLINE
  5
4EB
100
AcDbEntity
  8
0
100
AcDbSpline
 62
7
  6
CONTINUOUS
 70
0
 71
3
 72
12
 73
8
 74
0
 42
0.0000001
 43
0.0000001
 44
0.0000000001
 40
0.0
 40
0.0
 40
0.0
 40
0.0
 40
0.3111981325
 40
0.5901087918
 40
0.8239184505
 40
0.9198062199
 40
1.0
 40
1.0
 40
1.0
 40
1.0
 10
7.9068808138
 20
9.2641426089
 30
0.0
 10
7.9036336573
 20
9.2648945044
 30
0.0
 10
7.8974871051
 20
9.2663713301
 30
0.0
 10
7.8889740104
 20
9.2686953263
 30
0.0
 10
7.8827742801
 20
9.2707406832
 30
0.0
 10
7.878742449
 20
9.2724838987
 30
0.0
 10
7.8770788682
 20
9.2733835213
 30
0.0
 10
7.8763580074
 20
9.273850521
 30
0.0
  0
SPLINE
  5
4EC
100
AcDbEntity
  8
0
100
AcDbSpline
 62
7
  6
CONTINUOUS
 70
0
 71
3
 72
10
 73
6
 74
0
 42
0.0000001
 43
0.0000001
 44
0.0000000001
 40
0.0
 40
0.0
 40
0.0
 40
0.0
 40
0.3724367873
 40
0.7027282922
 40
1.0
 40
1.0
 40
1.0
 40
1.0
 10
7.9068770797
 20
10.1039708038
 30
0.0
 10
7.9112181745
 20
10.1049764734
 30
0.0
 10
7.9194305015
 20
10.1067843897
 30
0.0
 10
7.9309914635
 20
10.1098839488
 30
0.0
 10
7.9381554941
 20
10.1121382431
 30
0.0
 10
7.9415315858
 20
10.1132573511
 30
0.0
  0
SPLINE
  5
4ED
100
AcDbEntity
  8
0
100
AcDbSpline
 62
9
  6
CONTINUOUS
 70
0
 71
3
 72
41
 73
37
 74
0
 42
0.0000001
 43
0.0000001
 44
0.0000000001
 40
0.0
 40
0.0
 40
0.0
 40
0.0
 40
0.0490068681
 40
0.0751481527
 40
0.1024665296
 40
0.160642941
 40
0.22334276
 40
0.2562107817
 40
0.2899535869
 40
0.3244507734
 40
0.3595441825
 40
0.3950538084
 40
0.4128824864
 40
0.4306938431
 40
0.4484171784
 40
0.4659369135
 40
0.4746321845
 40
0.4832266726
 40
0.5000004208
 40
0.5167741186
 40
0.5253685632
 40
0.5340637976
 40
0.5515835154
 40
0.5693068379
 40
0.5871180759
 40
0.6049466407
 40
0.6404564278
 40
0.675549892
 40
0.710046932
 40
0.7437895658
 40
0.7766575459
 40
0.839357782
 40
0.897534573
 40
0.9248532133
 40
0.9509946097
 40
1.0
 40
1.0
 40
1.0
 40
1.0
 10
6.7674847217
 20
9.3440545342
 30
0.0
 10
6.7469771106
 20
9.3440552756
 30
0.0
 10
6.715470237
 20
9.3479554907
 30
0.0
 10
6.6739759492
 20
9.3588209579
 30
0.0
 10
6.6297983431
 20
9.3741586357
 30
0.0
 10
6.5734623762
 20
9.4004469667
 30
0.0
 10
6.5180625124
 20
9.4333102887
 30
0.0
 10
6.473183301
 20
9.4635590155
 30
0.0
 10
6.4389811308
 20
9.4884814402
 30
0.0
 10
6.4049242999
 20
9.5151420718
 30
0.0
 10
6.3713695556
 20
9.5435899715
 30
0.0
 10
6.3442053856
 20
9.5687507312
 30
0.0
 10
6.3234169692
 20
9.5900761076
 30
0.0
 10
6.3085662175
 20
9.6067642056
 30
0.0
 10
6.2947603106
 20
9.6241750973
 30
0.0
 10
6.2849112866
 20
9.6397748794
 30
0.0
 10
6.2786739198
 20
9.6529633151
 30
0.0
 10
6.273851014
 20
9.6663868951
 30
0.0
 10
6.2708526267
 20
9.6840548802
 30
0.0
 10
6.2738510424
 20
9.701722851
 30
0.0
 10
6.2786740468
 20
9.7151463403
 30
0.0
 10
6.2849115793
 20
9.7283346558
 30
0.0
 10
6.2947609454
 20
9.743934193
 30
0.0
 10
6.3085670593
 20
9.7613448245
 30
0.0
 10
6.3234175699
 20
9.7780329917
 30
0.0
 10
6.3442057087
 20
9.7993586066
 30
0.0
 10
6.3713702897
 20
9.8245190002
 30
0.0
 10
6.4049250211
 20
9.8529669402
 30
0.0
 10
6.4389816209
 20
9.879627693
 30
0.0
 10
6.4731836769
 20
9.904550023
 30
0.0
 10
6.5180630475
 20
9.9347986665
 30
0.0
 10
6.5734631844
 20
9.9676621363
 30
0.0
 10
6.6297995864
 20
9.9939506149
 30
0.0
 10
6.6739775909
 20
10.0092881233
 30
0.0
 10
6.7154714784
 20
10.0201532557
 30
0.0
 10
6.7469777622
 20
10.0240535355
 30
0.0
 10
6.7674847549
 20
10.0240542023
 30
0.0
  0
SPLINE
  5
4EE
100
AcDbEntity
  8
0
100
AcDbSpline
 62
9
  6
CONTINUOUS
 70
0
 71
3
 72
48
 73
44
 74
0
 42
0.0000001
 43
0.0000001
 44
0.0000000001
 40
0.0
 40
0.0
 40
0.0
 40
0.0
 40
0.0216478283
 40
0.0444313177
 40
0.0685180729
 40
0.0940631046
 40
0.1211365027
 40
0.1497380321
 40
0.1798243529
 40
0.2113200328
 40
0.2441276764
 40
0.2781351552
 40
0.3132160227
 40
0.3492295969
 40
0.3675441213
 40
0.3860507879
 40
0.4047322101
 40
0.4235598621
 40
0.442527942
 40
0.4616062533
 40
0.4807870556
 40
0.4904140808
 40
0.5000669342
 40
0.5097183334
 40
0.5193428219
 40
0.5289466097
 40
0.5385320621
 40
0.5576024411
 40
0.5765576779
 40
0.5953888928
 40
0.614061879
 40
0.6508729296
 40
0.6868864943
 40
0.7219630549
 40
0.7559666178
 40
0.7887710296
 40
0.8202634841
 40
0.8503468357
 40
0.8789460612
 40
0.9060189294
 40
0.9315654588
 40
0.9556584005
 40
1.0
 40
1.0
 40
1.0
 40
1.0
 10
6.6947014213
 20
10.0752328307
 30
0.0
 10
6.685799685
 20
10.0751779974
 30
0.0
 10
6.6675186312
 20
10.0737546194
 30
0.0
 10
6.6398768584
 20
10.0679505757
 30
0.0
 10
6.6116081991
 20
10.0584000583
 30
0.0
 10
6.5828118126
 20
10.0454328296
 30
0.0
 10
6.5535138539
 20
10.0293369516
 30
0.0
 10
6.5237981833
 20
10.0103031752
 30
0.0
 10
6.493754922
 20
9.9885325006
 30
0.0
 10
6.4634685431
 20
9.9642355776
 30
0.0
 10
6.4330444787
 20
9.9375972222
 30
0.0
 10
6.4026101077
 20
9.9087822766
 30
0.0
 10
6.3723569806
 20
9.8779033154
 30
0.0
 10
6.3476770177
 20
9.8506342445
 30
0.0
 10
6.3283858852
 20
9.8277196097
 30
0.0
 10
6.3141733943
 20
9.809857334
 30
0.0
 10
6.3004447535
 20
9.7913525476
 30
0.0
 10
6.2875350377
 20
9.772034795
 30
0.0
 10
6.2757213116
 20
9.7518242285
 30
0.0
 10
6.2657580651
 20
9.7304604062
 30
0.0
 10
6.2598330357
 20
9.7115751005
 30
0.0
 10
6.2573633767
 20
9.6959254607
 30
0.0
 10
6.2567543495
 20
9.684022547
 30
0.0
 10
6.2573634424
 20
9.6721206461
 30
0.0
 10
6.2592288743
 20
9.6603702131
 30
0.0
 10
6.2622345102
 20
9.6488925672
 30
0.0
 10
6.2674398055
 20
9.6340313715
 30
0.0
 10
6.2757576049
 20
9.6162567811
 30
0.0
 10
6.2875250481
 20
9.5960318692
 30
0.0
 10
6.3004946477
 20
9.5767608166
 30
0.0
 10
6.3186662042
 20
9.5521827812
 30
0.0
 10
6.3425845099
 20
9.5231076763
 30
0.0
 10
6.3723623035
 20
9.4901983391
 30
0.0
 10
6.4026144541
 20
9.4593215777
 30
0.0
 10
6.4330444467
 20
9.4305092518
 30
0.0
 10
6.4634669357
 20
9.4038754787
 30
0.0
 10
6.4937496002
 20
9.3795801415
 30
0.0
 10
6.5237892425
 20
9.3578106924
 30
0.0
 10
6.5535051946
 20
9.3387802967
 30
0.0
 10
6.5827966836
 20
9.3226804814
 30
0.0
 10
6.6115998461
 20
9.3096964895
 30
0.0
 10
6.6482533705
 20
9.2973337288
 30
0.0
 10
6.6764683193
 20
9.2930482657
 30
0.0
 10
6.6947014213
 20
9.2928758293
 30
0.0
  0
SPLINE
  5
4EF
100
AcDbEntity
  8
0
100
AcDbSpline
 62
9
  6
CONTINUOUS
 70
0
 71
3
 72
11
 73
7
 74
0
 42
0.0000001
 43
0.0000001
 44
0.0000000001
 40
0.0
 40
0.0
 40
0.0
 40
0.0
 40
0.2652358388
 40
0.5141830538
 40
0.7562569827
 40
1.0
 40
1.0
 40
1.0
 40
1.0
 10
6.8077930511
 20
9.3423319964
 30
0.0
 10
6.7999835445
 20
9.3342944932
 30
0.0
 10
6.7834677809
 20
9.3199489062
 30
0.0
 10
6.7554507371
 20
9.3041200984
 30
0.0
 10
6.7255940357
 20
9.2948226426
 30
0.0
 10
6.7049999986
 20
9.2928784644
 30
0.0
 10
6.6947014213
 20
9.2928758293
 30
0.0
  0
SPLINE
  5
4F0
100
AcDbEntity
  8
0
100
AcDbSpline
 62
9
  6
CONTINUOUS
 70
0
 71
3
 72
13
 73
9
 74
0
 42
0.0000001
 43
0.0000001
 44
0.0000000001
 40
0.0
 40
0.0
 40
0.0
 40
0.0
 40
0.2883541912
 40
0.4234873206
 40
0.5522478512
 40
0.6743218066
 40
0.7893585137
 40
1.0
 40
1.0
 40
1.0
 40
1.0
 10
9.7954232921
 20
9.0337391657
 30
0.0
 10
9.7666182541
 20
9.039331224
 30
0.0
 10
9.7246569508
 20
9.0495386059
 30
0.0
 10
9.6711747053
 20
9.066843277
 30
0.0
 10
9.634418231
 20
9.0807280664
 30
0.0
 10
9.6002277756
 20
9.095500289
 30
0.0
 10
9.5592468531
 20
9.1154317538
 30
0.0
 10
9.530432627
 20
9.1319457029
 30
0.0
 10
9.5124487821
 20
9.1436089881
 30
0.0
  0
SPLINE
  5
4F1
100
AcDbEntity
  8
0
100
AcDbSpline
 62
9
  6
CONTINUOUS
 70
0
 71
3
 72
11
 73
7
 74
0
 42
0.0000001
 43
0.0000001
 44
0.0000000001
 40
0.0
 40
0.0
 40
0.0
 40
0.0
 40
0.2437667584
 40
0.485829359
 40
0.7347739138
 40
1.0
 40
1.0
 40
1.0
 40
1.0
 10
6.6947014213
 20
10.0752328307
 30
0.0
 10
6.7049980913
 20
10.0752266673
 30
0.0
 10
6.7255860397
 20
10.0732827547
 30
0.0
 10
6.7554368454
 20
10.0639945296
 30
0.0
 10
6.7834468074
 20
10.0481733098
 30
0.0
 10
6.7999595208
 20
10.0338347694
 30
0.0
 10
6.8077682885
 20
10.0258015362
 30
0.0
  0
SPLINE
  5
4F2
100
AcDbEntity
  8
0
100
AcDbSpline
 62
9
  6
CONTINUOUS
 70
0
 71
3
 72
11
 73
7
 74
0
 42
0.0000001
 43
0.0000001
 44
0.0000000001
 40
0.0
 40
0.0
 40
0.0
 40
0.0
 40
0.2740916854
 40
0.5284638966
 40
0.7689969945
 40
1.0
 40
1.0
 40
1.0
 40
1.0
 10
9.0401623406
 20
3.1458420468
 30
0.0
 10
9.0401880003
 20
3.1408865641
 30
0.0
 10
9.0406621206
 20
3.1313276783
 30
0.0
 10
9.0426045604
 20
3.1175439948
 30
0.0
 10
9.0454705516
 20
3.1047252548
 30
0.0
 10
9.0478638489
 20
3.0965363236
 30
0.0
 10
9.0491595984
 20
3.0925658991
 30
0.0
  0
SPLINE
  5
4F3
100
AcDbEntity
  8
0
100
AcDbSpline
 62
9
  6
CONTINUOUS
 70
0
 71
3
 72
22
 73
18
 74
0
 42
0.0000001
 43
0.0000001
 44
0.0000000001
 40
0.0
 40
0.0
 40
0.0
 40
0.0
 40
0.0308721919
 40
0.0602970832
 40
0.0889638994
 40
0.1172588824
 40
0.1453902261
 40
0.173494512
 40
0.2016630629
 40
0.2299570175
 40
0.2870923703
 40
0.3451682578
 40
0.4646406577
 40
0.5892726957
 40
0.7196144504
 40
0.8562304928
 40
1.0
 40
1.0
 40
1.0
 40
1.0
 10
9.0491595984
 20
3.0925658991
 30
0.0
 10
9.0525031214
 20
3.0823207042
 30
0.0
 10
9.0606187995
 20
3.0628033068
 30
0.0
 10
9.0761705817
 20
3.0358473197
 30
0.0
 10
9.0939806838
 20
3.011455866
 30
0.0
 10
9.1134300818
 20
2.9889663534
 30
0.0
 10
9.1343568481
 20
2.9681285034
 30
0.0
 10
9.1565263379
 20
2.9486949453
 30
0.0
 10
9.1798058174
 20
2.9305185099
 30
0.0
 10
9.2122433136
 20
2.907684434
 30
0.0
 10
9.2551712714
 20
2.8817315172
 30
0.0
 10
9.3283819808
 20
2.8448337271
 30
0.0
 10
9.427082213
 20
2.806835829
 30
0.0
 10
9.5534832202
 20
2.7728361687
 30
0.0
 10
9.6882268318
 20
2.7489263146
 30
0.0
 10
9.8310009484
 20
2.7345542621
 30
0.0
 10
9.9289175258
 20
2.7315428786
 30
0.0
 10
9.9791050931
 20
2.7315428787
 30
0.0
  0
SPLINE
  5
4F4
100
AcDbEntity
  8
0
100
AcDbSpline
 62
9
  6
CONTINUOUS
 70
0
 71
3
 72
26
 73
22
 74
0
 42
0.0000001
 43
0.0000001
 44
0.0000000001
 40
0.0
 40
0.0
 40
0.0
 40
0.0
 40
0.0312006787
 40
0.046897488
 40
0.0625501499
 40
0.0782040089
 40
0.0938586661
 40
0.1251096182
 40
0.1563632456
 40
0.1876264178
 40
0.2501207279
 40
0.3126042814
 40
0.375094241
 40
0.4375873272
 40
0.5000803528
 40
0.5625712633
 40
0.6250603482
 40
0.6875504399
 40
0.7500419998
 40
0.875019105
 40
1.0
 40
1.0
 40
1.0
 40
1.0
 10
9.0141125601
 20
2.6841641191
 30
0.0
 10
9.0141273893
 20
2.6728893015
 30
0.0
 10
9.0167804122
 20
2.6558633499
 30
0.0
 10
9.024355428
 20
2.6345392065
 30
0.0
 10
9.0318740759
 20
2.6192644758
 30
0.0
 10
9.0408836853
 20
2.6048559343
 30
0.0
 10
9.0544936993
 20
2.586775955
 30
0.0
 10
9.0739444148
 20
2.5661772422
 30
0.0
 10
9.0997666546
 20
2.5441667598
 30
0.0
 10
9.1365380505
 20
2.5178524401
 30
0.0
 10
9.1856772395
 20
2.4897699204
 30
0.0
 10
9.2474199301
 20
2.4617419387
 30
0.0
 10
9.3109679895
 20
2.4381408615
 30
0.0
 10
9.3757104079
 20
2.4180948536
 30
0.0
 10
9.4413080093
 20
2.4010790946
 30
0.0
 10
9.5075281628
 20
2.3867063345
 30
0.0
 10
9.5742118276
 20
2.3746900757
 30
0.0
 10
9.6412426044
 20
2.3648029526
 30
0.0
 10
9.7309590765
 20
2.3542356022
 30
0.0
 10
9.8435986276
 20
2.3456598535
 30
0.0
 10
9.9339414459
 20
2.3434922493
 30
0.0
 10
9.9791051436
 20
2.3434940305
 30
0.0
  0
ENDSEC
  0
SECTION
  2
OBJECTS
  0
DICTIONARY
  5
C
100
AcDbDictionary
280
0
281
1
  3
ACAD_GROUP
350
D
  3
ACAD_MLINESTYLE
350
17
  3
ACAD_LAYOUT
350
1A
  3
ACAD_PLOTSETTINGS
350
19
  3
ACAD_PLOTSTYLENAME
350
E
  0
DICTIONARY
  5
D
102
{ACAD_REACTORS
330
C
102
}
100
AcDbDictionary
280
0
281
1
  0
ACDBDICTIONARYWDFLT
  5
E
102
{ACAD_REACTORS
330
C
102
}
100
AcDbDictionary
281
1
  3
Normal
350
F
100
AcDbDictionaryWithDefault
340
F
  0
DICTIONARY
  5
17
102
{ACAD_REACTORS
330
C
102
}
100
AcDbDictionary
280
0
281
1
  3
Standard
350
18
  0
DICTIONARY
  5
19
102
{ACAD_REACTORS
330
C
102
}
100
AcDbDictionary
281
1
  0
DICTIONARY
  5
1A
102
{ACAD_REACTORS
330
C
102
}
100
AcDbDictionary
281
1
  3
Model
350
4F5
  3
Layout1
350
4F6
  0
ACDBPLACEHOLDER
  5
F
102
{ACAD_REACTORS
330
E
102
}
  0
MLINESTYLE
  5
18
102
{ACAD_REACTORS
330
17
102
}
100
AcDbMlineStyle
  2
STANDARD
 70
0
  3

 62
256
 51
90.0
 52
90.0
 71
2
 49
0.5
 62
256
  6
BYLAYER
 49
-0.5
 62
256
  6
BYLAYER
  0
LAYOUT
  5
4F5
102
{ACAD_REACTORS
330
1A
102
}
100
AcDbPlotSettings
  1

  2
none_device
  4
ANSI_C_(22.00_x_17.00_Inches)
  6

 40
0.0
 41
0.0
 42
0.0
 43
0.0
 44
558.8
 45
431.8
 46
0.0
 47
0.0
 48
0.0
 49
0.0
140
0.0
141
0.0
142
1.0
143
1.0
 70
1024
 72
0
 73
0
 74
0
  7

 75
0
147
1.0
148
0.0
149
0.0
100
AcDbLayout
  1
Model
 70
0
 71
0
 10
0.0
 20
0.0
 11
22.0
 21
17.0
 12
0.0
 22
0.0
 32
0.0
 14
0.0
 24
0.0
 34
0.0
 15
0.0
 25
0.0
 35
0.0
146
0.0
 13
0.0
 23
0.0
 33
0.0
 16
1.0
 26
0.0
 36
0.0
 17
0.0
 27
1.0
 37
0.0
 76
0
330
202
345
0
346
0
  0
LAYOUT
  5
4F6
102
{ACAD_REACTORS
330
1A
102
}
100
AcDbPlotSettings
  1

  2
none_device
  4
ANSI_C_(22.00_x_17.00_Inches)
  6

 40
0.0
 41
0.0
 42
0.0
 43
0.0
 44
558.8
 45
431.8
 46
0.0
 47
0.0
 48
0.0
 49
0.0
140
0.0
141
0.0
142
1.0
143
1.0
 70
0
 72
0
 73
0
 74
0
  7

 75
0
147
1.0
148
0.0
149
0.0
100
AcDbLayout
  1
Layout1
 70
0
 71
1
 10
0.0
 20
0.0
 11
22.0
 21
17.0
 12
0.0
 22
0.0
 32
0.0
 14
0.0
 24
0.0
 34
0.0
 15
0.0
 25
0.0
 35
0.0
146
0.0
 13
0.0
 23
0.0
 33
0.0
 16
1.0
 26
0.0
 36
0.0
 17
0.0
 27
1.0
 37
0.0
 76
0
330
203
345
0
346
0
  0
ENDSEC
  0
EOF
