999
DXF file: E:\BT Custom\CADOUTPUT\_TOP.dxf
999
Pro/ENGINEER 2018400 by Parametric Technology Corporation
  0
SECTION
  2
HEADER
  9
$ACADVER
  1
AC1018
  9
$DWGCODEPAGE
  3
ANSI_1252
  9
$EXTMAX
 10
22.0
 20
17.0
 30
0.0
  9
$EXTMIN
 10
0.0
 20
0.0
 30
0.0
  9
$LIMMIN
 10
0.0
 20
0.0
  9
$LIMMAX
 10
22.0
 20
17.0
  9
$VIEWCTR
 10
11.0
 20
8.5
  9
$VIEWSIZE
 40
17.0
  9
$CLAYER
  8
0
  9
$LTSCALE
 40
1.21
  9
$CELTYPE
  6
BYLAYER
  9
$DIMSCALE
 40
1.0
  9
$DIMASZ
 40
0.1
  9
$DIMEXO
 40
0.0625
  9
$DIMDLI
 40
0.836
  9
$DIMEXE
 40
0.125
  9
$DIMCEN
 40
0.198
  9
$DIMLFAC
 40
1.0
  9
$DIMBLK
  1
_FILLED
  9
$DIMALT
 70
1
  9
$DIMALTD
 70
2
  9
$DIMALTTD
 70
2
  9
$DIMALTF
 40
25.4
  9
$DIMTXT
 40
0.08
  9
$DIMTOL
 70
1
  9
$DIMLIM
 70
0
  9
$DIMTFAC
 40
1.0
  9
$DIMTP
 40
0.001
  9
$DIMTM
 40
0.001
  9
$DIMGAP
 40
0.09
  9
$DIMDSEP
 70
46
  9
$AUNITS
 70
0
  9
$PDMODE
 70
3
  9
$PDSIZE
 40
0.06
  9
$HANDSEED
  5
4C2
  9
$TILEMODE
 70
1
  9
$MEASUREMENT
 70
0
  9
$INSUNITS
 70
1
  0
ENDSEC
  0
SECTION
  2
CLASSES
  0
CLASS
  1
ACDBDICTIONARYWDFLT
  2
AcDbDictionaryWithDefault
  3
AutoCAD 2000
 90
0
 91
1
280
0
281
0
  0
CLASS
  1
ACDBPLACEHOLDER
  2
AcDbPlaceHolder
  3
AutoCAD 2000
 90
0
 91
1
280
0
281
0
  0
CLASS
  1
LAYOUT
  2
AcDbLayout
  3
AutoCAD 2000
 90
0
 91
0
280
0
281
0
  0
ENDSEC
  0
SECTION
  2
TABLES
  0
TABLE
  2
VPORT
  5
8
100
AcDbSymbolTable
 70
2
  0
VPORT
  5
1F4
100
AcDbSymbolTableRecord
100
AcDbViewportTableRecord
  2
*ACTIVE
 70
0
 10
0.0
 20
0.0
 11
1.0
 21
1.0
 12
11.0
 22
8.5
 13
0.0
 23
0.0
 14
1.0
 24
1.0
 15
0.0
 25
0.0
 16
0.0
 26
0.0
 36
1.0
 17
0.0
 27
0.0
 37
0.0
 40
17.0
 41
1.2941176471
 42
50.0
 43
0.0
 44
0.0
 50
0.0
 51
0.0
 71
0
 72
100
 73
1
 74
1
 75
0
 76
0
 77
0
 78
0
  0
ENDTAB
  0
TABLE
  2
LTYPE
  5
5
100
AcDbSymbolTable
 70
6
  0
LTYPE
  5
14
100
AcDbSymbolTableRecord
100
AcDbLinetypeTableRecord
  2
BYBLOCK
 70
0
  3

 72
65
 73
0
 40
0.0
  0
LTYPE
  5
15
100
AcDbSymbolTableRecord
100
AcDbLinetypeTableRecord
  2
BYLAYER
 70
0
  3

 72
65
 73
0
 40
0.0
  0
LTYPE
  5
16
100
AcDbSymbolTableRecord
100
AcDbLinetypeTableRecord
  2
CONTINUOUS
 70
64
  3
Solid line
 72
65
 73
0
 40
0.0
  0
LTYPE
  5
1F5
100
AcDbSymbolTableRecord
100
AcDbLinetypeTableRecord
  2
CENTER
 70
64
  3
____ _ ____ _ ____ _ ____ _ ____ _ ____ _ ____
 72
65
 73
4
 40
0.6
 49
0.375
 74
0
 49
-0.075
 74
0
 49
0.075
 74
0
 49
-0.075
 74
0
  0
LTYPE
  5
1F6
100
AcDbSymbolTableRecord
100
AcDbLinetypeTableRecord
  2
HIDDEN
 70
64
  3
- - - - - - - - - - - - - - - - - - - -
 72
65
 73
2
 40
0.2
 49
0.1
 74
0
 49
-0.1
 74
0
  0
LTYPE
  5
1F7
100
AcDbSymbolTableRecord
100
AcDbLinetypeTableRecord
  2
PHANTOM
 70
64
  3
_____ _ _ _____ _ _ _____ _ _ _____
 72
65
 73
6
 40
0.8
 49
0.45
 74
0
 49
-0.05
 74
0
 49
0.1
 74
0
 49
-0.05
 74
0
 49
0.1
 74
0
 49
-0.05
 74
0
  0
LTYPE
  5
1F8
100
AcDbSymbolTableRecord
100
AcDbLinetypeTableRecord
  2
DOT
 70
64
  3
. . . . . . . . . . . . . . . . . . . .
 72
65
 73
2
 40
0.2
 49
0.1
 74
0
 49
-0.1
 74
0
  0
LTYPE
  5
1F9
100
AcDbSymbolTableRecord
100
AcDbLinetypeTableRecord
  2
DASHED
 70
64
  3
- - - - - - - - - - - - - - - - - - - -
 72
65
 73
2
 40
0.2
 49
0.1
 74
0
 49
-0.1
 74
0
  0
ENDTAB
  0
TABLE
  2
LAYER
  5
2
100
AcDbSymbolTable
 70
36
  0
LAYER
  5
10
100
AcDbSymbolTableRecord
100
AcDbLayerTableRecord
  2
0
 70
0
 62
7
  6
CONTINUOUS
370
-3
390
F
  0
LAYER
  5
1FA
100
AcDbSymbolTableRecord
100
AcDbLayerTableRecord
  2
DEFAULT_1
 70
0
 62
7
  6
CENTER
370
-3
390
F
  0
LAYER
  5
1FB
100
AcDbSymbolTableRecord
100
AcDbLayerTableRecord
  2
DEFAULT_2
 70
0
 62
8
  6
HIDDEN
370
-3
390
F
  0
LAYER
  5
1FC
100
AcDbSymbolTableRecord
100
AcDbLayerTableRecord
  2
DEFAULT_3
 70
0
 62
7
  6
PHANTOM
370
-3
390
F
  0
LAYER
  5
1FD
100
AcDbSymbolTableRecord
100
AcDbLayerTableRecord
  2
ALL_FEATURES
 70
0
 62
7
  6
CONTINUOUS
370
-3
390
F
  0
LAYER
  5
1FE
100
AcDbSymbolTableRecord
100
AcDbLayerTableRecord
  2
AXES_FEATURES
 70
0
 62
7
  6
CONTINUOUS
370
-3
390
F
  0
LAYER
  5
1FF
100
AcDbSymbolTableRecord
100
AcDbLayerTableRecord
  2
DIMENSIONS
 70
0
 62
7
  6
CONTINUOUS
370
-3
390
F
  0
ENDTAB
  0
TABLE
  2
STYLE
  5
3
100
AcDbSymbolTable
 70
1
  0
STYLE
  5
11
100
AcDbSymbolTableRecord
100
AcDbTextStyleTableRecord
  2
STANDARD
 70
0
 40
0.0
 41
0.8
 50
0.0
 71
0
 42
0.2
  3
txt
  4

  0
STYLE
  5
200
100
AcDbSymbolTableRecord
100
AcDbTextStyleTableRecord
  2
TEXTSTYLE_1
 70
0
 40
0.0
 41
0.8
 50
0.0
 71
0
 42
0.2
  3
gdt
  4

  0
ENDTAB
  0
TABLE
  2
VIEW
  5
6
100
AcDbSymbolTable
 70
0
  0
ENDTAB
  0
TABLE
  2
UCS
  5
7
100
AcDbSymbolTable
 70
0
  0
ENDTAB
  0
TABLE
  2
APPID
  5
9
100
AcDbSymbolTable
 70
1
  0
APPID
  5
201
100
AcDbSymbolTableRecord
100
AcDbRegAppTableRecord
  2
ACAD
 70
0
  0
ENDTAB
  0
TABLE
  2
BLOCK_RECORD
  5
1
100
AcDbSymbolTable
 70
0
  0
BLOCK_RECORD
  5
202
100
AcDbSymbolTableRecord
100
AcDbBlockTableRecord
  2
*Model_Space
  0
BLOCK_RECORD
  5
203
100
AcDbSymbolTableRecord
100
AcDbBlockTableRecord
  2
*Paper_Space
  0
BLOCK_RECORD
  5
204
100
AcDbSymbolTableRecord
100
AcDbBlockTableRecord
  2
_FILLED
  0
ENDTAB
  0
TABLE
  2
DIMSTYLE
  5
A
100
AcDbSymbolTable
 70
1
100
AcDbDimStyleTable
 71
0
  0
DIMSTYLE
105
205
100
AcDbSymbolTableRecord
100
AcDbDimStyleTableRecord
  2
STANDARD
 70
0
  3

  4

 40
1.0
 41
0.1
 42
0.0625
 43
0.38
 44
0.125
 45
0.0
 46
0.0
 47
0.001
 48
0.001
140
0.08
141
0.09
142
0.0
143
25.4
144
1.0
145
0.0
146
1.0
147
0.09
 71
1.0
 72
0.0
 73
1
 74
1
 75
0
 76
0
 77
0
 78
4
 79
1
170
1
171
2
172
0
173
0
174
0
175
0
176
0
177
0
178
0
270
2
179
3
271
3
272
3
273
2
274
2
275
0
280
0
281
0
282
0
283
1
284
4
285
0
286
0
287
3
288
0
340
11
278
46
341
204
342
204
343
204
344
204
  0
ENDTAB
  0
ENDSEC
  0
SECTION
  2
BLOCKS
  0
BLOCK
  5
20
100
AcDbEntity
  8
0
100
AcDbBlockBegin
  2
*Model_Space
 70
0
 10
0.0
 20
0.0
 30
0.0
  3
*Model_Space
  1

  0
ENDBLK
  5
21
100
AcDbEntity
  8
0
100
AcDbBlockEnd
  0
BLOCK
  5
1C
100
AcDbEntity
  8
0
100
AcDbBlockBegin
  2
*Paper_Space
 70
0
 10
0.0
 20
0.0
 30
0.0
  3
*Paper_Space
  1

  0
ENDBLK
  5
1D
100
AcDbEntity
  8
0
100
AcDbBlockEnd
  0
BLOCK
  5
206
100
AcDbEntity
  8
0
100
AcDbBlockBegin
  2
_FILLED
 70
64
 10
0.0
 20
0.0
  3
_FILLED
  1

  0
SOLID
  5
207
100
AcDbEntity
  8
0
  6
BYBLOCK
 62
0
100
AcDbTrace
 10
0.0
 20
0.0
 11
-1.0
 21
0.2
 12
-1.0
 22
-0.2
 13
-1.0
 23
-0.2
  0
ENDBLK
  5
208
100
AcDbEntity
  8
0
  6
BYBLOCK
 62
0
100
AcDbBlockEnd
  0
ENDSEC
  0
SECTION
  2
ENTITIES
  0
LINE
  5
209
100
AcDbEntity
  8
0
100
AcDbLine
 62
7
  6
CONTINUOUS
 10
4.0141050908
 20
7.5188338289
 11
4.0141050908
 21
7.9938338289
  0
LINE
  5
20A
100
AcDbEntity
  8
0
100
AcDbLine
 62
9
  6
CONTINUOUS
 10
4.1441629263
 20
7.5401373006
 11
4.1441629263
 21
7.9725303572
  0
LINE
  5
20B
100
AcDbEntity
  8
0
100
AcDbLine
 62
7
  6
CONTINUOUS
 10
4.3371050908
 20
7.5378338289
 11
4.3371050908
 21
7.9748338289
  0
LINE
  5
20C
100
AcDbEntity
  8
0
100
AcDbLine
 62
9
  6
CONTINUOUS
 10
4.6808648357
 20
8.1505831373
 11
4.6808648357
 21
7.3620845205
  0
LINE
  5
20D
100
AcDbEntity
  8
0
100
AcDbLine
 62
7
  6
CONTINUOUS
 10
6.3851050908
 20
11.5737488615
 11
6.4091050908
 21
11.6153180809
  0
LINE
  5
20E
100
AcDbEntity
  8
0
100
AcDbLine
 62
9
  6
CONTINUOUS
 10
5.7357010078
 20
7.5671239017
 11
5.7357010078
 21
7.9455437561
  0
LINE
  5
20F
100
AcDbEntity
  8
0
100
AcDbLine
 62
7
  6
CONTINUOUS
 10
6.2381050908
 20
11.6153180809
 11
6.2381050908
 21
11.6773180809
  0
LINE
  5
210
100
AcDbEntity
  8
0
100
AcDbLine
 62
7
  6
CONTINUOUS
 10
6.3851050908
 20
11.3956988536
 11
6.3851050908
 21
11.5737488615
  0
LINE
  5
211
100
AcDbEntity
  8
0
100
AcDbLine
 62
7
  6
CONTINUOUS
 10
6.4816613643
 20
11.4984046514
 11
6.4816613643
 21
11.3716836791
  0
LINE
  5
212
100
AcDbEntity
  8
0
100
AcDbLine
 62
7
  6
CONTINUOUS
 10
6.5291050908
 20
8.0063338289
 11
6.5291050908
 21
7.5063338289
  0
LINE
  5
213
100
AcDbEntity
  8
0
100
AcDbLine
 62
7
  6
CONTINUOUS
 10
7.5491050908
 20
11.0353180809
 11
7.5731050908
 21
11.0768873003
  0
LINE
  5
214
100
AcDbEntity
  8
0
100
AcDbLine
 62
7
  6
CONTINUOUS
 10
6.5741050908
 20
7.5063338289
 11
6.5741050908
 21
8.0063338289
  0
LINE
  5
215
100
AcDbEntity
  8
0
100
AcDbLine
 62
7
  6
CONTINUOUS
 10
6.5991050908
 20
7.5316210155
 11
6.5991050908
 21
7.9813427735
  0
LINE
  5
216
100
AcDbEntity
  8
0
100
AcDbLine
 62
7
  6
CONTINUOUS
 10
6.6266050908
 20
8.3893338289
 11
6.6266050908
 21
8.4393338289
  0
LINE
  5
217
100
AcDbEntity
  8
0
100
AcDbLine
 62
7
  6
CONTINUOUS
 10
6.6486050908
 20
7.4063338289
 11
6.6486050908
 21
7.4773338289
  0
LINE
  5
218
100
AcDbEntity
  8
0
100
AcDbLine
 62
7
  6
CONTINUOUS
 10
6.7071050908
 20
7.3353338289
 11
6.7071050908
 21
7.3593338289
  0
LINE
  5
219
100
AcDbEntity
  8
0
100
AcDbLine
 62
7
  6
CONTINUOUS
 10
6.7791050908
 20
8.4393338289
 11
6.7791050908
 21
8.4593338289
  0
LINE
  5
21A
100
AcDbEntity
  8
0
100
AcDbLine
 62
7
  6
CONTINUOUS
 10
6.8825488173
 20
11.1522315104
 11
6.8825488173
 21
11.4984046514
  0
LINE
  5
21B
100
AcDbEntity
  8
0
100
AcDbLine
 62
7
  6
CONTINUOUS
 10
7.0756613643
 20
11.4984046514
 11
7.0756613643
 21
11.1522315104
  0
LINE
  5
21C
100
AcDbEntity
  8
0
100
AcDbLine
 62
7
  6
CONTINUOUS
 10
7.7836997514
 20
9.9642786637
 11
7.7487830069
 21
9.9198367332
  0
LINE
  5
21D
100
AcDbEntity
  8
0
100
AcDbLine
 62
9
  6
CONTINUOUS
 10
7.8500138343
 20
9.9964325562
 11
7.8150970898
 21
9.9519906257
  0
LINE
  5
21E
100
AcDbEntity
  8
0
100
AcDbLine
 62
9
  6
CONTINUOUS
 10
7.8849265734
 20
9.9519906257
 11
7.9068808138
 21
9.9799339188
  0
LINE
  5
21F
100
AcDbEntity
  8
0
100
AcDbLine
 62
9
  6
CONTINUOUS
 10
11.0891050908
 20
3.3998456399
 11
10.9441051011
 21
3.3998456399
  0
LINE
  5
220
100
AcDbEntity
  8
0
100
AcDbLine
 62
9
  6
CONTINUOUS
 10
8.8691050908
 20
3.3998456399
 11
9.0141043435
 21
3.3998456399
  0
LINE
  5
221
100
AcDbEntity
  8
0
100
AcDbLine
 62
7
  6
CONTINUOUS
 10
6.5619698387
 20
8.5033054171
 11
6.454722294
 21
9.3863338289
  0
LINE
  5
222
100
AcDbEntity
  8
0
100
AcDbLine
 62
7
  6
CONTINUOUS
 10
7.1791050908
 20
8.4393338289
 11
7.1791050908
 21
8.4593338289
  0
LINE
  5
223
100
AcDbEntity
  8
0
100
AcDbLine
 62
7
  6
CONTINUOUS
 10
7.2511050908
 20
7.3353338289
 11
7.2511050908
 21
7.3593338289
  0
LINE
  5
224
100
AcDbEntity
  8
0
100
AcDbLine
 62
7
  6
CONTINUOUS
 10
7.3096050908
 20
7.4063338289
 11
7.3096050908
 21
7.4773338289
  0
LINE
  5
225
100
AcDbEntity
  8
0
100
AcDbLine
 62
7
  6
CONTINUOUS
 10
7.3316050908
 20
8.3893338289
 11
7.3316050908
 21
8.4393338289
  0
LINE
  5
226
100
AcDbEntity
  8
0
100
AcDbLine
 62
7
  6
CONTINUOUS
 10
7.3891050908
 20
11.030357451
 11
7.3891050908
 21
11.0353180809
  0
LINE
  5
227
100
AcDbEntity
  8
0
100
AcDbLine
 62
7
  6
CONTINUOUS
 10
7.4765488173
 20
11.1522315104
 11
7.4765488173
 21
11.4984046514
  0
LINE
  5
228
100
AcDbEntity
  8
0
100
AcDbLine
 62
7
  6
CONTINUOUS
 10
7.5731050908
 20
11.0768873003
 11
7.5731050908
 21
11.5737488615
  0
LINE
  5
229
100
AcDbEntity
  8
0
100
AcDbLine
 62
9
  6
CONTINUOUS
 10
7.6660320395
 20
10.0598456399
 11
7.6660320395
 21
10.7398456399
  0
LINE
  5
22A
100
AcDbEntity
  8
0
100
AcDbLine
 62
7
  6
CONTINUOUS
 10
7.7307464775
 20
10.9528156592
 11
7.7306230951
 21
10.9328940255
  0
LINE
  5
22B
100
AcDbEntity
  8
0
100
AcDbLine
 62
7
  6
CONTINUOUS
 10
7.3962403429
 20
8.5033054171
 11
7.5034878876
 21
9.3863338289
  0
LINE
  5
22C
100
AcDbEntity
  8
0
100
AcDbLine
 62
7
  6
CONTINUOUS
 10
6.5991050908
 20
7.9813943062
 11
6.6026478178
 21
7.986042048
  0
LINE
  5
22D
100
AcDbEntity
  8
0
100
AcDbLine
 62
9
  6
CONTINUOUS
 10
7.9702438928
 20
9.8673236822
 11
8.0051606373
 21
9.9117656127
  0
LINE
  5
22E
100
AcDbEntity
  8
0
100
AcDbLine
 62
9
  6
CONTINUOUS
 10
8.0052840196
 20
9.8918439789
 11
7.9703672751
 21
9.8474020484
  0
LINE
  5
22F
100
AcDbEntity
  8
0
100
AcDbLine
 62
7
  6
CONTINUOUS
 10
7.9873295334
 20
9.8393309279
 11
7.9524127889
 21
9.7948889974
  0
LINE
  5
230
100
AcDbEntity
  8
0
100
AcDbLine
 62
7
  6
CONTINUOUS
 10
9.5506946083
 20
10.9888727692
 11
9.5507875621
 21
10.9889404163
  0
LWPOLYLINE
  5
231
100
AcDbEntity
  8
0
100
AcDbPolyline
 62
7
  6
CONTINUOUS
 90
4
 70
0
 10
9.5508059143
 20
10.988955132
 10
9.5414292838
 20
10.9831665775
 10
9.5040661343
 20
10.9686381845
 10
9.47695792
 20
10.9634164179
  0
LINE
  5
232
100
AcDbEntity
  8
0
100
AcDbLine
 62
7
  6
CONTINUOUS
 10
7.7306230951
 20
9.8667972544
 11
7.7307464775
 21
9.8468756206
  0
LINE
  5
233
100
AcDbEntity
  8
0
100
AcDbLine
 62
9
  6
CONTINUOUS
 10
7.8097153976
 20
9.8598064568
 11
7.8098387799
 21
9.839884823
  0
LINE
  5
234
100
AcDbEntity
  8
0
100
AcDbLine
 62
9
  6
CONTINUOUS
 10
7.8796682635
 20
9.839884823
 11
7.8795448811
 21
9.8598064568
  0
LINE
  5
235
100
AcDbEntity
  8
0
100
AcDbLine
 62
9
  6
CONTINUOUS
 10
7.9702438928
 20
9.8673236822
 11
7.9703672751
 21
9.8474020484
  0
LINE
  5
236
100
AcDbEntity
  8
0
100
AcDbLine
 62
7
  6
CONTINUOUS
 10
7.7201050908
 20
11.6153180809
 11
7.7201050908
 21
11.6773180809
  0
LINE
  5
237
100
AcDbEntity
  8
0
100
AcDbLine
 62
9
  6
CONTINUOUS
 10
7.9070941425
 20
9.9798841716
 11
7.9070941425
 21
10.8198071082
  0
LINE
  5
238
100
AcDbEntity
  8
0
100
AcDbLine
 62
9
  6
CONTINUOUS
 10
7.9415315858
 20
10.829048661
 11
7.9415315858
 21
9.9706426188
  0
LINE
  5
239
100
AcDbEntity
  8
0
100
AcDbLine
 62
7
  6
CONTINUOUS
 10
7.9915315858
 20
9.9498456399
 11
7.9915315858
 21
10.8498456399
  0
LINE
  5
23A
100
AcDbEntity
  8
0
100
AcDbLine
 62
9
  6
CONTINUOUS
 10
7.8098387799
 20
10.9598064568
 11
7.8097153976
 21
10.939884823
  0
LINE
  5
23B
100
AcDbEntity
  8
0
100
AcDbLine
 62
9
  6
CONTINUOUS
 10
7.8795448811
 20
10.939884823
 11
7.8796682635
 21
10.9598064568
  0
LINE
  5
23C
100
AcDbEntity
  8
0
100
AcDbLine
 62
9
  6
CONTINUOUS
 10
7.9703672751
 20
10.9522892314
 11
7.9702438928
 21
10.9323675977
  0
LINE
  5
23D
100
AcDbEntity
  8
0
100
AcDbLine
 62
7
  6
CONTINUOUS
 10
6.5991310114
 20
7.5313597495
 11
6.5741050908
 21
7.5063338289
  0
LINE
  5
23E
100
AcDbEntity
  8
0
100
AcDbLine
 62
7
  6
CONTINUOUS
 10
6.8091050908
 20
7.2693338289
 11
6.7991050908
 21
7.2793338289
  0
LINE
  5
23F
100
AcDbEntity
  8
0
100
AcDbLine
 62
7
  6
CONTINUOUS
 10
6.5991050908
 20
7.9813338289
 11
6.5741050908
 21
8.0063338289
  0
LINE
  5
240
100
AcDbEntity
  8
0
100
AcDbLine
 62
7
  6
CONTINUOUS
 10
6.6486050908
 20
7.4773338289
 11
6.5991310114
 21
7.5313597495
  0
LINE
  5
241
100
AcDbEntity
  8
0
100
AcDbLine
 62
9
  6
CONTINUOUS
 10
8.621992111
 20
10.9398456399
 11
8.621992111
 21
9.8598456399
  0
LINE
  5
242
100
AcDbEntity
  8
0
100
AcDbLine
 62
7
  6
CONTINUOUS
 10
7.1491050908
 20
7.2693338289
 11
7.1591050908
 21
7.2793338289
  0
LINE
  5
243
100
AcDbEntity
  8
0
100
AcDbLine
 62
9
  6
CONTINUOUS
 10
9.337166667
 20
9.1680818269
 11
9.3366894373
 21
9.1165302621
  0
LINE
  5
244
100
AcDbEntity
  8
0
100
AcDbLine
 62
9
  6
CONTINUOUS
 10
9.0639058792
 20
4.2888264871
 11
9.0636353255
 21
4.2775966355
  0
LINE
  5
245
100
AcDbEntity
  8
0
100
AcDbLine
 62
9
  6
CONTINUOUS
 10
9.0849098744
 20
4.6612134405
 11
9.0846293393
 21
4.6496424486
  0
LINE
  5
246
100
AcDbEntity
  8
0
100
AcDbLine
 62
9
  6
CONTINUOUS
 10
9.0404194223
 20
3.8718205706
 11
9.0401623406
 21
3.8616333556
  0
LINE
  5
247
100
AcDbEntity
  8
0
100
AcDbLine
 62
9
  6
CONTINUOUS
 10
9.0141125198
 20
3.3999946769
 11
9.3737900638
 21
9.7740097191
  0
LINE
  5
248
100
AcDbEntity
  8
0
100
AcDbLine
 62
7
  6
CONTINUOUS
 10
9.3721269463
 20
9.7759305988
 11
9.0143051122
 21
3.4070205166
  0
LINE
  5
249
100
AcDbEntity
  8
0
100
AcDbLine
 62
7
  6
CONTINUOUS
 10
9.4291050908
 20
9.6208485307
 11
9.4291050908
 21
9.18488501
  0
LINE
  5
24A
100
AcDbEntity
  8
0
100
AcDbLine
 62
7
  6
CONTINUOUS
 10
9.4291050908
 20
8.3763023328
 11
9.4291050908
 21
9.1463023328
  0
LINE
  5
24B
100
AcDbEntity
  8
0
100
AcDbLine
 62
7
  6
CONTINUOUS
 10
9.4968550908
 20
9.18488501
 11
9.4968550908
 21
9.1463023328
  0
LINE
  5
24C
100
AcDbEntity
  8
0
100
AcDbLine
 62
7
  6
CONTINUOUS
 10
9.6641050908
 20
8.2466172935
 11
9.6641050908
 21
8.2163023328
  0
LINE
  5
24D
100
AcDbEntity
  8
0
100
AcDbLine
 62
9
  6
CONTINUOUS
 10
9.9791054805
 20
9.488085174
 11
9.9791061088
 21
9.7247644821
  0
LINE
  5
24E
100
AcDbEntity
  8
0
100
AcDbLine
 62
9
  6
CONTINUOUS
 10
9.9791050908
 20
8.2163023328
 11
9.9791050908
 21
2.9123456399
  0
LINE
  5
24F
100
AcDbEntity
  8
0
100
AcDbLine
 62
7
  6
CONTINUOUS
 10
11.9708806481
 20
10.960360352
 11
12.0057973926
 21
11.0048022824
  0
LINE
  5
250
100
AcDbEntity
  8
0
100
AcDbLine
 62
9
  6
CONTINUOUS
 10
11.9878429064
 20
10.9522892314
 11
11.9529261619
 21
10.907847301
  0
LINE
  5
251
100
AcDbEntity
  8
0
100
AcDbLine
 62
9
  6
CONTINUOUS
 10
11.9530495443
 20
10.8879256672
 11
11.9879662888
 21
10.9323675977
  0
LINE
  5
252
100
AcDbEntity
  8
0
100
AcDbLine
 62
9
  6
CONTINUOUS
 10
12.0732836082
 20
10.8477006542
 11
12.0538291279
 21
10.8229390484
  0
LINE
  5
253
100
AcDbEntity
  8
0
100
AcDbLine
 62
9
  6
CONTINUOUS
 10
12.1239325239
 20
10.8232876834
 11
12.1431130917
 21
10.8477006542
  0
LINE
  5
254
100
AcDbEntity
  8
0
100
AcDbLine
 62
7
  6
CONTINUOUS
 10
12.1745104301
 20
10.8354126162
 11
12.2094271746
 21
10.8798545467
  0
LINE
  5
255
100
AcDbEntity
  8
0
100
AcDbLine
 62
7
  6
CONTINUOUS
 10
10.2941050908
 20
8.2466172935
 11
10.2941050908
 21
8.2163023328
  0
LINE
  5
256
100
AcDbEntity
  8
0
100
AcDbLine
 62
7
  6
CONTINUOUS
 10
10.4613550908
 20
9.18488501
 11
10.4613550908
 21
9.1463023328
  0
LINE
  5
257
100
AcDbEntity
  8
0
100
AcDbLine
 62
7
  6
CONTINUOUS
 10
10.5291050908
 20
8.3763023328
 11
10.5291050908
 21
9.1463023328
  0
LINE
  5
258
100
AcDbEntity
  8
0
100
AcDbLine
 62
7
  6
CONTINUOUS
 10
10.5291050908
 20
9.18488501
 11
10.5291050908
 21
9.6208485362
  0
LINE
  5
259
100
AcDbEntity
  8
0
100
AcDbLine
 62
7
  6
CONTINUOUS
 10
12.3851050908
 20
11.5737488615
 11
12.4091050908
 21
11.6153180809
  0
LINE
  5
25A
100
AcDbEntity
  8
0
100
AcDbLine
 62
7
  6
CONTINUOUS
 10
4.6808648357
 20
8.1505831373
 11
5.7357010078
 21
7.9455437561
  0
LINE
  5
25B
100
AcDbEntity
  8
0
100
AcDbLine
 62
7
  6
CONTINUOUS
 10
7.7487830069
 20
10.8798545467
 11
7.7836997514
 21
10.8354126162
  0
LINE
  5
25C
100
AcDbEntity
  8
0
100
AcDbLine
 62
7
  6
CONTINUOUS
 10
7.5731050908
 20
11.5737488615
 11
7.5491050908
 21
11.6153180809
  0
LINE
  5
25D
100
AcDbEntity
  8
0
100
AcDbLine
 62
9
  6
CONTINUOUS
 10
10.9441044654
 20
3.3998742106
 11
10.5844203197
 21
9.7740061406
  0
LINE
  5
25E
100
AcDbEntity
  8
0
100
AcDbLine
 62
7
  6
CONTINUOUS
 10
10.9439053442
 20
3.4070156366
 11
10.6954493022
 21
7.8247693337
  0
LINE
  5
25F
100
AcDbEntity
  8
0
100
AcDbLine
 62
7
  6
CONTINUOUS
 10
10.6954493022
 20
7.8247693337
 11
10.6238916903
 21
9.1166615883
  0
LINE
  5
260
100
AcDbEntity
  8
0
100
AcDbLine
 62
7
  6
CONTINUOUS
 10
10.6238916903
 20
9.1166615883
 11
10.5860834472
 21
9.7759270485
  0
LINE
  5
261
100
AcDbEntity
  8
0
100
AcDbLine
 62
7
  6
CONTINUOUS
 10
10.6210409559
 20
9.1681283947
 11
10.6210435146
 21
9.1680818269
  0
LINE
  5
262
100
AcDbEntity
  8
0
100
AcDbLine
 62
9
  6
CONTINUOUS
 10
10.9177912588
 20
3.8718116571
 11
10.9180477757
 21
3.8616208436
  0
LINE
  5
263
100
AcDbEntity
  8
0
100
AcDbLine
 62
9
  6
CONTINUOUS
 10
10.8733003072
 20
4.6612134405
 11
10.8735808423
 21
4.6496424486
  0
LINE
  5
264
100
AcDbEntity
  8
0
100
AcDbLine
 62
9
  6
CONTINUOUS
 10
10.8943043023
 20
4.2888264871
 11
10.894574856
 21
4.2775966355
  0
LINE
  5
265
100
AcDbEntity
  8
0
100
AcDbLine
 62
9
  6
CONTINUOUS
 10
10.6210435146
 20
9.1680818269
 11
10.6215207442
 21
9.1165302621
  0
LINE
  5
266
100
AcDbEntity
  8
0
100
AcDbLine
 62
9
  6
CONTINUOUS
 10
10.8070710606
 20
9.8598456399
 11
10.8070710606
 21
10.9398456399
  0
LINE
  5
267
100
AcDbEntity
  8
0
100
AcDbLine
 62
7
  6
CONTINUOUS
 10
15.2773453459
 20
8.1505831373
 11
14.2225091738
 21
7.9455437561
  0
LINE
  5
268
100
AcDbEntity
  8
0
100
AcDbLine
 62
7
  6
CONTINUOUS
 10
6.8091693741
 20
7.2693338289
 11
7.1490408074
 21
7.2693338289
  0
LINE
  5
269
100
AcDbEntity
  8
0
100
AcDbLine
 62
7
  6
CONTINUOUS
 10
12.8091693741
 20
7.2693338289
 11
13.1490408074
 21
7.2693338289
  0
LINE
  5
26A
100
AcDbEntity
  8
0
100
AcDbLine
 62
7
  6
CONTINUOUS
 10
13.1591050908
 20
7.2793338289
 11
12.7991050908
 21
7.2793338289
  0
LINE
  5
26B
100
AcDbEntity
  8
0
100
AcDbLine
 62
7
  6
CONTINUOUS
 10
7.1591050908
 20
7.2793338289
 11
6.7991050908
 21
7.2793338289
  0
LINE
  5
26C
100
AcDbEntity
  8
0
100
AcDbLine
 62
7
  6
CONTINUOUS
 10
6.7071083415
 20
7.3353338289
 11
7.2511018401
 21
7.3353338289
  0
LINE
  5
26D
100
AcDbEntity
  8
0
100
AcDbLine
 62
7
  6
CONTINUOUS
 10
12.7071083415
 20
7.3353338289
 11
13.2511018401
 21
7.3353338289
  0
LINE
  5
26E
100
AcDbEntity
  8
0
100
AcDbLine
 62
7
  6
CONTINUOUS
 10
6.6956084789
 20
7.3593338289
 11
7.2626050908
 21
7.3593338289
  0
LINE
  5
26F
100
AcDbEntity
  8
0
100
AcDbLine
 62
7
  6
CONTINUOUS
 10
12.6956084789
 20
7.3593338289
 11
13.2626050908
 21
7.3593338289
  0
LINE
  5
270
100
AcDbEntity
  8
0
100
AcDbLine
 62
9
  6
CONTINUOUS
 10
6.6486050908
 20
7.4063338289
 11
7.3096050908
 21
7.4063338289
  0
LINE
  5
271
100
AcDbEntity
  8
0
100
AcDbLine
 62
9
  6
CONTINUOUS
 10
12.6486050908
 20
7.4063338289
 11
13.3096050908
 21
7.4063338289
  0
LINE
  5
272
100
AcDbEntity
  8
0
100
AcDbLine
 62
7
  6
CONTINUOUS
 10
13.3096050908
 20
7.4773338289
 11
12.6486050908
 21
7.4773338289
  0
LINE
  5
273
100
AcDbEntity
  8
0
100
AcDbLine
 62
7
  6
CONTINUOUS
 10
7.3096050908
 20
7.4773338289
 11
6.6486050908
 21
7.4773338289
  0
LINE
  5
274
100
AcDbEntity
  8
0
100
AcDbLine
 62
7
  6
CONTINUOUS
 10
13.4291050908
 20
7.5063338289
 11
13.3841050908
 21
7.5063338289
  0
LINE
  5
275
100
AcDbEntity
  8
0
100
AcDbLine
 62
7
  6
CONTINUOUS
 10
6.5291050908
 20
7.5063338289
 11
6.5741050908
 21
7.5063338289
  0
LINE
  5
276
100
AcDbEntity
  8
0
100
AcDbLine
 62
7
  6
CONTINUOUS
 10
7.4894395734
 20
11.0080361398
 11
7.4894429429
 21
11.0080328848
  0
LINE
  5
277
100
AcDbEntity
  8
0
100
AcDbLine
 62
9
  6
CONTINUOUS
 10
7.8150970898
 20
10.8477006542
 11
7.8500138343
 21
10.8032587237
  0
LINE
  5
278
100
AcDbEntity
  8
0
100
AcDbLine
 62
9
  6
CONTINUOUS
 10
7.9068808138
 20
10.8197573611
 11
7.8849265734
 21
10.8477006542
  0
LINE
  5
279
100
AcDbEntity
  8
0
100
AcDbLine
 62
9
  6
CONTINUOUS
 10
7.9702438928
 20
10.9323675977
 11
8.0051606373
 21
10.8879256672
  0
LINE
  5
27A
100
AcDbEntity
  8
0
100
AcDbLine
 62
9
  6
CONTINUOUS
 10
8.0052840196
 20
10.907847301
 11
7.9703672751
 21
10.9522892314
  0
LINE
  5
27B
100
AcDbEntity
  8
0
100
AcDbLine
 62
7
  6
CONTINUOUS
 10
7.9524127889
 20
11.0048022824
 11
7.9873295334
 21
10.960360352
  0
LINE
  5
27C
100
AcDbEntity
  8
0
100
AcDbLine
 62
7
  6
CONTINUOUS
 10
11.4595315858
 20
10.8098456399
 11
11.4595315858
 21
9.9898456399
  0
LINE
  5
27D
100
AcDbEntity
  8
0
100
AcDbLine
 62
7
  6
CONTINUOUS
 10
11.5595315858
 20
9.9898456399
 11
11.5595315858
 21
10.8098456399
  0
LINE
  5
27E
100
AcDbEntity
  8
0
100
AcDbLine
 62
7
  6
CONTINUOUS
 10
13.5491050908
 20
11.0353180809
 11
13.5731050908
 21
11.0768873003
  0
LINE
  5
27F
100
AcDbEntity
  8
0
100
AcDbLine
 62
9
  6
CONTINUOUS
 10
6.6026478178
 20
7.986042048
 11
7.3555623637
 21
7.986042048
  0
LINE
  5
280
100
AcDbEntity
  8
0
100
AcDbLine
 62
9
  6
CONTINUOUS
 10
12.6026478178
 20
7.986042048
 11
13.3555623637
 21
7.986042048
  0
LINE
  5
281
100
AcDbEntity
  8
0
100
AcDbLine
 62
7
  6
CONTINUOUS
 10
13.4291050908
 20
8.0063338289
 11
13.3841050908
 21
8.0063338289
  0
LINE
  5
282
100
AcDbEntity
  8
0
100
AcDbLine
 62
7
  6
CONTINUOUS
 10
6.5291050908
 20
8.0063338289
 11
6.5741050908
 21
8.0063338289
  0
LINE
  5
283
100
AcDbEntity
  8
0
100
AcDbLine
 62
9
  6
CONTINUOUS
 10
11.9879662888
 20
10.9323675977
 11
11.9878429064
 21
10.9522892314
  0
LINE
  5
284
100
AcDbEntity
  8
0
100
AcDbLine
 62
9
  6
CONTINUOUS
 10
12.0785419181
 20
10.9598064568
 11
12.0786653005
 21
10.939884823
  0
LINE
  5
285
100
AcDbEntity
  8
0
100
AcDbLine
 62
9
  6
CONTINUOUS
 10
12.148494784
 20
10.939884823
 11
12.1483714016
 21
10.9598064568
  0
LINE
  5
286
100
AcDbEntity
  8
0
100
AcDbLine
 62
7
  6
CONTINUOUS
 10
12.2275870864
 20
10.9328940255
 11
12.227463704
 21
10.9528156592
  0
LINE
  5
287
100
AcDbEntity
  8
0
100
AcDbLine
 62
7
  6
CONTINUOUS
 10
12.0285315858
 20
10.8257500738
 11
12.0285315858
 21
9.973941206
  0
LINE
  5
288
100
AcDbEntity
  8
0
100
AcDbLine
 62
7
  6
CONTINUOUS
 10
12.1285315858
 20
9.9762799097
 11
12.1285315858
 21
10.8234113702
  0
LINE
  5
289
100
AcDbEntity
  8
0
100
AcDbLine
 62
7
  6
CONTINUOUS
 10
12.1885315858
 20
10.0320973298
 11
12.1885315858
 21
10.8063456399
  0
LINE
  5
28A
100
AcDbEntity
  8
0
100
AcDbLine
 62
7
  6
CONTINUOUS
 10
12.2105315858
 20
10.8497855081
 11
12.2105315858
 21
9.9499057718
  0
LINE
  5
28B
100
AcDbEntity
  8
0
100
AcDbLine
 62
7
  6
CONTINUOUS
 10
12.2381050908
 20
11.6153180809
 11
12.2381050908
 21
11.6773180809
  0
LINE
  5
28C
100
AcDbEntity
  8
0
100
AcDbLine
 62
9
  6
CONTINUOUS
 10
11.9878429064
 20
9.8474020484
 11
11.9879662888
 21
9.8673236822
  0
LINE
  5
28D
100
AcDbEntity
  8
0
100
AcDbLine
 62
9
  6
CONTINUOUS
 10
12.0786653005
 20
9.8598064568
 11
12.0785419181
 21
9.839884823
  0
LINE
  5
28E
100
AcDbEntity
  8
0
100
AcDbLine
 62
9
  6
CONTINUOUS
 10
12.1483714016
 20
9.839884823
 11
12.148494784
 21
9.8598064568
  0
LINE
  5
28F
100
AcDbEntity
  8
0
100
AcDbLine
 62
7
  6
CONTINUOUS
 10
12.227463704
 20
9.8468756206
 11
12.2275870864
 21
9.8667972544
  0
LINE
  5
290
100
AcDbEntity
  8
0
100
AcDbLine
 62
7
  6
CONTINUOUS
 10
4.6808648357
 20
7.3620845205
 11
5.7357010078
 21
7.5671239017
  0
LINE
  5
291
100
AcDbEntity
  8
0
100
AcDbLine
 62
7
  6
CONTINUOUS
 10
9.6641088553
 20
8.2163023328
 11
10.2941013262
 21
8.2163023328
  0
LINE
  5
292
100
AcDbEntity
  8
0
100
AcDbLine
 62
9
  6
CONTINUOUS
 10
10.2941050908
 20
8.2466172935
 11
9.6641050908
 21
8.2466172935
  0
LINE
  5
293
100
AcDbEntity
  8
0
100
AcDbLine
 62
7
  6
CONTINUOUS
 10
9.6141094603
 20
8.2663023328
 11
10.3441007213
 21
8.2663023328
  0
LINE
  5
294
100
AcDbEntity
  8
0
100
AcDbLine
 62
7
  6
CONTINUOUS
 10
9.459185554
 20
8.3463023328
 11
10.4990246276
 21
8.3463023328
  0
LINE
  5
295
100
AcDbEntity
  8
0
100
AcDbLine
 62
9
  6
CONTINUOUS
 10
9.4291050908
 20
8.3763023328
 11
10.5291050908
 21
8.3763023328
  0
LINE
  5
296
100
AcDbEntity
  8
0
100
AcDbLine
 62
7
  6
CONTINUOUS
 10
6.6266050908
 20
8.3893338289
 11
7.3316050908
 21
8.3893338289
  0
LINE
  5
297
100
AcDbEntity
  8
0
100
AcDbLine
 62
7
  6
CONTINUOUS
 10
12.6266050908
 20
8.3893338289
 11
13.3316050908
 21
8.3893338289
  0
LINE
  5
298
100
AcDbEntity
  8
0
100
AcDbLine
 62
7
  6
CONTINUOUS
 10
13.331600878
 20
8.4393338289
 11
12.6266093035
 21
8.4393338289
  0
LINE
  5
299
100
AcDbEntity
  8
0
100
AcDbLine
 62
7
  6
CONTINUOUS
 10
7.331600878
 20
8.4393338289
 11
6.6266093035
 21
8.4393338289
  0
LINE
  5
29A
100
AcDbEntity
  8
0
100
AcDbLine
 62
7
  6
CONTINUOUS
 10
6.6116094828
 20
8.4593338289
 11
7.3466050908
 21
8.4593338289
  0
LINE
  5
29B
100
AcDbEntity
  8
0
100
AcDbLine
 62
7
  6
CONTINUOUS
 10
12.6116094828
 20
8.4593338289
 11
13.3466050908
 21
8.4593338289
  0
LINE
  5
29C
100
AcDbEntity
  8
0
100
AcDbLine
 62
9
  6
CONTINUOUS
 10
6.5619698387
 20
8.5033054171
 11
7.3962403429
 21
8.5033054171
  0
LINE
  5
29D
100
AcDbEntity
  8
0
100
AcDbLine
 62
9
  6
CONTINUOUS
 10
12.5619698387
 20
8.5033054171
 11
13.3962403429
 21
8.5033054171
  0
LINE
  5
29E
100
AcDbEntity
  8
0
100
AcDbLine
 62
7
  6
CONTINUOUS
 10
15.2773453459
 20
7.3620845205
 11
14.2225091738
 21
7.5671239017
  0
LINE
  5
29F
100
AcDbEntity
  8
0
100
AcDbLine
 62
7
  6
CONTINUOUS
 10
12.8091050908
 20
7.2693338289
 11
12.7991050908
 21
7.2793338289
  0
LINE
  5
2A0
100
AcDbEntity
  8
0
100
AcDbLine
 62
7
  6
CONTINUOUS
 10
12.3851050908
 20
11.0768873003
 11
12.3851050908
 21
11.5737488615
  0
LINE
  5
2A1
100
AcDbEntity
  8
0
100
AcDbLine
 62
7
  6
CONTINUOUS
 10
12.4816613643
 20
11.4984046514
 11
12.4816613643
 21
11.1522315104
  0
LINE
  5
2A2
100
AcDbEntity
  8
0
100
AcDbLine
 62
7
  6
CONTINUOUS
 10
12.5691050908
 20
11.030357451
 11
12.5691050908
 21
11.0353180809
  0
LINE
  5
2A3
100
AcDbEntity
  8
0
100
AcDbLine
 62
7
  6
CONTINUOUS
 10
12.6266050908
 20
8.3893338289
 11
12.6266050908
 21
8.4393338289
  0
LINE
  5
2A4
100
AcDbEntity
  8
0
100
AcDbLine
 62
7
  6
CONTINUOUS
 10
12.6486050908
 20
7.4063338289
 11
12.6486050908
 21
7.4773338289
  0
LINE
  5
2A5
100
AcDbEntity
  8
0
100
AcDbLine
 62
7
  6
CONTINUOUS
 10
12.7071050908
 20
7.3353338289
 11
12.7071050908
 21
7.3593338289
  0
LINE
  5
2A6
100
AcDbEntity
  8
0
100
AcDbLine
 62
7
  6
CONTINUOUS
 10
12.7791050908
 20
8.4393338289
 11
12.7791050908
 21
8.4593338289
  0
LINE
  5
2A7
100
AcDbEntity
  8
0
100
AcDbLine
 62
7
  6
CONTINUOUS
 10
13.3096050908
 20
7.4773338289
 11
13.3590791701
 21
7.5313597495
  0
LINE
  5
2A8
100
AcDbEntity
  8
0
100
AcDbLine
 62
7
  6
CONTINUOUS
 10
13.3591050908
 20
7.9813338289
 11
13.3841050908
 21
8.0063338289
  0
LINE
  5
2A9
100
AcDbEntity
  8
0
100
AcDbLine
 62
7
  6
CONTINUOUS
 10
13.1491050908
 20
7.2693338289
 11
13.1591050908
 21
7.2793338289
  0
LINE
  5
2AA
100
AcDbEntity
  8
0
100
AcDbLine
 62
7
  6
CONTINUOUS
 10
10.5290315963
 20
9.1463023328
 11
9.4291785853
 21
9.1463023328
  0
LINE
  5
2AB
100
AcDbEntity
  8
0
100
AcDbLine
 62
7
  6
CONTINUOUS
 10
9.4291785853
 20
9.18488501
 11
10.5290315963
 21
9.18488501
  0
LINE
  5
2AC
100
AcDbEntity
  8
0
100
AcDbLine
 62
7
  6
CONTINUOUS
 10
13.3590791701
 20
7.5313597495
 11
13.3841050908
 21
7.5063338289
  0
LINE
  5
2AD
100
AcDbEntity
  8
0
100
AcDbLine
 62
7
  6
CONTINUOUS
 10
12.5619698387
 20
8.5033054171
 11
12.454722294
 21
9.3863338289
  0
LINE
  5
2AE
100
AcDbEntity
  8
0
100
AcDbLine
 62
7
  6
CONTINUOUS
 10
12.8305315858
 20
9.9708843556
 11
12.8305315858
 21
10.8288069242
  0
LINE
  5
2AF
100
AcDbEntity
  8
0
100
AcDbLine
 62
7
  6
CONTINUOUS
 10
12.8425315858
 20
10.0223456399
 11
12.8425315858
 21
10.7773456399
  0
LINE
  5
2B0
100
AcDbEntity
  8
0
100
AcDbLine
 62
7
  6
CONTINUOUS
 10
12.8750315858
 20
10.8164505629
 11
12.8750315858
 21
9.983240717
  0
LINE
  5
2B1
100
AcDbEntity
  8
0
100
AcDbLine
 62
7
  6
CONTINUOUS
 10
12.8800315858
 20
9.9832407164
 11
12.8800315858
 21
10.8164505635
  0
LINE
  5
2B2
100
AcDbEntity
  8
0
100
AcDbLine
 62
7
  6
CONTINUOUS
 10
12.8825488173
 20
11.1522315104
 11
12.8825488173
 21
11.4984046514
  0
LINE
  5
2B3
100
AcDbEntity
  8
0
100
AcDbLine
 62
7
  6
CONTINUOUS
 10
12.9125315858
 20
10.8260323373
 11
12.9125315858
 21
9.9736589425
  0
LINE
  5
2B4
100
AcDbEntity
  8
0
100
AcDbLine
 62
7
  6
CONTINUOUS
 10
13.0756613643
 20
11.4984046514
 11
13.0756613643
 21
11.1522315104
  0
LINE
  5
2B5
100
AcDbEntity
  8
0
100
AcDbLine
 62
7
  6
CONTINUOUS
 10
13.1425315858
 20
10.2141470404
 11
13.1425315858
 21
10.5855442394
  0
LINE
  5
2B6
100
AcDbEntity
  8
0
100
AcDbLine
 62
7
  6
CONTINUOUS
 10
13.1791050908
 20
8.4393338289
 11
13.1791050908
 21
8.4593338289
  0
LINE
  5
2B7
100
AcDbEntity
  8
0
100
AcDbLine
 62
7
  6
CONTINUOUS
 10
13.2511050908
 20
7.3353338289
 11
13.2511050908
 21
7.3593338289
  0
LINE
  5
2B8
100
AcDbEntity
  8
0
100
AcDbLine
 62
7
  6
CONTINUOUS
 10
13.3096050908
 20
7.4063338289
 11
13.3096050908
 21
7.4773338289
  0
LINE
  5
2B9
100
AcDbEntity
  8
0
100
AcDbLine
 62
7
  6
CONTINUOUS
 10
13.3316050908
 20
8.3893338289
 11
13.3316050908
 21
8.4393338289
  0
LINE
  5
2BA
100
AcDbEntity
  8
0
100
AcDbLine
 62
7
  6
CONTINUOUS
 10
13.3591050908
 20
7.9813427735
 11
13.3591050908
 21
7.5316210155
  0
LINE
  5
2BB
100
AcDbEntity
  8
0
100
AcDbLine
 62
9
  6
CONTINUOUS
 10
13.3732080175
 20
9.9891917121
 11
13.3732080175
 21
10.2324768539
  0
LINE
  5
2BC
100
AcDbEntity
  8
0
100
AcDbLine
 62
9
  6
CONTINUOUS
 10
13.3732080175
 20
10.5672119275
 11
13.3732080175
 21
10.8104995678
  0
LINE
  5
2BD
100
AcDbEntity
  8
0
100
AcDbLine
 62
7
  6
CONTINUOUS
 10
13.3841050908
 20
8.0063338289
 11
13.3841050908
 21
7.5063338289
  0
LINE
  5
2BE
100
AcDbEntity
  8
0
100
AcDbLine
 62
7
  6
CONTINUOUS
 10
13.3891050908
 20
11.030357451
 11
13.3891050908
 21
11.0353180809
  0
LINE
  5
2BF
100
AcDbEntity
  8
0
100
AcDbLine
 62
7
  6
CONTINUOUS
 10
13.3925315858
 20
10.7905110101
 11
13.3925315858
 21
10.0091802698
  0
LINE
  5
2C0
100
AcDbEntity
  8
0
100
AcDbLine
 62
7
  6
CONTINUOUS
 10
13.3962403429
 20
8.5033054171
 11
13.5034878876
 21
9.3863338289
  0
LINE
  5
2C1
100
AcDbEntity
  8
0
100
AcDbLine
 62
9
  6
CONTINUOUS
 10
13.5034878876
 20
9.3863338289
 11
12.454722294
 21
9.3863338289
  0
LINE
  5
2C2
100
AcDbEntity
  8
0
100
AcDbLine
 62
9
  6
CONTINUOUS
 10
7.5034878876
 20
9.3863338289
 11
6.454722294
 21
9.3863338289
  0
LINE
  5
2C3
100
AcDbEntity
  8
0
100
AcDbLine
 62
9
  6
CONTINUOUS
 10
13.5993182404
 20
9.6183132102
 11
13.5827266903
 21
9.6183132102
  0
LINE
  5
2C4
100
AcDbEntity
  8
0
100
AcDbLine
 62
9
  6
CONTINUOUS
 10
13.4043216709
 20
9.6183132102
 11
13.1575101101
 21
9.6183132102
  0
LINE
  5
2C5
100
AcDbEntity
  8
0
100
AcDbLine
 62
9
  6
CONTINUOUS
 10
7.5993182404
 20
9.6183132102
 11
7.5827266903
 21
9.6183132102
  0
LINE
  5
2C6
100
AcDbEntity
  8
0
100
AcDbLine
 62
9
  6
CONTINUOUS
 10
7.4043216709
 20
9.6183132102
 11
7.1575101101
 21
9.6183132102
  0
LINE
  5
2C7
100
AcDbEntity
  8
0
100
AcDbLine
 62
9
  6
CONTINUOUS
 10
12.3588919412
 20
9.6183132102
 11
12.3754834912
 21
9.6183132102
  0
LINE
  5
2C8
100
AcDbEntity
  8
0
100
AcDbLine
 62
9
  6
CONTINUOUS
 10
12.5538885106
 20
9.6183132102
 11
12.8007000714
 21
9.6183132102
  0
LINE
  5
2C9
100
AcDbEntity
  8
0
100
AcDbLine
 62
7
  6
CONTINUOUS
 10
7.8157448474
 20
9.7624020484
 11
7.8855743309
 21
9.7624020484
  0
LINE
  5
2CA
100
AcDbEntity
  8
0
100
AcDbLine
 62
7
  6
CONTINUOUS
 10
12.0726358507
 20
9.7624020484
 11
12.1424653342
 21
9.7624020484
  0
LINE
  5
2CB
100
AcDbEntity
  8
0
100
AcDbLine
 62
7
  6
CONTINUOUS
 10
13.5255320639
 20
9.7693338289
 11
12.4326781176
 21
9.7693338289
  0
LINE
  5
2CC
100
AcDbEntity
  8
0
100
AcDbLine
 62
7
  6
CONTINUOUS
 10
7.5255320639
 20
9.7693338289
 11
6.9355885238
 21
9.7693338289
  0
LINE
  5
2CD
100
AcDbEntity
  8
0
100
AcDbLine
 62
9
  6
CONTINUOUS
 10
13.4977731257
 20
9.8128296395
 11
12.4882909791
 21
9.8128296372
  0
LINE
  5
2CE
100
AcDbEntity
  8
0
100
AcDbLine
 62
9
  6
CONTINUOUS
 10
7.4699022379
 20
9.8127430858
 11
6.9631128642
 21
9.8128284373
  0
LINE
  5
2CF
100
AcDbEntity
  8
0
100
AcDbLine
 62
7
  6
CONTINUOUS
 10
12.0057973926
 20
9.7948889974
 11
11.9708806481
 21
9.8393309279
  0
LINE
  5
2D0
100
AcDbEntity
  8
0
100
AcDbLine
 62
9
  6
CONTINUOUS
 10
11.9878429064
 20
9.8474020484
 11
11.9529261619
 21
9.8918439789
  0
LINE
  5
2D1
100
AcDbEntity
  8
0
100
AcDbLine
 62
9
  6
CONTINUOUS
 10
11.9530495443
 20
9.9117656127
 11
11.9879662888
 21
9.8673236822
  0
LINE
  5
2D2
100
AcDbEntity
  8
0
100
AcDbLine
 62
9
  6
CONTINUOUS
 10
12.0538291279
 20
9.9767522315
 11
12.0732836082
 21
9.9519906257
  0
LINE
  5
2D3
100
AcDbEntity
  8
0
100
AcDbLine
 62
7
  6
CONTINUOUS
 10
13.3591050908
 20
7.9813943062
 11
13.3555623637
 21
7.986042048
  0
LINE
  5
2D4
100
AcDbEntity
  8
0
100
AcDbLine
 62
7
  6
CONTINUOUS
 10
12.1959561854
 20
10.0325476066
 11
12.2105315858
 21
10.0073384999
  0
LINE
  5
2D5
100
AcDbEntity
  8
0
100
AcDbLine
 62
7
  6
CONTINUOUS
 10
13.4291050908
 20
7.5063338289
 11
13.4291050908
 21
8.0063338289
  0
LINE
  5
2D6
100
AcDbEntity
  8
0
100
AcDbLine
 62
7
  6
CONTINUOUS
 10
13.4765488173
 20
11.1522315104
 11
13.4765488173
 21
11.4984046514
  0
LINE
  5
2D7
100
AcDbEntity
  8
0
100
AcDbLine
 62
7
  6
CONTINUOUS
 10
13.5731050908
 20
11.0768873003
 11
13.5731050908
 21
11.5737488615
  0
LINE
  5
2D8
100
AcDbEntity
  8
0
100
AcDbLine
 62
7
  6
CONTINUOUS
 10
13.7201050908
 20
11.6153180809
 11
13.7201050908
 21
11.6773180809
  0
LINE
  5
2D9
100
AcDbEntity
  8
0
100
AcDbLine
 62
7
  6
CONTINUOUS
 10
11.2633632035
 20
9.931962094
 11
11.4095530014
 21
9.9498456399
  0
LINE
  5
2DA
100
AcDbEntity
  8
0
100
AcDbLine
 62
7
  6
CONTINUOUS
 10
11.4659462097
 20
9.9567442782
 11
11.9173031581
 21
10.0119592305
  0
LINE
  5
2DB
100
AcDbEntity
  8
0
100
AcDbLine
 62
7
  6
CONTINUOUS
 10
12.1725456644
 20
10.0431833046
 11
12.188468852
 21
10.0451312042
  0
LINE
  5
2DC
100
AcDbEntity
  8
0
100
AcDbLine
 62
7
  6
CONTINUOUS
 10
13.3732080175
 20
9.9891917121
 11
12.9125315858
 21
9.9736019851
  0
LINE
  5
2DD
100
AcDbEntity
  8
0
100
AcDbLine
 62
7
  6
CONTINUOUS
 10
12.8305315858
 20
9.9708270274
 11
12.2105315858
 21
9.9498456399
  0
LINE
  5
2DE
100
AcDbEntity
  8
0
100
AcDbLine
 62
9
  6
CONTINUOUS
 10
6.7674846172
 20
10.0598458441
 11
6.7669953028
 21
10.0598441236
  0
LINE
  5
2DF
100
AcDbEntity
  8
0
100
AcDbLine
 62
9
  6
CONTINUOUS
 10
7.8098387799
 20
9.839884823
 11
7.8796682635
 21
9.839884823
  0
LINE
  5
2E0
100
AcDbEntity
  8
0
100
AcDbLine
 62
9
  6
CONTINUOUS
 10
12.0785419181
 20
9.839884823
 11
12.1483714016
 21
9.839884823
  0
LINE
  5
2E1
100
AcDbEntity
  8
0
100
AcDbLine
 62
9
  6
CONTINUOUS
 10
12.148494784
 20
9.8598064568
 11
12.0786653005
 21
9.8598064568
  0
LINE
  5
2E2
100
AcDbEntity
  8
0
100
AcDbLine
 62
9
  6
CONTINUOUS
 10
7.8795448811
 20
9.8598064568
 11
7.8097153976
 21
9.8598064568
  0
LINE
  5
2E3
100
AcDbEntity
  8
0
100
AcDbLine
 62
7
  6
CONTINUOUS
 10
8.621992111
 20
9.8598456399
 11
10.8070710606
 21
9.8598456399
  0
LINE
  5
2E4
100
AcDbEntity
  8
0
100
AcDbLine
 62
7
  6
CONTINUOUS
 10
11.4548705886
 20
9.9498456399
 11
11.3087949688
 21
9.9498456399
  0
LINE
  5
2E5
100
AcDbEntity
  8
0
100
AcDbLine
 62
7
  6
CONTINUOUS
 10
7.9879036236
 20
9.9498456399
 11
7.9915315858
 21
9.9498456399
  0
LINE
  5
2E6
100
AcDbEntity
  8
0
100
AcDbLine
 62
9
  6
CONTINUOUS
 10
7.8150970898
 20
9.9519906257
 11
7.8849265734
 21
9.9519906257
  0
LINE
  5
2E7
100
AcDbEntity
  8
0
100
AcDbLine
 62
9
  6
CONTINUOUS
 10
12.0732836082
 20
9.9519906257
 11
12.1431130917
 21
9.9519906257
  0
LINE
  5
2E8
100
AcDbEntity
  8
0
100
AcDbLine
 62
7
  6
CONTINUOUS
 10
12.8800315858
 20
9.9831850398
 11
12.8750315858
 21
9.9831850398
  0
LINE
  5
2E9
100
AcDbEntity
  8
0
100
AcDbLine
 62
7
  6
CONTINUOUS
 10
11.4595315858
 20
9.9898456399
 11
11.5595315858
 21
9.9898456399
  0
LINE
  5
2EA
100
AcDbEntity
  8
0
100
AcDbLine
 62
9
  6
CONTINUOUS
 10
7.8650257163
 20
9.9964325562
 11
7.8500138343
 21
9.9964325562
  0
LINE
  5
2EB
100
AcDbEntity
  8
0
100
AcDbLine
 62
7
  6
CONTINUOUS
 10
12.8305315858
 20
10.0223456399
 11
12.8425539143
 21
10.0223456399
  0
LINE
  5
2EC
100
AcDbEntity
  8
0
100
AcDbLine
 62
7
  6
CONTINUOUS
 10
12.1965821109
 20
10.0320056407
 11
12.1885315858
 21
10.0320056407
  0
LINE
  5
2ED
100
AcDbEntity
  8
0
100
AcDbLine
 62
7
  6
CONTINUOUS
 10
6.767484628
 20
10.0598456399
 11
7.6660320395
 21
10.0598456399
  0
LINE
  5
2EE
100
AcDbEntity
  8
0
100
AcDbLine
 62
7
  6
CONTINUOUS
 10
12.1285315858
 20
10.0698456399
 11
12.1885315858
 21
10.0698456399
  0
LINE
  5
2EF
100
AcDbEntity
  8
0
100
AcDbLine
 62
7
  6
CONTINUOUS
 10
13.3925315858
 20
10.1298456399
 11
17.9825315858
 21
10.1298456399
  0
LINE
  5
2F0
100
AcDbEntity
  8
0
100
AcDbLine
 62
7
  6
CONTINUOUS
 10
12.1239325239
 20
9.9764035965
 11
12.0538291279
 21
9.9767522315
  0
LINE
  5
2F1
100
AcDbEntity
  8
0
100
AcDbLine
 62
7
  6
CONTINUOUS
 10
10.4076673697
 20
10.9887661034
 11
10.4074033482
 21
10.9889557985
  0
LINE
  5
2F2
100
AcDbEntity
  8
0
100
AcDbLine
 62
7
  6
CONTINUOUS
 10
10.4074633204
 20
10.9889108215
 11
10.4075664552
 21
10.9888357462
  0
LINE
  5
2F3
100
AcDbEntity
  8
0
100
AcDbLine
 62
7
  6
CONTINUOUS
 10
12.4687717116
 20
9.7916538433
 11
12.468767857
 21
9.7916574893
  0
LINE
  5
2F4
100
AcDbEntity
  8
0
100
AcDbLine
 62
9
  6
CONTINUOUS
 10
12.1431130917
 20
9.9519906257
 11
12.1239325239
 21
9.9764035965
  0
LINE
  5
2F5
100
AcDbEntity
  8
0
100
AcDbLine
 62
7
  6
CONTINUOUS
 10
12.2094271746
 20
9.9198367332
 11
12.1745104301
 21
9.9642786637
  0
LINE
  5
2F6
100
AcDbEntity
  8
0
100
AcDbLine
 62
9
  6
CONTINUOUS
 10
14.2225091738
 20
7.9455437561
 11
14.2225091738
 21
7.5671239017
  0
LINE
  5
2F7
100
AcDbEntity
  8
0
100
AcDbLine
 62
7
  6
CONTINUOUS
 10
12.0538291279
 20
10.8229390484
 11
12.1239325239
 21
10.8232876834
  0
LINE
  5
2F8
100
AcDbEntity
  8
0
100
AcDbLine
 62
7
  6
CONTINUOUS
 10
13.3925315858
 20
10.6698456399
 11
17.9825315858
 21
10.6698456399
  0
LINE
  5
2F9
100
AcDbEntity
  8
0
100
AcDbLine
 62
7
  6
CONTINUOUS
 10
12.1285315858
 20
10.7298456399
 11
12.1885315858
 21
10.7298456399
  0
LINE
  5
2FA
100
AcDbEntity
  8
0
100
AcDbLine
 62
7
  6
CONTINUOUS
 10
6.767484628
 20
10.7398456399
 11
7.6660320395
 21
10.7398456399
  0
LINE
  5
2FB
100
AcDbEntity
  8
0
100
AcDbLine
 62
7
  6
CONTINUOUS
 10
12.8305315858
 20
10.7773456399
 11
12.8425539143
 21
10.7773456399
  0
LINE
  5
2FC
100
AcDbEntity
  8
0
100
AcDbLine
 62
9
  6
CONTINUOUS
 10
7.8500138343
 20
10.8032587237
 11
7.8650257163
 21
10.8032587237
  0
LINE
  5
2FD
100
AcDbEntity
  8
0
100
AcDbLine
 62
7
  6
CONTINUOUS
 10
12.1885315858
 20
10.8063456399
 11
12.1920679223
 21
10.8063456399
  0
LINE
  5
2FE
100
AcDbEntity
  8
0
100
AcDbLine
 62
7
  6
CONTINUOUS
 10
11.4595315858
 20
10.8098456399
 11
11.5595315858
 21
10.8098456399
  0
LINE
  5
2FF
100
AcDbEntity
  8
0
100
AcDbLine
 62
7
  6
CONTINUOUS
 10
12.8800315858
 20
10.81650624
 11
12.8750315858
 21
10.81650624
  0
LINE
  5
300
100
AcDbEntity
  8
0
100
AcDbLine
 62
9
  6
CONTINUOUS
 10
12.1431130917
 20
10.8477006542
 11
12.0732836082
 21
10.8477006542
  0
LINE
  5
301
100
AcDbEntity
  8
0
100
AcDbLine
 62
9
  6
CONTINUOUS
 10
7.8849265734
 20
10.8477006542
 11
7.8150970898
 21
10.8477006542
  0
LINE
  5
302
100
AcDbEntity
  8
0
100
AcDbLine
 62
7
  6
CONTINUOUS
 10
7.9879036236
 20
10.8498456399
 11
7.9915315858
 21
10.8498456399
  0
LINE
  5
303
100
AcDbEntity
  8
0
100
AcDbLine
 62
7
  6
CONTINUOUS
 10
11.3087949688
 20
10.8498456399
 11
11.4548705886
 21
10.8498456399
  0
LINE
  5
304
100
AcDbEntity
  8
0
100
AcDbLine
 62
7
  6
CONTINUOUS
 10
8.621992111
 20
10.9398456399
 11
10.8070710606
 21
10.9398456399
  0
LINE
  5
305
100
AcDbEntity
  8
0
100
AcDbLine
 62
9
  6
CONTINUOUS
 10
7.8097153976
 20
10.939884823
 11
7.8795448811
 21
10.939884823
  0
LINE
  5
306
100
AcDbEntity
  8
0
100
AcDbLine
 62
9
  6
CONTINUOUS
 10
12.0786653005
 20
10.939884823
 11
12.148494784
 21
10.939884823
  0
LINE
  5
307
100
AcDbEntity
  8
0
100
AcDbLine
 62
9
  6
CONTINUOUS
 10
12.1483714016
 20
10.9598064568
 11
12.0785419181
 21
10.9598064568
  0
LINE
  5
308
100
AcDbEntity
  8
0
100
AcDbLine
 62
9
  6
CONTINUOUS
 10
7.8796682635
 20
10.9598064568
 11
7.8098387799
 21
10.9598064568
  0
LINE
  5
309
100
AcDbEntity
  8
0
100
AcDbLine
 62
9
  6
CONTINUOUS
 10
6.7674845656
 20
10.7398454865
 11
6.7670089242
 21
10.7398471128
  0
LINE
  5
30A
100
AcDbEntity
  8
0
100
AcDbLine
 62
7
  6
CONTINUOUS
 10
13.3732080175
 20
10.8104995678
 11
12.9125315858
 21
10.8260892948
  0
LINE
  5
30B
100
AcDbEntity
  8
0
100
AcDbLine
 62
7
  6
CONTINUOUS
 10
12.8305315858
 20
10.8288642525
 11
12.2105315858
 21
10.8498456399
  0
LINE
  5
30C
100
AcDbEntity
  8
0
100
AcDbLine
 62
7
  6
CONTINUOUS
 10
10.4816718238
 20
10.9633649762
 11
10.6739279787
 21
10.9398456399
  0
LINE
  5
30D
100
AcDbEntity
  8
0
100
AcDbLine
 62
7
  6
CONTINUOUS
 10
11.2633304789
 20
10.8677420674
 11
11.4096228017
 21
10.8498456399
  0
LINE
  5
30E
100
AcDbEntity
  8
0
100
AcDbLine
 62
7
  6
CONTINUOUS
 10
11.4659473431
 20
10.842955271
 11
11.9173211114
 21
10.7877372134
  0
LINE
  5
30F
100
AcDbEntity
  8
0
100
AcDbLine
 62
7
  6
CONTINUOUS
 10
12.1725561124
 20
10.7565134649
 11
12.1884696633
 21
10.7545667072
  0
LWPOLYLINE
  5
310
100
AcDbEntity
  8
0
100
AcDbPolyline
 62
7
  6
CONTINUOUS
 90
4
 70
0
 10
10.4812508314
 20
10.9634166144
 10
10.4542212204
 20
10.9686177963
 10
10.4168401243
 20
10.9831342642
 10
10.4076673697
 20
10.9887661034
  0
LINE
  5
311
100
AcDbEntity
  8
0
100
AcDbLine
 62
7
  6
CONTINUOUS
 10
12.1920965713
 20
10.8063456399
 11
12.1926579458
 21
10.8058501373
  0
LINE
  5
312
100
AcDbEntity
  8
0
100
AcDbLine
 62
7
  6
CONTINUOUS
 10
12.4091050908
 20
11.0353180809
 11
12.3851050908
 21
11.0768873003
  0
LINE
  5
313
100
AcDbEntity
  8
0
100
AcDbLine
 62
9
  6
CONTINUOUS
 10
14.6925315858
 20
10.1298456399
 11
14.6925315858
 21
10.6698456399
  0
LINE
  5
314
100
AcDbEntity
  8
0
100
AcDbLine
 62
7
  6
CONTINUOUS
 10
9.4769580854
 20
10.9634162237
 11
9.284282202
 21
10.9398456399
  0
LINE
  5
315
100
AcDbEntity
  8
0
100
AcDbLine
 62
9
  6
CONTINUOUS
 10
6.9608543207
 20
10.9868622257
 11
7.469914061
 21
10.9868616426
  0
LINE
  5
316
100
AcDbEntity
  8
0
100
AcDbLine
 62
7
  6
CONTINUOUS
 10
13.4471454759
 20
11.030357451
 11
12.5110645698
 21
11.030357451
  0
LINE
  5
317
100
AcDbEntity
  8
0
100
AcDbLine
 62
7
  6
CONTINUOUS
 10
7.4471716526
 20
11.030357451
 11
6.9308932755
 21
11.030357451
  0
LINE
  5
318
100
AcDbEntity
  8
0
100
AcDbLine
 62
7
  6
CONTINUOUS
 10
6.9274762186
 20
11.0353180809
 11
7.5491050908
 21
11.0353180809
  0
LINE
  5
319
100
AcDbEntity
  8
0
100
AcDbLine
 62
7
  6
CONTINUOUS
 10
12.4091050908
 20
11.0353180809
 11
13.5491050908
 21
11.0353180809
  0
LINE
  5
31A
100
AcDbEntity
  8
0
100
AcDbLine
 62
7
  6
CONTINUOUS
 10
12.1424653342
 20
11.0372892314
 11
12.0726358507
 21
11.0372892314
  0
LINE
  5
31B
100
AcDbEntity
  8
0
100
AcDbLine
 62
7
  6
CONTINUOUS
 10
7.8855743309
 20
11.0372892314
 11
7.8157448474
 21
11.0372892314
  0
LINE
  5
31C
100
AcDbEntity
  8
0
100
AcDbLine
 62
7
  6
CONTINUOUS
 10
6.8825488173
 20
11.1522315104
 11
7.0756613643
 21
11.1522315104
  0
LINE
  5
31D
100
AcDbEntity
  8
0
100
AcDbLine
 62
7
  6
CONTINUOUS
 10
7.4765488173
 20
11.1522315104
 11
7.5731050908
 21
11.1522315104
  0
LINE
  5
31E
100
AcDbEntity
  8
0
100
AcDbLine
 62
7
  6
CONTINUOUS
 10
12.3851050908
 20
11.1522315104
 11
12.4816613643
 21
11.1522315104
  0
LINE
  5
31F
100
AcDbEntity
  8
0
100
AcDbLine
 62
7
  6
CONTINUOUS
 10
12.8825488173
 20
11.1522315104
 11
13.0756613643
 21
11.1522315104
  0
LINE
  5
320
100
AcDbEntity
  8
0
100
AcDbLine
 62
7
  6
CONTINUOUS
 10
13.4765488173
 20
11.1522315104
 11
13.5731050908
 21
11.1522315104
  0
LINE
  5
321
100
AcDbEntity
  8
0
100
AcDbLine
 62
7
  6
CONTINUOUS
 10
13.5731050908
 20
11.4984046514
 11
13.4765488173
 21
11.4984046514
  0
LINE
  5
322
100
AcDbEntity
  8
0
100
AcDbLine
 62
7
  6
CONTINUOUS
 10
13.0756613643
 20
11.4984046514
 11
12.8825488173
 21
11.4984046514
  0
LINE
  5
323
100
AcDbEntity
  8
0
100
AcDbLine
 62
7
  6
CONTINUOUS
 10
12.4816613643
 20
11.4984046514
 11
12.3851050908
 21
11.4984046514
  0
LINE
  5
324
100
AcDbEntity
  8
0
100
AcDbLine
 62
7
  6
CONTINUOUS
 10
7.5731050908
 20
11.4984046514
 11
7.4765488173
 21
11.4984046514
  0
LINE
  5
325
100
AcDbEntity
  8
0
100
AcDbLine
 62
7
  6
CONTINUOUS
 10
7.0756613643
 20
11.4984046514
 11
6.8825488173
 21
11.4984046514
  0
LINE
  5
326
100
AcDbEntity
  8
0
100
AcDbLine
 62
7
  6
CONTINUOUS
 10
6.4816613643
 20
11.4984046514
 11
6.3851050908
 21
11.4984046514
  0
LINE
  5
327
100
AcDbEntity
  8
0
100
AcDbLine
 62
9
  6
CONTINUOUS
 10
12.488308077
 20
10.9869481301
 11
13.4977727996
 21
10.9868616412
  0
LINE
  5
328
100
AcDbEntity
  8
0
100
AcDbLine
 62
9
  6
CONTINUOUS
 10
15.2773453459
 20
7.3620845205
 11
15.2773453459
 21
8.1505831373
  0
LINE
  5
329
100
AcDbEntity
  8
0
100
AcDbLine
 62
7
  6
CONTINUOUS
 10
15.6211050908
 20
7.5378338289
 11
15.6211050908
 21
7.9748338289
  0
LINE
  5
32A
100
AcDbEntity
  8
0
100
AcDbLine
 62
7
  6
CONTINUOUS
 10
6.2381093372
 20
11.6153180809
 11
7.7201008443
 21
11.6153180809
  0
LINE
  5
32B
100
AcDbEntity
  8
0
100
AcDbLine
 62
7
  6
CONTINUOUS
 10
12.2381093372
 20
11.6153180809
 11
13.7201008443
 21
11.6153180809
  0
LINE
  5
32C
100
AcDbEntity
  8
0
100
AcDbLine
 62
7
  6
CONTINUOUS
 10
6.1671662584
 20
11.6773180809
 11
7.7909925335
 21
11.6773180809
  0
LINE
  5
32D
100
AcDbEntity
  8
0
100
AcDbLine
 62
7
  6
CONTINUOUS
 10
12.1671662584
 20
11.6773180809
 11
13.7909925335
 21
11.6773180809
  0
LINE
  5
32E
100
AcDbEntity
  8
0
100
AcDbLine
 62
7
  6
CONTINUOUS
 10
5.9791050908
 20
11.8644883708
 11
7.9791050908
 21
11.8644883708
  0
LINE
  5
32F
100
AcDbEntity
  8
0
100
AcDbLine
 62
7
  6
CONTINUOUS
 10
11.9791050908
 20
11.8644883708
 11
13.9791050908
 21
11.8644883708
  0
LINE
  5
330
100
AcDbEntity
  8
0
100
AcDbLine
 62
7
  6
CONTINUOUS
 10
14.1591015065
 20
12.0523180809
 11
11.7991086751
 21
12.0523180809
  0
LINE
  5
331
100
AcDbEntity
  8
0
100
AcDbLine
 62
7
  6
CONTINUOUS
 10
8.1591015065
 20
12.0523180809
 11
5.7991086751
 21
12.0523180809
  0
LINE
  5
332
100
AcDbEntity
  8
0
100
AcDbLine
 62
7
  6
CONTINUOUS
 10
13.5731050908
 20
11.5737488615
 11
13.5491050908
 21
11.6153180809
  0
LINE
  5
333
100
AcDbEntity
  8
0
100
AcDbLine
 62
9
  6
CONTINUOUS
 10
15.8140472553
 20
7.9725303572
 11
15.8140472553
 21
7.5401373006
  0
LINE
  5
334
100
AcDbEntity
  8
0
100
AcDbLine
 62
7
  6
CONTINUOUS
 10
15.9441050908
 20
7.5188338289
 11
15.9441050908
 21
7.9938338289
  0
ARC
  5
335
100
AcDbEntity
  8
0
100
AcDbCircle
 62
7
  6
CONTINUOUS
 10
6.0219145008
 20
6.0946831265
 40
1.5
100
AcDbArc
 50
70.2371945424
 51
101.0
  0
ARC
  5
336
100
AcDbEntity
  8
0
100
AcDbCircle
 62
7
  6
CONTINUOUS
 10
6.0219145008
 20
9.4179845313
 40
1.5
100
AcDbArc
 50
259.0
 51
289.7628054576
  0
ARC
  5
337
100
AcDbEntity
  8
0
100
AcDbCircle
 62
7
  6
CONTINUOUS
 10
6.5660373688
 20
10.1194035666
 40
1.4635681258
100
AcDbArc
 50
353.5068272904
 51
354.8326729671
  0
ARC
  5
338
100
AcDbEntity
  8
0
100
AcDbCircle
 62
7
  6
CONTINUOUS
 10
6.9783217249
 20
8.8082232086
 40
0.9481466503
100
AcDbArc
 50
89.9526617901
 51
93.1402731677
  0
ARC
  5
339
100
AcDbEntity
  8
0
100
AcDbCircle
 62
7
  6
CONTINUOUS
 10
5.9891436293
 20
9.329787326
 40
0.469
100
AcDbArc
 50
6.9248982442
 51
11.4110044489
  0
ARC
  5
33A
100
AcDbEntity
  8
0
100
AcDbCircle
 62
7
  6
CONTINUOUS
 10
6.3197237386
 20
8.205206433
 40
0.3578813522
100
AcDbArc
 50
322.2371948106
 51
30.9635622202
  0
ARC
  5
33B
100
AcDbEntity
  8
0
100
AcDbCircle
 62
7
  6
CONTINUOUS
 10
4.6211416201
 20
7.8433338289
 40
0.313
100
AcDbArc
 50
79.0
 51
155.157343983
  0
ARC
  5
33C
100
AcDbEntity
  8
0
100
AcDbCircle
 62
7
  6
CONTINUOUS
 10
4.6211416201
 20
7.6693338289
 40
0.313
100
AcDbArc
 50
204.842656017
 51
281.0
  0
ARC
  5
33D
100
AcDbEntity
  8
0
100
AcDbCircle
 62
7
  6
CONTINUOUS
 10
4.0920767478
 20
7.7563338289
 40
0.249971657
100
AcDbArc
 50
108.1750968409
 51
251.8249031591
  0
ARC
  5
33E
100
AcDbEntity
  8
0
100
AcDbCircle
 62
7
  6
CONTINUOUS
 10
4.2420051434
 20
7.6538338289
 40
0.15
100
AcDbArc
 50
229.2861651139
 51
309.3458297661
  0
ARC
  5
33F
100
AcDbEntity
  8
0
100
AcDbCircle
 62
7
  6
CONTINUOUS
 10
4.2420051434
 20
7.8588338289
 40
0.15
100
AcDbArc
 50
50.6541702339
 51
130.7138348861
  0
ARC
  5
340
100
AcDbEntity
  8
0
100
AcDbCircle
 62
7
  6
CONTINUOUS
 10
4.0880667218
 20
8.0377163668
 40
0.086
100
AcDbArc
 50
210.6812875935
 51
310.7138348857
  0
ARC
  5
341
100
AcDbEntity
  8
0
100
AcDbCircle
 62
7
  6
CONTINUOUS
 10
4.0880667218
 20
7.474951291
 40
0.086
100
AcDbArc
 50
49.2861651143
 51
149.3187124065
  0
ARC
  5
342
100
AcDbEntity
  8
0
100
AcDbCircle
 62
7
  6
CONTINUOUS
 10
6.7431050908
 20
7.2793338289
 40
0.056
100
AcDbArc
 50
0.0
 51
90.0
  0
ARC
  5
343
100
AcDbEntity
  8
0
100
AcDbCircle
 62
7
  6
CONTINUOUS
 10
6.6116050908
 20
8.5093338289
 40
0.05
100
AcDbArc
 50
186.9248982442
 51
270.0
  0
ARC
  5
344
100
AcDbEntity
  8
0
100
AcDbCircle
 62
7
  6
CONTINUOUS
 10
6.6956050908
 20
7.4063338289
 40
0.047
100
AcDbArc
 50
180.0
 51
270.0
  0
ARC
  5
345
100
AcDbEntity
  8
0
100
AcDbCircle
 62
7
  6
CONTINUOUS
 10
9.1416682248
 20
3.3998811122
 40
0.1275631494
100
AcDbArc
 50
176.7637247437
 51
180.0159325744
  0
ARC
  5
346
100
AcDbEntity
  8
0
100
AcDbCircle
 62
7
  6
CONTINUOUS
 10
8.621992111
 20
9.4398456399
 40
1.5
100
AcDbArc
 50
90.0
 51
114.853972259
  0
ARC
  5
347
100
AcDbEntity
  8
0
100
AcDbCircle
 62
9
  6
CONTINUOUS
 10
7.8086879754
 20
10.1023251243
 40
0.837560329
100
AcDbArc
 50
89.9297161493
 51
92.1192044212
  0
ARC
  5
348
100
AcDbEntity
  8
0
100
AcDbCircle
 62
9
  6
CONTINUOUS
 10
9.8983892851
 20
9.8867960577
 40
0.6830407756
100
AcDbArc
 50
337.6739947977
 51
348.7084110225
  0
ARC
  5
349
100
AcDbEntity
  8
0
100
AcDbCircle
 62
9
  6
CONTINUOUS
 10
9.9204680551
 20
9.8783603596
 40
0.6594128264
100
AcDbArc
 50
337.0862307263
 51
337.6232637456
  0
ARC
  5
34A
100
AcDbEntity
  8
0
100
AcDbCircle
 62
7
  6
CONTINUOUS
 10
7.9690665523
 20
9.329787326
 40
0.469
100
AcDbArc
 50
142.0339977482
 51
173.0751017558
  0
ARC
  5
34B
100
AcDbEntity
  8
0
100
AcDbCircle
 62
7
  6
CONTINUOUS
 10
7.0591050908
 20
7.7563943062
 40
0.375
100
AcDbArc
 50
311.9128908834
 51
37.7628051894
  0
ARC
  5
34C
100
AcDbEntity
  8
0
100
AcDbCircle
 62
7
  6
CONTINUOUS
 10
7.638486443
 20
8.205206433
 40
0.3578813522
100
AcDbArc
 50
149.0364377798
 51
217.7628051894
  0
ARC
  5
34D
100
AcDbEntity
  8
0
100
AcDbCircle
 62
7
  6
CONTINUOUS
 10
7.6660320395
 20
9.7098456399
 40
0.35
100
AcDbArc
 50
53.2130265183
 51
90.0
  0
ARC
  5
34E
100
AcDbEntity
  8
0
100
AcDbCircle
 62
7
  6
CONTINUOUS
 10
7.7395204482
 20
9.79550134
 40
0.2514531525
100
AcDbArc
 50
84.8923656229
 51
102.5300047106
  0
ARC
  5
34F
100
AcDbEntity
  8
0
100
AcDbCircle
 62
7
  6
CONTINUOUS
 10
9.1790121009
 20
9.6207635247
 40
0.2500996743
100
AcDbArc
 50
0.0194841698
 51
75.1521620718
  0
ARC
  5
350
100
AcDbEntity
  8
0
100
AcDbCircle
 62
7
  6
CONTINUOUS
 10
7.739378462
 20
9.7969841407
 40
0.2499753754
100
AcDbArc
 50
102.5719701594
 51
181.1698379668
  0
ARC
  5
351
100
AcDbEntity
  8
0
100
AcDbCircle
 62
7
  6
CONTINUOUS
 10
7.5256050908
 20
9.6758338289
 40
0.0935
100
AcDbArc
 50
322.0339977482
 51
90.0
  0
ARC
  5
352
100
AcDbEntity
  8
0
100
AcDbCircle
 62
9
  6
CONTINUOUS
 10
7.8152026595
 20
9.8667041855
 40
0.0852865055
100
AcDbArc
 50
90.0709220938
 51
109.3227816602
  0
ARC
  5
353
100
AcDbEntity
  8
0
100
AcDbCircle
 62
9
  6
CONTINUOUS
 10
7.8500875846
 20
9.911353004
 40
0.0850795842
100
AcDbArc
 50
90.0496662129
 51
112.4447165551
  0
ARC
  5
354
100
AcDbEntity
  8
0
100
AcDbCircle
 62
7
  6
CONTINUOUS
 10
7.8855699126
 20
9.8474111386
 40
0.0850085481
100
AcDbArc
 50
270.0029778996
 51
321.8413221677
  0
ARC
  5
355
100
AcDbEntity
  8
0
100
AcDbCircle
 62
7
  6
CONTINUOUS
 10
7.8157448476
 20
9.8474020487
 40
0.0850000002
100
AcDbArc
 50
180.3548505519
 51
269.9999998384
  0
ARC
  5
356
100
AcDbEntity
  8
0
100
AcDbCircle
 62
7
  6
CONTINUOUS
 10
7.8156211118
 20
9.8673238601
 40
0.0849996124
100
AcDbArc
 50
141.8442472996
 51
180.352153316
  0
ARC
  5
357
100
AcDbEntity
  8
0
100
AcDbCircle
 62
9
  6
CONTINUOUS
 10
7.9202289115
 20
9.9112084069
 40
0.0849335535
100
AcDbArc
 50
0.3758911297
 51
29.5439210979
  0
ARC
  5
358
100
AcDbEntity
  8
0
100
AcDbCircle
 62
9
  6
CONTINUOUS
 10
7.9211452746
 20
9.8912863744
 40
0.0841401677
100
AcDbArc
 50
321.8676563495
 51
0.3797051725
  0
ARC
  5
359
100
AcDbEntity
  8
0
100
AcDbCircle
 62
9
  6
CONTINUOUS
 10
7.8862285301
 20
9.8468444439
 40
0.0841401676
100
AcDbArc
 50
321.867656336
 51
0.3797051909
  0
ARC
  5
35A
100
AcDbEntity
  8
0
100
AcDbCircle
 62
9
  6
CONTINUOUS
 10
7.8498065702
 20
9.9123154986
 40
0.0840827801
100
AcDbArc
 50
112.5181366094
 51
141.8309352414
  0
ARC
  5
35B
100
AcDbEntity
  8
0
100
AcDbCircle
 62
9
  6
CONTINUOUS
 10
7.8148690147
 20
9.867892645
 40
0.0840546296
100
AcDbArc
 50
109.3762219939
 51
141.8323920834
  0
ARC
  5
35C
100
AcDbEntity
  8
0
100
AcDbCircle
 62
7
  6
CONTINUOUS
 10
9.5341050908
 20
8.2663023328
 40
0.08
100
AcDbArc
 50
0.0
 51
90.0
  0
ARC
  5
35D
100
AcDbEntity
  8
0
100
AcDbCircle
 62
7
  6
CONTINUOUS
 10
7.2151050908
 20
7.2793338289
 40
0.056
100
AcDbArc
 50
90.0
 51
180.0
  0
ARC
  5
35E
100
AcDbEntity
  8
0
100
AcDbCircle
 62
7
  6
CONTINUOUS
 10
7.44717232
 20
9.8205149313
 40
0.0511811024
100
AcDbArc
 50
270.0
 51
325.695708008
  0
ARC
  5
35F
100
AcDbEntity
  8
0
100
AcDbCircle
 62
7
  6
CONTINUOUS
 10
7.3466050908
 20
8.5093338289
 40
0.05
100
AcDbArc
 50
270.0
 51
353.0751017558
  0
ARC
  5
360
100
AcDbEntity
  8
0
100
AcDbCircle
 62
7
  6
CONTINUOUS
 10
7.2626050908
 20
7.4063338289
 40
0.047
100
AcDbArc
 50
270.0
 51
360.0
  0
ARC
  5
361
100
AcDbEntity
  8
0
100
AcDbCircle
 62
7
  6
CONTINUOUS
 10
9.4591050908
 20
8.3763023328
 40
0.03
100
AcDbArc
 50
180.0
 51
270.0
  0
ARC
  5
362
100
AcDbEntity
  8
0
100
AcDbCircle
 62
7
  6
CONTINUOUS
 10
9.6444200514
 20
8.2466172935
 40
0.0196850394
100
AcDbArc
 50
0.0
 51
90.0
  0
ARC
  5
363
100
AcDbEntity
  8
0
100
AcDbCircle
 62
7
  6
CONTINUOUS
 10
10.5346037321
 20
-23.694912154
 40
34.379511543
100
AcDbArc
 50
85.2638773696
 51
85.6495328451
  0
ARC
  5
364
100
AcDbEntity
  8
0
100
AcDbCircle
 62
7
  6
CONTINUOUS
 10
10.8168876844
 20
3.3999005792
 40
0.1272167838
100
AcDbArc
 50
359.9881241155
 51
3.2054606436
  0
ARC
  5
365
100
AcDbEntity
  8
0
100
AcDbCircle
 62
9
  6
CONTINUOUS
 10
10.8234789487
 20
3.4002716543
 40
0.1206190301
100
AcDbArc
 50
346.594084517
 51
359.8684651372
  0
ARC
  5
366
100
AcDbEntity
  8
0
100
AcDbCircle
 62
7
  6
CONTINUOUS
 10
10.4241050908
 20
8.2663023328
 40
0.08
100
AcDbArc
 50
90.0
 51
180.0
  0
ARC
  5
367
100
AcDbEntity
  8
0
100
AcDbCircle
 62
7
  6
CONTINUOUS
 10
10.4991050908
 20
8.3763023328
 40
0.03
100
AcDbArc
 50
270.0
 51
360.0
  0
ARC
  5
368
100
AcDbEntity
  8
0
100
AcDbCircle
 62
7
  6
CONTINUOUS
 10
10.3137901301
 20
8.2466172935
 40
0.0196850394
100
AcDbArc
 50
90.0
 51
180.0
  0
ARC
  5
369
100
AcDbEntity
  8
0
100
AcDbCircle
 62
7
  6
CONTINUOUS
 10
10.8070710606
 20
9.4398456399
 40
1.5
100
AcDbArc
 50
64.2163806705
 51
90.0
  0
ARC
  5
36A
100
AcDbEntity
  8
0
100
AcDbCircle
 62
9
  6
CONTINUOUS
 10
10.0598210124
 20
9.8867960798
 40
0.6830408912
100
AcDbArc
 50
191.2906603397
 51
202.3260032219
  0
ARC
  5
36B
100
AcDbEntity
  8
0
100
AcDbCircle
 62
9
  6
CONTINUOUS
 10
10.0377418537
 20
9.8783602463
 40
0.659412531
100
AcDbArc
 50
202.3767361748
 51
202.9138851119
  0
ARC
  5
36C
100
AcDbEntity
  8
0
100
AcDbCircle
 62
9
  6
CONTINUOUS
 10
10.1204131356
 20
10.361268828
 40
0.5980955269
100
AcDbArc
 50
302.1822832509
 51
302.9570251595
  0
ARC
  5
36D
100
AcDbEntity
  8
0
100
AcDbCircle
 62
7
  6
CONTINUOUS
 10
11.2955315858
 20
10.3438456399
 40
0.425
100
AcDbArc
 50
292.0191155054
 51
301.9657187508
  0
ARC
  5
36E
100
AcDbEntity
  8
0
100
AcDbCircle
 62
9
  6
CONTINUOUS
 10
10.7208883844
 20
9.6569476047
 40
0.2918534439
100
AcDbArc
 50
135.3976154805
 51
143.5352365686
  0
ARC
  5
36F
100
AcDbEntity
  8
0
100
AcDbCircle
 62
7
  6
CONTINUOUS
 10
10.7792059997
 20
9.6207612077
 40
0.2501046536
100
AcDbArc
 50
104.8499963528
 51
179.9799854118
  0
ARC
  5
370
100
AcDbEntity
  8
0
100
AcDbCircle
 62
7
  6
CONTINUOUS
 10
12.8991050908
 20
7.7563943062
 40
0.375
100
AcDbArc
 50
142.2371948106
 51
228.0871091166
  0
ARC
  5
371
100
AcDbEntity
  8
0
100
AcDbCircle
 62
7
  6
CONTINUOUS
 10
12.3197237386
 20
8.205206433
 40
0.3578813522
100
AcDbArc
 50
322.2371948106
 51
30.9635622202
  0
ARC
  5
372
100
AcDbEntity
  8
0
100
AcDbCircle
 62
7
  6
CONTINUOUS
 10
12.7431050908
 20
7.2793338289
 40
0.056
100
AcDbArc
 50
0.0
 51
90.0
  0
ARC
  5
373
100
AcDbEntity
  8
0
100
AcDbCircle
 62
7
  6
CONTINUOUS
 10
12.6116050908
 20
8.5093338289
 40
0.05
100
AcDbArc
 50
186.9248982442
 51
270.0
  0
ARC
  5
374
100
AcDbEntity
  8
0
100
AcDbCircle
 62
7
  6
CONTINUOUS
 10
12.6956050908
 20
7.4063338289
 40
0.047
100
AcDbArc
 50
180.0
 51
270.0
  0
ARC
  5
375
100
AcDbEntity
  8
0
100
AcDbCircle
 62
9
  6
CONTINUOUS
 10
12.1493988237
 20
10.122246758
 40
0.837560329
100
AcDbArc
 50
87.8807955788
 51
90.0702838507
  0
ARC
  5
376
100
AcDbEntity
  8
0
100
AcDbCircle
 62
7
  6
CONTINUOUS
 10
11.9891436293
 20
9.329787326
 40
0.469
100
AcDbArc
 50
6.9248982442
 51
37.9660022518
  0
ARC
  5
377
100
AcDbEntity
  8
0
100
AcDbCircle
 62
7
  6
CONTINUOUS
 10
11.7631455133
 20
9.6077064395
 40
0.433
100
AcDbArc
 50
57.9057842818
 51
118.0498776996
  0
ARC
  5
378
100
AcDbEntity
  8
0
100
AcDbCircle
 62
7
  6
CONTINUOUS
 10
12.2179156211
 20
9.7967920697
 40
0.2508960713
100
AcDbArc
 50
358.8300330019
 51
2.9284925763
  0
ARC
  5
379
100
AcDbEntity
  8
0
100
AcDbCircle
 62
7
  6
CONTINUOUS
 10
12.2189320896
 20
9.7970236723
 40
0.2498703276
100
AcDbArc
 50
2.8873626532
 51
39.9443168563
  0
ARC
  5
37A
100
AcDbEntity
  8
0
100
AcDbCircle
 62
7
  6
CONTINUOUS
 10
12.1234223293
 20
9.8718673401
 40
0.1045375013
100
AcDbArc
 50
87.198560307
 51
89.720367217
  0
ARC
  5
37B
100
AcDbEntity
  8
0
100
AcDbCircle
 62
7
  6
CONTINUOUS
 10
12.4326050908
 20
9.6758338289
 40
0.0935
100
AcDbArc
 50
90.0
 51
217.9660022518
  0
ARC
  5
37C
100
AcDbEntity
  8
0
100
AcDbCircle
 62
9
  6
CONTINUOUS
 10
12.0380935166
 20
9.9111856096
 40
0.0850459501
100
AcDbArc
 50
127.8752920406
 51
179.609246715
  0
ARC
  5
37D
100
AcDbEntity
  8
0
100
AcDbCircle
 62
9
  6
CONTINUOUS
 10
12.1079652913
 20
9.9114708137
 40
0.0850169962
100
AcDbArc
 50
50.767487748
 51
70.6936171293
  0
ARC
  5
37E
100
AcDbEntity
  8
0
100
AcDbCircle
 62
7
  6
CONTINUOUS
 10
12.0726402721
 20
9.847411145
 40
0.0850085555
100
AcDbArc
 50
218.1586799263
 51
269.9970200064
  0
ARC
  5
37F
100
AcDbEntity
  8
0
100
AcDbCircle
 62
7
  6
CONTINUOUS
 10
12.142588491
 20
9.8673236049
 40
0.0850002251
100
AcDbArc
 50
359.6452026229
 51
38.1556469147
  0
ARC
  5
380
100
AcDbEntity
  8
0
100
AcDbCircle
 62
7
  6
CONTINUOUS
 10
12.1425812401
 20
9.8472821594
 40
0.0848331834
100
AcDbArc
 50
270.0156464176
 51
359.6329573576
  0
ARC
  5
381
100
AcDbEntity
  8
0
100
AcDbCircle
 62
9
  6
CONTINUOUS
 10
12.037064907
 20
9.8912863744
 40
0.0841401699
100
AcDbArc
 50
179.6202948
 51
218.1323436314
  0
ARC
  5
382
100
AcDbEntity
  8
0
100
AcDbCircle
 62
9
  6
CONTINUOUS
 10
12.0719816515
 20
9.8468444439
 40
0.0841401677
100
AcDbArc
 50
179.6202948322
 51
218.132343635
  0
ARC
  5
383
100
AcDbEntity
  8
0
100
AcDbCircle
 62
9
  6
CONTINUOUS
 10
12.1434743974
 20
9.8680487719
 40
0.0838534118
100
AcDbArc
 50
38.1399921064
 51
90.0512370531
  0
ARC
  5
384
100
AcDbEntity
  8
0
100
AcDbCircle
 62
9
  6
CONTINUOUS
 10
12.1089349391
 20
9.9127997203
 40
0.0833744199
100
AcDbArc
 50
38.1330954448
 51
50.7060395435
  0
ARC
  5
385
100
AcDbEntity
  8
0
100
AcDbCircle
 62
9
  6
CONTINUOUS
 10
12.1085791903
 20
9.9133511959
 40
0.0830394027
100
AcDbArc
 50
70.6644203664
 51
76.0971551446
  0
ARC
  5
386
100
AcDbEntity
  8
0
100
AcDbCircle
 62
7
  6
CONTINUOUS
 10
12.5110378615
 20
9.8205149313
 40
0.0511811024
100
AcDbArc
 50
214.3042919925
 51
270.0
  0
ARC
  5
387
100
AcDbEntity
  8
0
100
AcDbCircle
 62
7
  6
CONTINUOUS
 10
12.8775315858
 20
10.0210956399
 40
0.035
100
AcDbArc
 50
177.9532869023
 51
265.9039562418
  0
ARC
  5
388
100
AcDbEntity
  8
0
100
AcDbCircle
 62
7
  6
CONTINUOUS
 10
12.8775315858
 20
10.0210956399
 40
0.035
100
AcDbArc
 50
274.0960437582
 51
332.7298233178
  0
ARC
  5
389
100
AcDbEntity
  8
0
100
AcDbCircle
 62
7
  6
CONTINUOUS
 10
13.9362956807
 20
6.0946831265
 40
1.5
100
AcDbArc
 50
79.0
 51
109.7628054576
  0
ARC
  5
38A
100
AcDbEntity
  8
0
100
AcDbCircle
 62
7
  6
CONTINUOUS
 10
14.5034213169
 20
10.2223265184
 40
2.337794336
100
AcDbArc
 50
183.7560916883
 51
184.5256173218
  0
ARC
  5
38B
100
AcDbEntity
  8
0
100
AcDbCircle
 62
7
  6
CONTINUOUS
 10
13.9362956807
 20
9.4179845313
 40
1.5
100
AcDbArc
 50
250.2371945424
 51
281.0
  0
ARC
  5
38C
100
AcDbEntity
  8
0
100
AcDbCircle
 62
7
  6
CONTINUOUS
 10
13.9690665523
 20
9.329787326
 40
0.469
100
AcDbArc
 50
142.0339977482
 51
173.0751017558
  0
ARC
  5
38D
100
AcDbEntity
  8
0
100
AcDbCircle
 62
7
  6
CONTINUOUS
 10
13.638486443
 20
8.205206433
 40
0.3578813522
100
AcDbArc
 50
149.0364377798
 51
217.7628051894
  0
ARC
  5
38E
100
AcDbEntity
  8
0
100
AcDbCircle
 62
7
  6
CONTINUOUS
 10
15.3370685614
 20
7.8433338289
 40
0.313
100
AcDbArc
 50
24.842656017
 51
101.0
  0
ARC
  5
38F
100
AcDbEntity
  8
0
100
AcDbCircle
 62
7
  6
CONTINUOUS
 10
15.3370685614
 20
7.6693338289
 40
0.313
100
AcDbArc
 50
259.0
 51
335.157343983
  0
ARC
  5
390
100
AcDbEntity
  8
0
100
AcDbCircle
 62
7
  6
CONTINUOUS
 10
15.8661334338
 20
7.7563338289
 40
0.249971657
100
AcDbArc
 50
288.1750968409
 51
71.8249031591
  0
ARC
  5
391
100
AcDbEntity
  8
0
100
AcDbCircle
 62
7
  6
CONTINUOUS
 10
15.7162050382
 20
7.6538338289
 40
0.15
100
AcDbArc
 50
230.6541702339
 51
310.7138348861
  0
ARC
  5
392
100
AcDbEntity
  8
0
100
AcDbCircle
 62
7
  6
CONTINUOUS
 10
15.7162050382
 20
7.8588338289
 40
0.15
100
AcDbArc
 50
49.2861651139
 51
129.3458297661
  0
ARC
  5
393
100
AcDbEntity
  8
0
100
AcDbCircle
 62
7
  6
CONTINUOUS
 10
13.5256050908
 20
9.6758338289
 40
0.0935
100
AcDbArc
 50
322.0339977482
 51
90.0
  0
ARC
  5
394
100
AcDbEntity
  8
0
100
AcDbCircle
 62
7
  6
CONTINUOUS
 10
15.8701434597
 20
8.0377163668
 40
0.086
100
AcDbArc
 50
229.2861651143
 51
329.3187124065
  0
ARC
  5
395
100
AcDbEntity
  8
0
100
AcDbCircle
 62
7
  6
CONTINUOUS
 10
15.8701434597
 20
7.474951291
 40
0.086
100
AcDbArc
 50
30.6812875935
 51
130.7138348857
  0
ARC
  5
396
100
AcDbEntity
  8
0
100
AcDbCircle
 62
7
  6
CONTINUOUS
 10
13.2151050908
 20
7.2793338289
 40
0.056
100
AcDbArc
 50
90.0
 51
180.0
  0
ARC
  5
397
100
AcDbEntity
  8
0
100
AcDbCircle
 62
7
  6
CONTINUOUS
 10
13.44717232
 20
9.8205149313
 40
0.0511811024
100
AcDbArc
 50
270.0
 51
351.3638693749
  0
ARC
  5
398
100
AcDbEntity
  8
0
100
AcDbCircle
 62
7
  6
CONTINUOUS
 10
13.3466050908
 20
8.5093338289
 40
0.05
100
AcDbArc
 50
270.0
 51
353.0751017558
  0
ARC
  5
399
100
AcDbEntity
  8
0
100
AcDbCircle
 62
7
  6
CONTINUOUS
 10
13.2626050908
 20
7.4063338289
 40
0.047
100
AcDbArc
 50
270.0
 51
360.0
  0
ARC
  5
39A
100
AcDbEntity
  8
0
100
AcDbCircle
 62
7
  6
CONTINUOUS
 10
13.3725315858
 20
10.0091802698
 40
0.02
100
AcDbArc
 50
271.9382038126
 51
360.0
  0
ARC
  5
39B
100
AcDbEntity
  8
0
100
AcDbCircle
 62
7
  6
CONTINUOUS
 10
6.1365498414
 20
10.447834268
 40
6.0692022483
100
AcDbArc
 50
2.191272289
 51
2.5028345817
  0
ARC
  5
39C
100
AcDbEntity
  8
0
100
AcDbCircle
 62
7
  6
CONTINUOUS
 10
6.3365676664
 20
10.6486113817
 40
1.4531423962
100
AcDbArc
 50
4.5063255326
 51
5.873303156
  0
ARC
  5
39D
100
AcDbEntity
  8
0
100
AcDbCircle
 62
7
  6
CONTINUOUS
 10
6.1115315858
 20
10.3998456399
 40
1.04
100
AcDbArc
 50
19.2273138642
 51
340.7922279637
  0
ARC
  5
39E
100
AcDbEntity
  8
0
100
AcDbCircle
 62
9
  6
CONTINUOUS
 10
6.1115315858
 20
10.3998456399
 40
1.0277893215
100
AcDbArc
 50
19.4427643499
 51
340.5556411479
  0
ARC
  5
39F
100
AcDbEntity
  8
0
100
AcDbCircle
 62
9
  6
CONTINUOUS
 10
6.1115315858
 20
10.3998456399
 40
0.840293406
100
AcDbArc
 50
23.9306738939
 51
336.0657848045
  0
ARC
  5
3A0
100
AcDbEntity
  8
0
100
AcDbCircle
 62
9
  6
CONTINUOUS
 10
6.1115315858
 20
10.3998456399
 40
0.7923149729
100
AcDbArc
 50
25.6561536699
 51
334.4730139884
  0
CIRCLE
  5
3A1
100
AcDbEntity
  8
0
100
AcDbCircle
 62
9
  6
CONTINUOUS
 10
6.1115315858
 20
10.3998456399
 40
0.0291338583
  0
ARC
  5
3A2
100
AcDbEntity
  8
0
100
AcDbCircle
 62
7
  6
CONTINUOUS
 10
8.3533477135
 20
10.5455664763
 40
3.850250469
100
AcDbArc
 50
2.5410496032
 51
2.7853783931
  0
ARC
  5
3A3
100
AcDbEntity
  8
0
100
AcDbCircle
 62
9
  6
CONTINUOUS
 10
7.8088113578
 20
10.6774445219
 40
0.837560329
100
AcDbArc
 50
267.8807955788
 51
270.0702838507
  0
ARC
  5
3A4
100
AcDbEntity
  8
0
100
AcDbCircle
 62
9
  6
CONTINUOUS
 10
7.657521879
 20
10.7924058014
 40
0.3627163467
100
AcDbArc
 50
9.7372993817
 51
10.3917088665
  0
ARC
  5
3A5
100
AcDbEntity
  8
0
100
AcDbCircle
 62
7
  6
CONTINUOUS
 10
7.6660320395
 20
11.0898456399
 40
0.35
100
AcDbArc
 50
270.0
 51
306.7869734806
  0
ARC
  5
3A6
100
AcDbEntity
  8
0
100
AcDbCircle
 62
9
  6
CONTINUOUS
 10
7.7003954553
 20
10.8001981616
 40
0.319140447
100
AcDbArc
 50
10.4040700503
 51
10.6664281302
  0
ARC
  5
3A7
100
AcDbEntity
  8
0
100
AcDbCircle
 62
7
  6
CONTINUOUS
 10
7.7395204482
 20
11.0041899405
 40
0.2514531531
100
AcDbArc
 50
257.4699652911
 51
275.1076362228
  0
ARC
  5
3A8
100
AcDbEntity
  8
0
100
AcDbCircle
 62
7
  6
CONTINUOUS
 10
7.7393784517
 20
11.002707124
 40
0.2499753588
100
AcDbArc
 50
178.8300120532
 51
257.4280011747
  0
ARC
  5
3A9
100
AcDbEntity
  8
0
100
AcDbCircle
 62
9
  6
CONTINUOUS
 10
7.8500875846
 20
10.8883382759
 40
0.0850795842
100
AcDbArc
 50
247.5552834448
 51
269.9503337871
  0
ARC
  5
3AA
100
AcDbEntity
  8
0
100
AcDbCircle
 62
7
  6
CONTINUOUS
 10
7.8855699095
 20
10.9522801349
 40
0.0850085555
100
AcDbArc
 50
38.1586799171
 51
89.9970200143
  0
ARC
  5
3AB
100
AcDbEntity
  8
0
100
AcDbCircle
 62
7
  6
CONTINUOUS
 10
7.8156214779
 20
10.9323676038
 40
0.0850000139
100
AcDbArc
 50
179.662054736
 51
218.1556977803
  0
ARC
  5
3AC
100
AcDbEntity
  8
0
100
AcDbCircle
 62
7
  6
CONTINUOUS
 10
7.8157448477
 20
10.9522892311
 40
0.0850000003
100
AcDbArc
 50
90.0000002052
 51
179.6451494044
  0
ARC
  5
3AD
100
AcDbEntity
  8
0
100
AcDbCircle
 62
9
  6
CONTINUOUS
 10
7.9202253627
 20
10.8884793025
 40
0.0849370789
100
AcDbArc
 50
327.1152012403
 51
359.6265330703
  0
ARC
  5
3AE
100
AcDbEntity
  8
0
100
AcDbCircle
 62
9
  6
CONTINUOUS
 10
7.9211452746
 20
10.9084049055
 40
0.0841401677
100
AcDbArc
 50
359.6202948159
 51
38.1323436511
  0
ARC
  5
3AF
100
AcDbEntity
  8
0
100
AcDbCircle
 62
9
  6
CONTINUOUS
 10
7.8498065702
 20
10.8873757812
 40
0.0840827801
100
AcDbArc
 50
218.1690647585
 51
247.4818633905
  0
ARC
  5
3B0
100
AcDbEntity
  8
0
100
AcDbCircle
 62
9
  6
CONTINUOUS
 10
7.8147357842
 20
10.931642508
 40
0.0838534118
100
AcDbArc
 50
218.1399920939
 51
270.0512370531
  0
ARC
  5
3B1
100
AcDbEntity
  8
0
100
AcDbCircle
 62
9
  6
CONTINUOUS
 10
7.88719645
 20
10.9527975244
 40
0.0831723784
100
AcDbArc
 50
359.6498450236
 51
38.1419811792
  0
ARC
  5
3B2
100
AcDbEntity
  8
0
100
AcDbCircle
 62
7
  6
CONTINUOUS
 10
7.44717232
 20
10.9791763486
 40
0.0511811024
100
AcDbArc
 50
34.304291992
 51
90.0
  0
ARC
  5
3B3
100
AcDbEntity
  8
0
100
AcDbCircle
 62
7
  6
CONTINUOUS
 10
8.621992111
 20
11.3598456399
 40
1.5
100
AcDbArc
 50
245.146027741
 51
270.0
  0
ARC
  5
3B4
100
AcDbEntity
  8
0
100
AcDbCircle
 62
7
  6
CONTINUOUS
 10
7.9711050908
 20
12.0523180809
 40
0.188
100
AcDbArc
 50
272.438854691
 51
360.0
  0
ARC
  5
3B5
100
AcDbEntity
  8
0
100
AcDbCircle
 62
7
  6
CONTINUOUS
 10
5.9871050908
 20
12.0523180809
 40
0.188
100
AcDbArc
 50
180.0
 51
267.561145309
  0
ARC
  5
3B6
100
AcDbEntity
  8
0
100
AcDbCircle
 62
7
  6
CONTINUOUS
 10
6.1671032599
 20
11.8653180809
 40
0.188
100
AcDbArc
 50
180.2528672439
 51
270.0
  0
ARC
  5
3B7
100
AcDbEntity
  8
0
100
AcDbCircle
 62
7
  6
CONTINUOUS
 10
7.7911069217
 20
11.8653180809
 40
0.188
100
AcDbArc
 50
270.0
 51
359.7471327561
  0
ARC
  5
3B8
100
AcDbEntity
  8
0
100
AcDbCircle
 62
7
  6
CONTINUOUS
 10
9.6327964142
 20
10.3998456399
 40
3.9093008025
100
AcDbArc
 50
351.3638693749
 51
356.0277811809
  0
ARC
  5
3B9
100
AcDbEntity
  8
0
100
AcDbCircle
 62
7
  6
CONTINUOUS
 10
9.6327964142
 20
10.3998456399
 40
3.9093008025
100
AcDbArc
 50
3.9722162833
 51
8.636130625
  0
ARC
  5
3BA
100
AcDbEntity
  8
0
100
AcDbCircle
 62
7
  6
CONTINUOUS
 10
9.5063897791
 20
10.6022189943
 40
2.6958176754
100
AcDbArc
 50
2.7736113718
 51
3.1083742228
  0
ARC
  5
3BB
100
AcDbEntity
  8
0
100
AcDbCircle
 62
7
  6
CONTINUOUS
 10
9.9791050908
 20
10.3998456399
 40
0.7283464567
100
AcDbArc
 50
53.9759864651
 51
126.0200548361
  0
ARC
  5
3BC
100
AcDbEntity
  8
0
100
AcDbCircle
 62
7
  6
CONTINUOUS
 10
9.9791080872
 20
10.3998577485
 40
0.6799839324
100
AcDbArc
 50
52.7526878395
 51
126.7175947732
  0
ARC
  5
3BD
100
AcDbEntity
  8
0
100
AcDbCircle
 62
7
  6
CONTINUOUS
 10
9.9791097835
 20
10.3998309971
 40
0.679982307
100
AcDbArc
 50
233.2760297452
 51
307.2709830093
  0
ARC
  5
3BE
100
AcDbEntity
  8
0
100
AcDbCircle
 62
7
  6
CONTINUOUS
 10
11.7631455133
 20
11.1919848404
 40
0.433
100
AcDbArc
 50
241.9501223004
 51
302.0942157182
  0
ARC
  5
3BF
100
AcDbEntity
  8
0
100
AcDbCircle
 62
7
  6
CONTINUOUS
 10
11.2955315858
 20
10.4558456399
 40
0.425
100
AcDbArc
 50
58.0342812492
 51
67.9808844946
  0
ARC
  5
3C0
100
AcDbEntity
  8
0
100
AcDbCircle
 62
9
  6
CONTINUOUS
 10
10.1613249061
 20
10.7131914471
 40
0.371279796
100
AcDbArc
 50
37.86193832
 51
39.0063706083
  0
ARC
  5
3C1
100
AcDbEntity
  8
0
100
AcDbCircle
 62
9
  6
CONTINUOUS
 10
10.3234405586
 20
10.8736580983
 40
0.1426324016
100
AcDbArc
 50
51.0150370817
 51
53.8658583587
  0
ARC
  5
3C2
100
AcDbEntity
  8
0
100
AcDbCircle
 62
7
  6
CONTINUOUS
 10
10.8070710606
 20
11.3598456399
 40
1.5
100
AcDbArc
 50
270.0
 51
295.7836193295
  0
ARC
  5
3C3
100
AcDbEntity
  8
0
100
AcDbCircle
 62
7
  6
CONTINUOUS
 10
10.5346733632
 20
44.4937582484
 40
34.378666467
100
AcDbArc
 50
274.3504579184
 51
274.7360984955
  0
ARC
  5
3C4
100
AcDbEntity
  8
0
100
AcDbCircle
 62
7
  6
CONTINUOUS
 10
14.3669114134
 20
10.5872266983
 40
2.2009318502
100
AcDbArc
 50
175.4127244838
 51
176.2691476308
  0
ARC
  5
3C5
100
AcDbEntity
  8
0
100
AcDbCircle
 62
7
  6
CONTINUOUS
 10
13.6178772835
 20
10.6489808915
 40
1.4493591183
100
AcDbArc
 50
174.1259962455
 51
175.4779700248
  0
ARC
  5
3C6
100
AcDbEntity
  8
0
100
AcDbCircle
 62
9
  6
CONTINUOUS
 10
12.1495222061
 20
10.6973661556
 40
0.837560329
100
AcDbArc
 50
269.9297161493
 51
272.1192044212
  0
ARC
  5
3C7
100
AcDbEntity
  8
0
100
AcDbCircle
 62
7
  6
CONTINUOUS
 10
17.9825315858
 20
10.3998456399
 40
0.27
100
AcDbArc
 50
270.0
 51
90.0
  0
ARC
  5
3C8
100
AcDbEntity
  8
0
100
AcDbCircle
 62
7
  6
CONTINUOUS
 10
12.2179204427
 20
11.0028991779
 40
0.2508912515
100
AcDbArc
 50
357.0916776835
 51
1.1698379516
  0
ARC
  5
3C9
100
AcDbEntity
  8
0
100
AcDbCircle
 62
7
  6
CONTINUOUS
 10
12.2189315448
 20
11.0026678741
 40
0.2498709262
100
AcDbArc
 50
320.0557283012
 51
357.1328844113
  0
ARC
  5
3CA
100
AcDbEntity
  8
0
100
AcDbCircle
 62
7
  6
CONTINUOUS
 10
13.9711050908
 20
12.0523180809
 40
0.188
100
AcDbArc
 50
272.438854691
 51
360.0
  0
ARC
  5
3CB
100
AcDbEntity
  8
0
100
AcDbCircle
 62
7
  6
CONTINUOUS
 10
11.9871050908
 20
12.0523180809
 40
0.188
100
AcDbArc
 50
180.0
 51
267.561145309
  0
ARC
  5
3CC
100
AcDbEntity
  8
0
100
AcDbCircle
 62
7
  6
CONTINUOUS
 10
12.1671032599
 20
11.8653180809
 40
0.188
100
AcDbArc
 50
180.2528672439
 51
270.0
  0
ARC
  5
3CD
100
AcDbEntity
  8
0
100
AcDbCircle
 62
7
  6
CONTINUOUS
 10
13.7911069217
 20
11.8653180809
 40
0.188
100
AcDbArc
 50
270.0
 51
359.7471327561
  0
ARC
  5
3CE
100
AcDbEntity
  8
0
100
AcDbCircle
 62
7
  6
CONTINUOUS
 10
12.1234223293
 20
10.9278239397
 40
0.1045375013
100
AcDbArc
 50
270.2796327831
 51
272.8014396929
  0
ARC
  5
3CF
100
AcDbEntity
  8
0
100
AcDbCircle
 62
7
  6
CONTINUOUS
 10
12.0726402689
 20
10.9522801413
 40
0.0850085481
100
AcDbArc
 50
90.0029778941
 51
141.841322179
  0
ARC
  5
3D0
100
AcDbEntity
  8
0
100
AcDbCircle
 62
7
  6
CONTINUOUS
 10
12.1425975485
 20
10.9323645737
 40
0.084991187
100
AcDbArc
 50
321.8422246915
 51
0.3569257697
  0
ARC
  5
3D1
100
AcDbEntity
  8
0
100
AcDbCircle
 62
7
  6
CONTINUOUS
 10
12.142581619
 20
10.9524097925
 40
0.0848324408
100
AcDbArc
 50
0.3671058392
 51
89.984499677
  0
ARC
  5
3D2
100
AcDbEntity
  8
0
100
AcDbCircle
 62
9
  6
CONTINUOUS
 10
12.0719816515
 20
10.9528468359
 40
0.0841401677
100
AcDbArc
 50
141.867656361
 51
180.3797051729
  0
ARC
  5
3D3
100
AcDbEntity
  8
0
100
AcDbCircle
 62
9
  6
CONTINUOUS
 10
12.0370648968
 20
10.9084049065
 40
0.0841401635
100
AcDbArc
 50
141.8676526081
 51
180.3797059148
  0
ARC
  5
3D4
100
AcDbEntity
  8
0
100
AcDbCircle
 62
9
  6
CONTINUOUS
 10
12.1434337539
 20
10.9316957814
 40
0.0839182806
100
AcDbArc
 50
269.9571972413
 51
321.8485382757
  0
ARC
  5
3D5
100
AcDbEntity
  8
0
100
AcDbCircle
 62
9
  6
CONTINUOUS
 10
12.1085731371
 20
10.8872177467
 40
0.0838604296
100
AcDbArc
 50
316.0699790518
 51
321.844246943
  0
ARC
  5
3D6
100
AcDbEntity
  8
0
100
AcDbCircle
 62
9
  6
CONTINUOUS
 10
12.1085791903
 20
10.8863400839
 40
0.0830394027
100
AcDbArc
 50
283.9028448553
 51
289.3355796332
  0
ARC
  5
3D7
100
AcDbEntity
  8
0
100
AcDbCircle
 62
7
  6
CONTINUOUS
 10
13.44717232
 20
10.9791763486
 40
0.0511811024
100
AcDbArc
 50
8.636130625
 51
90.0
  0
ARC
  5
3D8
100
AcDbEntity
  8
0
100
AcDbCircle
 62
7
  6
CONTINUOUS
 10
12.5110378615
 20
10.9791763486
 40
0.0511811024
100
AcDbArc
 50
90.0
 51
145.6957080073
  0
ARC
  5
3D9
100
AcDbEntity
  8
0
100
AcDbCircle
 62
7
  6
CONTINUOUS
 10
12.8775315858
 20
10.7785956399
 40
0.035
100
AcDbArc
 50
94.0960437582
 51
182.0467130977
  0
ARC
  5
3DA
100
AcDbEntity
  8
0
100
AcDbCircle
 62
7
  6
CONTINUOUS
 10
12.8775315858
 20
10.7785956399
 40
0.035
100
AcDbArc
 50
27.2701766822
 51
85.9039562418
  0
ARC
  5
3DB
100
AcDbEntity
  8
0
100
AcDbCircle
 62
7
  6
CONTINUOUS
 10
13.3725315858
 20
10.7905110101
 40
0.02
100
AcDbArc
 50
0.0
 51
88.0617961874
  0
ARC
  5
3DC
100
AcDbEntity
  8
0
100
AcDbCircle
 62
7
  6
CONTINUOUS
 10
58.4079530589
 20
11.6533590659
 40
46.2239278259
100
AcDbArc
 50
181.5542866377
 51
181.8176148703
  0
SPLINE
  5
3DD
100
AcDbEntity
  8
0
100
AcDbSpline
 62
7
  6
CONTINUOUS
 70
0
 71
3
 72
23
 73
19
 74
0
 42
0.0000001
 43
0.0000001
 44
0.0000000001
 40
0.0
 40
0.0
 40
0.0
 40
0.0
 40
0.125
 40
0.25
 40
0.375
 40
0.5
 40
0.625
 40
0.6875
 40
0.75
 40
0.8125
 40
0.84375
 40
0.875
 40
0.90625
 40
0.9375
 40
0.953125
 40
0.96875
 40
0.984375
 40
1.0
 40
1.0
 40
1.0
 40
1.0
 10
9.9791050908
 20
2.9123456399
 30
0.0
 10
9.9218198201
 20
2.9123456399
 30
0.0
 10
9.8102720089
 20
2.9156748743
 30
0.0
 10
9.6516930097
 20
2.9299571046
 30
0.0
 10
9.5006167333
 20
2.9528862353
 30
0.0
 10
9.3562594913
 20
2.9853148548
 30
0.0
 10
9.2416954619
 20
3.0216246722
 30
0.0
 10
9.1529192697
 20
3.0585708253
 30
0.0
 10
9.0878423133
 20
3.0916830379
 30
0.0
 10
9.0349381325
 20
3.1250910679
 30
0.0
 10
8.9927766721
 20
3.1583335847
 30
0.0
 10
8.96237742
 20
3.1865560752
 30
0.0
 10
8.931654052
 20
3.2214021128
 30
0.0
 10
8.9077196018
 20
3.2573396609
 30
0.0
 10
8.8907683302
 20
3.2924652429
 30
0.0
 10
8.8799884687
 20
3.3217410604
 30
0.0
 10
8.871444418
 20
3.3574833911
 30
0.0
 10
8.8691050908
 20
3.3855370878
 30
0.0
 10
8.8691050908
 20
3.3998456399
 30
0.0
  0
SPLINE
  5
3DE
100
AcDbEntity
  8
0
100
AcDbSpline
 62
7
  6
CONTINUOUS
 70
0
 71
3
 72
15
 73
11
 74
0
 42
0.0000001
 43
0.0000001
 44
0.0000000001
 40
0.0
 40
0.0
 40
0.0
 40
0.0
 40
0.082237741
 40
0.1644754819
 40
0.2467132229
 40
0.3289509638
 40
0.4934264457
 40
0.6579019276
 40
0.9868528914
 40
1.0
 40
1.0
 40
1.0
 40
1.0
 10
8.8691050908
 20
3.3998456399
 30
0.0
 10
8.8691050908
 20
3.4141541921
 30
0.0
 10
8.8714606099
 20
3.4422708214
 30
0.0
 10
8.8799470828
 20
3.4777718497
 30
0.0
 10
8.8908261345
 20
3.5073823981
 30
0.0
 10
8.9076275181
 20
3.5421710309
 30
0.0
 10
8.9318039461
 20
3.5784499985
 30
0.0
 10
8.9722660274
 20
3.6243682579
 30
0.0
 10
9.0042164467
 20
3.6510198119
 30
0.0
 10
9.026067275
 20
3.6669502131
 30
0.0
 10
9.0269074223
 20
3.6675594205
 30
0.0
  0
SPLINE
  5
3DF
100
AcDbEntity
  8
0
100
AcDbSpline
 62
7
  6
CONTINUOUS
 70
0
 71
3
 72
15
 73
11
 74
0
 42
0.0000001
 43
0.0000001
 44
0.0000000001
 40
0.0
 40
0.0
 40
0.0
 40
0.0
 40
0.0213756895
 40
0.347583793
 40
0.5106878448
 40
0.6737918965
 40
0.7553439224
 40
0.8368959483
 40
0.9184479741
 40
1.0
 40
1.0
 40
1.0
 40
1.0
 10
10.9296872964
 20
3.6687257714
 30
0.0
 10
10.9310640641
 20
3.6677345952
 30
0.0
 10
10.953431001
 20
3.6514891668
 30
0.0
 10
10.9857988641
 20
3.6244872727
 30
0.0
 10
11.0265127848
 20
3.578359467
 30
0.0
 10
11.050507454
 20
3.5422382678
 30
0.0
 10
11.0674303202
 20
3.5073378611
 30
0.0
 10
11.0782370425
 20
3.4777918741
 30
0.0
 10
11.086768452
 20
3.4422558793
 30
0.0
 10
11.0891050908
 20
3.4141541921
 30
0.0
 10
11.0891050908
 20
3.3998456399
 30
0.0
  0
SPLINE
  5
3E0
100
AcDbEntity
  8
0
100
AcDbSpline
 62
7
  6
CONTINUOUS
 70
0
 71
3
 72
21
 73
17
 74
0
 42
0.0000001
 43
0.0000001
 44
0.0000000001
 40
0.0
 40
0.0
 40
0.0
 40
0.0
 40
0.015625
 40
0.03125
 40
0.0625
 40
0.09375
 40
0.125
 40
0.1875
 40
0.25
 40
0.3125
 40
0.375
 40
0.5
 40
0.625
 40
0.75
 40
0.875
 40
1.0
 40
1.0
 40
1.0
 40
1.0
 10
11.0891050908
 20
3.3998456399
 30
0.0
 10
11.0891050908
 20
3.3855370878
 30
0.0
 10
11.0867543378
 20
3.3573786799
 30
0.0
 10
11.0754164453
 20
3.3101859635
 30
0.0
 10
11.0553476591
 20
3.2648990352
 30
0.0
 10
11.02647175
 20
3.2212309159
 30
0.0
 10
10.9858225786
 20
3.1752622799
 30
0.0
 10
10.9341021866
 20
3.1320645628
 30
0.0
 10
10.8703075878
 20
3.0916171519
 30
0.0
 10
10.8052827325
 20
3.0585424805
 30
0.0
 10
10.716519245
 20
3.0216410233
 30
0.0
 10
10.6019508592
 20
2.9853094184
 30
0.0
 10
10.4575873761
 20
2.9528872722
 30
0.0
 10
10.3065412918
 20
2.9299583933
 30
0.0
 10
10.1478477651
 20
2.9156686827
 30
0.0
 10
10.0363903614
 20
2.9123456399
 30
0.0
 10
9.9791050908
 20
2.9123456399
 30
0.0
  0
SPLINE
  5
3E1
100
AcDbEntity
  8
0
100
AcDbSpline
 62
7
  6
CONTINUOUS
 70
0
 71
3
 72
9
 73
5
 74
0
 42
0.0000001
 43
0.0000001
 44
0.0000000001
 40
0.0
 40
0.0
 40
0.0
 40
0.0
 40
0.4240223715
 40
1.0
 40
1.0
 40
1.0
 40
1.0
 10
7.7752289078
 20
10.8467794055
 30
0.0
 10
7.7759325607
 20
10.8433510523
 30
0.0
 10
7.7773719325
 20
10.8352208737
 30
0.0
 10
7.7785405027
 20
10.8270491978
 30
0.0
 10
7.7791652601
 20
10.8223363926
 30
0.0
  0
LINE
  5
3E2
100
AcDbEntity
  8
0
100
AcDbLine
 62
7
  6
CONTINUOUS
 10
7.7791652601
 20
10.8223363926
 11
7.7820819443
 21
10.7973100568
  0
LINE
  5
3E3
100
AcDbEntity
  8
0
100
AcDbLine
 62
7
  6
CONTINUOUS
 10
7.7852150919
 20
10.0368725314
 11
7.7821781299
 21
10.0033151077
  0
SPLINE
  5
3E4
100
AcDbEntity
  8
0
100
AcDbSpline
 62
7
  6
CONTINUOUS
 70
0
 71
3
 72
10
 73
6
 74
0
 42
0.0000001
 43
0.0000001
 44
0.0000000001
 40
0.0
 40
0.0
 40
0.0
 40
0.0
 40
0.5983148114
 40
0.8271882958
 40
1.0
 40
1.0
 40
1.0
 40
1.0
 10
7.7821781299
 20
10.0033151077
 30
0.0
 10
7.7811420819
 20
9.9932191443
 30
0.0
 10
7.7795488563
 20
9.9792740619
 30
0.0
 10
7.7770361132
 20
9.9624970804
 30
0.0
 10
7.7758196006
 20
9.9557911101
 30
0.0
 10
7.7752305699
 20
9.9529195621
 30
0.0
  0
SPLINE
  5
3E5
100
AcDbEntity
  8
0
100
AcDbSpline
 62
7
  6
CONTINUOUS
 70
0
 71
3
 72
9
 73
5
 74
0
 42
0.0000001
 43
0.0000001
 44
0.0000000001
 40
0.0
 40
0.0
 40
0.0
 40
0.0
 40
0.5363164107
 40
1.0
 40
1.0
 40
1.0
 40
1.0
 10
7.9873295334
 20
10.960360352
 30
0.0
 10
7.9900593054
 20
10.9568859061
 30
0.0
 10
7.9947040746
 20
10.9500441313
 30
0.0
 10
7.998475405
 20
10.9427033214
 30
0.0
 10
8.0000702216
 20
10.9392320118
 30
0.0
  0
SPLINE
  5
3E6
100
AcDbEntity
  8
0
100
AcDbSpline
 62
7
  6
CONTINUOUS
 70
0
 71
3
 72
10
 73
6
 74
0
 42
0.0000001
 43
0.0000001
 44
0.0000000001
 40
0.0
 40
0.0
 40
0.0
 40
0.0
 40
0.2774725577
 40
0.5226938554
 40
1.0
 40
1.0
 40
1.0
 40
1.0
 10
8.0000702216
 20
10.9392320118
 30
0.0
 10
8.0016367525
 20
10.9358222696
 30
0.0
 10
8.0043109736
 20
10.9292652477
 30
0.0
 10
8.0083135769
 20
10.9163399056
 30
0.0
 10
8.0105970601
 20
10.9068285224
 30
0.0
 10
8.0119125765
 20
10.9005091815
 30
0.0
  0
SPLINE
  5
3E7
100
AcDbEntity
  8
0
100
AcDbSpline
 62
7
  6
CONTINUOUS
 70
0
 71
3
 72
9
 73
5
 74
0
 42
0.0000001
 43
0.0000001
 44
0.0000000001
 40
0.0
 40
0.0
 40
0.0
 40
0.0
 40
0.2393841314
 40
1.0
 40
1.0
 40
1.0
 40
1.0
 10
8.0119125765
 20
10.9005091815
 30
0.0
 10
8.012301739
 20
10.898639763
 30
0.0
 10
8.0138607512
 20
10.890816568
 30
0.0
 10
8.0151767534
 20
10.8829464642
 30
0.0
 10
8.0160944184
 20
10.8769490592
 30
0.0
  0
SPLINE
  5
3E8
100
AcDbEntity
  8
0
100
AcDbSpline
 62
7
  6
CONTINUOUS
 70
0
 71
3
 72
9
 73
5
 74
0
 42
0.0000001
 43
0.0000001
 44
0.0000000001
 40
0.0
 40
0.0
 40
0.0
 40
0.0
 40
0.2358109601
 40
1.0
 40
1.0
 40
1.0
 40
1.0
 10
8.0160944184
 20
10.8769490592
 30
0.0
 10
8.0164541646
 20
10.8745979362
 30
0.0
 10
8.0179245969
 20
10.864619129
 30
0.0
 10
8.0191927129
 20
10.8546111596
 30
0.0
 10
8.0200830128
 20
10.8469548243
 30
0.0
  0
SPLINE
  5
3E9
100
AcDbEntity
  8
0
100
AcDbSpline
 62
7
  6
CONTINUOUS
 70
0
 71
3
 72
9
 73
5
 74
0
 42
0.0000001
 43
0.0000001
 44
0.0000000001
 40
0.0
 40
0.0
 40
0.0
 40
0.0
 40
0.2369755147
 40
1.0
 40
1.0
 40
1.0
 40
1.0
 10
8.0200830128
 20
10.8469548243
 30
0.0
 10
8.0204036559
 20
10.8441973812
 30
0.0
 10
8.0217126255
 20
10.8325562751
 30
0.0
 10
8.0228590077
 20
10.8208972071
 30
0.0
 10
8.0236671916
 20
10.811995454
 30
0.0
  0
SPLINE
  5
3EA
100
AcDbEntity
  8
0
100
AcDbSpline
 62
7
  6
CONTINUOUS
 70
0
 71
3
 72
9
 73
5
 74
0
 42
0.0000001
 43
0.0000001
 44
0.0000000001
 40
0.0
 40
0.0
 40
0.0
 40
0.0
 40
0.2646182765
 40
1.0
 40
1.0
 40
1.0
 40
1.0
 10
8.0202171994
 20
9.9538962282
 30
0.0
 10
8.0199064082
 20
9.9511988186
 30
0.0
 10
8.0186947153
 20
9.941009646
 30
0.0
 10
8.0173252717
 20
9.9308385224
 30
0.0
 10
8.0161916318
 20
9.9233783937
 30
0.0
  0
SPLINE
  5
3EB
100
AcDbEntity
  8
0
100
AcDbSpline
 62
7
  6
CONTINUOUS
 70
0
 71
3
 72
9
 73
5
 74
0
 42
0.0000001
 43
0.0000001
 44
0.0000000001
 40
0.0
 40
0.0
 40
0.0
 40
0.0
 40
0.261879902
 40
1.0
 40
1.0
 40
1.0
 40
1.0
 10
8.0161916318
 20
9.9233783937
 30
0.0
 10
8.0158735353
 20
9.9212851008
 30
0.0
 10
8.014620184
 20
9.913297896
 30
0.0
 10
8.0131878073
 20
9.9053372578
 30
0.0
 10
8.0119770399
 20
9.8994936
 30
0.0
  0
SPLINE
  5
3EC
100
AcDbEntity
  8
0
100
AcDbSpline
 62
7
  6
CONTINUOUS
 70
0
 71
3
 72
10
 73
6
 74
0
 42
0.0000001
 43
0.0000001
 44
0.0000000001
 40
0.0
 40
0.0
 40
0.0
 40
0.0
 40
0.4776431017
 40
0.7227259902
 40
1.0
 40
1.0
 40
1.0
 40
1.0
 10
8.0119770399
 20
9.8994936
 30
0.0
 10
8.010658121
 20
9.8931279589
 30
0.0
 10
8.0083689313
 20
9.8835505981
 30
0.0
 10
8.0043529911
 20
9.8705384171
 30
0.0
 10
8.0016677259
 20
9.8639416759
 30
0.0
 10
8.0000940891
 20
9.8605116625
 30
0.0
  0
SPLINE
  5
3ED
100
AcDbEntity
  8
0
100
AcDbSpline
 62
7
  6
CONTINUOUS
 70
0
 71
3
 72
9
 73
5
 74
0
 42
0.0000001
 43
0.0000001
 44
0.0000000001
 40
0.0
 40
0.0
 40
0.0
 40
0.0
 40
0.4634715317
 40
1.0
 40
1.0
 40
1.0
 40
1.0
 10
8.0000940891
 20
9.8605116625
 30
0.0
 10
7.9984981398
 20
9.8570330152
 30
0.0
 10
7.994721879
 20
9.849673061
 30
0.0
 10
7.9900667414
 20
9.8428148383
 30
0.0
 10
7.9873295334
 20
9.8393309279
 30
0.0
  0
SPLINE
  5
3EE
100
AcDbEntity
  8
0
100
AcDbSpline
 62
7
  6
CONTINUOUS
 70
0
 71
3
 72
9
 73
5
 74
0
 42
0.0000001
 43
0.0000001
 44
0.0000000001
 40
0.0
 40
0.0
 40
0.0
 40
0.0
 40
0.5363164107
 40
1.0
 40
1.0
 40
1.0
 40
1.0
 10
11.9708806481
 20
10.960360352
 30
0.0
 10
11.9681508761
 20
10.9568859061
 30
0.0
 10
11.9635061069
 20
10.9500441313
 30
0.0
 10
11.9597347765
 20
10.9427033214
 30
0.0
 10
11.9581399599
 20
10.9392320118
 30
0.0
  0
SPLINE
  5
3EF
100
AcDbEntity
  8
0
100
AcDbSpline
 62
7
  6
CONTINUOUS
 70
0
 71
3
 72
10
 73
6
 74
0
 42
0.0000001
 43
0.0000001
 44
0.0000000001
 40
0.0
 40
0.0
 40
0.0
 40
0.0
 40
0.2774725577
 40
0.5226938554
 40
1.0
 40
1.0
 40
1.0
 40
1.0
 10
11.9581399599
 20
10.9392320118
 30
0.0
 10
11.9565734291
 20
10.9358222696
 30
0.0
 10
11.9538992079
 20
10.9292652477
 30
0.0
 10
11.9498966047
 20
10.9163399056
 30
0.0
 10
11.9476131214
 20
10.9068285224
 30
0.0
 10
11.946297605
 20
10.9005091815
 30
0.0
  0
SPLINE
  5
3F0
100
AcDbEntity
  8
0
100
AcDbSpline
 62
7
  6
CONTINUOUS
 70
0
 71
3
 72
9
 73
5
 74
0
 42
0.0000001
 43
0.0000001
 44
0.0000000001
 40
0.0
 40
0.0
 40
0.0
 40
0.0
 40
0.2393841314
 40
1.0
 40
1.0
 40
1.0
 40
1.0
 10
11.946297605
 20
10.9005091815
 30
0.0
 10
11.9459084425
 20
10.898639763
 30
0.0
 10
11.9443494303
 20
10.890816568
 30
0.0
 10
11.9430334281
 20
10.8829464642
 30
0.0
 10
11.9421157631
 20
10.8769490592
 30
0.0
  0
SPLINE
  5
3F1
100
AcDbEntity
  8
0
100
AcDbSpline
 62
7
  6
CONTINUOUS
 70
0
 71
3
 72
9
 73
5
 74
0
 42
0.0000001
 43
0.0000001
 44
0.0000000001
 40
0.0
 40
0.0
 40
0.0
 40
0.0
 40
0.2358109601
 40
1.0
 40
1.0
 40
1.0
 40
1.0
 10
11.9421157631
 20
10.8769490592
 30
0.0
 10
11.941756017
 20
10.8745979362
 30
0.0
 10
11.9402855846
 20
10.864619129
 30
0.0
 10
11.9390174687
 20
10.8546111596
 30
0.0
 10
11.9381271688
 20
10.8469548243
 30
0.0
  0
SPLINE
  5
3F2
100
AcDbEntity
  8
0
100
AcDbSpline
 62
7
  6
CONTINUOUS
 70
0
 71
3
 72
9
 73
5
 74
0
 42
0.0000001
 43
0.0000001
 44
0.0000000001
 40
0.0
 40
0.0
 40
0.0
 40
0.0
 40
0.2319878356
 40
1.0
 40
1.0
 40
1.0
 40
1.0
 10
11.9381271688
 20
10.8469548243
 30
0.0
 10
11.9376663906
 20
10.8429922584
 30
0.0
 10
11.9357733487
 20
10.8259005015
 30
0.0
 10
11.934209667
 20
10.8087733949
 30
0.0
 10
11.9331280734
 20
10.7956110104
 30
0.0
  0
SPLINE
  5
3F3
100
AcDbEntity
  8
0
100
AcDbSpline
 62
7
  6
CONTINUOUS
 70
0
 71
3
 72
9
 73
5
 74
0
 42
0.0000001
 43
0.0000001
 44
0.0000000001
 40
0.0
 40
0.0
 40
0.0
 40
0.0
 40
0.2674988139
 40
1.0
 40
1.0
 40
1.0
 40
1.0
 10
11.9331226814
 20
10.0041458752
 30
0.0
 10
11.9334912027
 20
9.9996593104
 30
0.0
 10
11.9349234575
 20
9.9828917145
 30
0.0
 10
11.9365820097
 20
9.9661423005
 30
0.0
 10
11.9379929822
 20
9.9538962282
 30
0.0
  0
SPLINE
  5
3F4
100
AcDbEntity
  8
0
100
AcDbSpline
 62
7
  6
CONTINUOUS
 70
0
 71
3
 72
9
 73
5
 74
0
 42
0.0000001
 43
0.0000001
 44
0.0000000001
 40
0.0
 40
0.0
 40
0.0
 40
0.0
 40
0.2646182765
 40
1.0
 40
1.0
 40
1.0
 40
1.0
 10
11.9379929822
 20
9.9538962282
 30
0.0
 10
11.9383037733
 20
9.9511988186
 30
0.0
 10
11.9395154663
 20
9.941009646
 30
0.0
 10
11.9408849098
 20
9.9308385224
 30
0.0
 10
11.9420185498
 20
9.9233783937
 30
0.0
  0
SPLINE
  5
3F5
100
AcDbEntity
  8
0
100
AcDbSpline
 62
7
  6
CONTINUOUS
 70
0
 71
3
 72
9
 73
5
 74
0
 42
0.0000001
 43
0.0000001
 44
0.0000000001
 40
0.0
 40
0.0
 40
0.0
 40
0.0
 40
0.261879902
 40
1.0
 40
1.0
 40
1.0
 40
1.0
 10
11.9420185498
 20
9.9233783937
 30
0.0
 10
11.9423366462
 20
9.9212851008
 30
0.0
 10
11.9435899975
 20
9.913297896
 30
0.0
 10
11.9450223743
 20
9.9053372578
 30
0.0
 10
11.9462331417
 20
9.8994936
 30
0.0
  0
SPLINE
  5
3F6
100
AcDbEntity
  8
0
100
AcDbSpline
 62
7
  6
CONTINUOUS
 70
0
 71
3
 72
10
 73
6
 74
0
 42
0.0000001
 43
0.0000001
 44
0.0000000001
 40
0.0
 40
0.0
 40
0.0
 40
0.0
 40
0.4776431017
 40
0.7227259902
 40
1.0
 40
1.0
 40
1.0
 40
1.0
 10
11.9462331417
 20
9.8994936
 30
0.0
 10
11.9475520606
 20
9.8931279589
 30
0.0
 10
11.9498412502
 20
9.8835505981
 30
0.0
 10
11.9538571905
 20
9.8705384171
 30
0.0
 10
11.9565424557
 20
9.8639416759
 30
0.0
 10
11.9581160925
 20
9.8605116625
 30
0.0
  0
SPLINE
  5
3F7
100
AcDbEntity
  8
0
100
AcDbSpline
 62
7
  6
CONTINUOUS
 70
0
 71
3
 72
9
 73
5
 74
0
 42
0.0000001
 43
0.0000001
 44
0.0000000001
 40
0.0
 40
0.0
 40
0.0
 40
0.0
 40
0.4634715317
 40
1.0
 40
1.0
 40
1.0
 40
1.0
 10
11.9581160925
 20
9.8605116625
 30
0.0
 10
11.9597120417
 20
9.8570330152
 30
0.0
 10
11.9634883026
 20
9.849673061
 30
0.0
 10
11.9681434401
 20
9.8428148383
 30
0.0
 10
11.9708806481
 20
9.8393309279
 30
0.0
  0
LINE
  5
3F8
100
AcDbEntity
  8
0
100
AcDbLine
 62
7
  6
CONTINUOUS
 10
12.1829812738
 20
10.8467794055
 11
12.1816204299
 21
10.8395251325
  0
LINE
  5
3F9
100
AcDbEntity
  8
0
100
AcDbLine
 62
7
  6
CONTINUOUS
 10
12.1816204299
 20
10.8395251325
 11
12.1790449214
 21
10.8223363926
  0
LINE
  5
3FA
100
AcDbEntity
  8
0
100
AcDbLine
 62
7
  6
CONTINUOUS
 10
12.1790449214
 20
10.8223363926
 11
12.1761282373
 21
10.7973100568
  0
LINE
  5
3FB
100
AcDbEntity
  8
0
100
AcDbLine
 62
7
  6
CONTINUOUS
 10
12.1729158624
 20
10.037863286
 11
12.1760320516
 21
10.0033151077
  0
SPLINE
  5
3FC
100
AcDbEntity
  8
0
100
AcDbSpline
 62
7
  6
CONTINUOUS
 70
0
 71
3
 72
10
 73
6
 74
0
 42
0.0000001
 43
0.0000001
 44
0.0000000001
 40
0.0
 40
0.0
 40
0.0
 40
0.0
 40
0.5983148114
 40
0.8271882958
 40
1.0
 40
1.0
 40
1.0
 40
1.0
 10
12.1760320516
 20
10.0033151077
 30
0.0
 10
12.1770680997
 20
9.9932191443
 30
0.0
 10
12.1786613253
 20
9.9792740619
 30
0.0
 10
12.1811740684
 20
9.9624970804
 30
0.0
 10
12.182390581
 20
9.9557911101
 30
0.0
 10
12.1829796116
 20
9.9529195621
 30
0.0
  0
SPLINE
  5
3FD
100
AcDbEntity
  8
0
100
AcDbSpline
 62
7
  6
CONTINUOUS
 70
0
 71
3
 72
17
 73
13
 74
0
 42
0.0000001
 43
0.0000001
 44
0.0000000001
 40
0.0
 40
0.0
 40
0.0
 40
0.0
 40
0.1334364929
 40
0.2611581889
 40
0.382656962
 40
0.4416357934
 40
0.5000000012
 40
0.5583642093
 40
0.6173430397
 40
0.7388418121
 40
0.8665635077
 40
1.0
 40
1.0
 40
1.0
 40
1.0
 10
12.3754834912
 20
9.6183132102
 30
0.0
 10
12.3825182216
 20
9.6131268226
 30
0.0
 10
12.3966053589
 20
9.6033869585
 30
0.0
 10
12.4186175422
 20
9.5912765237
 30
0.0
 10
12.4377474954
 20
9.5844159153
 30
0.0
 10
12.4531700558
 20
9.581604304
 30
0.0
 10
12.4646860012
 20
9.5809065127
 30
0.0
 10
12.4762019465
 20
9.5816043043
 30
0.0
 10
12.491624507
 20
9.5844159148
 30
0.0
 10
12.5107544598
 20
9.591276524
 30
0.0
 10
12.532766643
 20
9.6033869586
 30
0.0
 10
12.5468537803
 20
9.6131268227
 30
0.0
 10
12.5538885106
 20
9.6183132102
 30
0.0
  0
SPLINE
  5
3FE
100
AcDbEntity
  8
0
100
AcDbSpline
 62
7
  6
CONTINUOUS
 70
0
 71
3
 72
12
 73
8
 74
0
 42
0.0000001
 43
0.0000001
 44
0.0000000001
 40
0.0
 40
0.0
 40
0.0
 40
0.0
 40
0.053579755
 40
0.1270579543
 40
0.3353901776
 40
0.6263817711
 40
1.0
 40
1.0
 40
1.0
 40
1.0
 10
12.1926642834
 20
10.8058459868
 30
0.0
 10
12.1927921045
 20
10.8056204685
 30
0.0
 10
12.1930266679
 20
10.8050484912
 30
0.0
 10
12.1934869295
 20
10.8034923016
 30
0.0
 10
12.1940156451
 20
10.8007666689
 30
0.0
 10
12.1946203095
 20
10.7965875838
 30
0.0
 10
12.1949809507
 20
10.7933915384
 30
0.0
 10
12.1951686491
 20
10.7915937135
 30
0.0
  0
SPLINE
  5
3FF
100
AcDbEntity
  8
0
100
AcDbSpline
 62
7
  6
CONTINUOUS
 70
0
 71
3
 72
9
 73
5
 74
0
 42
0.0000001
 43
0.0000001
 44
0.0000000001
 40
0.0
 40
0.0
 40
0.0
 40
0.0
 40
0.4216848823
 40
1.0
 40
1.0
 40
1.0
 40
1.0
 10
12.1951686491
 20
10.7915937135
 30
0.0
 10
12.1958007393
 20
10.7855393844
 30
0.0
 10
12.1969267791
 20
10.7711445556
 30
0.0
 10
12.1977877512
 20
10.7567349969
 30
0.0
 10
12.1982412479
 20
10.7483990507
 30
0.0
  0
LINE
  5
400
100
AcDbEntity
  8
0
100
AcDbLine
 62
7
  6
CONTINUOUS
 10
12.1998122853
 20
10.7162678889
 11
12.1999624495
 21
10.7128691261
  0
SPLINE
  5
401
100
AcDbEntity
  8
0
100
AcDbSpline
 62
7
  6
CONTINUOUS
 70
0
 71
3
 72
10
 73
6
 74
0
 42
0.0000001
 43
0.0000001
 44
0.0000000001
 40
0.0
 40
0.0
 40
0.0
 40
0.0
 40
0.2167225777
 40
0.4615199376
 40
1.0
 40
1.0
 40
1.0
 40
1.0
 10
12.2013139998
 20
10.6798938188
 30
0.0
 10
12.2020942324
 20
10.6596671117
 30
0.0
 10
12.2036019342
 20
10.6165875696
 30
0.0
 10
12.2065114305
 20
10.5232334594
 30
0.0
 10
12.2085485112
 20
10.4501040915
 30
0.0
 10
12.2099545135
 20
10.3998300553
 30
0.0
  0
SPLINE
  5
402
100
AcDbEntity
  8
0
100
AcDbSpline
 62
9
  6
CONTINUOUS
 70
0
 71
3
 72
9
 73
5
 74
0
 42
0.0000001
 43
0.0000001
 44
0.0000000001
 40
0.0
 40
0.0
 40
0.0
 40
0.0
 40
0.5279879489
 40
1.0
 40
1.0
 40
1.0
 40
1.0
 10
10.2073731045
 20
9.7593317599
 30
0.0
 10
10.2378992347
 20
9.7668462058
 30
0.0
 10
10.2950228484
 20
9.7841164978
 30
0.0
 10
10.3499512752
 20
9.8074069091
 30
0.0
 10
10.3752020057
 20
9.819746441
 30
0.0
  0
SPLINE
  5
403
100
AcDbEntity
  8
0
100
AcDbSpline
 62
9
  6
CONTINUOUS
 70
0
 71
3
 72
9
 73
5
 74
0
 42
0.0000001
 43
0.0000001
 44
0.0000000001
 40
0.0
 40
0.0
 40
0.0
 40
0.0
 40
0.2624103434
 40
1.0
 40
1.0
 40
1.0
 40
1.0
 10
10.3752020057
 20
9.819746441
 30
0.0
 10
10.3809321324
 20
9.8225466405
 30
0.0
 10
10.4026365203
 20
9.8334842358
 30
0.0
 10
10.4237952699
 20
9.8455177376
 30
0.0
 10
10.4389675421
 20
9.8550659543
 30
0.0
  0
SPLINE
  5
404
100
AcDbEntity
  8
0
100
AcDbSpline
 62
9
  6
CONTINUOUS
 70
0
 71
3
 72
11
 73
7
 74
0
 42
0.0000001
 43
0.0000001
 44
0.0000000001
 40
0.0
 40
0.0
 40
0.0
 40
0.0
 40
0.2740671935
 40
0.5284412936
 40
0.7689841918
 40
1.0
 40
1.0
 40
1.0
 40
1.0
 10
9.0401623406
 20
3.8616333567
 30
0.0
 10
9.0401879578
 20
3.8566860753
 30
0.0
 10
9.0406606121
 20
3.8471425875
 30
0.0
 10
9.0425968491
 20
3.8333803182
 30
0.0
 10
9.0454545232
 20
3.8205803596
 30
0.0
 10
9.0478411138
 20
3.8124029772
 30
0.0
 10
9.049133248
 20
3.808438009
 30
0.0
  0
SPLINE
  5
405
100
AcDbEntity
  8
0
100
AcDbSpline
 62
9
  6
CONTINUOUS
 70
0
 71
3
 72
23
 73
19
 74
0
 42
0.0000001
 43
0.0000001
 44
0.0000000001
 40
0.0
 40
0.0
 40
0.0
 40
0.0
 40
0.0308754474
 40
0.0603012864
 40
0.0889677784
 40
0.1172618133
 40
0.1453918329
 40
0.1734945575
 40
0.2016613966
 40
0.2299535373
 40
0.2870850488
 40
0.3451569714
 40
0.4043133933
 40
0.4646732087
 40
0.5892970332
 40
0.719630605
 40
0.8562385157
 40
1.0
 40
1.0
 40
1.0
 40
1.0
 10
9.049133248
 20
3.808438009
 30
0.0
 10
9.0524732821
 20
3.7981889737
 30
0.0
 10
9.0605838432
 20
3.7786646873
 30
0.0
 10
9.0761304758
 20
3.7516993111
 30
0.0
 10
9.0939377611
 20
3.7273008893
 30
0.0
 10
9.1133851515
 20
3.7048055933
 30
0.0
 10
9.1343106687
 20
3.683962797
 30
0.0
 10
9.1564794532
 20
3.6645248989
 30
0.0
 10
9.179758688
 20
3.6463446747
 30
0.0
 10
9.2121963658
 20
3.6235059757
 30
0.0
 10
9.2551245499
 20
3.5975485115
 30
0.0
 10
9.309525275
 20
3.5701261484
 30
0.0
 10
9.3666416326
 20
3.5458983994
 30
0.0
 10
9.4469722202
 20
3.5172793293
 30
0.0
 10
9.5534616661
 20
3.4886310697
 30
0.0
 10
9.6882024835
 20
3.4647211674
 30
0.0
 10
9.8309905158
 20
3.450345776
 30
0.0
 10
9.9289136541
 20
3.4473341885
 30
0.0
 10
9.9791050931
 20
3.4473341886
 30
0.0
  0
SPLINE
  5
406
100
AcDbEntity
  8
0
100
AcDbSpline
 62
9
  6
CONTINUOUS
 70
0
 71
3
 72
27
 73
23
 74
0
 42
0.0000001
 43
0.0000001
 44
0.0000000001
 40
0.0
 40
0.0
 40
0.0
 40
0.0
 40
0.0311984768
 40
0.0468958892
 40
0.0625487964
 40
0.0782023479
 40
0.0938569722
 40
0.125108077
 40
0.1563610849
 40
0.1876221891
 40
0.2188792416
 40
0.2501417147
 40
0.312624127
 40
0.3751119426
 40
0.4376029496
 40
0.5000942413
 40
0.5625839522
 40
0.625071238
 40
0.6875594966
 40
0.7500493028
 40
0.8750227044
 40
1.0
 40
1.0
 40
1.0
 40
1.0
 10
9.0141125598
 20
3.399955897
 30
0.0
 10
9.0141274855
 20
3.3886815841
 30
0.0
 10
9.0167829652
 20
3.3716560674
 30
0.0
 10
9.0243584797
 20
3.3503321561
 30
0.0
 10
9.0318763342
 20
3.335056356
 30
0.0
 10
9.040884896
 20
3.32064668
 30
0.0
 10
9.054493373
 20
3.3025649554
 30
0.0
 10
9.0739420402
 20
3.2819632169
 30
0.0
 10
9.0997668069
 20
3.2599559716
 30
0.0
 10
9.1273526331
 20
3.2402191005
 30
0.0
 10
9.156204438
 20
3.2223987618
 30
0.0
 10
9.1959531843
 20
3.2008980113
 30
0.0
 10
9.2474261476
 20
3.1775313024
 30
0.0
 10
9.310968379
 20
3.1539317289
 30
0.0
 10
9.3757120152
 20
3.1338857581
 30
0.0
 10
9.4413090787
 20
3.1168698278
 30
0.0
 10
9.5075295228
 20
3.102497685
 30
0.0
 10
9.5742130946
 20
3.0904811173
 30
0.0
 10
9.6412436764
 20
3.0805939122
 30
0.0
 10
9.7309599065
 20
3.0700271435
 30
0.0
 10
9.8435990548
 20
3.0614509157
 30
0.0
 10
9.9339415807
 20
3.0592835437
 30
0.0
 10
9.9791051436
 20
3.0592853404
 30
0.0
  0
SPLINE
  5
407
100
AcDbEntity
  8
0
100
AcDbSpline
 62
9
  6
CONTINUOUS
 70
0
 71
3
 72
9
 73
5
 74
0
 42
0.0000001
 43
0.0000001
 44
0.0000000001
 40
0.0
 40
0.0
 40
0.0
 40
0.0
 40
0.4870996664
 40
1.0
 40
1.0
 40
1.0
 40
1.0
 10
9.0141043389
 20
3.3998456439
 30
0.0
 10
9.0141030088
 20
3.395350249
 30
0.0
 10
9.0145336102
 20
3.3861088675
 30
0.0
 10
9.0161411996
 20
3.3769947799
 30
0.0
 10
9.0171956854
 20
3.3723802217
 30
0.0
  0
SPLINE
  5
408
100
AcDbEntity
  8
0
100
AcDbSpline
 62
9
  6
CONTINUOUS
 70
0
 71
3
 72
29
 73
25
 74
0
 42
0.0000001
 43
0.0000001
 44
0.0000000001
 40
0.0
 40
0.0
 40
0.0
 40
0.0
 40
0.0185311137
 40
0.0364265629
 40
0.0539226917
 40
0.0711879002
 40
0.0882749136
 40
0.1051802393
 40
0.1218563354
 40
0.1382793944
 40
0.170572516
 40
0.2024298103
 40
0.2340175282
 40
0.2653866379
 40
0.2965772668
 40
0.3276333754
 40
0.3894450681
 40
0.4509653805
 40
0.512290105
 40
0.5734776645
 40
0.6345600552
 40
0.7564913545
 40
0.8782937359
 40
1.0
 40
1.0
 40
1.0
 40
1.0
 10
9.0171956854
 20
3.3723802217
 30
0.0
 10
9.0186520069
 20
3.3660071815
 30
0.0
 10
9.0223884142
 20
3.3536591176
 30
0.0
 10
9.0303451117
 20
3.336328318
 30
0.0
 10
9.0399621962
 20
3.3203985571
 30
0.0
 10
9.0508262552
 20
3.3056560454
 30
0.0
 10
9.0627132565
 20
3.2920069974
 30
0.0
 10
9.0753611555
 20
3.2793601399
 30
0.0
 10
9.0885274521
 20
3.267608391
 30
0.0
 10
9.1064516029
 20
3.2530745008
 30
0.0
 10
9.1296949524
 20
3.2366566198
 30
0.0
 10
9.1585493171
 20
3.2190684289
 30
0.0
 10
9.188021393
 20
3.2032221491
 30
0.0
 10
9.2179703341
 20
3.1888418325
 30
0.0
 10
9.2482859477
 20
3.1757212042
 30
0.0
 10
9.2890526449
 20
3.1597808223
 30
0.0
 10
9.3406695785
 20
3.1423086082
 30
0.0
 10
9.4033062846
 20
3.1243450049
 30
0.0
 10
9.4664286815
 20
3.1090918034
 30
0.0
 10
9.5299077684
 20
3.0961721511
 30
0.0
 10
9.6148545861
 20
3.0817636097
 30
0.0
 10
9.7216177803
 20
3.0684349213
 30
0.0
 10
9.8502506463
 20
3.0591429971
 30
0.0
 10
9.9361701418
 20
3.0571603877
 30
0.0
 10
9.9791050908
 20
3.0571603453
 30
0.0
  0
SPLINE
  5
409
100
AcDbEntity
  8
0
100
AcDbSpline
 62
9
  6
CONTINUOUS
 70
0
 71
3
 72
28
 73
24
 74
0
 42
0.0000001
 43
0.0000001
 44
0.0000000001
 40
0.0
 40
0.0
 40
0.0
 40
0.0
 40
0.1353001184
 40
0.2638752025
 40
0.386824381
 40
0.4464638305
 40
0.5049795076
 40
0.5624654058
 40
0.6190770849
 40
0.6750567831
 40
0.7308673209
 40
0.7589310092
 40
0.7872497598
 40
0.8160660323
 40
0.8460167643
 40
0.8616723526
 40
0.8778803164
 40
0.8947305109
 40
0.9123502433
 40
0.9310024376
 40
0.9514366197
 40
0.9744228526
 40
1.0
 40
1.0
 40
1.0
 40
1.0
 10
9.9791050908
 20
2.9792800875
 30
0.0
 10
9.9246075603
 20
2.9792800875
 30
0.0
 10
9.8182888617
 20
2.9822856799
 30
0.0
 10
9.6630042378
 20
2.9960497124
 30
0.0
 10
9.5389686136
 20
3.0147178576
 30
0.0
 10
9.443820207
 20
3.0342595781
 30
0.0
 10
9.3751110586
 20
3.0511989721
 30
0.0
 10
9.3083649918
 20
3.0707560239
 30
0.0
 10
9.2436524991
 20
3.0933332926
 30
0.0
 10
9.1809662337
 20
3.1193685142
 30
0.0
 10
9.1307060228
 20
3.1449822437
 30
0.0
 10
9.091991847
 20
3.1683281432
 30
0.0
 10
9.0636445251
 20
3.1877072889
 30
0.0
 10
9.036034124
 20
3.2093952528
 30
0.0
 10
9.0141344269
 20
3.2299361219
 30
0.0
 10
8.9972679774
 20
3.2482653336
 30
0.0
 10
8.9848669673
 20
3.2634894949
 30
0.0
 10
8.9730998697
 20
3.2801919526
 30
0.0
 10
8.9621433659
 20
3.298595231
 30
0.0
 10
8.9521146501
 20
3.3191567851
 30
0.0
 10
8.9437265438
 20
3.3427708301
 30
0.0
 10
8.9375827053
 20
3.3699479555
 30
0.0
 10
8.9360395383
 20
3.3895434215
 30
0.0
 10
8.9360395383
 20
3.3998456399
 30
0.0
  0
SPLINE
  5
40A
100
AcDbEntity
  8
0
100
AcDbSpline
 62
7
  6
CONTINUOUS
 70
0
 71
3
 72
12
 73
8
 74
0
 42
0.0000001
 43
0.0000001
 44
0.0000000001
 40
0.0
 40
0.0
 40
0.0
 40
0.0
 40
0.2012515393
 40
0.4406163375
 40
0.5717127369
 40
0.7092122108
 40
1.0
 40
1.0
 40
1.0
 40
1.0
 10
7.469914061
 20
10.9868616426
 30
0.0
 10
7.4637828121
 20
10.9747285605
 30
0.0
 10
7.4499957774
 20
10.9483483528
 30
0.0
 10
7.4315623907
 20
10.9144127241
 30
0.0
 10
7.4150460621
 20
10.8843373888
 30
0.0
 10
7.3968269515
 20
10.8512343009
 30
0.0
 10
7.3828224303
 20
10.8259195732
 30
0.0
 10
7.3732739419
 20
10.8087542992
 30
0.0
  0
SPLINE
  5
40B
100
AcDbEntity
  8
0
100
AcDbSpline
 62
7
  6
CONTINUOUS
 70
0
 71
3
 72
9
 73
5
 74
0
 42
0.0000001
 43
0.0000001
 44
0.0000000001
 40
0.0
 40
0.0
 40
0.0
 40
0.0
 40
0.2450207226
 40
1.0
 40
1.0
 40
1.0
 40
1.0
 10
7.3733367775
 20
10.8086763699
 30
0.0
 10
7.3702790358
 20
10.8030827901
 30
0.0
 10
7.3578293252
 20
10.7802376091
 30
0.0
 10
7.3455356019
 20
10.757306521
 30
0.0
 10
7.3364209397
 20
10.7399067263
 30
0.0
  0
SPLINE
  5
40C
100
AcDbEntity
  8
0
100
AcDbSpline
 62
7
  6
CONTINUOUS
 70
0
 71
3
 72
9
 73
5
 74
0
 42
0.0000001
 43
0.0000001
 44
0.0000000001
 40
0.0
 40
0.0
 40
0.0
 40
0.0
 40
0.2542912562
 40
1.0
 40
1.0
 40
1.0
 40
1.0
 10
7.3364222587
 20
10.059785381
 30
0.0
 10
7.3394922309
 20
10.0539248007
 30
0.0
 10
7.3516393328
 20
10.0309170381
 30
0.0
 10
7.3640317629
 20
10.0080396719
 30
0.0
 10
7.3733377984
 20
9.9910158759
 30
0.0
  0
SPLINE
  5
40D
100
AcDbEntity
  8
0
100
AcDbSpline
 62
7
  6
CONTINUOUS
 70
0
 71
3
 72
12
 73
8
 74
0
 42
0.0000001
 43
0.0000001
 44
0.0000000001
 40
0.0
 40
0.0
 40
0.0
 40
0.0
 40
0.2907071573
 40
0.4282109106
 40
0.5592616401
 40
0.7986116391
 40
1.0
 40
1.0
 40
1.0
 40
1.0
 10
7.373273991
 20
9.9909367921
 30
0.0
 10
7.3828584569
 20
9.973789924
 30
0.0
 10
7.3968568319
 20
9.9484658834
 30
0.0
 10
7.4150487147
 20
9.9153421057
 30
0.0
 10
7.4315725391
 20
9.8852616027
 30
0.0
 10
7.4500305548
 20
9.8513173126
 30
0.0
 10
7.4637586344
 20
9.824885628
 30
0.0
 10
7.4699022379
 20
9.8127430858
 30
0.0
  0
SPLINE
  5
40E
100
AcDbEntity
  8
0
100
AcDbSpline
 62
9
  6
CONTINUOUS
 70
0
 71
3
 72
13
 73
9
 74
0
 42
0.0000001
 43
0.0000001
 44
0.0000000001
 40
0.0
 40
0.0
 40
0.0
 40
0.0
 40
0.2883541912
 40
0.4234873206
 40
0.5522478512
 40
0.6743218066
 40
0.7893585137
 40
1.0
 40
1.0
 40
1.0
 40
1.0
 10
9.7954232921
 20
9.7495304756
 30
0.0
 10
9.7666182541
 20
9.7551225339
 30
0.0
 10
9.7246569508
 20
9.7653299159
 30
0.0
 10
9.6711747053
 20
9.7826345869
 30
0.0
 10
9.634418231
 20
9.7965193763
 30
0.0
 10
9.6002277756
 20
9.8112915989
 30
0.0
 10
9.5592468531
 20
9.8312230637
 30
0.0
 10
9.530432627
 20
9.8477370128
 30
0.0
 10
9.5124487821
 20
9.859400298
 30
0.0
  0
SPLINE
  5
40F
100
AcDbEntity
  8
0
100
AcDbSpline
 62
9
  6
CONTINUOUS
 70
0
 71
3
 72
12
 73
8
 74
0
 42
0.0000001
 43
0.0000001
 44
0.0000000001
 40
0.0
 40
0.0
 40
0.0
 40
0.0
 40
0.2241815699
 40
0.4669961353
 40
0.5958287733
 40
0.7286934972
 40
1.0
 40
1.0
 40
1.0
 40
1.0
 10
6.7670089247
 20
10.7398472252
 30
0.0
 10
6.7600431498
 20
10.7398981081
 30
0.0
 10
6.7454880028
 20
10.7423038185
 30
0.0
 10
6.7286032108
 20
10.7505737979
 30
0.0
 10
6.7163995405
 20
10.7604967333
 30
0.0
 10
6.7050580998
 20
10.7726118526
 30
0.0
 10
6.6982655579
 20
10.7833843363
 30
0.0
 10
6.6947013231
 20
10.7910240765
 30
0.0
  0
SPLINE
  5
410
100
AcDbEntity
  8
0
100
AcDbSpline
 62
9
  6
CONTINUOUS
 70
0
 71
3
 72
11
 73
7
 74
0
 42
0.0000001
 43
0.0000001
 44
0.0000000001
 40
0.0
 40
0.0
 40
0.0
 40
0.0
 40
0.2328225144
 40
0.4795735073
 40
0.7379363464
 40
1.0
 40
1.0
 40
1.0
 40
1.0
 10
6.7669953035
 20
10.0598439827
 30
0.0
 10
6.7597668536
 20
10.0597890289
 30
0.0
 10
6.7448305926
 20
10.0571915353
 30
0.0
 10
6.7240722401
 20
10.0467141646
 30
0.0
 10
6.7067750088
 20
10.0298998218
 30
0.0
 10
6.6981413309
 20
10.0160407833
 30
0.0
 10
6.6947012851
 20
10.0086672292
 30
0.0
  0
SPLINE
  5
411
100
AcDbEntity
  8
0
100
AcDbSpline
 62
9
  6
CONTINUOUS
 70
0
 71
3
 72
17
 73
13
 74
0
 42
0.0000001
 43
0.0000001
 44
0.0000000001
 40
0.0
 40
0.0
 40
0.0
 40
0.0
 40
0.1688721611
 40
0.3183344024
 40
0.3860268468
 40
0.4500897158
 40
0.5114544092
 40
0.570884754
 40
0.685071298
 40
0.7940891234
 40
0.8988521962
 40
1.0
 40
1.0
 40
1.0
 40
1.0
 10
8.9360400737
 20
3.3998456399
 30
0.0
 10
8.9360400737
 20
3.4113271062
 30
0.0
 10
8.9379494956
 20
3.433014415
 30
0.0
 10
8.9443487971
 20
3.4585579748
 30
0.0
 10
8.9508275004
 20
3.4765580663
 30
0.0
 10
8.9560539412
 20
3.4886125018
 30
0.0
 10
8.9617070945
 20
3.4998439642
 30
0.0
 10
8.9695547391
 20
3.5137650547
 30
0.0
 10
8.9800923711
 20
3.5298653795
 30
0.0
 10
8.99380761
 20
3.5474741544
 30
0.0
 10
9.0081420836
 20
3.5633984369
 30
0.0
 10
9.0180898972
 20
3.5732597863
 30
0.0
 10
9.0230999965
 20
3.5779705528
 30
0.0
  0
SPLINE
  5
412
100
AcDbEntity
  8
0
100
AcDbSpline
 62
9
  6
CONTINUOUS
 70
0
 71
3
 72
9
 73
5
 74
0
 42
0.0000001
 43
0.0000001
 44
0.0000000001
 40
0.0
 40
0.0
 40
0.0
 40
0.0
 40
0.4889456963
 40
1.0
 40
1.0
 40
1.0
 40
1.0
 10
9.5034610698
 20
9.8603321089
 30
0.0
 10
9.5108352691
 20
9.8504007566
 30
0.0
 10
9.523422078
 20
9.8281600914
 30
0.0
 10
9.5308577748
 20
9.8037582016
 30
0.0
 10
9.5333407262
 20
9.7910697938
 30
0.0
  0
SPLINE
  5
413
100
AcDbEntity
  8
0
100
AcDbSpline
 62
7
  6
CONTINUOUS
 70
0
 71
3
 72
26
 73
22
 74
0
 42
0.0000001
 43
0.0000001
 44
0.0000000001
 40
0.0
 40
0.0
 40
0.0
 40
0.0
 40
0.0008136776
 40
0.0032244262
 40
0.0072601964
 40
0.0129159253
 40
0.0201870958
 40
0.0290762046
 40
0.0517821649
 40
0.0811887317
 40
0.1174754818
 40
0.1608716298
 40
0.2116562029
 40
0.270229937
 40
0.3370847081
 40
0.4128634333
 40
0.4986399858
 40
0.5959214998
 40
0.7063979178
 40
0.836733116
 40
1.0
 40
1.0
 40
1.0
 40
1.0
 10
7.4894390141
 20
11.0080386432
 30
0.0
 10
7.4894345899
 20
11.0080451508
 30
0.0
 10
7.4893983267
 20
11.0080109227
 30
0.0
 10
7.4893549693
 20
11.0079812143
 30
0.0
 10
7.489260601
 20
11.007895694
 30
0.0
 10
7.4891383142
 20
11.0077932685
 30
0.0
 10
7.4889742376
 20
11.0076578342
 30
0.0
 10
7.4886790757
 20
11.0074264196
 30
0.0
 10
7.4882098835
 20
11.0070678866
 30
0.0
 10
7.4875340891
 20
11.0065446297
 30
0.0
 10
7.4867086783
 20
11.0058873665
 30
0.0
 10
7.4857297086
 20
11.0050913659
 30
0.0
 10
7.4845933957
 20
11.0041472512
 30
0.0
 10
7.4832994935
 20
11.0030380713
 30
0.0
 10
7.4818457551
 20
11.0017443905
 30
0.0
 10
7.4802254913
 20
11.0002427334
 30
0.0
 10
7.4784386104
 20
10.9984887301
 30
0.0
 10
7.4764994056
 20
10.9964148924
 30
0.0
 10
7.4743259838
 20
10.9939706726
 30
0.0
 10
7.4719876854
 20
10.9908283518
 30
0.0
 10
7.4706145349
 20
10.9883330842
 30
0.0
 10
7.469907053
 20
10.9869214905
 30
0.0
  0
SPLINE
  5
414
100
AcDbEntity
  8
0
100
AcDbSpline
 62
9
  6
CONTINUOUS
 70
0
 71
3
 72
9
 73
5
 74
0
 42
0.0000001
 43
0.0000001
 44
0.0000000001
 40
0.0
 40
0.0
 40
0.0
 40
0.0
 40
0.4974504633
 40
1.0
 40
1.0
 40
1.0
 40
1.0
 10
9.5333410948
 20
9.7910695229
 30
0.0
 10
9.536616934
 20
9.7743292733
 30
0.0
 10
9.5387208581
 20
9.7397385413
 30
0.0
 10
9.5337187651
 20
9.7055877397
 30
0.0
 10
9.5296316609
 20
9.6888468228
 30
0.0
  0
SPLINE
  5
415
100
AcDbEntity
  8
0
100
AcDbSpline
 62
9
  6
CONTINUOUS
 70
0
 71
3
 72
13
 73
9
 74
0
 42
0.0000001
 43
0.0000001
 44
0.0000000001
 40
0.0
 40
0.0
 40
0.0
 40
0.0
 40
0.2353905225
 40
0.3590346983
 40
0.4856623306
 40
0.61422573
 40
0.7435517662
 40
1.0
 40
1.0
 40
1.0
 40
1.0
 10
9.5296267572
 20
9.6888459727
 30
0.0
 10
9.5275574578
 20
9.7039192635
 30
0.0
 10
9.5226205223
 20
9.7267099445
 30
0.0
 10
9.5126205499
 20
9.7564875995
 30
0.0
 10
9.503016362
 20
9.779041116
 30
0.0
 10
9.4915115032
 20
9.8011022842
 30
0.0
 10
9.4738422302
 20
9.8292906492
 30
0.0
 10
9.4579481369
 20
9.8487104274
 30
0.0
 10
9.4463763102
 20
9.8605783811
 30
0.0
  0
SPLINE
  5
416
100
AcDbEntity
  8
0
100
AcDbSpline
 62
7
  6
CONTINUOUS
 70
0
 71
3
 72
17
 73
13
 74
0
 42
0.0000001
 43
0.0000001
 44
0.0000000001
 40
0.0
 40
0.0
 40
0.0
 40
0.0
 40
0.1274851728
 40
0.2531725752
 40
0.377092956
 40
0.4386264218
 40
0.5000002115
 40
0.5613740524
 40
0.6229075291
 40
0.7468276476
 40
0.8725148329
 40
1.0
 40
1.0
 40
1.0
 40
1.0
 10
7.4765488173
 20
11.4984046514
 30
0.0
 10
7.4615826449
 20
11.5092719697
 30
0.0
 10
7.4308362288
 20
11.5295117521
 30
0.0
 10
7.3816673883
 20
11.5538739775
 30
0.0
 10
7.3382906197
 20
11.5673035613
 30
0.0
 10
7.302853095
 20
11.5728180219
 30
0.0
 10
7.2761049926
 20
11.5742106321
 30
0.0
 10
7.2493568852
 20
11.5728180278
 30
0.0
 10
7.2139194058
 20
11.567303468
 30
0.0
 10
7.1705426975
 20
11.5538739453
 30
0.0
 10
7.1213739255
 20
11.5295117303
 30
0.0
 10
7.090627536
 20
11.5092719692
 30
0.0
 10
7.0756613643
 20
11.4984046514
 30
0.0
  0
SPLINE
  5
417
100
AcDbEntity
  8
0
100
AcDbSpline
 62
7
  6
CONTINUOUS
 70
0
 71
3
 72
17
 73
13
 74
0
 42
0.0000001
 43
0.0000001
 44
0.0000000001
 40
0.0
 40
0.0
 40
0.0
 40
0.0
 40
0.1274851728
 40
0.2531725752
 40
0.377092956
 40
0.4386264218
 40
0.5000002115
 40
0.5613740524
 40
0.6229075291
 40
0.7468276476
 40
0.8725148329
 40
1.0
 40
1.0
 40
1.0
 40
1.0
 10
6.8825488173
 20
11.4984046514
 30
0.0
 10
6.8675826449
 20
11.5092719697
 30
0.0
 10
6.8368362288
 20
11.5295117521
 30
0.0
 10
6.7876673883
 20
11.5538739775
 30
0.0
 10
6.7442906197
 20
11.5673035613
 30
0.0
 10
6.708853095
 20
11.5728180219
 30
0.0
 10
6.6821049926
 20
11.5742106321
 30
0.0
 10
6.6553568852
 20
11.5728180278
 30
0.0
 10
6.6199194058
 20
11.567303468
 30
0.0
 10
6.5765426975
 20
11.5538739453
 30
0.0
 10
6.5273739255
 20
11.5295117303
 30
0.0
 10
6.496627536
 20
11.5092719692
 30
0.0
 10
6.4816613643
 20
11.4984046514
 30
0.0
  0
SPLINE
  5
418
100
AcDbEntity
  8
0
100
AcDbSpline
 62
9
  6
CONTINUOUS
 70
0
 71
3
 72
15
 73
11
 74
0
 42
0.0000001
 43
0.0000001
 44
0.0000000001
 40
0.0
 40
0.0
 40
0.0
 40
0.0
 40
0.0344721224
 40
0.0592055747
 40
0.0902781967
 40
0.1729222868
 40
0.2839766833
 40
0.42334827
 40
0.5899896194
 40
1.0
 40
1.0
 40
1.0
 40
1.0
 10
7.7307501444
 20
9.8468756437
 30
0.0
 10
7.7307544825
 20
9.8466248884
 30
0.0
 10
7.7310309353
 20
9.8462236604
 30
0.0
 10
7.7315561979
 20
9.8458440091
 30
0.0
 10
7.7324486493
 20
9.8453625838
 30
0.0
 10
7.73399366
 20
9.8448155121
 30
0.0
 10
7.7363417344
 20
9.8442100025
 30
0.0
 10
7.7393210294
 20
9.843628448
 30
0.0
 10
7.7444692233
 20
9.8428284767
 30
0.0
 10
7.7486414914
 20
9.8423695317
 30
0.0
 10
7.7516109611
 20
9.8420865674
 30
0.0
  0
SPLINE
  5
419
100
AcDbEntity
  8
0
100
AcDbSpline
 62
9
  6
CONTINUOUS
 70
0
 71
3
 72
9
 73
5
 74
0
 42
0.0000001
 43
0.0000001
 44
0.0000000001
 40
0.0
 40
0.0
 40
0.0
 40
0.0
 40
0.4621236854
 40
1.0
 40
1.0
 40
1.0
 40
1.0
 10
7.7516109611
 20
9.8420865674
 30
0.0
 10
7.7556411593
 20
9.841702525
 30
0.0
 10
7.7643795641
 20
9.8410544218
 30
0.0
 10
7.7731307632
 20
9.8406348076
 30
0.0
 10
7.7778394976
 20
9.8404570378
 30
0.0
  0
SPLINE
  5
41A
100
AcDbEntity
  8
0
100
AcDbSpline
 62
9
  6
CONTINUOUS
 70
0
 71
3
 72
16
 73
12
 74
0
 42
0.0000001
 43
0.0000001
 44
0.0000000001
 40
0.0
 40
0.0
 40
0.0
 40
0.0
 40
0.0274681468
 40
0.0510735886
 40
0.0822276849
 40
0.1211431595
 40
0.1678066597
 40
0.2834933896
 40
0.4272549298
 40
0.5967299562
 40
1.0
 40
1.0
 40
1.0
 40
1.0
 10
12.2275834195
 20
9.8667972774
 30
0.0
 10
12.2275758056
 20
9.8663571639
 30
0.0
 10
12.2267952785
 20
9.8657277959
 30
0.0
 10
12.2256502805
 20
9.8652024716
 30
0.0
 10
12.2242089211
 20
9.8647068216
 30
0.0
 10
12.2224047866
 20
9.8642380662
 30
0.0
 10
12.2192442127
 20
9.86357382
 30
0.0
 10
12.2143948911
 20
9.8628290112
 30
0.0
 10
12.2075635973
 20
9.8620528625
 30
0.0
 10
12.1961211756
 20
9.861089274
 30
0.0
 10
12.1869519019
 20
9.8606224756
 30
0.0
 10
12.1804940663
 20
9.8603786715
 30
0.0
  0
SPLINE
  5
41B
100
AcDbEntity
  8
0
100
AcDbSpline
 62
7
  6
CONTINUOUS
 70
0
 71
3
 72
9
 73
5
 74
0
 42
0.0000001
 43
0.0000001
 44
0.0000000001
 40
0.0
 40
0.0
 40
0.0
 40
0.0
 40
0.2490879784
 40
1.0
 40
1.0
 40
1.0
 40
1.0
 10
6.8461304066
 20
11.1279211478
 30
0.0
 10
6.8492380702
 20
11.1298090922
 30
0.0
 10
6.8616272328
 20
11.1375314093
 30
0.0
 10
6.8736787459
 20
11.1457907261
 30
0.0
 10
6.8825488173
 20
11.1522315104
 30
0.0
  0
SPLINE
  5
41C
100
AcDbEntity
  8
0
100
AcDbSpline
 62
7
  6
CONTINUOUS
 70
0
 71
3
 72
17
 73
13
 74
0
 42
0.0000001
 43
0.0000001
 44
0.0000000001
 40
0.0
 40
0.0
 40
0.0
 40
0.0
 40
0.1274851728
 40
0.2531725752
 40
0.377092956
 40
0.4386264218
 40
0.5000002115
 40
0.5613740524
 40
0.6229075291
 40
0.7468276476
 40
0.8725148329
 40
1.0
 40
1.0
 40
1.0
 40
1.0
 10
7.0756613643
 20
11.1522315104
 30
0.0
 10
7.0906275367
 20
11.1413641921
 30
0.0
 10
7.1213739528
 20
11.1211244096
 30
0.0
 10
7.1705427933
 20
11.0967621843
 30
0.0
 10
7.2139195618
 20
11.0833326005
 30
0.0
 10
7.2493570866
 20
11.0778181398
 30
0.0
 10
7.276105189
 20
11.0764255296
 30
0.0
 10
7.3028532963
 20
11.077818134
 30
0.0
 10
7.3382907757
 20
11.0833326938
 30
0.0
 10
7.3816674841
 20
11.0967622164
 30
0.0
 10
7.430836256
 20
11.1211244315
 30
0.0
 10
7.4615826456
 20
11.1413641926
 30
0.0
 10
7.4765488173
 20
11.1522315104
 30
0.0
  0
SPLINE
  5
41D
100
AcDbEntity
  8
0
100
AcDbSpline
 62
9
  6
CONTINUOUS
 70
0
 71
3
 72
18
 73
14
 74
0
 42
0.0000001
 43
0.0000001
 44
0.0000000001
 40
0.0
 40
0.0
 40
0.0
 40
0.0
 40
0.0084579591
 40
0.0152491577
 40
0.0240777782
 40
0.0481472402
 40
0.0809406794
 40
0.1717694314
 40
0.2936787236
 40
0.4428502118
 40
0.6143971644
 40
0.8026292844
 40
1.0
 40
1.0
 40
1.0
 40
1.0
 10
7.8855743312
 20
9.7624072893
 30
0.0
 10
7.8853539352
 20
9.7624104892
 30
0.0
 10
7.8850167983
 20
9.7627384761
 30
0.0
 10
7.8847220535
 20
9.7632712558
 30
0.0
 10
7.8843191362
 20
9.7642354808
 30
0.0
 10
7.8838686944
 20
9.765885606
 30
0.0
 10
7.883111814
 20
9.7696635474
 30
0.0
 10
7.8823037681
 20
9.7760150007
 30
0.0
 10
7.8814685745
 20
9.7854102982
 30
0.0
 10
7.8807639883
 20
9.7969251915
 30
0.0
 10
7.8802065339
 20
9.8101775445
 30
0.0
 10
7.8798277125
 20
9.82469278
 30
0.0
 10
7.8797001191
 20
9.8347413273
 30
0.0
 10
7.8796682635
 20
9.839884823
 30
0.0
  0
SPLINE
  5
41E
100
AcDbEntity
  8
0
100
AcDbSpline
 62
9
  6
CONTINUOUS
 70
0
 71
3
 72
11
 73
7
 74
0
 42
0.0000001
 43
0.0000001
 44
0.0000000001
 40
0.0
 40
0.0
 40
0.0
 40
0.0
 40
0.2352071997
 40
0.4831693635
 40
0.7399812626
 40
1.0
 40
1.0
 40
1.0
 40
1.0
 10
10.4285648858
 20
9.6888386862
 30
0.0
 10
10.4302098543
 20
9.700824964
 30
0.0
 10
10.4351052462
 20
9.7252609941
 30
0.0
 10
10.4469977108
 20
9.7615166755
 30
0.0
 10
10.4638784277
 20
9.7971594743
 30
0.0
 10
10.4782234904
 20
9.8196485055
 30
0.0
 10
10.486173272
 20
9.8304043679
 30
0.0
  0
SPLINE
  5
41F
100
AcDbEntity
  8
0
100
AcDbSpline
 62
9
  6
CONTINUOUS
 70
0
 71
3
 72
11
 73
7
 74
0
 42
0.0000001
 43
0.0000001
 44
0.0000000001
 40
0.0
 40
0.0
 40
0.0
 40
0.0
 40
0.3052061589
 40
0.5735877934
 40
0.8048856117
 40
1.0
 40
1.0
 40
1.0
 40
1.0
 10
10.5308732593
 20
10.9410373108
 30
0.0
 10
10.5262945976
 20
10.9441551566
 30
0.0
 10
10.5174932501
 20
10.9497360267
 30
0.0
 10
10.5045239265
 20
10.9565079708
 30
0.0
 10
10.4927675888
 20
10.9611378624
 30
0.0
 10
10.4851904271
 20
10.9629341049
 30
0.0
 10
10.4816753786
 20
10.9633643053
 30
0.0
  0
SPLINE
  5
420
100
AcDbEntity
  8
0
100
AcDbSpline
 62
7
  6
CONTINUOUS
 70
0
 71
3
 72
9
 73
5
 74
0
 42
0.0000001
 43
0.0000001
 44
0.0000000001
 40
0.0
 40
0.0
 40
0.0
 40
0.0
 40
0.3990165189
 40
1.0
 40
1.0
 40
1.0
 40
1.0
 10
12.1861520348
 20
10.7506652215
 30
0.0
 10
12.1846733674
 20
10.748088528
 30
0.0
 10
12.1811029557
 20
10.7415532945
 30
0.0
 10
12.1777524163
 20
10.7349025163
 30
0.0
 10
12.1758008318
 20
10.7308759956
 30
0.0
  0
LINE
  5
421
100
AcDbEntity
  8
0
100
AcDbLine
 62
7
  6
CONTINUOUS
 10
12.1757527562
 20
10.0688004357
 11
12.1794737064
 21
10.061305637
  0
SPLINE
  5
422
100
AcDbEntity
  8
0
100
AcDbSpline
 62
7
  6
CONTINUOUS
 70
0
 71
3
 72
10
 73
6
 74
0
 42
0.0000001
 43
0.0000001
 44
0.0000000001
 40
0.0
 40
0.0
 40
0.0
 40
0.0
 40
0.578643797
 40
0.811656986
 40
1.0
 40
1.0
 40
1.0
 40
1.0
 10
12.1794737064
 20
10.061305637
 30
0.0
 10
12.1808399428
 20
10.0588670036
 30
0.0
 10
12.1830044197
 20
10.0555850254
 30
0.0
 10
12.1858510895
 20
10.0516846371
 30
0.0
 10
12.1870335908
 20
10.0500260212
 30
0.0
 10
12.1875231568
 20
10.0492591298
 30
0.0
  0
SPLINE
  5
423
100
AcDbEntity
  8
0
100
AcDbSpline
 62
7
  6
CONTINUOUS
 70
0
 71
3
 72
11
 73
7
 74
0
 42
0.0000001
 43
0.0000001
 44
0.0000000001
 40
0.0
 40
0.0
 40
0.0
 40
0.0
 40
0.1990945467
 40
0.4226646743
 40
0.6867975074
 40
1.0
 40
1.0
 40
1.0
 40
1.0
 10
12.3754834912
 20
9.6183132102
 30
0.0
 10
12.3718964118
 20
9.6209578012
 30
0.0
 10
12.3647125583
 20
9.627192756
 30
0.0
 10
12.355144131
 20
9.6393664858
 30
0.0
 10
12.3475429477
 20
9.6558067489
 30
0.0
 10
12.3455596277
 20
9.6688230478
 30
0.0
 10
12.3455596277
 20
9.6758338289
 30
0.0
  0
SPLINE
  5
424
100
AcDbEntity
  8
0
100
AcDbSpline
 62
7
  6
CONTINUOUS
 70
0
 71
3
 72
17
 73
13
 74
0
 42
0.0000001
 43
0.0000001
 44
0.0000000001
 40
0.0
 40
0.0
 40
0.0
 40
0.0
 40
0.1035233412
 40
0.1922702907
 40
0.2678616578
 40
0.3350688923
 40
0.4557635909
 40
0.5681377065
 40
0.6772041444
 40
0.7849906901
 40
0.892400071
 40
1.0
 40
1.0
 40
1.0
 40
1.0
 10
12.3455596277
 20
9.6758338289
 30
0.0
 10
12.3455596277
 20
9.6823166222
 30
0.0
 10
12.3472656385
 20
9.6944301217
 30
0.0
 10
12.3538849082
 20
9.7100085496
 30
0.0
 10
12.3624033055
 20
9.7218643571
 30
0.0
 10
12.374353762
 20
9.7333425075
 30
0.0
 10
12.3906178581
 20
9.7432126567
 30
0.0
 10
12.4109195063
 20
9.7503388798
 30
0.0
 10
12.4311863187
 20
9.7543773219
 30
0.0
 10
12.4514281639
 20
9.7562959223
 30
0.0
 10
12.4716597773
 20
9.7565421057
 30
0.0
 10
12.4851129448
 20
9.7556297303
 30
0.0
 10
12.4918068888
 20
9.7548598113
 30
0.0
  0
SPLINE
  5
425
100
AcDbEntity
  8
0
100
AcDbSpline
 62
7
  6
CONTINUOUS
 70
0
 71
3
 72
9
 73
5
 74
0
 42
0.0000001
 43
0.0000001
 44
0.0000000001
 40
0.0
 40
0.0
 40
0.0
 40
0.0
 40
0.4936717636
 40
1.0
 40
1.0
 40
1.0
 40
1.0
 10
12.4918068888
 20
9.7548598113
 30
0.0
 10
12.4989511396
 20
9.7540380992
 30
0.0
 10
12.5133517963
 20
9.7516534449
 30
0.0
 10
12.5273406373
 20
9.7473062872
 30
0.0
 10
12.5341369386
 20
9.7444407128
 30
0.0
  0
SPLINE
  5
426
100
AcDbEntity
  8
0
100
AcDbSpline
 62
7
  6
CONTINUOUS
 70
0
 71
3
 72
13
 73
9
 74
0
 42
0.0000001
 43
0.0000001
 44
0.0000000001
 40
0.0
 40
0.0
 40
0.0
 40
0.0
 40
0.1959227121
 40
0.4110447952
 40
0.5323415393
 40
0.6684953174
 40
0.8248252254
 40
1.0
 40
1.0
 40
1.0
 40
1.0
 10
12.5341369386
 20
9.7444407128
 30
0.0
 10
12.5395453284
 20
9.7421603338
 30
0.0
 10
12.5505462995
 20
9.7364774534
 30
0.0
 10
12.5630131633
 20
9.7262613706
 30
0.0
 10
12.5719568026
 20
9.7152241676
 30
0.0
 10
12.5781291784
 20
9.7043986447
 30
0.0
 10
12.5826785589
 20
9.6910516919
 30
0.0
 10
12.583812375
 20
9.6810817403
 30
0.0
 10
12.583812375
 20
9.6758338289
 30
0.0
  0
SPLINE
  5
427
100
AcDbEntity
  8
0
100
AcDbSpline
 62
7
  6
CONTINUOUS
 70
0
 71
3
 72
11
 73
7
 74
0
 42
0.0000001
 43
0.0000001
 44
0.0000000001
 40
0.0
 40
0.0
 40
0.0
 40
0.0
 40
0.3133437645
 40
0.5774587378
 40
0.8009708943
 40
1.0
 40
1.0
 40
1.0
 40
1.0
 10
12.583812375
 20
9.6758338289
 30
0.0
 10
12.583812375
 20
9.6688198811
 30
0.0
 10
12.581826546
 20
9.6558011159
 30
0.0
 10
12.5742252961
 20
9.6393591845
 30
0.0
 10
12.5646558523
 20
9.6271902218
 30
0.0
 10
12.5574744133
 20
9.6209569336
 30
0.0
 10
12.5538885106
 20
9.6183132102
 30
0.0
  0
SPLINE
  5
428
100
AcDbEntity
  8
0
100
AcDbSpline
 62
7
  6
CONTINUOUS
 70
0
 71
3
 72
11
 73
7
 74
0
 42
0.0000001
 43
0.0000001
 44
0.0000000001
 40
0.0
 40
0.0
 40
0.0
 40
0.0
 40
0.2042922765
 40
0.4436526713
 40
0.7107227843
 40
1.0
 40
1.0
 40
1.0
 40
1.0
 10
12.4882909791
 20
9.8128296372
 30
0.0
 10
12.4934684734
 20
9.8230708587
 30
0.0
 10
12.504972215
 20
9.8451798543
 30
0.0
 10
12.5239167466
 20
9.8803224167
 30
0.0
 10
12.5454348418
 20
9.9194987989
 30
0.0
 10
12.5605150004
 20
9.9468709801
 30
0.0
 10
12.5683802577
 20
9.9610899989
 30
0.0
  0
SPLINE
  5
429
100
AcDbEntity
  8
0
100
AcDbSpline
 62
7
  6
CONTINUOUS
 70
0
 71
3
 72
12
 73
8
 74
0
 42
0.0000001
 43
0.0000001
 44
0.0000000001
 40
0.0
 40
0.0
 40
0.0
 40
0.0
 40
0.0546677982
 40
0.2229498853
 40
0.520704567
 40
0.7307354117
 40
1.0
 40
1.0
 40
1.0
 40
1.0
 10
12.4687594008
 20
11.0080214001
 30
0.0
 10
12.4691003157
 20
11.0077638141
 30
0.0
 10
12.4704846461
 20
11.006705578
 30
0.0
 10
12.4736610941
 20
11.0041614015
 30
0.0
 10
12.4776362527
 20
11.0006693123
 30
0.0
 10
12.4818679394
 20
10.9963139831
 30
0.0
 10
12.4843147508
 20
10.9934578057
 30
0.0
 10
12.4855108585
 20
10.9917263236
 30
0.0
  0
LINE
  5
42A
100
AcDbEntity
  8
0
100
AcDbLine
 62
7
  6
CONTINUOUS
 10
12.4855108585
 20
10.9917263236
 11
12.488306996
 21
10.9869498965
  0
SPLINE
  5
42B
100
AcDbEntity
  8
0
100
AcDbSpline
 62
7
  6
CONTINUOUS
 70
0
 71
3
 72
11
 73
7
 74
0
 42
0.0000001
 43
0.0000001
 44
0.0000000001
 40
0.0
 40
0.0
 40
0.0
 40
0.0
 40
0.2046694026
 40
0.4437808001
 40
0.7108174859
 40
1.0
 40
1.0
 40
1.0
 40
1.0
 10
12.488308077
 20
10.9869481301
 30
0.0
 10
12.4934136124
 20
10.9766404085
 30
0.0
 10
12.5049441656
 20
10.9545199927
 30
0.0
 10
12.5239359655
 20
10.9193741047
 30
0.0
 10
12.5454316028
 20
10.8801823188
 30
0.0
 10
12.5605250135
 20
10.8528068378
 30
0.0
 10
12.5683927336
 20
10.8385854388
 30
0.0
  0
SPLINE
  5
42C
100
AcDbEntity
  8
0
100
AcDbSpline
 62
9
  6
CONTINUOUS
 70
0
 71
3
 72
11
 73
7
 74
0
 42
0.0000001
 43
0.0000001
 44
0.0000000001
 40
0.0
 40
0.0
 40
0.0
 40
0.0
 40
0.1965252444
 40
0.4282687764
 40
0.6961529932
 40
1.0
 40
1.0
 40
1.0
 40
1.0
 10
9.4765345303
 20
10.9633642529
 30
0.0
 10
9.4731533012
 20
10.9629504246
 30
0.0
 10
9.4658812109
 20
10.9612570957
 30
0.0
 10
9.4546010464
 20
10.9569068649
 30
0.0
 10
9.4421817
 20
10.9505587988
 30
0.0
 10
9.4337525282
 20
10.9453276801
 30
0.0
 10
9.4293698207
 20
10.9424070361
 30
0.0
  0
SPLINE
  5
42D
100
AcDbEntity
  8
0
100
AcDbSpline
 62
9
  6
CONTINUOUS
 70
0
 71
3
 72
13
 73
9
 74
0
 42
0.0000001
 43
0.0000001
 44
0.0000000001
 40
0.0
 40
0.0
 40
0.0
 40
0.0
 40
0.1416709678
 40
0.2754755382
 40
0.4041903293
 40
0.5289915591
 40
0.7693743615
 40
1.0
 40
1.0
 40
1.0
 40
1.0
 10
10.6215207442
 20
9.1165302621
 30
0.0
 10
10.6208812676
 20
9.1023273743
 30
0.0
 10
10.6180756949
 20
9.0747743822
 30
0.0
 10
10.6109403318
 20
9.0348212133
 30
0.0
 10
10.6017440393
 20
8.9970300562
 30
0.0
 10
10.5873053358
 20
8.9495939938
 30
0.0
 10
10.5654606301
 20
8.8938149067
 30
0.0
 10
10.5436848433
 20
8.8517495416
 30
0.0
 10
10.5319588231
 20
8.8317956742
 30
0.0
  0
SPLINE
  5
42E
100
AcDbEntity
  8
0
100
AcDbSpline
 62
9
  6
CONTINUOUS
 70
0
 71
3
 72
18
 73
14
 74
0
 42
0.0000001
 43
0.0000001
 44
0.0000000001
 40
0.0
 40
0.0
 40
0.0
 40
0.0
 40
0.0084579591
 40
0.0152491577
 40
0.0240777782
 40
0.0481472402
 40
0.0809406794
 40
0.1717694314
 40
0.2936787236
 40
0.4428502118
 40
0.6143971644
 40
0.8026292844
 40
1.0
 40
1.0
 40
1.0
 40
1.0
 10
7.8157448477
 20
11.0372839905
 30
0.0
 10
7.8155244517
 20
11.0372807907
 30
0.0
 10
7.8151873148
 20
11.0369528037
 30
0.0
 10
7.81489257
 20
11.0364200241
 30
0.0
 10
7.8144896527
 20
11.0354557991
 30
0.0
 10
7.8140392109
 20
11.0338056739
 30
0.0
 10
7.8132823305
 20
11.0300277324
 30
0.0
 10
7.8124742846
 20
11.0236762791
 30
0.0
 10
7.811639091
 20
11.0142809817
 30
0.0
 10
7.8109345048
 20
11.0027660884
 30
0.0
 10
7.8103770504
 20
10.9895137353
 30
0.0
 10
7.809998229
 20
10.9749984998
 30
0.0
 10
7.8098706356
 20
10.9649499525
 30
0.0
 10
7.8098387799
 20
10.9598064568
 30
0.0
  0
SPLINE
  5
42F
100
AcDbEntity
  8
0
100
AcDbSpline
 62
9
  6
CONTINUOUS
 70
0
 71
3
 72
16
 73
12
 74
0
 42
0.0000001
 43
0.0000001
 44
0.0000000001
 40
0.0
 40
0.0
 40
0.0
 40
0.0
 40
0.0274681468
 40
0.0510735886
 40
0.0822276849
 40
0.1211431595
 40
0.1678066597
 40
0.2834933896
 40
0.4272549298
 40
0.5967299562
 40
1.0
 40
1.0
 40
1.0
 40
1.0
 10
7.730626762
 20
10.9328940024
 30
0.0
 10
7.730634376
 20
10.9333341159
 30
0.0
 10
7.7314149031
 20
10.9339634839
 30
0.0
 10
7.7325599011
 20
10.9344888083
 30
0.0
 10
7.7340012604
 20
10.9349844583
 30
0.0
 10
7.735805395
 20
10.9354532136
 30
0.0
 10
7.7389659689
 20
10.9361174599
 30
0.0
 10
7.7438152904
 20
10.9368622687
 30
0.0
 10
7.7506465843
 20
10.9376384173
 30
0.0
 10
7.762089006
 20
10.9386020059
 30
0.0
 10
7.7712582796
 20
10.9390688043
 30
0.0
 10
7.7777161152
 20
10.9393126083
 30
0.0
  0
SPLINE
  5
430
100
AcDbEntity
  8
0
100
AcDbSpline
 62
9
  6
CONTINUOUS
 70
0
 71
3
 72
13
 73
9
 74
0
 42
0.0000001
 43
0.0000001
 44
0.0000000001
 40
0.0
 40
0.0
 40
0.0
 40
0.0
 40
0.1416709678
 40
0.2754755382
 40
0.4041903293
 40
0.5289915591
 40
0.7693743615
 40
1.0
 40
1.0
 40
1.0
 40
1.0
 10
9.3366894373
 20
9.1165302621
 30
0.0
 10
9.337328914
 20
9.1023273743
 30
0.0
 10
9.3401344866
 20
9.0747743822
 30
0.0
 10
9.3472698498
 20
9.0348212133
 30
0.0
 10
9.3564661423
 20
8.9970300562
 30
0.0
 10
9.3709048458
 20
8.9495939938
 30
0.0
 10
9.3927495515
 20
8.8938149067
 30
0.0
 10
9.4145253383
 20
8.8517495416
 30
0.0
 10
9.4262513584
 20
8.8317956742
 30
0.0
  0
SPLINE
  5
431
100
AcDbEntity
  8
0
100
AcDbSpline
 62
9
  6
CONTINUOUS
 70
0
 71
3
 72
11
 73
7
 74
0
 42
0.0000001
 43
0.0000001
 44
0.0000000001
 40
0.0
 40
0.0
 40
0.0
 40
0.0
 40
0.2718776564
 40
0.5256504787
 40
0.7670661639
 40
1.0
 40
1.0
 40
1.0
 40
1.0
 10
10.8735808423
 20
4.6496424486
 30
0.0
 10
10.8735422834
 20
4.6443604861
 30
0.0
 10
10.8730227375
 20
4.6341450236
 30
0.0
 10
10.8709803902
 20
4.619367465
 30
0.0
 10
10.8680243357
 20
4.6055237275
 30
0.0
 10
10.8655698697
 20
4.5966349749
 30
0.0
 10
10.8642421051
 20
4.5923086447
 30
0.0
  0
SPLINE
  5
432
100
AcDbEntity
  8
0
100
AcDbSpline
 62
9
  6
CONTINUOUS
 70
0
 71
3
 72
21
 73
17
 74
0
 42
0.0000001
 43
0.0000001
 44
0.0000000001
 40
0.0
 40
0.0
 40
0.0
 40
0.0
 40
0.0315535598
 40
0.0618623873
 40
0.0914887429
 40
0.1207538147
 40
0.1788067712
 40
0.207811957
 40
0.2368754111
 40
0.2953161838
 40
0.3543571451
 40
0.4746762169
 40
0.5986882412
 40
0.727016797
 40
0.8604106528
 40
1.0
 40
1.0
 40
1.0
 40
1.0
 10
10.8642421051
 20
4.5923086447
 30
0.0
 10
10.8610369466
 20
4.5818650957
 30
0.0
 10
10.85339853
 20
4.561787463
 30
0.0
 10
10.8389553946
 20
4.5335452937
 30
0.0
 10
10.8224758145
 20
4.5073874156
 30
0.0
 10
10.7985154641
 20
4.4747191102
 30
0.0
 10
10.7716441099
 20
4.4445816194
 30
0.0
 10
10.7427033579
 20
4.4166646291
 30
0.0
 10
10.7124214201
 20
4.3899968393
 30
0.0
 10
10.6722096284
 20
4.3589585201
 30
0.0
 10
10.6034173181
 20
4.3136225413
 30
0.0
 10
10.5100428226
 20
4.2648541153
 30
0.0
 10
10.3891638154
 20
4.2190037943
 30
0.0
 10
10.2596374792
 20
4.1854514783
 30
0.0
 10
10.1220224607
 20
4.1646891565
 30
0.0
 10
10.0274330336
 20
4.1601602626
 30
0.0
 10
9.9791050908
 20
4.1601602626
 30
0.0
  0
SPLINE
  5
433
100
AcDbEntity
  8
0
100
AcDbSpline
 62
9
  6
CONTINUOUS
 70
0
 71
3
 72
25
 73
21
 74
0
 42
0.0000001
 43
0.0000001
 44
0.0000000001
 40
0.0
 40
0.0
 40
0.0
 40
0.0
 40
0.2160484045
 40
0.4114249247
 40
0.5832720442
 40
0.6594605107
 40
0.7286647486
 40
0.790538663
 40
0.8448455139
 40
0.8913756415
 40
0.9299188312
 40
0.9461294964
 40
0.9602643574
 40
0.9722969931
 40
0.9822009524
 40
0.9899497553
 40
0.9955168929
 40
0.9974740459
 40
0.9988758292
 40
1.0
 40
1.0
 40
1.0
 40
1.0
 10
10.4285739643
 20
9.6888376186
 30
0.0
 10
10.4360684806
 20
9.6843335584
 30
0.0
 10
10.4502313367
 20
9.6755734564
 30
0.0
 10
10.4700161062
 20
9.6626939798
 30
0.0
 10
10.4848619892
 20
9.6526103436
 30
0.0
 10
10.4953952463
 20
9.6452688633
 30
0.0
 10
10.5022461443
 20
9.6404282771
 30
0.0
 10
10.5083529933
 20
9.6360694699
 30
0.0
 10
10.5136952372
 20
9.6322191693
 30
0.0
 10
10.5182566593
 20
9.6289003502
 30
0.0
 10
10.5215606177
 20
9.6264743799
 30
0.0
 10
10.5238025121
 20
9.6248164684
 30
0.0
 10
10.5251788868
 20
9.6237942866
 30
0.0
 10
10.5263504581
 20
9.6229199085
 30
0.0
 10
10.5273079865
 20
9.6222036421
 30
0.0
 10
10.5280692452
 20
9.6216281426
 30
0.0
 10
10.5285409855
 20
9.6212775728
 30
0.0
 10
10.5288579317
 20
9.6210296672
 30
0.0
 10
10.5289512699
 20
9.6209723165
 30
0.0
 10
10.5291317903
 20
9.6208089301
 30
0.0
 10
10.5291050808
 20
9.6208457618
 30
0.0
  0
SPLINE
  5
434
100
AcDbEntity
  8
0
100
AcDbSpline
 62
9
  6
CONTINUOUS
 70
0
 71
3
 72
10
 73
6
 74
0
 42
0.0000001
 43
0.0000001
 44
0.0000000001
 40
0.0
 40
0.0
 40
0.0
 40
0.0
 40
0.5582006182
 40
0.7937085574
 40
1.0
 40
1.0
 40
1.0
 40
1.0
 10
9.5031449455
 20
10.9402743282
 30
0.0
 10
9.5109068999
 20
10.9503105086
 30
0.0
 10
9.522638535
 20
10.9640955376
 30
0.0
 10
9.5391097098
 20
10.9797796709
 30
0.0
 10
9.5469167369
 20
10.9861210189
 30
0.0
 10
9.550705514
 20
10.9888833678
 30
0.0
  0
SPLINE
  5
435
100
AcDbEntity
  8
0
100
AcDbSpline
 62
7
  6
CONTINUOUS
 70
0
 71
3
 72
17
 73
13
 74
0
 42
0.0000001
 43
0.0000001
 44
0.0000000001
 40
0.0
 40
0.0
 40
0.0
 40
0.0
 40
0.1274851728
 40
0.2531725752
 40
0.377092956
 40
0.4386264218
 40
0.5000002115
 40
0.5613740524
 40
0.6229075291
 40
0.7468276476
 40
0.8725148329
 40
1.0
 40
1.0
 40
1.0
 40
1.0
 10
13.4765488173
 20
11.4984046514
 30
0.0
 10
13.4615826449
 20
11.5092719697
 30
0.0
 10
13.4308362288
 20
11.5295117521
 30
0.0
 10
13.3816673883
 20
11.5538739775
 30
0.0
 10
13.3382906197
 20
11.5673035613
 30
0.0
 10
13.302853095
 20
11.5728180219
 30
0.0
 10
13.2761049926
 20
11.5742106321
 30
0.0
 10
13.2493568852
 20
11.5728180278
 30
0.0
 10
13.2139194058
 20
11.567303468
 30
0.0
 10
13.1705426975
 20
11.5538739453
 30
0.0
 10
13.1213739255
 20
11.5295117303
 30
0.0
 10
13.090627536
 20
11.5092719692
 30
0.0
 10
13.0756613643
 20
11.4984046514
 30
0.0
  0
SPLINE
  5
436
100
AcDbEntity
  8
0
100
AcDbSpline
 62
7
  6
CONTINUOUS
 70
0
 71
3
 72
17
 73
13
 74
0
 42
0.0000001
 43
0.0000001
 44
0.0000000001
 40
0.0
 40
0.0
 40
0.0
 40
0.0
 40
0.1274851728
 40
0.2531725752
 40
0.377092956
 40
0.4386264218
 40
0.5000002115
 40
0.5613740524
 40
0.6229075291
 40
0.7468276476
 40
0.8725148329
 40
1.0
 40
1.0
 40
1.0
 40
1.0
 10
12.8825488173
 20
11.4984046514
 30
0.0
 10
12.8675826449
 20
11.5092719697
 30
0.0
 10
12.8368362288
 20
11.5295117521
 30
0.0
 10
12.7876673883
 20
11.5538739775
 30
0.0
 10
12.7442906197
 20
11.5673035613
 30
0.0
 10
12.708853095
 20
11.5728180219
 30
0.0
 10
12.6821049926
 20
11.5742106321
 30
0.0
 10
12.6553568852
 20
11.5728180278
 30
0.0
 10
12.6199194058
 20
11.567303468
 30
0.0
 10
12.5765426975
 20
11.5538739453
 30
0.0
 10
12.5273739255
 20
11.5295117303
 30
0.0
 10
12.496627536
 20
11.5092719692
 30
0.0
 10
12.4816613643
 20
11.4984046514
 30
0.0
  0
SPLINE
  5
437
100
AcDbEntity
  8
0
100
AcDbSpline
 62
7
  6
CONTINUOUS
 70
0
 71
3
 72
17
 73
13
 74
0
 42
0.0000001
 43
0.0000001
 44
0.0000000001
 40
0.0
 40
0.0
 40
0.0
 40
0.0
 40
0.1274851728
 40
0.2531725752
 40
0.377092956
 40
0.4386264218
 40
0.5000002115
 40
0.5613740524
 40
0.6229075291
 40
0.7468276476
 40
0.8725148329
 40
1.0
 40
1.0
 40
1.0
 40
1.0
 10
12.4816613643
 20
11.1522315104
 30
0.0
 10
12.4966275367
 20
11.1413641921
 30
0.0
 10
12.5273739528
 20
11.1211244096
 30
0.0
 10
12.5765427933
 20
11.0967621843
 30
0.0
 10
12.6199195618
 20
11.0833326005
 30
0.0
 10
12.6553570866
 20
11.0778181398
 30
0.0
 10
12.682105189
 20
11.0764255296
 30
0.0
 10
12.7088532963
 20
11.077818134
 30
0.0
 10
12.7442907757
 20
11.0833326938
 30
0.0
 10
12.7876674841
 20
11.0967622164
 30
0.0
 10
12.836836256
 20
11.1211244315
 30
0.0
 10
12.8675826456
 20
11.1413641926
 30
0.0
 10
12.8825488173
 20
11.1522315104
 30
0.0
  0
SPLINE
  5
438
100
AcDbEntity
  8
0
100
AcDbSpline
 62
7
  6
CONTINUOUS
 70
0
 71
3
 72
17
 73
13
 74
0
 42
0.0000001
 43
0.0000001
 44
0.0000000001
 40
0.0
 40
0.0
 40
0.0
 40
0.0
 40
0.1274851728
 40
0.2531725752
 40
0.377092956
 40
0.4386264218
 40
0.5000002115
 40
0.5613740524
 40
0.6229075291
 40
0.7468276476
 40
0.8725148329
 40
1.0
 40
1.0
 40
1.0
 40
1.0
 10
13.0756613643
 20
11.1522315104
 30
0.0
 10
13.0906275367
 20
11.1413641921
 30
0.0
 10
13.1213739528
 20
11.1211244096
 30
0.0
 10
13.1705427933
 20
11.0967621843
 30
0.0
 10
13.2139195618
 20
11.0833326005
 30
0.0
 10
13.2493570866
 20
11.0778181398
 30
0.0
 10
13.276105189
 20
11.0764255296
 30
0.0
 10
13.3028532963
 20
11.077818134
 30
0.0
 10
13.3382907757
 20
11.0833326938
 30
0.0
 10
13.3816674841
 20
11.0967622164
 30
0.0
 10
13.430836256
 20
11.1211244315
 30
0.0
 10
13.4615826456
 20
11.1413641926
 30
0.0
 10
13.4765488173
 20
11.1522315104
 30
0.0
  0
SPLINE
  5
439
100
AcDbEntity
  8
0
100
AcDbSpline
 62
9
  6
CONTINUOUS
 70
0
 71
3
 72
26
 73
22
 74
0
 42
0.0000001
 43
0.0000001
 44
0.0000000001
 40
0.0
 40
0.0
 40
0.0
 40
0.0
 40
0.0002826152
 40
0.001127013
 40
0.0025298823
 40
0.0044879136
 40
0.0100562316
 40
0.0178055257
 40
0.0277093819
 40
0.0397414152
 40
0.0538752699
 40
0.0700846205
 40
0.1086246399
 40
0.1551515184
 40
0.2094558159
 40
0.271328652
 40
0.3405338057
 40
0.4167247072
 40
0.5885783227
 40
0.783958245
 40
1.0
 40
1.0
 40
1.0
 40
1.0
 10
9.4291078972
 20
9.6208511568
 30
0.0
 10
9.4291145238
 20
9.6208604788
 30
0.0
 10
9.4291567465
 20
9.6208823902
 30
0.0
 10
9.4292324641
 20
9.6209499537
 30
0.0
 10
9.4293712068
 20
9.6210497923
 30
0.0
 10
9.4296571908
 20
9.6212700163
 30
0.0
 10
9.4301518587
 20
9.6216413112
 30
0.0
 10
9.4309020619
 20
9.6222070445
 30
0.0
 10
9.431863715
 20
9.6229271716
 30
0.0
 10
9.4330335832
 20
9.6238001681
 30
0.0
 10
9.4344102568
 20
9.6248227475
 30
0.0
 10
9.4366515844
 20
9.6264802965
 30
0.0
 10
9.4399552365
 20
9.6289060677
 30
0.0
 10
9.4445161444
 20
9.6322243181
 30
0.0
 10
9.449858081
 20
9.6360739806
 30
0.0
 10
9.4559648223
 20
9.6404320138
 30
0.0
 10
9.4628158873
 20
9.6452717141
 30
0.0
 10
9.4733496107
 20
9.6526119641
 30
0.0
 10
9.4881958475
 20
9.6626941717
 30
0.0
 10
9.5079796738
 20
9.6755728918
 30
0.0
 10
9.5221407708
 20
9.6843337805
 30
0.0
 10
9.5296339394
 20
9.6888386109
 30
0.0
  0
SPLINE
  5
43A
100
AcDbEntity
  8
0
100
AcDbSpline
 62
9
  6
CONTINUOUS
 70
0
 71
3
 72
15
 73
11
 74
0
 42
0.0000001
 43
0.0000001
 44
0.0000000001
 40
0.0
 40
0.0
 40
0.0
 40
0.0
 40
0.1056170984
 40
0.2182002239
 40
0.3368849117
 40
0.4611410969
 40
0.5905946834
 40
0.7243144595
 40
0.8613343295
 40
1.0
 40
1.0
 40
1.0
 40
1.0
 10
9.5296306246
 20
9.6888503332
 30
0.0
 10
9.5418006037
 20
9.6758405973
 30
0.0
 10
9.5680780634
 20
9.6500023404
 30
0.0
 10
9.6118339093
 20
9.6136441282
 30
0.0
 10
9.6612518668
 20
9.579523329
 30
0.0
 10
9.7162125963
 20
9.5488992561
 30
0.0
 10
9.7763774341
 20
9.52308369
 30
0.0
 10
9.8410745976
 20
9.5033163098
 30
0.0
 10
9.9091728827
 20
9.490980274
 30
0.0
 10
9.9557161256
 20
9.4880900985
 30
0.0
 10
9.97910514
 20
9.4880857936
 30
0.0
  0
SPLINE
  5
43B
100
AcDbEntity
  8
0
100
AcDbSpline
 62
7
  6
CONTINUOUS
 70
0
 71
3
 72
26
 73
22
 74
0
 42
0.0000001
 43
0.0000001
 44
0.0000000001
 40
0.0
 40
0.0
 40
0.0
 40
0.0
 40
0.0008158967
 40
0.0032274827
 40
0.0072658796
 40
0.0129245463
 40
0.0201977358
 40
0.029087575
 40
0.0517931541
 40
0.0811987106
 40
0.1174849628
 40
0.1608808325
 40
0.2116648188
 40
0.2702377643
 40
0.3370917092
 40
0.4128694556
 40
0.4986448865
 40
0.5959251771
 40
0.706399517
 40
0.8367333421
 40
1.0
 40
1.0
 40
1.0
 40
1.0
 10
12.4687723639
 20
9.7916508839
 30
0.0
 10
12.4687768003
 20
9.7916443586
 30
0.0
 10
12.468813433
 20
9.7916778673
 30
0.0
 10
12.4688562668
 20
9.7917086426
 30
0.0
 10
12.4689503987
 20
9.7917943145
 30
0.0
 10
12.4690721403
 20
9.791897587
 30
0.0
 10
12.469235871
 20
9.7920334986
 30
0.0
 10
12.4695307891
 20
9.7922652861
 30
0.0
 10
12.4700001567
 20
9.7926235748
 30
0.0
 10
12.4706761672
 20
9.7931465352
 30
0.0
 10
12.4715015304
 20
9.7938038399
 30
0.0
 10
12.4724804273
 20
9.7945999185
 30
0.0
 10
12.4736167435
 20
9.7955440149
 30
0.0
 10
12.4749106537
 20
9.7966531659
 30
0.0
 10
12.4763643753
 20
9.7979468424
 30
0.0
 10
12.4779846267
 20
9.799448487
 30
0.0
 10
12.479771499
 20
9.8012024711
 30
0.0
 10
12.481710673
 20
9.8032762979
 30
0.0
 10
12.4838841143
 20
9.8057204608
 30
0.0
 10
12.4862223898
 20
9.808862785
 30
0.0
 10
12.4875954635
 20
9.8113580915
 30
0.0
 10
12.4883029538
 20
9.8127696871
 30
0.0
  0
SPLINE
  5
43C
100
AcDbEntity
  8
0
100
AcDbSpline
 62
7
  6
CONTINUOUS
 70
0
 71
3
 72
18
 73
14
 74
0
 42
0.0000001
 43
0.0000001
 44
0.0000000001
 40
0.0
 40
0.0
 40
0.0
 40
0.0
 40
0.1250156348
 40
0.2500306262
 40
0.3750428279
 40
0.5000497752
 40
0.6250424067
 40
0.687560308
 40
0.7500791696
 40
0.8126006918
 40
0.8751181427
 40
0.9376246116
 40
1.0
 40
1.0
 40
1.0
 40
1.0
 10
13.3925315858
 20
10.5093647315
 30
0.0
 10
13.3925315858
 20
10.5120559217
 30
0.0
 10
13.3924465427
 20
10.5174388882
 30
0.0
 10
13.392005497
 20
10.5255026665
 30
0.0
 10
13.3911749993
 20
10.533537328
 30
0.0
 10
13.3898488177
 20
10.5415062968
 30
0.0
 10
13.3881984222
 20
10.5480415443
 30
0.0
 10
13.3864140542
 20
10.5531236344
 30
0.0
 10
13.3847853907
 20
10.5568235953
 30
0.0
 10
13.382790243
 20
10.5603444685
 30
0.0
 10
13.3803061342
 20
10.5635513996
 30
0.0
 10
13.3771859541
 20
10.5661787557
 30
0.0
 10
13.374549196
 20
10.5671004652
 30
0.0
 10
13.3732110567
 20
10.5672115746
 30
0.0
  0
SPLINE
  5
43D
100
AcDbEntity
  8
0
100
AcDbSpline
 62
7
  6
CONTINUOUS
 70
0
 71
3
 72
18
 73
14
 74
0
 42
0.0000001
 43
0.0000001
 44
0.0000000001
 40
0.0
 40
0.0
 40
0.0
 40
0.0
 40
0.0623789236
 40
0.1248839062
 40
0.1874014014
 40
0.2499226977
 40
0.3124414101
 40
0.374959221
 40
0.4999514832
 40
0.6249581138
 40
0.7499700007
 40
0.8749846765
 40
1.0
 40
1.0
 40
1.0
 40
1.0
 10
13.3731964805
 20
10.2324755147
 30
0.0
 10
13.3745350133
 20
10.2325866567
 30
0.0
 10
13.3771730915
 20
10.2335051171
 30
0.0
 10
13.3802972269
 20
10.236129934
 30
0.0
 10
13.3827834561
 20
10.2393364551
 30
0.0
 10
13.3847803682
 20
10.2428574406
 30
0.0
 10
13.3864102704
 20
10.2465579089
 30
0.0
 10
13.3881959002
 20
10.2516409017
 30
0.0
 10
13.389847347
 20
10.2581775344
 30
0.0
 10
13.3911742924
 20
10.2661483025
 30
0.0
 10
13.3920052354
 20
10.2741848283
 30
0.0
 10
13.3924465028
 20
10.2822504951
 30
0.0
 10
13.3925315858
 20
10.2876347261
 30
0.0
 10
13.3925315858
 20
10.2903265484
 30
0.0
  0
SPLINE
  5
43E
100
AcDbEntity
  8
0
100
AcDbSpline
 62
9
  6
CONTINUOUS
 70
0
 71
3
 72
9
 73
5
 74
0
 42
0.0000001
 43
0.0000001
 44
0.0000000001
 40
0.0
 40
0.0
 40
0.0
 40
0.0
 40
0.4552217815
 40
1.0
 40
1.0
 40
1.0
 40
1.0
 10
10.4131729431
 20
10.984527847
 30
0.0
 10
10.4193860204
 20
10.9795119703
 30
0.0
 10
10.4322427025
 20
10.9675104771
 30
0.0
 10
10.443822493
 20
10.9543028568
 30
0.0
 10
10.4498375187
 20
10.9468774741
 30
0.0
  0
SPLINE
  5
43F
100
AcDbEntity
  8
0
100
AcDbSpline
 62
9
  6
CONTINUOUS
 70
0
 71
3
 72
15
 73
11
 74
0
 42
0.0000001
 43
0.0000001
 44
0.0000000001
 40
0.0
 40
0.0
 40
0.0
 40
0.0
 40
0.1386696997
 40
0.2756942332
 40
0.4094148785
 40
0.5388671117
 40
0.6631219846
 40
0.781805296
 40
0.8943863234
 40
1.0
 40
1.0
 40
1.0
 40
1.0
 10
9.9791051392
 20
9.4880858067
 30
0.0
 10
10.0024943981
 20
9.4880902504
 30
0.0
 10
10.0490382107
 20
9.4909807161
 30
0.0
 10
10.1171368588
 20
9.5033165408
 30
0.0
 10
10.181833529
 20
9.5230837058
 30
0.0
 10
10.2419968574
 20
9.5488989321
 30
0.0
 10
10.2969559584
 20
9.5795220923
 30
0.0
 10
10.3463725285
 20
9.6136414943
 30
0.0
 10
10.3901270602
 20
9.649997799
 30
0.0
 10
10.4164037269
 20
9.6758345537
 30
0.0
 10
10.4285732562
 20
9.6888434664
 30
0.0
  0
SPLINE
  5
440
100
AcDbEntity
  8
0
100
AcDbSpline
 62
7
  6
CONTINUOUS
 70
0
 71
3
 72
12
 73
8
 74
0
 42
0.0000001
 43
0.0000001
 44
0.0000000001
 40
0.0
 40
0.0
 40
0.0
 40
0.0
 40
0.054667873
 40
0.2229501632
 40
0.5207050498
 40
0.7307360391
 40
1.0
 40
1.0
 40
1.0
 40
1.0
 10
7.4894507808
 20
9.7916698797
 30
0.0
 10
7.4891098677
 20
9.7919274642
 30
0.0
 10
7.4877255455
 20
9.7929856941
 30
0.0
 10
7.484549118
 20
9.7955298554
 30
0.0
 10
7.4805739733
 20
9.7990219125
 30
0.0
 10
7.4763423402
 20
9.8033772261
 30
0.0
 10
7.4738954918
 20
9.806233338
 30
0.0
 10
7.4726994202
 20
9.8079648209
 30
0.0
  0
LINE
  5
441
100
AcDbEntity
  8
0
100
AcDbLine
 62
7
  6
CONTINUOUS
 10
7.4726994202
 20
9.8079648209
 11
7.4699033572
 21
9.8127412605
  0
LINE
  5
442
100
AcDbEntity
  8
0
100
AcDbLine
 62
7
  6
CONTINUOUS
 10
12.2010322122
 20
10.3995769808
 11
12.2007818401
 21
10.4085271431
  0
SPLINE
  5
443
100
AcDbEntity
  8
0
100
AcDbSpline
 62
7
  6
CONTINUOUS
 70
0
 71
3
 72
10
 73
6
 74
0
 42
0.0000001
 43
0.0000001
 44
0.0000000001
 40
0.0
 40
0.0
 40
0.0
 40
0.0
 40
0.5511792924
 40
0.7938351569
 40
1.0
 40
1.0
 40
1.0
 40
1.0
 10
12.2007818401
 20
10.4085271431
 30
0.0
 10
12.19923145
 20
10.4639418273
 30
0.0
 10
12.1970066308
 20
10.5437532578
 30
0.0
 10
12.1937484073
 20
10.6442783092
 30
0.0
 10
12.19204988
 20
10.6893882987
 30
0.0
 10
12.1911533574
 20
10.7101045029
 30
0.0
  0
LINE
  5
444
100
AcDbEntity
  8
0
100
AcDbLine
 62
7
  6
CONTINUOUS
 10
12.1911533574
 20
10.7101045029
 11
12.1910313318
 21
10.7129059904
  0
SPLINE
  5
445
100
AcDbEntity
  8
0
100
AcDbSpline
 62
7
  6
CONTINUOUS
 70
0
 71
3
 72
9
 73
5
 74
0
 42
0.0000001
 43
0.0000001
 44
0.0000000001
 40
0.0
 40
0.0
 40
0.0
 40
0.0
 40
0.553713682
 40
1.0
 40
1.0
 40
1.0
 40
1.0
 10
12.188531394
 20
10.1200366863
 30
0.0
 10
12.1890066505
 20
10.1100468496
 30
0.0
 10
12.1899254637
 20
10.0920081796
 30
0.0
 10
12.1910500317
 20
10.0739803226
 30
0.0
 10
12.1916431132
 20
10.0659413803
 30
0.0
  0
SPLINE
  5
446
100
AcDbEntity
  8
0
100
AcDbSpline
 62
7
  6
CONTINUOUS
 70
0
 71
3
 72
12
 73
8
 74
0
 42
0.0000001
 43
0.0000001
 44
0.0000000001
 40
0.0
 40
0.0
 40
0.0
 40
0.0
 40
0.3656081707
 40
0.6555885511
 40
0.867595919
 40
0.9437557914
 40
1.0
 40
1.0
 40
1.0
 40
1.0
 10
12.1916431132
 20
10.0659413803
 30
0.0
 10
12.1919355571
 20
10.0619774391
 30
0.0
 10
12.1924995638
 20
10.054871789
 30
0.0
 10
12.1934357266
 20
10.0454867849
 30
0.0
 10
12.194251019
 20
10.0392500946
 30
0.0
 10
12.1949549831
 20
10.0355723013
 30
0.0
 10
12.1953126816
 20
10.0341750862
 30
0.0
 10
12.1955075532
 20
10.0335955105
 30
0.0
  0
LINE
  5
447
100
AcDbEntity
  8
0
100
AcDbLine
 62
7
  6
CONTINUOUS
 10
12.1955075532
 20
10.0335955105
 11
12.1959449355
 21
10.0325670622
  0
SPLINE
  5
448
100
AcDbEntity
  8
0
100
AcDbSpline
 62
9
  6
CONTINUOUS
 70
0
 71
3
 72
11
 73
7
 74
0
 42
0.0000001
 43
0.0000001
 44
0.0000000001
 40
0.0
 40
0.0
 40
0.0
 40
0.0
 40
0.2730253712
 40
0.5269336916
 40
0.7678834614
 40
1.0
 40
1.0
 40
1.0
 40
1.0
 10
9.0636353255
 20
4.2775966355
 30
0.0
 10
9.0636768495
 20
4.2722912213
 30
0.0
 10
9.0642237325
 20
4.2620481626
 30
0.0
 10
9.0663779864
 20
4.2472652232
 30
0.0
 10
9.0694917651
 20
4.2334745538
 30
0.0
 10
9.0720753077
 20
4.2246455892
 30
0.0
 10
9.0734718274
 20
4.2203566065
 30
0.0
  0
SPLINE
  5
449
100
AcDbEntity
  8
0
100
AcDbSpline
 62
9
  6
CONTINUOUS
 70
0
 71
3
 72
23
 73
19
 74
0
 42
0.0000001
 43
0.0000001
 44
0.0000000001
 40
0.0
 40
0.0
 40
0.0
 40
0.0
 40
0.0157803647
 40
0.0311491877
 40
0.0610398686
 40
0.0757156768
 40
0.0902794238
 40
0.1191837617
 40
0.1766230787
 40
0.2053758689
 40
0.2342208708
 40
0.2923250705
 40
0.3511547111
 40
0.4713957483
 40
0.595738084
 40
0.7247562579
 40
0.8591476317
 40
1.0
 40
1.0
 40
1.0
 40
1.0
 10
9.0734718274
 20
4.2203566065
 30
0.0
 10
9.0751749412
 20
4.2151260141
 30
0.0
 10
9.0789142293
 20
4.2049210089
 30
0.0
 10
9.0874637204
 20
4.1854256067
 30
0.0
 10
9.0974984946
 20
4.1670467109
 30
0.0
 10
9.1086480649
 20
4.1497061017
 30
0.0
 10
9.120286549
 20
4.1331057499
 30
0.0
 10
9.1420812241
 20
4.1054603896
 30
0.0
 10
9.1699660518
 20
4.0764639135
 30
0.0
 10
9.1998970458
 20
4.0497643876
 30
0.0
 10
9.2312005709
 20
4.0243106602
 30
0.0
 10
9.2726705396
 20
3.994835803
 30
0.0
 10
9.343446744
 20
3.9519943065
 30
0.0
 10
9.4391374404
 20
3.9062645823
 30
0.0
 10
9.5624227153
 20
3.8635804793
 30
0.0
 10
9.6941880273
 20
3.8324790533
 30
0.0
 10
9.8339910798
 20
3.8132544556
 30
0.0
 10
9.930005329
 20
3.8090737656
 30
0.0
 10
9.9791050906
 20
3.8090737656
 30
0.0
  0
SPLINE
  5
44A
100
AcDbEntity
  8
0
100
AcDbSpline
 62
7
  6
CONTINUOUS
 70
0
 71
3
 72
9
 73
5
 74
0
 42
0.0000001
 43
0.0000001
 44
0.0000000001
 40
0.0
 40
0.0
 40
0.0
 40
0.0
 40
0.5000022786
 40
1.0
 40
1.0
 40
1.0
 40
1.0
 10
6.9791050908
 20
9.7563695353
 30
0.0
 10
6.9902927251
 20
9.7563695353
 30
0.0
 10
7.0126693421
 20
9.7560012613
 30
0.0
 10
7.0350210542
 20
9.7548413613
 30
0.0
 10
7.0461784216
 20
9.754020366
 30
0.0
  0
SPLINE
  5
44B
100
AcDbEntity
  8
0
100
AcDbSpline
 62
7
  6
CONTINUOUS
 70
0
 71
3
 72
18
 73
14
 74
0
 42
0.0000001
 43
0.0000001
 44
0.0000000001
 40
0.0
 40
0.0
 40
0.0
 40
0.0
 40
0.1250169388
 40
0.2500330174
 40
0.3750461465
 40
0.5000516948
 40
0.6250375823
 40
0.6875587831
 40
0.7500836076
 40
0.8126107822
 40
0.8751331739
 40
0.937607389
 40
1.0
 40
1.0
 40
1.0
 40
1.0
 10
7.0461784216
 20
9.754020366
 30
0.0
 10
7.0545500291
 20
9.7534043559
 30
0.0
 10
7.071275114
 20
9.7518995768
 30
0.0
 10
7.0962530624
 20
9.7486352154
 30
0.0
 10
7.1210360259
 20
9.7440850493
 30
0.0
 10
7.1454518349
 20
9.737838886
 30
0.0
 10
7.1652455197
 20
9.7307050361
 30
0.0
 10
7.1803495274
 20
9.7233358525
 30
0.0
 10
7.1911312554
 20
9.7167818104
 30
0.0
 10
7.2010578043
 20
9.7089650875
 30
0.0
 10
7.2095873894
 20
9.6995957664
 30
0.0
 10
7.2157725733
 20
9.6884669247
 30
0.0
 10
7.2173575081
 20
9.6800231701
 30
0.0
 10
7.2173575081
 20
9.6758338289
 30
0.0
  0
SPLINE
  5
44C
100
AcDbEntity
  8
0
100
AcDbSpline
 62
7
  6
CONTINUOUS
 70
0
 71
3
 72
13
 73
9
 74
0
 42
0.0000001
 43
0.0000001
 44
0.0000000001
 40
0.0
 40
0.0
 40
0.0
 40
0.0
 40
0.124966128
 40
0.2500299768
 40
0.3751051151
 40
0.5001962972
 40
0.7500356701
 40
1.0
 40
1.0
 40
1.0
 40
1.0
 10
7.2173575081
 20
9.6758338289
 30
0.0
 10
7.2173575081
 20
9.6721732882
 30
0.0
 10
7.2161604178
 20
9.6648057138
 30
0.0
 10
7.2113300233
 20
9.6548113251
 30
0.0
 10
7.2044557998
 20
9.64614949
 30
0.0
 10
7.1935614225
 20
9.636290903
 30
0.0
 10
7.1778709432
 20
9.626612049
 30
0.0
 10
7.1643802183
 20
9.6208457198
 30
0.0
 10
7.1575101101
 20
9.6183132102
 30
0.0
  0
SPLINE
  5
44D
100
AcDbEntity
  8
0
100
AcDbSpline
 62
7
  6
CONTINUOUS
 70
0
 71
3
 72
11
 73
7
 74
0
 42
0.0000001
 43
0.0000001
 44
0.0000000001
 40
0.0
 40
0.0
 40
0.0
 40
0.0
 40
0.2500049825
 40
0.5000201017
 40
0.7500167942
 40
1.0
 40
1.0
 40
1.0
 40
1.0
 10
6.9791050908
 20
9.581134737
 30
0.0
 10
6.9943691068
 20
9.581134737
 30
0.0
 10
7.0249265872
 20
9.5830243018
 30
0.0
 10
7.0700933512
 20
9.5910175435
 30
0.0
 10
7.1143153902
 20
9.603079424
 30
0.0
 10
7.1431894318
 20
9.6130342169
 30
0.0
 10
7.1575101101
 20
9.6183132102
 30
0.0
  0
SPLINE
  5
44E
100
AcDbEntity
  8
0
100
AcDbSpline
 62
7
  6
CONTINUOUS
 70
0
 71
3
 72
17
 73
13
 74
0
 42
0.0000001
 43
0.0000001
 44
0.0000000001
 40
0.0
 40
0.0
 40
0.0
 40
0.0
 40
0.1334364927
 40
0.2611581885
 40
0.3826569607
 40
0.441635791
 40
0.4999999988
 40
0.5583642064
 40
0.6173430376
 40
0.7388418105
 40
0.8665635066
 40
1.0
 40
1.0
 40
1.0
 40
1.0
 10
7.4043216709
 20
9.6183132102
 30
0.0
 10
7.4113564013
 20
9.6131268226
 30
0.0
 10
7.4254435385
 20
9.6033869585
 30
0.0
 10
7.4474557219
 20
9.591276524
 30
0.0
 10
7.4665856747
 20
9.5844159148
 30
0.0
 10
7.4820082351
 20
9.5816043043
 30
0.0
 10
7.4935241803
 20
9.5809065126
 30
0.0
 10
7.5050401257
 20
9.581604304
 30
0.0
 10
7.5204626861
 20
9.5844159153
 30
0.0
 10
7.5395926392
 20
9.5912765238
 30
0.0
 10
7.5616048227
 20
9.6033869584
 30
0.0
 10
7.57569196
 20
9.6131268226
 30
0.0
 10
7.5827266903
 20
9.6183132102
 30
0.0
  0
SPLINE
  5
44F
100
AcDbEntity
  8
0
100
AcDbSpline
 62
9
  6
CONTINUOUS
 70
0
 71
3
 72
11
 73
7
 74
0
 42
0.0000001
 43
0.0000001
 44
0.0000000001
 40
0.0
 40
0.0
 40
0.0
 40
0.0
 40
0.2740588708
 40
0.5284319166
 40
0.7689783321
 40
1.0
 40
1.0
 40
1.0
 40
1.0
 10
10.9180477757
 20
3.8616208436
 30
0.0
 10
10.9180217978
 20
3.8566748566
 30
0.0
 10
10.9175486309
 20
3.8471337797
 30
0.0
 10
10.9156122543
 20
3.8333748864
 30
0.0
 10
10.9127549389
 20
3.8205778023
 30
0.0
 10
10.9103688022
 20
3.8124021623
 30
0.0
 10
10.9090769336
 20
3.808438009
 30
0.0
  0
SPLINE
  5
450
100
AcDbEntity
  8
0
100
AcDbSpline
 62
9
  6
CONTINUOUS
 70
0
 71
3
 72
23
 73
19
 74
0
 42
0.0000001
 43
0.0000001
 44
0.0000000001
 40
0.0
 40
0.0
 40
0.0
 40
0.0
 40
0.0308754474
 40
0.0603012865
 40
0.0889677785
 40
0.1172618134
 40
0.1453918329
 40
0.1734945576
 40
0.2016613967
 40
0.2299535374
 40
0.2870850489
 40
0.3451569715
 40
0.4043133934
 40
0.4646732088
 40
0.5892970333
 40
0.7196306051
 40
0.8562385157
 40
1.0
 40
1.0
 40
1.0
 40
1.0
 10
10.9090769336
 20
3.808438009
 30
0.0
 10
10.9057368995
 20
3.7981889737
 30
0.0
 10
10.8976263383
 20
3.7786646874
 30
0.0
 10
10.8820797058
 20
3.7516993112
 30
0.0
 10
10.8642724206
 20
3.7273008895
 30
0.0
 10
10.8448250302
 20
3.7048055934
 30
0.0
 10
10.823899513
 20
3.6839627972
 30
0.0
 10
10.8017307287
 20
3.6645248991
 30
0.0
 10
10.7784514939
 20
3.6463446749
 30
0.0
 10
10.7460138162
 20
3.623505976
 30
0.0
 10
10.7030856322
 20
3.5975485118
 30
0.0
 10
10.6486849073
 20
3.5701261488
 30
0.0
 10
10.5915685498
 20
3.5458983998
 30
0.0
 10
10.5112379624
 20
3.5172793296
 30
0.0
 10
10.4047485168
 20
3.48863107
 30
0.0
 10
10.2700076997
 20
3.4647211676
 30
0.0
 10
10.1272196678
 20
3.4503457762
 30
0.0
 10
10.0292965298
 20
3.4473341886
 30
0.0
 10
9.979105091
 20
3.4473341886
 30
0.0
  0
SPLINE
  5
451
100
AcDbEntity
  8
0
100
AcDbSpline
 62
9
  6
CONTINUOUS
 70
0
 71
3
 72
11
 73
7
 74
0
 42
0.0000001
 43
0.0000001
 44
0.0000000001
 40
0.0
 40
0.0
 40
0.0
 40
0.0
 40
0.2730253712
 40
0.5269336916
 40
0.7678834614
 40
1.0
 40
1.0
 40
1.0
 40
1.0
 10
10.894574856
 20
4.2775966355
 30
0.0
 10
10.8945333321
 20
4.2722912213
 30
0.0
 10
10.893986449
 20
4.2620481626
 30
0.0
 10
10.8918321951
 20
4.2472652232
 30
0.0
 10
10.8887184164
 20
4.2334745538
 30
0.0
 10
10.8861348739
 20
4.2246455892
 30
0.0
 10
10.8847383541
 20
4.2203566065
 30
0.0
  0
SPLINE
  5
452
100
AcDbEntity
  8
0
100
AcDbSpline
 62
9
  6
CONTINUOUS
 70
0
 71
3
 72
23
 73
19
 74
0
 42
0.0000001
 43
0.0000001
 44
0.0000000001
 40
0.0
 40
0.0
 40
0.0
 40
0.0
 40
0.0157803647
 40
0.0311491877
 40
0.0610398686
 40
0.0757156768
 40
0.0902794238
 40
0.1191837617
 40
0.1766230787
 40
0.2053758689
 40
0.2342208708
 40
0.2923250705
 40
0.3511547111
 40
0.4713957483
 40
0.595738084
 40
0.7247562579
 40
0.8591476317
 40
1.0
 40
1.0
 40
1.0
 40
1.0
 10
10.8847383541
 20
4.2203566065
 30
0.0
 10
10.8830352403
 20
4.2151260141
 30
0.0
 10
10.8792959523
 20
4.2049210089
 30
0.0
 10
10.8707464612
 20
4.1854256067
 30
0.0
 10
10.860711687
 20
4.1670467109
 30
0.0
 10
10.8495621166
 20
4.1497061017
 30
0.0
 10
10.8379236326
 20
4.1331057498
 30
0.0
 10
10.8161289575
 20
4.1054603896
 30
0.0
 10
10.7882441297
 20
4.0764639135
 30
0.0
 10
10.7583131357
 20
4.0497643875
 30
0.0
 10
10.7270096106
 20
4.0243106601
 30
0.0
 10
10.6855396419
 20
3.994835803
 30
0.0
 10
10.6147634375
 20
3.9519943064
 30
0.0
 10
10.519072741
 20
3.9062645823
 30
0.0
 10
10.3957874661
 20
3.8635804792
 30
0.0
 10
10.264022154
 20
3.8324790533
 30
0.0
 10
10.1242191016
 20
3.8132544556
 30
0.0
 10
10.0282048523
 20
3.8090737656
 30
0.0
 10
9.9791050907
 20
3.8090737656
 30
0.0
  0
SPLINE
  5
453
100
AcDbEntity
  8
0
100
AcDbSpline
 62
7
  6
CONTINUOUS
 70
0
 71
3
 72
9
 73
5
 74
0
 42
0.0000001
 43
0.0000001
 44
0.0000000001
 40
0.0
 40
0.0
 40
0.0
 40
0.0
 40
0.2650309643
 40
1.0
 40
1.0
 40
1.0
 40
1.0
 10
12.0538291279
 20
9.9767522315
 30
0.0
 10
12.0515776574
 20
9.9767634363
 30
0.0
 10
12.043082071
 20
9.9765351204
 30
0.0
 10
12.0346228102
 20
9.9753127528
 30
0.0
 10
12.0285315858
 20
9.973941206
 30
0.0
  0
SPLINE
  5
454
100
AcDbEntity
  8
0
100
AcDbSpline
 62
7
  6
CONTINUOUS
 70
0
 71
3
 72
9
 73
5
 74
0
 42
0.0000001
 43
0.0000001
 44
0.0000000001
 40
0.0
 40
0.0
 40
0.0
 40
0.0
 40
0.2313647607
 40
1.0
 40
1.0
 40
1.0
 40
1.0
 10
12.0285315858
 20
10.8257500738
 30
0.0
 10
12.0304487666
 20
10.8253183867
 30
0.0
 10
12.0387784544
 20
10.8236558054
 30
0.0
 10
12.0473005253
 20
10.8229065578
 30
0.0
 10
12.0538291279
 20
10.8229390484
 30
0.0
  0
SPLINE
  5
455
100
AcDbEntity
  8
0
100
AcDbSpline
 62
7
  6
CONTINUOUS
 70
0
 71
3
 72
11
 73
7
 74
0
 42
0.0000001
 43
0.0000001
 44
0.0000000001
 40
0.0
 40
0.0
 40
0.0
 40
0.0
 40
0.1990945467
 40
0.4226646743
 40
0.6867975074
 40
1.0
 40
1.0
 40
1.0
 40
1.0
 10
7.4043216709
 20
9.6183132102
 30
0.0
 10
7.4007345915
 20
9.6209578012
 30
0.0
 10
7.393550738
 20
9.627192756
 30
0.0
 10
7.3839823107
 20
9.6393664858
 30
0.0
 10
7.3763811274
 20
9.6558067489
 30
0.0
 10
7.3743978074
 20
9.6688230478
 30
0.0
 10
7.3743978074
 20
9.6758338289
 30
0.0
  0
SPLINE
  5
456
100
AcDbEntity
  8
0
100
AcDbSpline
 62
7
  6
CONTINUOUS
 70
0
 71
3
 72
14
 73
10
 74
0
 42
0.0000001
 43
0.0000001
 44
0.0000000001
 40
0.0
 40
0.0
 40
0.0
 40
0.0
 40
0.1854487005
 40
0.3404842328
 40
0.4713482894
 40
0.5880172013
 40
0.6964963146
 40
0.8001781859
 40
1.0
 40
1.0
 40
1.0
 40
1.0
 10
7.3743978074
 20
9.6758338289
 30
0.0
 10
7.3743978074
 20
9.6831151121
 30
0.0
 10
7.3765324012
 20
9.696587899
 30
0.0
 10
7.3846483655
 20
9.7134431272
 30
0.0
 10
7.3947618343
 20
9.7257476938
 30
0.0
 10
7.4055907547
 20
9.7346921217
 30
0.0
 10
7.4167277171
 20
9.7413053897
 30
0.0
 10
7.4315787629
 20
9.7477887392
 30
0.0
 10
7.443153256
 20
9.7509131509
 30
0.0
 10
7.4508479676
 20
9.752444522
 30
0.0
  0
SPLINE
  5
457
100
AcDbEntity
  8
0
100
AcDbSpline
 62
7
  6
CONTINUOUS
 70
0
 71
3
 72
9
 73
5
 74
0
 42
0.0000001
 43
0.0000001
 44
0.0000000001
 40
0.0
 40
0.0
 40
0.0
 40
0.0
 40
0.2509745547
 40
1.0
 40
1.0
 40
1.0
 40
1.0
 10
7.4508479676
 20
9.752444522
 30
0.0
 10
7.4521393816
 20
9.7527015342
 30
0.0
 10
7.4572965126
 20
9.7536673185
 30
0.0
 10
7.4624945329
 20
9.7544101742
 30
0.0
 10
7.4663985569
 20
9.7548592666
 30
0.0
  0
SPLINE
  5
458
100
AcDbEntity
  8
0
100
AcDbSpline
 62
7
  6
CONTINUOUS
 70
0
 71
3
 72
17
 73
13
 74
0
 42
0.0000001
 43
0.0000001
 44
0.0000000001
 40
0.0
 40
0.0
 40
0.0
 40
0.0
 40
0.1076001811
 40
0.2150102997
 40
0.3227978168
 40
0.4318647566
 40
0.544238969
 40
0.664933219
 40
0.7321398907
 40
0.8077306194
 40
0.8964766384
 40
1.0
 40
1.0
 40
1.0
 40
1.0
 10
7.4663985569
 20
9.7548592666
 30
0.0
 10
7.4730926741
 20
9.7556293125
 30
0.0
 10
7.4865462126
 20
9.756542126
 30
0.0
 10
7.506778479
 20
9.7562962807
 30
0.0
 10
7.5270209794
 20
9.7543777169
 30
0.0
 10
7.5472884806
 20
9.7503395593
 30
0.0
 10
7.5675907361
 20
9.7432133776
 30
0.0
 10
7.5838553495
 20
9.7333432802
 30
0.0
 10
7.5958062287
 20
9.7218651098
 30
0.0
 10
7.6043249148
 20
9.7100092148
 30
0.0
 10
7.6109444617
 20
9.6944305411
 30
0.0
 10
7.6126505547
 20
9.6823167877
 30
0.0
 10
7.6126505547
 20
9.6758338289
 30
0.0
  0
SPLINE
  5
459
100
AcDbEntity
  8
0
100
AcDbSpline
 62
7
  6
CONTINUOUS
 70
0
 71
3
 72
12
 73
8
 74
0
 42
0.0000001
 43
0.0000001
 44
0.0000000001
 40
0.0
 40
0.0
 40
0.0
 40
0.0
 40
0.1488146149
 40
0.2456479712
 40
0.3596841499
 40
0.6426355001
 40
1.0
 40
1.0
 40
1.0
 40
1.0
 10
11.9932040664
 20
10.8251578211
 30
0.0
 10
11.994700963
 20
10.826096612
 30
0.0
 10
11.9976515221
 20
10.8268018073
 30
0.0
 10
12.0018940912
 20
10.8270785834
 30
0.0
 10
12.0077693766
 20
10.8269828455
 30
0.0
 10
12.0166959548
 20
10.8263034046
 30
0.0
 10
12.0242898635
 20
10.8258585522
 30
0.0
 10
12.0285315858
 20
10.8257500738
 30
0.0
  0
SPLINE
  5
45A
100
AcDbEntity
  8
0
100
AcDbSpline
 62
7
  6
CONTINUOUS
 70
0
 71
3
 72
12
 73
8
 74
0
 42
0.0000001
 43
0.0000001
 44
0.0000000001
 40
0.0
 40
0.0
 40
0.0
 40
0.0
 40
0.3573629135
 40
0.6403210878
 40
0.754352515
 40
0.851181658
 40
1.0
 40
1.0
 40
1.0
 40
1.0
 10
12.0285315858
 20
9.973941206
 30
0.0
 10
12.0242898784
 20
9.973832728
 30
0.0
 10
12.0166959023
 20
9.9733879447
 30
0.0
 10
12.0077692925
 20
9.9727085257
 30
0.0
 10
12.0018940488
 20
9.9726128394
 30
0.0
 10
11.9976514816
 20
9.9728891018
 30
0.0
 10
11.9947010019
 20
9.9735946435
 30
0.0
 10
11.9932040664
 20
9.9745334588
 30
0.0
  0
SPLINE
  5
45B
100
AcDbEntity
  8
0
100
AcDbSpline
 62
7
  6
CONTINUOUS
 70
0
 71
3
 72
11
 73
7
 74
0
 42
0.0000001
 43
0.0000001
 44
0.0000000001
 40
0.0
 40
0.0
 40
0.0
 40
0.0
 40
0.3133437645
 40
0.5774587378
 40
0.8009708943
 40
1.0
 40
1.0
 40
1.0
 40
1.0
 10
7.6126505547
 20
9.6758338289
 30
0.0
 10
7.6126505547
 20
9.6688198811
 30
0.0
 10
7.6106647257
 20
9.6558011159
 30
0.0
 10
7.6030634758
 20
9.6393591845
 30
0.0
 10
7.593494032
 20
9.6271902218
 30
0.0
 10
7.586312593
 20
9.6209569336
 30
0.0
 10
7.5827266903
 20
9.6183132102
 30
0.0
  0
SPLINE
  5
45C
100
AcDbEntity
  8
0
100
AcDbSpline
 62
9
  6
CONTINUOUS
 70
0
 71
3
 72
9
 73
5
 74
0
 42
0.0000001
 43
0.0000001
 44
0.0000000001
 40
0.0
 40
0.0
 40
0.0
 40
0.0
 40
0.5001249186
 40
1.0
 40
1.0
 40
1.0
 40
1.0
 10
12.1360735708
 20
10.8079844751
 30
0.0
 10
12.1422594315
 20
10.8101535311
 30
0.0
 10
12.1541653518
 20
10.8159409563
 30
0.0
 10
12.1644225466
 20
10.8243188461
 30
0.0
 10
12.1689683866
 20
10.8290371186
 30
0.0
  0
SPLINE
  5
45D
100
AcDbEntity
  8
0
100
AcDbSpline
 62
9
  6
CONTINUOUS
 70
0
 71
3
 72
11
 73
7
 74
0
 42
0.0000001
 43
0.0000001
 44
0.0000000001
 40
0.0
 40
0.0
 40
0.0
 40
0.0
 40
0.2718776564
 40
0.5256504787
 40
0.7670661639
 40
1.0
 40
1.0
 40
1.0
 40
1.0
 10
9.0846293393
 20
4.6496424486
 30
0.0
 10
9.0846678981
 20
4.6443604861
 30
0.0
 10
9.0851874441
 20
4.6341450236
 30
0.0
 10
9.0872297913
 20
4.619367465
 30
0.0
 10
9.0901858459
 20
4.6055237275
 30
0.0
 10
9.0926403119
 20
4.5966349749
 30
0.0
 10
9.0939680764
 20
4.5923086447
 30
0.0
  0
SPLINE
  5
45E
100
AcDbEntity
  8
0
100
AcDbSpline
 62
9
  6
CONTINUOUS
 70
0
 71
3
 72
21
 73
17
 74
0
 42
0.0000001
 43
0.0000001
 44
0.0000000001
 40
0.0
 40
0.0
 40
0.0
 40
0.0
 40
0.0315535598
 40
0.0618623873
 40
0.0914887429
 40
0.1207538147
 40
0.1788067712
 40
0.207811957
 40
0.2368754111
 40
0.2953161838
 40
0.3543571451
 40
0.4746762169
 40
0.5986882412
 40
0.727016797
 40
0.8604106528
 40
1.0
 40
1.0
 40
1.0
 40
1.0
 10
9.0939680764
 20
4.5923086447
 30
0.0
 10
9.097173235
 20
4.5818650957
 30
0.0
 10
9.1048116515
 20
4.561787463
 30
0.0
 10
9.1192547869
 20
4.5335452937
 30
0.0
 10
9.135734367
 20
4.5073874156
 30
0.0
 10
9.1596947175
 20
4.4747191102
 30
0.0
 10
9.1865660716
 20
4.4445816194
 30
0.0
 10
9.2155068237
 20
4.4166646291
 30
0.0
 10
9.2457887614
 20
4.3899968393
 30
0.0
 10
9.2860005532
 20
4.3589585201
 30
0.0
 10
9.3547928634
 20
4.3136225412
 30
0.0
 10
9.4481673589
 20
4.2648541153
 30
0.0
 10
9.5690463662
 20
4.2190037943
 30
0.0
 10
9.6985727024
 20
4.1854514783
 30
0.0
 10
9.8361877209
 20
4.1646891565
 30
0.0
 10
9.930777148
 20
4.1601602626
 30
0.0
 10
9.9791050908
 20
4.1601602626
 30
0.0
  0
SPLINE
  5
45F
100
AcDbEntity
  8
0
100
AcDbSpline
 62
9
  6
CONTINUOUS
 70
0
 71
3
 72
22
 73
18
 74
0
 42
0.0000001
 43
0.0000001
 44
0.0000000001
 40
0.0
 40
0.0
 40
0.0
 40
0.0
 40
0.0620666948
 40
0.0933329145
 40
0.124637078
 40
0.1559104393
 40
0.187176629
 40
0.2184434953
 40
0.2497123028
 40
0.3122349941
 40
0.3747584271
 40
0.4372855374
 40
0.499815185
 40
0.6248509611
 40
0.7498942096
 40
0.8749444254
 40
1.0
 40
1.0
 40
1.0
 40
1.0
 10
10.940811345
 20
3.3723063329
 30
0.0
 10
10.9357508928
 20
3.3510556242
 30
0.0
 10
10.9196891767
 20
3.3210139332
 30
0.0
 10
10.8906544948
 20
3.2881588537
 30
0.0
 10
10.8660164375
 20
3.2660368962
 30
0.0
 10
10.8396046398
 20
3.2461621112
 30
0.0
 10
10.811840479
 20
3.2282489665
 30
0.0
 10
10.7830952336
 20
3.2119820838
 30
0.0
 10
10.7437770807
 20
3.1921655669
 30
0.0
 10
10.6931139648
 20
3.1705729575
 30
0.0
 10
10.6308498468
 20
3.1485343725
 30
0.0
 10
10.5675267307
 20
3.1297642357
 30
0.0
 10
10.4821072958
 20
3.1084284567
 30
0.0
 10
10.3739227016
 20
3.0878713791
 30
0.0
 10
10.2428966852
 20
3.0711056596
 30
0.0
 10
10.1111632389
 20
3.0613409113
 30
0.0
 10
10.0231195174
 20
3.0592841568
 30
0.0
 10
9.9791050942
 20
3.0592853361
 30
0.0
  0
SPLINE
  5
460
100
AcDbEntity
  8
0
100
AcDbSpline
 62
9
  6
CONTINUOUS
 70
0
 71
3
 72
11
 73
7
 74
0
 42
0.0000001
 43
0.0000001
 44
0.0000000001
 40
0.0
 40
0.0
 40
0.0
 40
0.0
 40
0.249960314
 40
0.500238856
 40
0.7503776445
 40
1.0
 40
1.0
 40
1.0
 40
1.0
 10
12.0732836082
 20
10.8477006542
 30
0.0
 10
12.0622429923
 20
10.8477006542
 30
0.0
 10
12.0399103994
 20
10.8521173941
 30
0.0
 10
12.0116388174
 20
10.8709442512
 30
0.0
 10
11.9926004324
 20
10.8990577876
 30
0.0
 10
11.9880345738
 20
10.9213421207
 30
0.0
 10
11.9879662888
 20
10.9323675977
 30
0.0
  0
SPLINE
  5
461
100
AcDbEntity
  8
0
100
AcDbSpline
 62
9
  6
CONTINUOUS
 70
0
 71
3
 72
14
 73
10
 74
0
 42
0.0000001
 43
0.0000001
 44
0.0000000001
 40
0.0
 40
0.0
 40
0.0
 40
0.0
 40
0.0414055373
 40
0.106644558
 40
0.1968450734
 40
0.3119015597
 40
0.4512065084
 40
0.6133944202
 40
1.0
 40
1.0
 40
1.0
 40
1.0
 10
11.9879662888
 20
10.9323675977
 30
0.0
 10
11.9882196926
 20
10.9326901293
 30
0.0
 10
11.989156568
 20
10.9332580745
 30
0.0
 10
11.9909691702
 20
10.9339432609
 30
0.0
 10
11.993568271
 20
10.9346351746
 30
0.0
 10
11.9969119991
 20
10.935312693
 30
0.0
 10
12.0009882214
 20
10.9359661029
 30
0.0
 10
12.0077474755
 20
10.9368484049
 30
0.0
 10
12.0131610881
 20
10.9373667468
 30
0.0
 10
12.0169777875
 20
10.9376830787
 30
0.0
  0
SPLINE
  5
462
100
AcDbEntity
  8
0
100
AcDbSpline
 62
9
  6
CONTINUOUS
 70
0
 71
3
 72
9
 73
5
 74
0
 42
0.0000001
 43
0.0000001
 44
0.0000000001
 40
0.0
 40
0.0
 40
0.0
 40
0.0
 40
0.4670527075
 40
1.0
 40
1.0
 40
1.0
 40
1.0
 10
12.0169777875
 20
10.9376830787
 30
0.0
 10
12.0265566659
 20
10.9384769858
 30
0.0
 10
12.0471175801
 20
10.9395386344
 30
0.0
 10
12.0676974993
 20
10.939884823
 30
0.0
 10
12.0786653005
 20
10.939884823
 30
0.0
  0
SPLINE
  5
463
100
AcDbEntity
  8
0
100
AcDbSpline
 62
9
  6
CONTINUOUS
 70
0
 71
3
 72
18
 73
14
 74
0
 42
0.0000001
 43
0.0000001
 44
0.0000000001
 40
0.0
 40
0.0
 40
0.0
 40
0.0
 40
0.1795705517
 40
0.3560926495
 40
0.5218105521
 40
0.6705574357
 40
0.7968046947
 40
0.8500442206
 40
0.8959758348
 40
0.9341251501
 40
0.9642390607
 40
0.9861740375
 40
1.0
 40
1.0
 40
1.0
 40
1.0
 10
12.0786653005
 20
10.939884823
 30
0.0
 10
12.0786996286
 20
10.9343421183
 30
0.0
 10
12.078691006
 20
10.9233501963
 30
0.0
 10
12.0784630498
 20
10.9072445854
 30
0.0
 10
12.0780224323
 20
10.892094961
 30
0.0
 10
12.0773929326
 20
10.8785054743
 30
0.0
 10
12.0767015457
 20
10.8683957841
 30
0.0
 10
12.076046674
 20
10.8614685865
 30
0.0
 10
12.075555406
 20
10.8572572883
 30
0.0
 10
12.0750389268
 20
10.8537717456
 30
0.0
 10
12.0745109128
 20
10.8510314938
 30
0.0
 10
12.0739751952
 20
10.8490788709
 30
0.0
 10
12.0735472648
 20
10.8480362355
 30
0.0
 10
12.0732836082
 20
10.8477006542
 30
0.0
  0
SPLINE
  5
464
100
AcDbEntity
  8
0
100
AcDbSpline
 62
9
  6
CONTINUOUS
 70
0
 71
3
 72
15
 73
11
 74
0
 42
0.0000001
 43
0.0000001
 44
0.0000000001
 40
0.0
 40
0.0
 40
0.0
 40
0.0
 40
0.0224550759
 40
0.0500097264
 40
0.1211425922
 40
0.2141258991
 40
0.3289994784
 40
0.4655818226
 40
0.6234151554
 40
1.0
 40
1.0
 40
1.0
 40
1.0
 10
11.9530495443
 20
10.8879256672
 30
0.0
 10
11.9526317851
 20
10.8873939445
 30
0.0
 10
11.9518177424
 20
10.8861190617
 30
0.0
 10
11.9502136663
 20
10.8828384297
 30
0.0
 10
11.9483149216
 20
10.8773704071
 30
0.0
 10
11.9461856008
 20
10.8692412818
 30
0.0
 10
11.9440836926
 20
10.8590797064
 30
0.0
 10
11.9420227659
 20
10.8469265435
 30
0.0
 10
11.9391796061
 20
10.8269194596
 30
0.0
 10
11.9374203461
 20
10.8109184544
 30
0.0
 10
11.9363093137
 20
10.7996326713
 30
0.0
  0
SPLINE
  5
465
100
AcDbEntity
  8
0
100
AcDbSpline
 62
9
  6
CONTINUOUS
 70
0
 71
3
 72
15
 73
11
 74
0
 42
0.0000001
 43
0.0000001
 44
0.0000000001
 40
0.0
 40
0.0
 40
0.0
 40
0.0
 40
0.3765850815
 40
0.5344185015
 40
0.6710009235
 40
0.7858745071
 40
0.8788577419
 40
0.9499904686
 40
0.9775450275
 40
1.0
 40
1.0
 40
1.0
 40
1.0
 10
11.9363091861
 20
10.000059905
 30
0.0
 10
11.9374202244
 20
9.988773951
 30
0.0
 10
11.9391794953
 20
9.9727727037
 30
0.0
 10
11.9420226753
 20
9.952765316
 30
0.0
 10
11.9440836162
 20
9.9406119701
 30
0.0
 10
11.9461855406
 20
9.9304502449
 30
0.0
 10
11.9483148787
 20
9.9223210054
 30
0.0
 10
11.9502136397
 20
9.9168529097
 30
0.0
 10
11.9518177306
 20
9.9135722374
 30
0.0
 10
11.952631781
 20
9.9122973406
 30
0.0
 10
11.9530495443
 20
9.9117656127
 30
0.0
  0
SPLINE
  5
466
100
AcDbEntity
  8
0
100
AcDbSpline
 62
9
  6
CONTINUOUS
 70
0
 71
3
 72
15
 73
11
 74
0
 42
0.0000001
 43
0.0000001
 44
0.0000000001
 40
0.0
 40
0.0
 40
0.0
 40
0.0
 40
0.0211546564
 40
0.0476199005
 40
0.1172320977
 40
0.2095360235
 40
0.3245122039
 40
0.4617847561
 40
0.6206487364
 40
1.0
 40
1.0
 40
1.0
 40
1.0
 10
11.9529261619
 20
9.8918439789
 30
0.0
 10
11.9524352927
 20
9.8924687559
 30
0.0
 10
11.9514846327
 20
9.8939947325
 30
0.0
 10
11.9496164642
 20
9.8979867818
 30
0.0
 10
11.9474228939
 20
9.9047354582
 30
0.0
 10
11.9449709507
 20
9.9148436363
 30
0.0
 10
11.9425625171
 20
9.9275640249
 30
0.0
 10
11.9402120737
 20
9.9428265045
 30
0.0
 10
11.9369854655
 20
9.9679931168
 30
0.0
 10
11.9350189505
 20
9.988116682
 30
0.0
 10
11.9337873888
 20
10.0023113281
 30
0.0
  0
SPLINE
  5
467
100
AcDbEntity
  8
0
100
AcDbSpline
 62
9
  6
CONTINUOUS
 70
0
 71
3
 72
15
 73
11
 74
0
 42
0.0000001
 43
0.0000001
 44
0.0000000001
 40
0.0
 40
0.0
 40
0.0
 40
0.0
 40
0.3793512159
 40
0.5382151387
 40
0.6754876526
 40
0.7904638336
 40
0.8827677732
 40
0.9523800123
 40
0.9788452935
 40
1.0
 40
1.0
 40
1.0
 40
1.0
 10
11.933787455
 20
10.7973807143
 30
0.0
 10
11.9350190143
 20
10.8115752617
 30
0.0
 10
11.9369855239
 20
10.8316986856
 30
0.0
 10
11.9402121226
 20
10.85686512
 30
0.0
 10
11.942562558
 20
10.8721274911
 30
0.0
 10
11.9449709818
 20
10.8848477912
 30
0.0
 10
11.9474229157
 20
10.8949559011
 30
0.0
 10
11.9496164777
 20
10.9017045332
 30
0.0
 10
11.9514846388
 20
10.9056965583
 30
0.0
 10
11.9524352948
 20
10.9072225268
 30
0.0
 10
11.9529261619
 20
10.907847301
 30
0.0
  0
SPLINE
  5
468
100
AcDbEntity
  8
0
100
AcDbSpline
 62
9
  6
CONTINUOUS
 70
0
 71
3
 72
11
 73
7
 74
0
 42
0.0000001
 43
0.0000001
 44
0.0000000001
 40
0.0
 40
0.0
 40
0.0
 40
0.0
 40
0.2493729617
 40
0.4993793193
 40
0.7495490411
 40
1.0
 40
1.0
 40
1.0
 40
1.0
 10
11.9530495443
 20
10.8879256672
 30
0.0
 10
11.953089105
 20
10.8815380972
 30
0.0
 10
11.9546407353
 20
10.868711214
 30
0.0
 10
11.9611976848
 20
10.8504976129
 30
0.0
 10
11.9716989214
 20
10.8342005091
 30
0.0
 10
11.9809722443
 20
10.8251606535
 30
0.0
 10
11.9860361827
 20
10.8212220407
 30
0.0
  0
SPLINE
  5
469
100
AcDbEntity
  8
0
100
AcDbSpline
 62
9
  6
CONTINUOUS
 70
0
 71
3
 72
11
 73
7
 74
0
 42
0.0000001
 43
0.0000001
 44
0.0000000001
 40
0.0
 40
0.0
 40
0.0
 40
0.0
 40
0.2496223555
 40
0.499761144
 40
0.750039686
 40
1.0
 40
1.0
 40
1.0
 40
1.0
 10
11.9879662888
 20
9.8673236822
 30
0.0
 10
11.9880345738
 20
9.8783491592
 30
0.0
 10
11.9926004324
 20
9.9006334922
 30
0.0
 10
12.0116388174
 20
9.9287470287
 30
0.0
 10
12.0399103994
 20
9.9475738858
 30
0.0
 10
12.0622429923
 20
9.9519906257
 30
0.0
 10
12.0732836082
 20
9.9519906257
 30
0.0
  0
SPLINE
  5
46A
100
AcDbEntity
  8
0
100
AcDbSpline
 62
9
  6
CONTINUOUS
 70
0
 71
3
 72
18
 73
14
 74
0
 42
0.0000001
 43
0.0000001
 44
0.0000000001
 40
0.0
 40
0.0
 40
0.0
 40
0.0
 40
0.0138259625
 40
0.0357609393
 40
0.0658748499
 40
0.1040241652
 40
0.1499557794
 40
0.2031953053
 40
0.3294425643
 40
0.4781894479
 40
0.6439073505
 40
0.8204294483
 40
1.0
 40
1.0
 40
1.0
 40
1.0
 10
12.0732836082
 20
9.9519906257
 30
0.0
 10
12.0735472648
 20
9.9516550443
 30
0.0
 10
12.0739751952
 20
9.950612409
 30
0.0
 10
12.0745109128
 20
9.948659786
 30
0.0
 10
12.0750389268
 20
9.9459195342
 30
0.0
 10
12.075555406
 20
9.9424339915
 30
0.0
 10
12.076046674
 20
9.9382226934
 30
0.0
 10
12.0767015457
 20
9.9312954957
 30
0.0
 10
12.0773929326
 20
9.9211858055
 30
0.0
 10
12.0780224323
 20
9.9075963189
 30
0.0
 10
12.0784630498
 20
9.8924466945
 30
0.0
 10
12.078691006
 20
9.8763410835
 30
0.0
 10
12.0786996286
 20
9.8653491616
 30
0.0
 10
12.0786653005
 20
9.8598064568
 30
0.0
  0
SPLINE
  5
46B
100
AcDbEntity
  8
0
100
AcDbSpline
 62
9
  6
CONTINUOUS
 70
0
 71
3
 72
9
 73
5
 74
0
 42
0.0000001
 43
0.0000001
 44
0.0000000001
 40
0.0
 40
0.0
 40
0.0
 40
0.0
 40
0.5329472925
 40
1.0
 40
1.0
 40
1.0
 40
1.0
 10
12.0786653005
 20
9.8598064568
 30
0.0
 10
12.0676974993
 20
9.8598064568
 30
0.0
 10
12.0471175801
 20
9.8601526455
 30
0.0
 10
12.0265566659
 20
9.8612142941
 30
0.0
 10
12.0169777875
 20
9.8620082012
 30
0.0
  0
SPLINE
  5
46C
100
AcDbEntity
  8
0
100
AcDbSpline
 62
9
  6
CONTINUOUS
 70
0
 71
3
 72
14
 73
10
 74
0
 42
0.0000001
 43
0.0000001
 44
0.0000000001
 40
0.0
 40
0.0
 40
0.0
 40
0.0
 40
0.3866055798
 40
0.5487934916
 40
0.6880984403
 40
0.8031549266
 40
0.893355442
 40
0.9585944627
 40
1.0
 40
1.0
 40
1.0
 40
1.0
 10
12.0169777875
 20
9.8620082012
 30
0.0
 10
12.0131610881
 20
9.862324533
 30
0.0
 10
12.0077474755
 20
9.8628428749
 30
0.0
 10
12.0009882214
 20
9.863725177
 30
0.0
 10
11.9969119991
 20
9.8643785868
 30
0.0
 10
11.993568271
 20
9.8650561053
 30
0.0
 10
11.9909691702
 20
9.8657480189
 30
0.0
 10
11.989156568
 20
9.8664332054
 30
0.0
 10
11.9882196926
 20
9.8670011506
 30
0.0
 10
11.9879662888
 20
9.8673236822
 30
0.0
  0
SPLINE
  5
46D
100
AcDbEntity
  8
0
100
AcDbSpline
 62
9
  6
CONTINUOUS
 70
0
 71
3
 72
25
 73
21
 74
0
 42
0.0000001
 43
0.0000001
 44
0.0000000001
 40
0.0
 40
0.0
 40
0.0
 40
0.0
 40
0.1249692458
 40
0.249958294
 40
0.3749181807
 40
0.4374018287
 40
0.4998849429
 40
0.5623662602
 40
0.6248444785
 40
0.6873201179
 40
0.7497881256
 40
0.781027544
 40
0.8122656488
 40
0.8434983651
 40
0.8747334798
 40
0.9060073055
 40
0.9373084029
 40
0.9529963487
 40
0.9687399844
 40
1.0
 40
1.0
 40
1.0
 40
1.0
 10
9.9791050908
 20
3.0571603453
 30
0.0
 10
10.0243363887
 20
3.0571607615
 30
0.0
 10
10.1148243809
 20
3.0593719405
 30
0.0
 10
10.2501879498
 20
3.0696777364
 30
0.0
 10
10.3623712127
 20
3.0844796956
 30
0.0
 10
10.4513996162
 20
3.1005829036
 30
0.0
 10
10.5177100494
 20
3.1150071366
 30
0.0
 10
10.5833898585
 20
3.1320841179
 30
0.0
 10
10.6482077215
 20
3.1522070984
 30
0.0
 10
10.7118151032
 20
3.1758937465
 30
0.0
 10
10.7633233418
 20
3.1993606646
 30
0.0
 10
10.8030503153
 20
3.2210059631
 30
0.0
 10
10.8318918935
 20
3.2388967078
 30
0.0
 10
10.8594230796
 20
3.2587591525
 30
0.0
 10
10.8851780658
 20
3.2809304826
 30
0.0
 10
10.908333645
 20
3.305877637
 30
0.0
 10
10.9243976169
 20
3.3294086859
 30
0.0
 10
10.934186065
 20
3.3499507729
 30
0.0
 10
10.9415525143
 20
3.3714399835
 30
0.0
 10
10.9441083279
 20
3.3885314079
 30
0.0
 10
10.9441058381
 20
3.3998456399
 30
0.0
  0
SPLINE
  5
46E
100
AcDbEntity
  8
0
100
AcDbSpline
 62
7
  6
CONTINUOUS
 70
0
 71
3
 72
11
 73
7
 74
0
 42
0.0000001
 43
0.0000001
 44
0.0000000001
 40
0.0
 40
0.0
 40
0.0
 40
0.0
 40
0.2500155934
 40
0.5000322579
 40
0.7500233985
 40
1.0
 40
1.0
 40
1.0
 40
1.0
 10
6.8007000714
 20
9.6183132102
 30
0.0
 10
6.8150226325
 20
9.6130335229
 30
0.0
 10
6.8439010956
 20
9.6030815552
 30
0.0
 10
6.8881235807
 20
9.5910155977
 30
0.0
 10
6.9332879992
 20
9.5830173649
 30
0.0
 10
6.9638427784
 20
9.581134737
 30
0.0
 10
6.9791050908
 20
9.581134737
 30
0.0
  0
SPLINE
  5
46F
100
AcDbEntity
  8
0
100
AcDbSpline
 62
7
  6
CONTINUOUS
 70
0
 71
3
 72
9
 73
5
 74
0
 42
0.0000001
 43
0.0000001
 44
0.0000000001
 40
0.0
 40
0.0
 40
0.0
 40
0.0
 40
0.5000022786
 40
1.0
 40
1.0
 40
1.0
 40
1.0
 10
12.9791050908
 20
9.7563695353
 30
0.0
 10
12.9902927251
 20
9.7563695353
 30
0.0
 10
13.0126693421
 20
9.7560012613
 30
0.0
 10
13.0350210542
 20
9.7548413613
 30
0.0
 10
13.0461784216
 20
9.754020366
 30
0.0
  0
SPLINE
  5
470
100
AcDbEntity
  8
0
100
AcDbSpline
 62
7
  6
CONTINUOUS
 70
0
 71
3
 72
18
 73
14
 74
0
 42
0.0000001
 43
0.0000001
 44
0.0000000001
 40
0.0
 40
0.0
 40
0.0
 40
0.0
 40
0.1250169388
 40
0.2500330174
 40
0.3750461465
 40
0.5000516948
 40
0.6250375823
 40
0.6875587831
 40
0.7500836076
 40
0.8126107822
 40
0.8751331739
 40
0.937607389
 40
1.0
 40
1.0
 40
1.0
 40
1.0
 10
13.0461784216
 20
9.754020366
 30
0.0
 10
13.0545500291
 20
9.7534043559
 30
0.0
 10
13.071275114
 20
9.7518995768
 30
0.0
 10
13.0962530624
 20
9.7486352154
 30
0.0
 10
13.1210360259
 20
9.7440850493
 30
0.0
 10
13.1454518349
 20
9.737838886
 30
0.0
 10
13.1652455197
 20
9.7307050361
 30
0.0
 10
13.1803495274
 20
9.7233358525
 30
0.0
 10
13.1911312554
 20
9.7167818104
 30
0.0
 10
13.2010578043
 20
9.7089650875
 30
0.0
 10
13.2095873894
 20
9.6995957664
 30
0.0
 10
13.2157725733
 20
9.6884669247
 30
0.0
 10
13.2173575081
 20
9.6800231701
 30
0.0
 10
13.2173575081
 20
9.6758338289
 30
0.0
  0
SPLINE
  5
471
100
AcDbEntity
  8
0
100
AcDbSpline
 62
7
  6
CONTINUOUS
 70
0
 71
3
 72
13
 73
9
 74
0
 42
0.0000001
 43
0.0000001
 44
0.0000000001
 40
0.0
 40
0.0
 40
0.0
 40
0.0
 40
0.124966128
 40
0.2500299768
 40
0.3751051151
 40
0.5001962972
 40
0.7500356701
 40
1.0
 40
1.0
 40
1.0
 40
1.0
 10
13.2173575081
 20
9.6758338289
 30
0.0
 10
13.2173575081
 20
9.6721732882
 30
0.0
 10
13.2161604178
 20
9.6648057138
 30
0.0
 10
13.2113300233
 20
9.6548113251
 30
0.0
 10
13.2044557998
 20
9.64614949
 30
0.0
 10
13.1935614225
 20
9.636290903
 30
0.0
 10
13.1778709432
 20
9.626612049
 30
0.0
 10
13.1643802183
 20
9.6208457198
 30
0.0
 10
13.1575101101
 20
9.6183132102
 30
0.0
  0
SPLINE
  5
472
100
AcDbEntity
  8
0
100
AcDbSpline
 62
9
  6
CONTINUOUS
 70
0
 71
3
 72
18
 73
14
 74
0
 42
0.0000001
 43
0.0000001
 44
0.0000000001
 40
0.0
 40
0.0
 40
0.0
 40
0.0
 40
0.1973707156
 40
0.3856028356
 40
0.5571497882
 40
0.7063212764
 40
0.8282305686
 40
0.9190593206
 40
0.9518527598
 40
0.9759222218
 40
0.9847508423
 40
0.9915420409
 40
1.0
 40
1.0
 40
1.0
 40
1.0
 10
12.1483714016
 20
10.9598064568
 30
0.0
 10
12.148339546
 20
10.9649499525
 30
0.0
 10
12.1482119526
 20
10.9749984998
 30
0.0
 10
12.1478331312
 20
10.9895137353
 30
0.0
 10
12.1472756768
 20
11.0027660884
 30
0.0
 10
12.1465710906
 20
11.0142809817
 30
0.0
 10
12.1457358969
 20
11.0236762791
 30
0.0
 10
12.144927851
 20
11.0300277324
 30
0.0
 10
12.1441709706
 20
11.0338056739
 30
0.0
 10
12.1437205288
 20
11.0354557991
 30
0.0
 10
12.1433176115
 20
11.0364200241
 30
0.0
 10
12.1430228668
 20
11.0369528037
 30
0.0
 10
12.1426857299
 20
11.0372807907
 30
0.0
 10
12.1424653338
 20
11.0372839905
 30
0.0
  0
SPLINE
  5
473
100
AcDbEntity
  8
0
100
AcDbSpline
 62
9
  6
CONTINUOUS
 70
0
 71
3
 72
9
 73
5
 74
0
 42
0.0000001
 43
0.0000001
 44
0.0000000001
 40
0.0
 40
0.0
 40
0.0
 40
0.0
 40
0.5329472925
 40
1.0
 40
1.0
 40
1.0
 40
1.0
 10
12.0785419181
 20
10.9598064568
 30
0.0
 10
12.0675741169
 20
10.9598064568
 30
0.0
 10
12.0469941977
 20
10.9594602682
 30
0.0
 10
12.0264332836
 20
10.9583986196
 30
0.0
 10
12.0168544051
 20
10.9576047125
 30
0.0
  0
SPLINE
  5
474
100
AcDbEntity
  8
0
100
AcDbSpline
 62
9
  6
CONTINUOUS
 70
0
 71
3
 72
14
 73
10
 74
0
 42
0.0000001
 43
0.0000001
 44
0.0000000001
 40
0.0
 40
0.0
 40
0.0
 40
0.0
 40
0.3866055798
 40
0.5487934916
 40
0.6880984403
 40
0.8031549266
 40
0.893355442
 40
0.9585944627
 40
1.0
 40
1.0
 40
1.0
 40
1.0
 10
12.0168544051
 20
10.9576047125
 30
0.0
 10
12.0130377057
 20
10.9572883806
 30
0.0
 10
12.0076240932
 20
10.9567700387
 30
0.0
 10
12.000864839
 20
10.9558877367
 30
0.0
 10
11.9967886167
 20
10.9552343268
 30
0.0
 10
11.9934448886
 20
10.9545568083
 30
0.0
 10
11.9908457878
 20
10.9538648947
 30
0.0
 10
11.9890331856
 20
10.9531797082
 30
0.0
 10
11.9880963102
 20
10.9526117631
 30
0.0
 10
11.9878429064
 20
10.9522892314
 30
0.0
  0
SPLINE
  5
475
100
AcDbEntity
  8
0
100
AcDbSpline
 62
7
  6
CONTINUOUS
 70
0
 71
3
 72
13
 73
9
 74
0
 42
0.0000001
 43
0.0000001
 44
0.0000000001
 40
0.0
 40
0.0
 40
0.0
 40
0.0
 40
0.250043759
 40
0.4999214056
 40
0.6250141741
 40
0.750095208
 40
0.8750986137
 40
1.0
 40
1.0
 40
1.0
 40
1.0
 10
12.8007000714
 20
9.6183132102
 30
0.0
 10
12.7938277878
 20
9.6208465217
 30
0.0
 10
12.7803333115
 20
9.626613431
 30
0.0
 10
12.7646426533
 20
9.6362983821
 30
0.0
 10
12.7537466353
 20
9.6461569777
 30
0.0
 10
12.7468744722
 20
9.6548188045
 30
0.0
 10
12.7420490647
 20
9.6648115107
 30
0.0
 10
12.740852686
 20
9.6721751887
 30
0.0
 10
12.740852686
 20
9.6758338289
 30
0.0
  0
SPLINE
  5
476
100
AcDbEntity
  8
0
100
AcDbSpline
 62
7
  6
CONTINUOUS
 70
0
 71
3
 72
18
 73
14
 74
0
 42
0.0000001
 43
0.0000001
 44
0.0000000001
 40
0.0
 40
0.0
 40
0.0
 40
0.0
 40
0.0623914165
 40
0.1248658979
 40
0.1873883861
 40
0.2499157803
 40
0.3124407502
 40
0.37496202
 40
0.4999480181
 40
0.6249536497
 40
0.7499668499
 40
0.8749829951
 40
1.0
 40
1.0
 40
1.0
 40
1.0
 10
12.740852686
 20
9.6758338289
 30
0.0
 10
12.740852686
 20
9.6800234704
 30
0.0
 10
12.7424379167
 20
9.6884679214
 30
0.0
 10
12.748623964
 20
9.6995975578
 30
0.0
 10
12.7571547825
 20
9.7089673755
 30
0.0
 10
12.7670825949
 20
9.7167843947
 30
0.0
 10
12.7778656152
 20
9.7233385733
 30
0.0
 10
12.7929713089
 20
9.7307078279
 30
0.0
 10
12.8127670723
 20
9.7378415893
 30
0.0
 10
12.8371853213
 20
9.7440875115
 30
0.0
 10
12.8619706847
 20
9.7486373529
 30
0.0
 10
12.8869510022
 20
9.7519013396
 30
0.0
 10
12.9036776516
 20
9.7534058443
 30
0.0
 10
12.9120500386
 20
9.7540217108
 30
0.0
  0
SPLINE
  5
477
100
AcDbEntity
  8
0
100
AcDbSpline
 62
7
  6
CONTINUOUS
 70
0
 71
3
 72
9
 73
5
 74
0
 42
0.0000001
 43
0.0000001
 44
0.0000000001
 40
0.0
 40
0.0
 40
0.0
 40
0.0
 40
0.4999977252
 40
1.0
 40
1.0
 40
1.0
 40
1.0
 10
12.9120500386
 20
9.7540217108
 30
0.0
 10
12.9232043798
 20
9.7548422156
 30
0.0
 10
12.9455500029
 20
9.7560014599
 30
0.0
 10
12.9679205106
 20
9.7563695353
 30
0.0
 10
12.9791050908
 20
9.7563695353
 30
0.0
  0
SPLINE
  5
478
100
AcDbEntity
  8
0
100
AcDbSpline
 62
7
  6
CONTINUOUS
 70
0
 71
3
 72
11
 73
7
 74
0
 42
0.0000001
 43
0.0000001
 44
0.0000000001
 40
0.0
 40
0.0
 40
0.0
 40
0.0
 40
0.2500049825
 40
0.5000201017
 40
0.7500167942
 40
1.0
 40
1.0
 40
1.0
 40
1.0
 10
12.9791050908
 20
9.581134737
 30
0.0
 10
12.9943691068
 20
9.581134737
 30
0.0
 10
13.0249265872
 20
9.5830243018
 30
0.0
 10
13.0700933512
 20
9.5910175435
 30
0.0
 10
13.1143153902
 20
9.603079424
 30
0.0
 10
13.1431894318
 20
9.6130342169
 30
0.0
 10
13.1575101101
 20
9.6183132102
 30
0.0
  0
SPLINE
  5
479
100
AcDbEntity
  8
0
100
AcDbSpline
 62
7
  6
CONTINUOUS
 70
0
 71
3
 72
17
 73
13
 74
0
 42
0.0000001
 43
0.0000001
 44
0.0000000001
 40
0.0
 40
0.0
 40
0.0
 40
0.0
 40
0.1334364927
 40
0.2611581885
 40
0.3826569607
 40
0.441635791
 40
0.4999999988
 40
0.5583642064
 40
0.6173430376
 40
0.7388418105
 40
0.8665635066
 40
1.0
 40
1.0
 40
1.0
 40
1.0
 10
13.4043216709
 20
9.6183132102
 30
0.0
 10
13.4113564013
 20
9.6131268226
 30
0.0
 10
13.4254435385
 20
9.6033869585
 30
0.0
 10
13.4474557219
 20
9.591276524
 30
0.0
 10
13.4665856747
 20
9.5844159148
 30
0.0
 10
13.4820082351
 20
9.5816043043
 30
0.0
 10
13.4935241803
 20
9.5809065126
 30
0.0
 10
13.5050401257
 20
9.581604304
 30
0.0
 10
13.5204626861
 20
9.5844159153
 30
0.0
 10
13.5395926392
 20
9.5912765238
 30
0.0
 10
13.5616048227
 20
9.6033869584
 30
0.0
 10
13.57569196
 20
9.6131268226
 30
0.0
 10
13.5827266903
 20
9.6183132102
 30
0.0
  0
SPLINE
  5
47A
100
AcDbEntity
  8
0
100
AcDbSpline
 62
9
  6
CONTINUOUS
 70
0
 71
3
 72
11
 73
7
 74
0
 42
0.0000001
 43
0.0000001
 44
0.0000000001
 40
0.0
 40
0.0
 40
0.0
 40
0.0
 40
0.2533144167
 40
0.5072238308
 40
0.7569937089
 40
1.0
 40
1.0
 40
1.0
 40
1.0
 10
10.4285742752
 20
9.6888337151
 30
0.0
 10
10.4258808515
 20
9.6998646793
 30
0.0
 10
10.4218683642
 20
9.7223165901
 30
0.0
 10
10.4202716464
 20
9.7563140225
 30
0.0
 10
10.423626362
 20
9.7897570869
 30
0.0
 10
10.4296591168
 20
9.811153239
 30
0.0
 10
10.433557668
 20
9.821324663
 30
0.0
  0
SPLINE
  5
47B
100
AcDbEntity
  8
0
100
AcDbSpline
 62
9
  6
CONTINUOUS
 70
0
 71
3
 72
9
 73
5
 74
0
 42
0.0000001
 43
0.0000001
 44
0.0000000001
 40
0.0
 40
0.0
 40
0.0
 40
0.0
 40
0.2555212839
 40
1.0
 40
1.0
 40
1.0
 40
1.0
 10
10.433557668
 20
9.821324663
 30
0.0
 10
10.4349499093
 20
9.8249570577
 30
0.0
 10
10.4408602067
 20
9.8389884711
 30
0.0
 10
10.4486541789
 20
9.8522495494
 30
0.0
 10
10.4554783788
 20
9.8612988232
 30
0.0
  0
SPLINE
  5
47C
100
AcDbEntity
  8
0
100
AcDbSpline
 62
9
  6
CONTINUOUS
 70
0
 71
3
 72
28
 73
24
 74
0
 42
0.0000001
 43
0.0000001
 44
0.0000000001
 40
0.0
 40
0.0
 40
0.0
 40
0.0
 40
0.0255612191
 40
0.0485276585
 40
0.0689683513
 40
0.0876369045
 40
0.105261942
 40
0.1221074357
 40
0.1383067986
 40
0.153955631
 40
0.1839094409
 40
0.212738214
 40
0.2410644186
 40
0.2691307871
 40
0.3249424234
 40
0.3809213952
 40
0.4375328072
 40
0.4950192769
 40
0.5535359421
 40
0.6131746962
 40
0.7361241693
 40
0.8647213096
 40
1.0
 40
1.0
 40
1.0
 40
1.0
 10
11.0221716634
 20
3.3998456399
 30
0.0
 10
11.0221716634
 20
3.3895498573
 30
0.0
 10
11.0206315217
 20
3.3699684907
 30
0.0
 10
11.0144840941
 20
3.3428041841
 30
0.0
 10
11.0060955788
 20
3.3191895117
 30
0.0
 10
10.9960713667
 20
3.298613332
 30
0.0
 10
10.9851179831
 20
3.2802001219
 30
0.0
 10
10.973355016
 20
3.2634986195
 30
0.0
 10
10.960958187
 20
3.2482814405
 30
0.0
 10
10.9440922238
 20
3.2299585692
 30
0.0
 10
10.9221897564
 20
3.2094158886
 30
0.0
 10
10.894575921
 20
3.1877174373
 30
0.0
 10
10.8662228777
 20
3.1683304627
 30
0.0
 10
10.8275054113
 20
3.1449813871
 30
0.0
 10
10.7772442815
 20
3.1193669156
 30
0.0
 10
10.7145578219
 20
3.0933323948
 30
0.0
 10
10.6498456349
 20
3.0707552161
 30
0.0
 10
10.5830992481
 20
3.051197861
 30
0.0
 10
10.5143898298
 20
3.034258686
 30
0.0
 10
10.419241434
 20
3.0147166819
 30
0.0
 10
10.295197381
 20
2.9960475622
 30
0.0
 10
10.1399126356
 20
2.9822836489
 30
0.0
 10
10.0335938843
 20
2.9792790673
 30
0.0
 10
9.9791050908
 20
2.9792790673
 30
0.0
  0
SPLINE
  5
47D
100
AcDbEntity
  8
0
100
AcDbSpline
 62
9
  6
CONTINUOUS
 70
0
 71
3
 72
9
 73
5
 74
0
 42
0.0000001
 43
0.0000001
 44
0.0000000001
 40
0.0
 40
0.0
 40
0.0
 40
0.0
 40
0.257757369
 40
1.0
 40
1.0
 40
1.0
 40
1.0
 10
12.148494784
 20
10.939884823
 30
0.0
 10
12.1512446604
 20
10.939884823
 30
0.0
 10
12.1619130027
 20
10.9398370576
 30
0.0
 10
12.1725811115
 20
10.9396113479
 30
0.0
 10
12.1804940663
 20
10.9393126083
 30
0.0
  0
SPLINE
  5
47E
100
AcDbEntity
  8
0
100
AcDbSpline
 62
9
  6
CONTINUOUS
 70
0
 71
3
 72
12
 73
8
 74
0
 42
0.0000001
 43
0.0000001
 44
0.0000000001
 40
0.0
 40
0.0
 40
0.0
 40
0.0
 40
0.3292223441
 40
0.6120781584
 40
0.8382308927
 40
0.9275832418
 40
1.0
 40
1.0
 40
1.0
 40
1.0
 10
12.1804940663
 20
10.9393126083
 30
0.0
 10
12.1852028008
 20
10.9391348385
 30
0.0
 10
12.1939545135
 20
10.9387162387
 30
0.0
 10
12.2059197018
 20
10.9378248958
 30
0.0
 10
12.21443617
 20
10.936878288
 30
0.0
 10
12.2199167674
 20
10.9359836351
 30
0.0
 10
12.222183659
 20
10.9355030311
 30
0.0
 10
12.2231873364
 20
10.9352443153
 30
0.0
  0
SPLINE
  5
47F
100
AcDbEntity
  8
0
100
AcDbSpline
 62
9
  6
CONTINUOUS
 70
0
 71
3
 72
12
 73
8
 74
0
 42
0.0000001
 43
0.0000001
 44
0.0000000001
 40
0.0
 40
0.0
 40
0.0
 40
0.0
 40
0.3849315481
 40
0.6732215353
 40
0.7828494013
 40
0.8714204012
 40
1.0
 40
1.0
 40
1.0
 40
1.0
 10
12.2231873364
 20
10.9352443153
 30
0.0
 10
12.223830092
 20
10.9350786335
 30
0.0
 10
12.2249460705
 20
10.9347557099
 30
0.0
 10
12.2262052434
 20
10.9342570751
 30
0.0
 10
12.2269290729
 20
10.9338233554
 30
0.0
 10
12.2273637634
 20
10.9334726883
 30
0.0
 10
12.2275795844
 20
10.9331156886
 30
0.0
 10
12.2275834195
 20
10.9328940024
 30
0.0
  0
SPLINE
  5
480
100
AcDbEntity
  8
0
100
AcDbSpline
 62
9
  6
CONTINUOUS
 70
0
 71
3
 72
14
 73
10
 74
0
 42
0.0000001
 43
0.0000001
 44
0.0000000001
 40
0.0
 40
0.0
 40
0.0
 40
0.0
 40
0.0419677479
 40
0.108549845
 40
0.199958527
 40
0.3157581214
 40
0.455180343
 40
0.6167852223
 40
1.0
 40
1.0
 40
1.0
 40
1.0
 10
12.1431130917
 20
10.8477006542
 30
0.0
 10
12.1433767483
 20
10.8480362355
 30
0.0
 10
12.1438046787
 20
10.8490788709
 30
0.0
 10
12.1443403964
 20
10.8510314938
 30
0.0
 10
12.1448684098
 20
10.8537717459
 30
0.0
 10
12.1453848923
 20
10.857257287
 30
0.0
 10
12.1458761442
 20
10.8614685927
 30
0.0
 10
12.1465311215
 20
10.8683957411
 30
0.0
 10
12.1469086138
 20
10.8739242536
 30
0.0
 10
12.1471357261
 20
10.8778145088
 30
0.0
  0
SPLINE
  5
481
100
AcDbEntity
  8
0
100
AcDbSpline
 62
9
  6
CONTINUOUS
 70
0
 71
3
 72
9
 73
5
 74
0
 42
0.0000001
 43
0.0000001
 44
0.0000000001
 40
0.0
 40
0.0
 40
0.0
 40
0.0
 40
0.4689562967
 40
1.0
 40
1.0
 40
1.0
 40
1.0
 10
12.1471357261
 20
10.8778145088
 30
0.0
 10
12.1477014095
 20
10.8875042217
 30
0.0
 10
12.1484142018
 20
10.9081947008
 30
0.0
 10
12.1485628558
 20
10.9288937703
 30
0.0
 10
12.148494784
 20
10.939884823
 30
0.0
  0
SPLINE
  5
482
100
AcDbEntity
  8
0
100
AcDbSpline
 62
9
  6
CONTINUOUS
 70
0
 71
3
 72
9
 73
5
 74
0
 42
0.0000001
 43
0.0000001
 44
0.0000000001
 40
0.0
 40
0.0
 40
0.0
 40
0.0
 40
0.5310437033
 40
1.0
 40
1.0
 40
1.0
 40
1.0
 10
12.148494784
 20
9.8598064568
 30
0.0
 10
12.1485628558
 20
9.8707975096
 30
0.0
 10
12.1484142018
 20
9.8914965791
 30
0.0
 10
12.1477014095
 20
9.9121870582
 30
0.0
 10
12.1471357261
 20
9.921876771
 30
0.0
  0
SPLINE
  5
483
100
AcDbEntity
  8
0
100
AcDbSpline
 62
9
  6
CONTINUOUS
 70
0
 71
3
 72
14
 73
10
 74
0
 42
0.0000001
 43
0.0000001
 44
0.0000000001
 40
0.0
 40
0.0
 40
0.0
 40
0.0
 40
0.3832147777
 40
0.544819657
 40
0.6842418786
 40
0.800041473
 40
0.891450155
 40
0.9580322521
 40
1.0
 40
1.0
 40
1.0
 40
1.0
 10
12.1471357261
 20
9.921876771
 30
0.0
 10
12.1469086138
 20
9.9257670262
 30
0.0
 10
12.1465311215
 20
9.9312955387
 30
0.0
 10
12.1458761442
 20
9.9382226872
 30
0.0
 10
12.1453848923
 20
9.9424339928
 30
0.0
 10
12.1448684098
 20
9.945919534
 30
0.0
 10
12.1443403964
 20
9.9486597861
 30
0.0
 10
12.1438046787
 20
9.950612409
 30
0.0
 10
12.1433767483
 20
9.9516550443
 30
0.0
 10
12.1431130917
 20
9.9519906257
 30
0.0
  0
SPLINE
  5
484
100
AcDbEntity
  8
0
100
AcDbSpline
 62
9
  6
CONTINUOUS
 70
0
 71
3
 72
9
 73
5
 74
0
 42
0.0000001
 43
0.0000001
 44
0.0000000001
 40
0.0
 40
0.0
 40
0.0
 40
0.0
 40
0.257757369
 40
1.0
 40
1.0
 40
1.0
 40
1.0
 10
12.1483714016
 20
9.839884823
 30
0.0
 10
12.151121278
 20
9.839884823
 30
0.0
 10
12.1617896203
 20
9.8399325885
 30
0.0
 10
12.1724577291
 20
9.8401582982
 30
0.0
 10
12.180370684
 20
9.8404570378
 30
0.0
  0
SPLINE
  5
485
100
AcDbEntity
  8
0
100
AcDbSpline
 62
9
  6
CONTINUOUS
 70
0
 71
3
 72
16
 73
12
 74
0
 42
0.0000001
 43
0.0000001
 44
0.0000000001
 40
0.0
 40
0.0
 40
0.0
 40
0.0
 40
0.4032700438
 40
0.5727450702
 40
0.7165066104
 40
0.8321933403
 40
0.8788568405
 40
0.9177723151
 40
0.9489264114
 40
0.9725318532
 40
1.0
 40
1.0
 40
1.0
 40
1.0
 10
12.180370684
 20
9.8404570378
 30
0.0
 10
12.1868285195
 20
9.8407008418
 30
0.0
 10
12.1959977932
 20
9.8411676402
 30
0.0
 10
12.2074402149
 20
9.8421312288
 30
0.0
 10
12.2142715087
 20
9.8429073774
 30
0.0
 10
12.2191208303
 20
9.8436521862
 30
0.0
 10
12.2222814042
 20
9.8443164325
 30
0.0
 10
12.2240855388
 20
9.8447851878
 30
0.0
 10
12.2255268981
 20
9.8452808378
 30
0.0
 10
12.2266718961
 20
9.8458061622
 30
0.0
 10
12.2274524232
 20
9.8464355302
 30
0.0
 10
12.2274600372
 20
9.8468756437
 30
0.0
  0
SPLINE
  5
486
100
AcDbEntity
  8
0
100
AcDbSpline
 62
9
  6
CONTINUOUS
 70
0
 71
3
 72
18
 73
14
 74
0
 42
0.0000001
 43
0.0000001
 44
0.0000000001
 40
0.0
 40
0.0
 40
0.0
 40
0.0
 40
0.1973707156
 40
0.3856028356
 40
0.5571497882
 40
0.7063212764
 40
0.8282305686
 40
0.9190593206
 40
0.9518527598
 40
0.9759222218
 40
0.9847508423
 40
0.9915420409
 40
1.0
 40
1.0
 40
1.0
 40
1.0
 10
12.0785419181
 20
9.839884823
 30
0.0
 10
12.0785100624
 20
9.8347413273
 30
0.0
 10
12.0783824691
 20
9.82469278
 30
0.0
 10
12.0780036476
 20
9.8101775445
 30
0.0
 10
12.0774461933
 20
9.7969251915
 30
0.0
 10
12.076741607
 20
9.7854102982
 30
0.0
 10
12.0759064134
 20
9.7760150007
 30
0.0
 10
12.0750983675
 20
9.7696635474
 30
0.0
 10
12.0743414871
 20
9.765885606
 30
0.0
 10
12.0738910453
 20
9.7642354808
 30
0.0
 10
12.073488128
 20
9.7632712558
 30
0.0
 10
12.0731933833
 20
9.7627384761
 30
0.0
 10
12.0728562464
 20
9.7624104892
 30
0.0
 10
12.0726358503
 20
9.7624072893
 30
0.0
  0
SPLINE
  5
487
100
AcDbEntity
  8
0
100
AcDbSpline
 62
9
  6
CONTINUOUS
 70
0
 71
3
 72
14
 73
10
 74
0
 42
0.0000001
 43
0.0000001
 44
0.0000000001
 40
0.0
 40
0.0
 40
0.0
 40
0.0
 40
0.0414055373
 40
0.106644558
 40
0.1968450734
 40
0.3119015597
 40
0.4512065084
 40
0.6133944202
 40
1.0
 40
1.0
 40
1.0
 40
1.0
 10
11.9878429064
 20
9.8474020484
 30
0.0
 10
11.9880963102
 20
9.8470795168
 30
0.0
 10
11.9890331856
 20
9.8465115716
 30
0.0
 10
11.9908457878
 20
9.8458263851
 30
0.0
 10
11.9934448886
 20
9.8451344715
 30
0.0
 10
11.9967886167
 20
9.8444569531
 30
0.0
 10
12.000864839
 20
9.8438035432
 30
0.0
 10
12.0076240932
 20
9.8429212412
 30
0.0
 10
12.0130377057
 20
9.8424028993
 30
0.0
 10
12.0168544051
 20
9.8420865674
 30
0.0
  0
SPLINE
  5
488
100
AcDbEntity
  8
0
100
AcDbSpline
 62
9
  6
CONTINUOUS
 70
0
 71
3
 72
9
 73
5
 74
0
 42
0.0000001
 43
0.0000001
 44
0.0000000001
 40
0.0
 40
0.0
 40
0.0
 40
0.0
 40
0.4670527075
 40
1.0
 40
1.0
 40
1.0
 40
1.0
 10
12.0168544051
 20
9.8420865674
 30
0.0
 10
12.0264332836
 20
9.8412926603
 30
0.0
 10
12.0469941977
 20
9.8402310117
 30
0.0
 10
12.0675741169
 20
9.839884823
 30
0.0
 10
12.0785419181
 20
9.839884823
 30
0.0
  0
SPLINE
  5
489
100
AcDbEntity
  8
0
100
AcDbSpline
 62
9
  6
CONTINUOUS
 70
0
 71
3
 72
18
 73
14
 74
0
 42
0.0000001
 43
0.0000001
 44
0.0000000001
 40
0.0
 40
0.0
 40
0.0
 40
0.0
 40
0.0084579591
 40
0.0152491577
 40
0.0240777782
 40
0.0481472402
 40
0.0809406794
 40
0.1717694314
 40
0.2936787236
 40
0.4428502118
 40
0.6143971644
 40
0.8026292844
 40
1.0
 40
1.0
 40
1.0
 40
1.0
 10
12.0726358503
 20
11.0372839905
 30
0.0
 10
12.0728562464
 20
11.0372807907
 30
0.0
 10
12.0731933833
 20
11.0369528037
 30
0.0
 10
12.073488128
 20
11.0364200241
 30
0.0
 10
12.0738910453
 20
11.0354557991
 30
0.0
 10
12.0743414871
 20
11.0338056739
 30
0.0
 10
12.0750983675
 20
11.0300277324
 30
0.0
 10
12.0759064134
 20
11.0236762791
 30
0.0
 10
12.076741607
 20
11.0142809817
 30
0.0
 10
12.0774461933
 20
11.0027660884
 30
0.0
 10
12.0780036476
 20
10.9895137353
 30
0.0
 10
12.0783824691
 20
10.9749984998
 30
0.0
 10
12.0785100624
 20
10.9649499525
 30
0.0
 10
12.0785419181
 20
10.9598064568
 30
0.0
  0
SPLINE
  5
48A
100
AcDbEntity
  8
0
100
AcDbSpline
 62
7
  6
CONTINUOUS
 70
0
 71
3
 72
11
 73
7
 74
0
 42
0.0000001
 43
0.0000001
 44
0.0000000001
 40
0.0
 40
0.0
 40
0.0
 40
0.0
 40
0.1990945467
 40
0.4226646743
 40
0.6867975074
 40
1.0
 40
1.0
 40
1.0
 40
1.0
 10
13.4043216709
 20
9.6183132102
 30
0.0
 10
13.4007345915
 20
9.6209578012
 30
0.0
 10
13.393550738
 20
9.627192756
 30
0.0
 10
13.3839823107
 20
9.6393664858
 30
0.0
 10
13.3763811274
 20
9.6558067489
 30
0.0
 10
13.3743978074
 20
9.6688230478
 30
0.0
 10
13.3743978074
 20
9.6758338289
 30
0.0
  0
SPLINE
  5
48B
100
AcDbEntity
  8
0
100
AcDbSpline
 62
9
  6
CONTINUOUS
 70
0
 71
3
 72
9
 73
5
 74
0
 42
0.0000001
 43
0.0000001
 44
0.0000000001
 40
0.0
 40
0.0
 40
0.0
 40
0.0
 40
0.257757369
 40
1.0
 40
1.0
 40
1.0
 40
1.0
 10
7.8098387799
 20
10.9598064568
 30
0.0
 10
7.8070889036
 20
10.9598064568
 30
0.0
 10
7.7964205612
 20
10.9597586914
 30
0.0
 10
7.7857524525
 20
10.9595329816
 30
0.0
 10
7.7778394976
 20
10.9592342421
 30
0.0
  0
SPLINE
  5
48C
100
AcDbEntity
  8
0
100
AcDbSpline
 62
9
  6
CONTINUOUS
 70
0
 71
3
 72
16
 73
12
 74
0
 42
0.0000001
 43
0.0000001
 44
0.0000000001
 40
0.0
 40
0.0
 40
0.0
 40
0.0
 40
0.4032700438
 40
0.5727450702
 40
0.7165066104
 40
0.8321933403
 40
0.8788568405
 40
0.9177723151
 40
0.9489264114
 40
0.9725318532
 40
1.0
 40
1.0
 40
1.0
 40
1.0
 10
7.7778394976
 20
10.9592342421
 30
0.0
 10
7.771381662
 20
10.958990438
 30
0.0
 10
7.7622123884
 20
10.9585236396
 30
0.0
 10
7.7507699667
 20
10.9575600511
 30
0.0
 10
7.7439386728
 20
10.9567839025
 30
0.0
 10
7.7390893512
 20
10.9560390937
 30
0.0
 10
7.7359287774
 20
10.9553748474
 30
0.0
 10
7.7341246428
 20
10.9549060921
 30
0.0
 10
7.7326832835
 20
10.9544104421
 30
0.0
 10
7.7315382855
 20
10.9538851177
 30
0.0
 10
7.7307577584
 20
10.9532557497
 30
0.0
 10
7.7307501444
 20
10.9528156362
 30
0.0
  0
SPLINE
  5
48D
100
AcDbEntity
  8
0
100
AcDbSpline
 62
7
  6
CONTINUOUS
 70
0
 71
3
 72
14
 73
10
 74
0
 42
0.0000001
 43
0.0000001
 44
0.0000000001
 40
0.0
 40
0.0
 40
0.0
 40
0.0
 40
0.0987756965
 40
0.1893797722
 40
0.3419900948
 40
0.469932125
 40
0.5848513936
 40
0.7967456519
 40
1.0
 40
1.0
 40
1.0
 40
1.0
 10
13.3743978074
 20
9.6758338289
 30
0.0
 10
13.3743978074
 20
9.6802293979
 30
0.0
 10
13.3752031102
 20
9.6886811186
 30
0.0
 10
13.3793775159
 20
9.7033817985
 30
0.0
 10
13.3876054892
 20
9.7180061489
 30
0.0
 10
13.4000253458
 20
9.7306791813
 30
0.0
 10
13.4168849956
 20
9.7420564823
 30
0.0
 10
13.43916287
 20
9.7505788687
 30
0.0
 10
13.4574128912
 20
9.7538256166
 30
0.0
 10
13.4663985569
 20
9.7548592666
 30
0.0
  0
SPLINE
  5
48E
100
AcDbEntity
  8
0
100
AcDbSpline
 62
7
  6
CONTINUOUS
 70
0
 71
3
 72
17
 73
13
 74
0
 42
0.0000001
 43
0.0000001
 44
0.0000000001
 40
0.0
 40
0.0
 40
0.0
 40
0.0
 40
0.1076001811
 40
0.2150102997
 40
0.3227978168
 40
0.4318647566
 40
0.544238969
 40
0.664933219
 40
0.7321398907
 40
0.8077306194
 40
0.8964766384
 40
1.0
 40
1.0
 40
1.0
 40
1.0
 10
13.4663985569
 20
9.7548592666
 30
0.0
 10
13.4730926741
 20
9.7556293125
 30
0.0
 10
13.4865462126
 20
9.756542126
 30
0.0
 10
13.506778479
 20
9.7562962807
 30
0.0
 10
13.5270209794
 20
9.7543777169
 30
0.0
 10
13.5472884806
 20
9.7503395593
 30
0.0
 10
13.5675907361
 20
9.7432133776
 30
0.0
 10
13.5838553495
 20
9.7333432802
 30
0.0
 10
13.5958062287
 20
9.7218651098
 30
0.0
 10
13.6043249148
 20
9.7100092148
 30
0.0
 10
13.6109444617
 20
9.6944305411
 30
0.0
 10
13.6126505547
 20
9.6823167877
 30
0.0
 10
13.6126505547
 20
9.6758338289
 30
0.0
  0
SPLINE
  5
48F
100
AcDbEntity
  8
0
100
AcDbSpline
 62
9
  6
CONTINUOUS
 70
0
 71
3
 72
14
 73
10
 74
0
 42
0.0000001
 43
0.0000001
 44
0.0000000001
 40
0.0
 40
0.0
 40
0.0
 40
0.0
 40
0.0414055373
 40
0.106644558
 40
0.1968450734
 40
0.3119015597
 40
0.4512065084
 40
0.6133944202
 40
1.0
 40
1.0
 40
1.0
 40
1.0
 10
7.9703672751
 20
10.9522892314
 30
0.0
 10
7.9701138713
 20
10.9526117631
 30
0.0
 10
7.969176996
 20
10.9531797082
 30
0.0
 10
7.9673643937
 20
10.9538648947
 30
0.0
 10
7.9647652929
 20
10.9545568083
 30
0.0
 10
7.9614215649
 20
10.9552343268
 30
0.0
 10
7.9573453426
 20
10.9558877367
 30
0.0
 10
7.9505860884
 20
10.9567700387
 30
0.0
 10
7.9451724759
 20
10.9572883806
 30
0.0
 10
7.9413557764
 20
10.9576047125
 30
0.0
  0
SPLINE
  5
490
100
AcDbEntity
  8
0
100
AcDbSpline
 62
9
  6
CONTINUOUS
 70
0
 71
3
 72
9
 73
5
 74
0
 42
0.0000001
 43
0.0000001
 44
0.0000000001
 40
0.0
 40
0.0
 40
0.0
 40
0.0
 40
0.4670527075
 40
1.0
 40
1.0
 40
1.0
 40
1.0
 10
7.9413557764
 20
10.9576047125
 30
0.0
 10
7.931776898
 20
10.9583986196
 30
0.0
 10
7.9112159838
 20
10.9594602682
 30
0.0
 10
7.8906360646
 20
10.9598064568
 30
0.0
 10
7.8796682635
 20
10.9598064568
 30
0.0
  0
SPLINE
  5
491
100
AcDbEntity
  8
0
100
AcDbSpline
 62
9
  6
CONTINUOUS
 70
0
 71
3
 72
18
 73
14
 74
0
 42
0.0000001
 43
0.0000001
 44
0.0000000001
 40
0.0
 40
0.0
 40
0.0
 40
0.0
 40
0.1973707156
 40
0.3856028356
 40
0.5571497882
 40
0.7063212764
 40
0.8282305686
 40
0.9190593206
 40
0.9518527598
 40
0.9759222218
 40
0.9847508423
 40
0.9915420409
 40
1.0
 40
1.0
 40
1.0
 40
1.0
 10
7.8796682635
 20
10.9598064568
 30
0.0
 10
7.8797001191
 20
10.9649499525
 30
0.0
 10
7.8798277125
 20
10.9749984998
 30
0.0
 10
7.8802065339
 20
10.9895137353
 30
0.0
 10
7.8807639883
 20
11.0027660884
 30
0.0
 10
7.8814685745
 20
11.0142809817
 30
0.0
 10
7.8823037681
 20
11.0236762791
 30
0.0
 10
7.883111814
 20
11.0300277324
 30
0.0
 10
7.8838686944
 20
11.0338056739
 30
0.0
 10
7.8843191362
 20
11.0354557991
 30
0.0
 10
7.8847220535
 20
11.0364200241
 30
0.0
 10
7.8850167983
 20
11.0369528037
 30
0.0
 10
7.8853539352
 20
11.0372807907
 30
0.0
 10
7.8855743312
 20
11.0372839905
 30
0.0
  0
SPLINE
  5
492
100
AcDbEntity
  8
0
100
AcDbSpline
 62
9
  6
CONTINUOUS
 70
0
 71
3
 72
13
 73
9
 74
0
 42
0.0000001
 43
0.0000001
 44
0.0000000001
 40
0.0
 40
0.0
 40
0.0
 40
0.0
 40
0.0589685357
 40
0.1361516395
 40
0.2322797118
 40
0.3476037171
 40
0.6358670659
 40
1.0
 40
1.0
 40
1.0
 40
1.0
 10
8.0052840196
 20
10.907847301
 30
0.0
 10
8.0059171987
 20
10.9070413925
 30
0.0
 10
8.0071211646
 20
10.9049840605
 30
0.0
 10
8.0086975543
 20
10.901264427
 30
0.0
 10
8.0102729609
 20
10.8964963639
 30
0.0
 10
8.0125319361
 20
10.8881075026
 30
0.0
 10
8.0151890007
 20
10.8750205055
 30
0.0
 10
8.0169409451
 20
10.8638162239
 30
0.0
 10
8.0178301054
 20
10.8575502485
 30
0.0
  0
SPLINE
  5
493
100
AcDbEntity
  8
0
100
AcDbSpline
 62
9
  6
CONTINUOUS
 70
0
 71
3
 72
9
 73
5
 74
0
 42
0.0000001
 43
0.0000001
 44
0.0000000001
 40
0.0
 40
0.0
 40
0.0
 40
0.0
 40
0.4649719172
 40
1.0
 40
1.0
 40
1.0
 40
1.0
 10
8.0178301054
 20
10.8575502485
 30
0.0
 10
8.0188244471
 20
10.8505430533
 30
0.0
 10
8.0207233856
 20
10.8354388293
 30
0.0
 10
8.0222960158
 20
10.8202982945
 30
0.0
 10
8.0230727791
 20
10.8121916968
 30
0.0
  0
SPLINE
  5
494
100
AcDbEntity
  8
0
100
AcDbSpline
 62
9
  6
CONTINUOUS
 70
0
 71
3
 72
10
 73
6
 74
0
 42
0.0000001
 43
0.0000001
 44
0.0000000001
 40
0.0
 40
0.0
 40
0.0
 40
0.0
 40
0.5612223528
 40
0.7964259498
 40
1.0
 40
1.0
 40
1.0
 40
1.0
 10
8.0230720527
 20
9.9874920023
 30
0.0
 10
8.0219003935
 20
9.97526477
 30
0.0
 10
8.0200415142
 20
9.9579284653
 30
0.0
 10
8.017028446
 20
9.9362488714
 30
0.0
 10
8.0154574109
 20
9.9267729324
 30
0.0
 10
8.0146430659
 20
9.9223924433
 30
0.0
  0
SPLINE
  5
495
100
AcDbEntity
  8
0
100
AcDbSpline
 62
9
  6
CONTINUOUS
 70
0
 71
3
 72
12
 73
8
 74
0
 42
0.0000001
 43
0.0000001
 44
0.0000000001
 40
0.0
 40
0.0
 40
0.0
 40
0.0
 40
0.3503816308
 40
0.6333973273
 40
0.8491851601
 40
0.9324325241
 40
1.0
 40
1.0
 40
1.0
 40
1.0
 10
8.0146430659
 20
9.9223924433
 30
0.0
 10
8.0139570398
 20
9.9187022014
 30
0.0
 10
8.0126090117
 20
9.9120486182
 30
0.0
 10
8.0103402916
 20
9.9032373015
 30
0.0
 10
8.0083153758
 20
9.8973210813
 30
0.0
 10
8.006601498
 20
9.8937830609
 30
0.0
 10
8.0057311944
 20
9.8924131417
 30
0.0
 10
8.0052840196
 20
9.8918439789
 30
0.0
  0
SPLINE
  5
496
100
AcDbEntity
  8
0
100
AcDbSpline
 62
9
  6
CONTINUOUS
 70
0
 71
3
 72
12
 73
8
 74
0
 42
0.0000001
 43
0.0000001
 44
0.0000000001
 40
0.0
 40
0.0
 40
0.0
 40
0.0
 40
0.0648358983
 40
0.1461580868
 40
0.360542563
 40
0.6452113716
 40
1.0
 40
1.0
 40
1.0
 40
1.0
 10
8.0051606373
 20
9.9117656127
 30
0.0
 10
8.0056383253
 20
9.9123736126
 30
0.0
 10
8.0065626345
 20
9.9138623179
 30
0.0
 10
8.0083785072
 20
9.9177644985
 30
0.0
 10
8.0105089951
 20
9.924371278
 30
0.0
 10
8.0128907073
 20
9.9342726199
 30
0.0
 10
8.0142973698
 20
9.9417716457
 30
0.0
 10
8.0150132637
 20
9.9459417114
 30
0.0
  0
SPLINE
  5
497
100
AcDbEntity
  8
0
100
AcDbSpline
 62
9
  6
CONTINUOUS
 70
0
 71
3
 72
9
 73
5
 74
0
 42
0.0000001
 43
0.0000001
 44
0.0000000001
 40
0.0
 40
0.0
 40
0.0
 40
0.0
 40
0.4586135225
 40
1.0
 40
1.0
 40
1.0
 40
1.0
 10
8.0150132637
 20
9.9459417114
 30
0.0
 10
8.0160252005
 20
9.95183622
 30
0.0
 10
8.017947578
 20
9.9647377937
 30
0.0
 10
8.0195141946
 20
9.9776853285
 30
0.0
 10
8.0202948668
 20
9.9847022094
 30
0.0
  0
SPLINE
  5
498
100
AcDbEntity
  8
0
100
AcDbSpline
 62
9
  6
CONTINUOUS
 70
0
 71
3
 72
9
 73
5
 74
0
 42
0.0000001
 43
0.0000001
 44
0.0000000001
 40
0.0
 40
0.0
 40
0.0
 40
0.0
 40
0.5413912953
 40
1.0
 40
1.0
 40
1.0
 40
1.0
 10
8.0202949319
 20
10.8149884847
 30
0.0
 10
8.0195141877
 20
10.822006048
 30
0.0
 10
8.0179474295
 20
10.8349547256
 30
0.0
 10
8.016024838
 20
10.8478574325
 30
0.0
 10
8.0150127795
 20
10.8537523921
 30
0.0
  0
SPLINE
  5
499
100
AcDbEntity
  8
0
100
AcDbSpline
 62
9
  6
CONTINUOUS
 70
0
 71
3
 72
12
 73
8
 74
0
 42
0.0000001
 43
0.0000001
 44
0.0000000001
 40
0.0
 40
0.0
 40
0.0
 40
0.0
 40
0.3496259625
 40
0.6324179
 40
0.8484755232
 40
0.932028022
 40
1.0
 40
1.0
 40
1.0
 40
1.0
 10
8.0140216077
 20
10.8592681324
 30
0.0
 10
8.0133706942
 20
10.8627236374
 30
0.0
 10
8.0120918357
 20
10.868957462
 30
0.0
 10
8.0099427017
 20
10.8772175519
 30
0.0
 10
8.0080259453
 20
10.8827701223
 30
0.0
 10
8.0064055096
 20
10.8860971501
 30
0.0
 10
8.0055829728
 20
10.8873881198
 30
0.0
 10
8.0051606373
 20
10.8879256672
 30
0.0
  0
SPLINE
  5
49A
100
AcDbEntity
  8
0
100
AcDbSpline
 62
9
  6
CONTINUOUS
 70
0
 71
3
 72
11
 73
7
 74
0
 42
0.0000001
 43
0.0000001
 44
0.0000000001
 40
0.0
 40
0.0
 40
0.0
 40
0.0
 40
0.2496223555
 40
0.499761144
 40
0.750039686
 40
1.0
 40
1.0
 40
1.0
 40
1.0
 10
7.9702438928
 20
10.9323675977
 30
0.0
 10
7.9701756077
 20
10.9213421207
 30
0.0
 10
7.9656097492
 20
10.8990577876
 30
0.0
 10
7.9465713642
 20
10.8709442511
 30
0.0
 10
7.9182997821
 20
10.8521173941
 30
0.0
 10
7.8959671892
 20
10.8477006542
 30
0.0
 10
7.8849265734
 20
10.8477006542
 30
0.0
  0
SPLINE
  5
49B
100
AcDbEntity
  8
0
100
AcDbSpline
 62
9
  6
CONTINUOUS
 70
0
 71
3
 72
18
 73
14
 74
0
 42
0.0000001
 43
0.0000001
 44
0.0000000001
 40
0.0
 40
0.0
 40
0.0
 40
0.0
 40
0.0138259625
 40
0.0357609393
 40
0.0658748499
 40
0.1040241652
 40
0.1499557794
 40
0.2031953053
 40
0.3294425643
 40
0.4781894479
 40
0.6439073505
 40
0.8204294483
 40
1.0
 40
1.0
 40
1.0
 40
1.0
 10
7.8849265734
 20
10.8477006542
 30
0.0
 10
7.8846629168
 20
10.8480362355
 30
0.0
 10
7.8842349864
 20
10.8490788709
 30
0.0
 10
7.8836992688
 20
10.8510314938
 30
0.0
 10
7.8831712548
 20
10.8537717456
 30
0.0
 10
7.8826547755
 20
10.8572572883
 30
0.0
 10
7.8821635076
 20
10.8614685865
 30
0.0
 10
7.8815086358
 20
10.8683957841
 30
0.0
 10
7.8808172489
 20
10.8785054743
 30
0.0
 10
7.8801877492
 20
10.892094961
 30
0.0
 10
7.8797471317
 20
10.9072445854
 30
0.0
 10
7.8795191756
 20
10.9233501963
 30
0.0
 10
7.879510553
 20
10.9343421183
 30
0.0
 10
7.8795448811
 20
10.939884823
 30
0.0
  0
SPLINE
  5
49C
100
AcDbEntity
  8
0
100
AcDbSpline
 62
9
  6
CONTINUOUS
 70
0
 71
3
 72
9
 73
5
 74
0
 42
0.0000001
 43
0.0000001
 44
0.0000000001
 40
0.0
 40
0.0
 40
0.0
 40
0.0
 40
0.5329472925
 40
1.0
 40
1.0
 40
1.0
 40
1.0
 10
7.8795448811
 20
10.939884823
 30
0.0
 10
7.8905126823
 20
10.939884823
 30
0.0
 10
7.9110926015
 20
10.9395386344
 30
0.0
 10
7.9316535156
 20
10.9384769858
 30
0.0
 10
7.9412323941
 20
10.9376830787
 30
0.0
  0
SPLINE
  5
49D
100
AcDbEntity
  8
0
100
AcDbSpline
 62
9
  6
CONTINUOUS
 70
0
 71
3
 72
14
 73
10
 74
0
 42
0.0000001
 43
0.0000001
 44
0.0000000001
 40
0.0
 40
0.0
 40
0.0
 40
0.0
 40
0.3866055798
 40
0.5487934916
 40
0.6880984403
 40
0.8031549266
 40
0.893355442
 40
0.9585944627
 40
1.0
 40
1.0
 40
1.0
 40
1.0
 10
7.9412323941
 20
10.9376830787
 30
0.0
 10
7.9450490935
 20
10.9373667468
 30
0.0
 10
7.950462706
 20
10.9368484049
 30
0.0
 10
7.9572219602
 20
10.9359661029
 30
0.0
 10
7.9612981825
 20
10.935312693
 30
0.0
 10
7.9646419105
 20
10.9346351746
 30
0.0
 10
7.9672410113
 20
10.9339432609
 30
0.0
 10
7.9690536136
 20
10.9332580745
 30
0.0
 10
7.969990489
 20
10.9326901293
 30
0.0
 10
7.9702438928
 20
10.9323675977
 30
0.0
  0
SPLINE
  5
49E
100
AcDbEntity
  8
0
100
AcDbSpline
 62
7
  6
CONTINUOUS
 70
0
 71
3
 72
11
 73
7
 74
0
 42
0.0000001
 43
0.0000001
 44
0.0000000001
 40
0.0
 40
0.0
 40
0.0
 40
0.0
 40
0.139435565
 40
0.3406158492
 40
0.6209264779
 40
1.0
 40
1.0
 40
1.0
 40
1.0
 10
7.9879016248
 20
10.849842365
 30
0.0
 10
7.9865832819
 20
10.849842365
 30
0.0
 10
7.983399287
 20
10.8489990831
 30
0.0
 10
7.9781232067
 20
10.8464472381
 30
0.0
 10
7.971016543
 20
10.8424696971
 30
0.0
 10
7.9655454871
 20
10.8394821182
 30
0.0
 10
7.9623516673
 20
10.8378557178
 30
0.0
  0
SPLINE
  5
49F
100
AcDbEntity
  8
0
100
AcDbSpline
 62
7
  6
CONTINUOUS
 70
0
 71
3
 72
9
 73
5
 74
0
 42
0.0000001
 43
0.0000001
 44
0.0000000001
 40
0.0
 40
0.0
 40
0.0
 40
0.0
 40
0.2114151399
 40
1.0
 40
1.0
 40
1.0
 40
1.0
 10
7.9623516673
 20
10.8378557178
 30
0.0
 10
7.9609313987
 20
10.8371324693
 30
0.0
 10
7.9541743338
 20
10.8337911561
 30
0.0
 10
7.9471746219
 20
10.8309192165
 30
0.0
 10
7.9415315858
 20
10.829048661
 30
0.0
  0
SPLINE
  5
4A0
100
AcDbEntity
  8
0
100
AcDbSpline
 62
7
  6
CONTINUOUS
 70
0
 71
3
 72
11
 73
7
 74
0
 42
0.0000001
 43
0.0000001
 44
0.0000000001
 40
0.0
 40
0.0
 40
0.0
 40
0.0
 40
0.3133437645
 40
0.5774587378
 40
0.8009708943
 40
1.0
 40
1.0
 40
1.0
 40
1.0
 10
13.6126505547
 20
9.6758338289
 30
0.0
 10
13.6126505547
 20
9.6688198811
 30
0.0
 10
13.6106647257
 20
9.6558011159
 30
0.0
 10
13.6030634758
 20
9.6393591845
 30
0.0
 10
13.593494032
 20
9.6271902218
 30
0.0
 10
13.586312593
 20
9.6209569336
 30
0.0
 10
13.5827266903
 20
9.6183132102
 30
0.0
  0
SPLINE
  5
4A1
100
AcDbEntity
  8
0
100
AcDbSpline
 62
9
  6
CONTINUOUS
 70
0
 71
3
 72
18
 73
14
 74
0
 42
0.0000001
 43
0.0000001
 44
0.0000000001
 40
0.0
 40
0.0
 40
0.0
 40
0.0
 40
0.0084579591
 40
0.0152491577
 40
0.0240777782
 40
0.0481472402
 40
0.0809406794
 40
0.1717694314
 40
0.2936787236
 40
0.4428502118
 40
0.6143971644
 40
0.8026292844
 40
1.0
 40
1.0
 40
1.0
 40
1.0
 10
12.1424653338
 20
9.7624072893
 30
0.0
 10
12.1426857299
 20
9.7624104892
 30
0.0
 10
12.1430228668
 20
9.7627384761
 30
0.0
 10
12.1433176115
 20
9.7632712558
 30
0.0
 10
12.1437205288
 20
9.7642354808
 30
0.0
 10
12.1441709706
 20
9.765885606
 30
0.0
 10
12.144927851
 20
9.7696635474
 30
0.0
 10
12.1457358969
 20
9.7760150007
 30
0.0
 10
12.1465710906
 20
9.7854102982
 30
0.0
 10
12.1472756768
 20
9.7969251915
 30
0.0
 10
12.1478331312
 20
9.8101775445
 30
0.0
 10
12.1482119526
 20
9.82469278
 30
0.0
 10
12.148339546
 20
9.8347413273
 30
0.0
 10
12.1483714016
 20
9.839884823
 30
0.0
  0
SPLINE
  5
4A2
100
AcDbEntity
  8
0
100
AcDbSpline
 62
7
  6
CONTINUOUS
 70
0
 71
3
 72
12
 73
8
 74
0
 42
0.0000001
 43
0.0000001
 44
0.0000000001
 40
0.0
 40
0.0
 40
0.0
 40
0.0
 40
0.3794389864
 40
0.656509687
 40
0.8578314517
 40
0.9354873021
 40
1.0
 40
1.0
 40
1.0
 40
1.0
 10
7.9415315858
 20
9.9706426188
 30
0.0
 10
7.9470871643
 20
9.9688010539
 30
0.0
 10
7.9564907082
 20
9.9649544559
 30
0.0
 10
7.9682160643
 20
9.9588126951
 30
0.0
 10
7.9756760599
 20
9.9545776823
 30
0.0
 10
7.9803841271
 20
9.9521458918
 30
0.0
 10
7.9823883921
 20
9.9512491036
 30
0.0
 10
7.9833172973
 20
9.950892206
 30
0.0
  0
SPLINE
  5
4A3
100
AcDbEntity
  8
0
100
AcDbSpline
 62
7
  6
CONTINUOUS
 70
0
 71
3
 72
9
 73
5
 74
0
 42
0.0000001
 43
0.0000001
 44
0.0000000001
 40
0.0
 40
0.0
 40
0.0
 40
0.0
 40
0.5531333557
 40
1.0
 40
1.0
 40
1.0
 40
1.0
 10
7.9833172973
 20
9.950892206
 30
0.0
 10
7.9841297295
 20
9.9505800589
 30
0.0
 10
7.985626384
 20
9.9500825857
 30
0.0
 10
7.987198497
 20
9.9498489149
 30
0.0
 10
7.9879016247
 20
9.9498489149
 30
0.0
  0
SPLINE
  5
4A4
100
AcDbEntity
  8
0
100
AcDbSpline
 62
7
  6
CONTINUOUS
 70
0
 71
3
 72
10
 73
6
 74
0
 42
0.0000001
 43
0.0000001
 44
0.0000000001
 40
0.0
 40
0.0
 40
0.0
 40
0.0
 40
0.3724381573
 40
0.7027289147
 40
1.0
 40
1.0
 40
1.0
 40
1.0
 10
7.9068770761
 20
9.9799291616
 30
0.0
 10
7.9112181872
 20
9.9789234883
 30
0.0
 10
7.9194305237
 20
9.9771155776
 30
0.0
 10
7.9309914855
 20
9.9740160142
 30
0.0
 10
7.9381555009
 20
9.9717617246
 30
0.0
 10
7.9415315858
 20
9.9706426188
 30
0.0
  0
SPLINE
  5
4A5
100
AcDbEntity
  8
0
100
AcDbSpline
 62
9
  6
CONTINUOUS
 70
0
 71
3
 72
11
 73
7
 74
0
 42
0.0000001
 43
0.0000001
 44
0.0000000001
 40
0.0
 40
0.0
 40
0.0
 40
0.0
 40
0.249960314
 40
0.500238856
 40
0.7503776445
 40
1.0
 40
1.0
 40
1.0
 40
1.0
 10
7.8849265734
 20
9.9519906257
 30
0.0
 10
7.8959671892
 20
9.9519906257
 30
0.0
 10
7.9182997821
 20
9.9475738858
 30
0.0
 10
7.9465713642
 20
9.9287470287
 30
0.0
 10
7.9656097492
 20
9.9006334922
 30
0.0
 10
7.9701756077
 20
9.8783491592
 30
0.0
 10
7.9702438928
 20
9.8673236822
 30
0.0
  0
SPLINE
  5
4A6
100
AcDbEntity
  8
0
100
AcDbSpline
 62
9
  6
CONTINUOUS
 70
0
 71
3
 72
14
 73
10
 74
0
 42
0.0000001
 43
0.0000001
 44
0.0000000001
 40
0.0
 40
0.0
 40
0.0
 40
0.0
 40
0.0414055373
 40
0.106644558
 40
0.1968450734
 40
0.3119015597
 40
0.4512065084
 40
0.6133944202
 40
1.0
 40
1.0
 40
1.0
 40
1.0
 10
7.9702438928
 20
9.8673236822
 30
0.0
 10
7.969990489
 20
9.8670011506
 30
0.0
 10
7.9690536136
 20
9.8664332054
 30
0.0
 10
7.9672410113
 20
9.8657480189
 30
0.0
 10
7.9646419106
 20
9.8650561053
 30
0.0
 10
7.9612981825
 20
9.8643785868
 30
0.0
 10
7.9572219602
 20
9.863725177
 30
0.0
 10
7.950462706
 20
9.8628428749
 30
0.0
 10
7.9450490935
 20
9.862324533
 30
0.0
 10
7.9412323941
 20
9.8620082012
 30
0.0
  0
SPLINE
  5
4A7
100
AcDbEntity
  8
0
100
AcDbSpline
 62
9
  6
CONTINUOUS
 70
0
 71
3
 72
9
 73
5
 74
0
 42
0.0000001
 43
0.0000001
 44
0.0000000001
 40
0.0
 40
0.0
 40
0.0
 40
0.0
 40
0.4670527075
 40
1.0
 40
1.0
 40
1.0
 40
1.0
 10
7.9412323941
 20
9.8620082012
 30
0.0
 10
7.9316535156
 20
9.8612142941
 30
0.0
 10
7.9110926015
 20
9.8601526455
 30
0.0
 10
7.8905126823
 20
9.8598064568
 30
0.0
 10
7.8795448811
 20
9.8598064568
 30
0.0
  0
SPLINE
  5
4A8
100
AcDbEntity
  8
0
100
AcDbSpline
 62
9
  6
CONTINUOUS
 70
0
 71
3
 72
18
 73
14
 74
0
 42
0.0000001
 43
0.0000001
 44
0.0000000001
 40
0.0
 40
0.0
 40
0.0
 40
0.0
 40
0.1795705517
 40
0.3560926495
 40
0.5218105521
 40
0.6705574357
 40
0.7968046947
 40
0.8500442206
 40
0.8959758348
 40
0.9341251501
 40
0.9642390607
 40
0.9861740375
 40
1.0
 40
1.0
 40
1.0
 40
1.0
 10
7.8795448811
 20
9.8598064568
 30
0.0
 10
7.879510553
 20
9.8653491616
 30
0.0
 10
7.8795191756
 20
9.8763410835
 30
0.0
 10
7.8797471317
 20
9.8924466945
 30
0.0
 10
7.8801877492
 20
9.9075963189
 30
0.0
 10
7.8808172489
 20
9.9211858055
 30
0.0
 10
7.8815086358
 20
9.9312954957
 30
0.0
 10
7.8821635076
 20
9.9382226934
 30
0.0
 10
7.8826547755
 20
9.9424339915
 30
0.0
 10
7.8831712548
 20
9.9459195342
 30
0.0
 10
7.8836992688
 20
9.948659786
 30
0.0
 10
7.8842349864
 20
9.950612409
 30
0.0
 10
7.8846629168
 20
9.9516550443
 30
0.0
 10
7.8849265734
 20
9.9519906257
 30
0.0
  0
SPLINE
  5
4A9
100
AcDbEntity
  8
0
100
AcDbSpline
 62
9
  6
CONTINUOUS
 70
0
 71
3
 72
9
 73
5
 74
0
 42
0.0000001
 43
0.0000001
 44
0.0000000001
 40
0.0
 40
0.0
 40
0.0
 40
0.0
 40
0.5329472925
 40
1.0
 40
1.0
 40
1.0
 40
1.0
 10
7.8796682635
 20
9.839884823
 30
0.0
 10
7.8906360646
 20
9.839884823
 30
0.0
 10
7.9112159838
 20
9.8402310117
 30
0.0
 10
7.931776898
 20
9.8412926603
 30
0.0
 10
7.9413557764
 20
9.8420865674
 30
0.0
  0
SPLINE
  5
4AA
100
AcDbEntity
  8
0
100
AcDbSpline
 62
9
  6
CONTINUOUS
 70
0
 71
3
 72
14
 73
10
 74
0
 42
0.0000001
 43
0.0000001
 44
0.0000000001
 40
0.0
 40
0.0
 40
0.0
 40
0.0
 40
0.3866055798
 40
0.5487934916
 40
0.6880984403
 40
0.8031549266
 40
0.893355442
 40
0.9585944627
 40
1.0
 40
1.0
 40
1.0
 40
1.0
 10
7.9413557764
 20
9.8420865674
 30
0.0
 10
7.9451724759
 20
9.8424028993
 30
0.0
 10
7.9505860884
 20
9.8429212412
 30
0.0
 10
7.9573453426
 20
9.8438035432
 30
0.0
 10
7.9614215649
 20
9.8444569531
 30
0.0
 10
7.9647652929
 20
9.8451344715
 30
0.0
 10
7.9673643937
 20
9.8458263851
 30
0.0
 10
7.969176996
 20
9.8465115716
 30
0.0
 10
7.9701138713
 20
9.8470795168
 30
0.0
 10
7.9703672751
 20
9.8474020484
 30
0.0
  0
SPLINE
  5
4AB
100
AcDbEntity
  8
0
100
AcDbSpline
 62
9
  6
CONTINUOUS
 70
0
 71
3
 72
18
 73
14
 74
0
 42
0.0000001
 43
0.0000001
 44
0.0000000001
 40
0.0
 40
0.0
 40
0.0
 40
0.0
 40
0.1973707156
 40
0.3856028356
 40
0.5571497882
 40
0.7063212764
 40
0.8282305686
 40
0.9190593206
 40
0.9518527598
 40
0.9759222218
 40
0.9847508423
 40
0.9915420409
 40
1.0
 40
1.0
 40
1.0
 40
1.0
 10
7.8098387799
 20
9.839884823
 30
0.0
 10
7.8098706356
 20
9.8347413273
 30
0.0
 10
7.809998229
 20
9.82469278
 30
0.0
 10
7.8103770504
 20
9.8101775445
 30
0.0
 10
7.8109345048
 20
9.7969251915
 30
0.0
 10
7.811639091
 20
9.7854102982
 30
0.0
 10
7.8124742846
 20
9.7760150007
 30
0.0
 10
7.8132823305
 20
9.7696635474
 30
0.0
 10
7.8140392109
 20
9.765885606
 30
0.0
 10
7.8144896527
 20
9.7642354808
 30
0.0
 10
7.81489257
 20
9.7632712558
 30
0.0
 10
7.8151873148
 20
9.7627384761
 30
0.0
 10
7.8155244517
 20
9.7624104892
 30
0.0
 10
7.8157448477
 20
9.7624072893
 30
0.0
  0
SPLINE
  5
4AC
100
AcDbEntity
  8
0
100
AcDbSpline
 62
9
  6
CONTINUOUS
 70
0
 71
3
 72
14
 73
10
 74
0
 42
0.0000001
 43
0.0000001
 44
0.0000000001
 40
0.0
 40
0.0
 40
0.0
 40
0.0
 40
0.0419677479
 40
0.1085498449
 40
0.199958527
 40
0.3157581214
 40
0.455180343
 40
0.6167852223
 40
1.0
 40
1.0
 40
1.0
 40
1.0
 10
7.8150970898
 20
9.9519906257
 30
0.0
 10
7.8148334332
 20
9.9516550443
 30
0.0
 10
7.8144055029
 20
9.950612409
 30
0.0
 10
7.8138697851
 20
9.9486597861
 30
0.0
 10
7.8133417718
 20
9.945919534
 30
0.0
 10
7.8128252893
 20
9.9424339928
 30
0.0
 10
7.8123340374
 20
9.9382226872
 30
0.0
 10
7.81167906
 20
9.9312955387
 30
0.0
 10
7.8113015677
 20
9.9257670262
 30
0.0
 10
7.8110744554
 20
9.921876771
 30
0.0
  0
SPLINE
  5
4AD
100
AcDbEntity
  8
0
100
AcDbSpline
 62
9
  6
CONTINUOUS
 70
0
 71
3
 72
9
 73
5
 74
0
 42
0.0000001
 43
0.0000001
 44
0.0000000001
 40
0.0
 40
0.0
 40
0.0
 40
0.0
 40
0.4689562967
 40
1.0
 40
1.0
 40
1.0
 40
1.0
 10
7.8110744554
 20
9.921876771
 30
0.0
 10
7.810508772
 20
9.9121870582
 30
0.0
 10
7.8097959798
 20
9.8914965791
 30
0.0
 10
7.8096473257
 20
9.8707975096
 30
0.0
 10
7.8097153976
 20
9.8598064568
 30
0.0
  0
SPLINE
  5
4AE
100
AcDbEntity
  8
0
100
AcDbSpline
 62
9
  6
CONTINUOUS
 70
0
 71
3
 72
9
 73
5
 74
0
 42
0.0000001
 43
0.0000001
 44
0.0000000001
 40
0.0
 40
0.0
 40
0.0
 40
0.0
 40
0.257757369
 40
1.0
 40
1.0
 40
1.0
 40
1.0
 10
7.8097153976
 20
9.8598064568
 30
0.0
 10
7.8069655212
 20
9.8598064568
 30
0.0
 10
7.7962971788
 20
9.8598542223
 30
0.0
 10
7.7856290701
 20
9.860079932
 30
0.0
 10
7.7777161152
 20
9.8603786715
 30
0.0
  0
SPLINE
  5
4AF
100
AcDbEntity
  8
0
100
AcDbSpline
 62
9
  6
CONTINUOUS
 70
0
 71
3
 72
12
 73
8
 74
0
 42
0.0000001
 43
0.0000001
 44
0.0000000001
 40
0.0
 40
0.0
 40
0.0
 40
0.0
 40
0.3292223441
 40
0.6120781584
 40
0.8382308927
 40
0.9275832418
 40
1.0
 40
1.0
 40
1.0
 40
1.0
 10
7.7777161152
 20
9.8603786715
 30
0.0
 10
7.7730073808
 20
9.8605564414
 30
0.0
 10
7.7642556681
 20
9.8609750411
 30
0.0
 10
7.7522904798
 20
9.861866384
 30
0.0
 10
7.7437740115
 20
9.8628129919
 30
0.0
 10
7.7382934142
 20
9.8637076447
 30
0.0
 10
7.7360265226
 20
9.8641882487
 30
0.0
 10
7.7350228451
 20
9.8644469646
 30
0.0
  0
SPLINE
  5
4B0
100
AcDbEntity
  8
0
100
AcDbSpline
 62
9
  6
CONTINUOUS
 70
0
 71
3
 72
12
 73
8
 74
0
 42
0.0000001
 43
0.0000001
 44
0.0000000001
 40
0.0
 40
0.0
 40
0.0
 40
0.0
 40
0.3849315481
 40
0.6732215353
 40
0.7828494013
 40
0.8714204012
 40
1.0
 40
1.0
 40
1.0
 40
1.0
 10
7.7350228451
 20
9.8644469646
 30
0.0
 10
7.7343800895
 20
9.8646126463
 30
0.0
 10
7.733264111
 20
9.8649355699
 30
0.0
 10
7.7320049382
 20
9.8654342047
 30
0.0
 10
7.7312811087
 20
9.8658679244
 30
0.0
 10
7.7308464182
 20
9.8662185915
 30
0.0
 10
7.7306305972
 20
9.8665755913
 30
0.0
 10
7.730626762
 20
9.8667972774
 30
0.0
  0
SPLINE
  5
4B1
100
AcDbEntity
  8
0
100
AcDbSpline
 62
9
  6
CONTINUOUS
 70
0
 71
3
 72
9
 73
5
 74
0
 42
0.0000001
 43
0.0000001
 44
0.0000000001
 40
0.0
 40
0.0
 40
0.0
 40
0.0
 40
0.4401367119
 40
1.0
 40
1.0
 40
1.0
 40
1.0
 10
7.8500138343
 20
10.8032587237
 30
0.0
 10
7.850442371
 20
10.8027132835
 30
0.0
 10
7.8512670411
 20
10.8013593267
 30
0.0
 10
7.8519165355
 20
10.7999217436
 30
0.0
 10
7.852250689
 20
10.7991051295
 30
0.0
  0
SPLINE
  5
4B2
100
AcDbEntity
  8
0
100
AcDbSpline
 62
9
  6
CONTINUOUS
 70
0
 71
3
 72
9
 73
5
 74
0
 42
0.0000001
 43
0.0000001
 44
0.0000000001
 40
0.0
 40
0.0
 40
0.0
 40
0.0
 40
0.5598632881
 40
1.0
 40
1.0
 40
1.0
 40
1.0
 10
7.852250689
 20
10.0005861504
 30
0.0
 10
7.8519165355
 20
9.9997695363
 30
0.0
 10
7.8512670411
 20
9.9983319532
 30
0.0
 10
7.850442371
 20
9.9969779964
 30
0.0
 10
7.8500138343
 20
9.9964325562
 30
0.0
  0
SPLINE
  5
4B3
100
AcDbEntity
  8
0
100
AcDbSpline
 62
9
  6
CONTINUOUS
 70
0
 71
3
 72
16
 73
12
 74
0
 42
0.0000001
 43
0.0000001
 44
0.0000000001
 40
0.0
 40
0.0
 40
0.0
 40
0.0
 40
0.0274681468
 40
0.0510735886
 40
0.0822276849
 40
0.1211431595
 40
0.1678066597
 40
0.2834933896
 40
0.4272549298
 40
0.5967299562
 40
1.0
 40
1.0
 40
1.0
 40
1.0
 10
12.2274600372
 20
10.9528156362
 30
0.0
 10
12.2274524232
 20
10.9532557497
 30
0.0
 10
12.2266718961
 20
10.9538851177
 30
0.0
 10
12.2255268981
 20
10.9544104421
 30
0.0
 10
12.2240855388
 20
10.9549060921
 30
0.0
 10
12.2222814042
 20
10.9553748474
 30
0.0
 10
12.2191208303
 20
10.9560390937
 30
0.0
 10
12.2142715087
 20
10.9567839025
 30
0.0
 10
12.2074402149
 20
10.9575600511
 30
0.0
 10
12.1959977932
 20
10.9585236396
 30
0.0
 10
12.1868285195
 20
10.958990438
 30
0.0
 10
12.180370684
 20
10.9592342421
 30
0.0
  0
SPLINE
  5
4B4
100
AcDbEntity
  8
0
100
AcDbSpline
 62
9
  6
CONTINUOUS
 70
0
 71
3
 72
10
 73
6
 74
0
 42
0.0000001
 43
0.0000001
 44
0.0000000001
 40
0.0
 40
0.0
 40
0.0
 40
0.0
 40
0.4669046171
 40
0.7220701744
 40
1.0
 40
1.0
 40
1.0
 40
1.0
 10
10.9359595751
 20
3.577164946
 30
0.0
 10
10.9502335837
 20
3.5636593467
 30
0.0
 10
10.9708973988
 20
3.5410750835
 30
0.0
 10
10.9939407988
 20
3.5057700333
 30
0.0
 10
11.0037932722
 20
3.4854983478
 30
0.0
 10
11.0079964382
 20
3.4745823361
 30
0.0
  0
SPLINE
  5
4B5
100
AcDbEntity
  8
0
100
AcDbSpline
 62
9
  6
CONTINUOUS
 70
0
 71
3
 72
11
 73
7
 74
0
 42
0.0000001
 43
0.0000001
 44
0.0000000001
 40
0.0
 40
0.0
 40
0.0
 40
0.0
 40
0.2218103121
 40
0.4623322318
 40
0.7217082132
 40
1.0
 40
1.0
 40
1.0
 40
1.0
 10
11.0079964382
 20
3.4745823361
 30
0.0
 10
11.0100280373
 20
3.4693060849
 30
0.0
 10
11.0138219564
 20
3.458134281
 30
0.0
 10
11.0183362628
 20
3.4402785543
 30
0.0
 10
11.0214312399
 20
3.4206556925
 30
0.0
 10
11.0221706323
 20
3.4069392009
 30
0.0
 10
11.0221706323
 20
3.3998456399
 30
0.0
  0
SPLINE
  5
4B6
100
AcDbEntity
  8
0
100
AcDbSpline
 62
9
  6
CONTINUOUS
 70
0
 71
3
 72
9
 73
5
 74
0
 42
0.0000001
 43
0.0000001
 44
0.0000000001
 40
0.0
 40
0.0
 40
0.0
 40
0.0
 40
0.5310437033
 40
1.0
 40
1.0
 40
1.0
 40
1.0
 10
7.8097153976
 20
10.939884823
 30
0.0
 10
7.8096473257
 20
10.9288937703
 30
0.0
 10
7.8097959798
 20
10.9081947008
 30
0.0
 10
7.810508772
 20
10.8875042217
 30
0.0
 10
7.8110744554
 20
10.8778145088
 30
0.0
  0
SPLINE
  5
4B7
100
AcDbEntity
  8
0
100
AcDbSpline
 62
9
  6
CONTINUOUS
 70
0
 71
3
 72
14
 73
10
 74
0
 42
0.0000001
 43
0.0000001
 44
0.0000000001
 40
0.0
 40
0.0
 40
0.0
 40
0.0
 40
0.3832147777
 40
0.544819657
 40
0.6842418786
 40
0.800041473
 40
0.891450155
 40
0.9580322521
 40
1.0
 40
1.0
 40
1.0
 40
1.0
 10
7.8110744554
 20
10.8778145088
 30
0.0
 10
7.8113015677
 20
10.8739242536
 30
0.0
 10
7.81167906
 20
10.8683957411
 30
0.0
 10
7.8123340374
 20
10.8614685927
 30
0.0
 10
7.8128252893
 20
10.857257287
 30
0.0
 10
7.8133417718
 20
10.8537717459
 30
0.0
 10
7.8138697851
 20
10.8510314938
 30
0.0
 10
7.8144055029
 20
10.8490788709
 30
0.0
 10
7.8148334332
 20
10.8480362355
 30
0.0
 10
7.8150970898
 20
10.8477006542
 30
0.0
  0
SPLINE
  5
4B8
100
AcDbEntity
  8
0
100
AcDbSpline
 62
7
  6
CONTINUOUS
 70
0
 71
3
 72
11
 73
7
 74
0
 42
0.0000001
 43
0.0000001
 44
0.0000000001
 40
0.0
 40
0.0
 40
0.0
 40
0.0
 40
0.2500155934
 40
0.5000322579
 40
0.7500233985
 40
1.0
 40
1.0
 40
1.0
 40
1.0
 10
12.8007000714
 20
9.6183132102
 30
0.0
 10
12.8150226325
 20
9.6130335229
 30
0.0
 10
12.8439010956
 20
9.6030815552
 30
0.0
 10
12.8881235807
 20
9.5910155977
 30
0.0
 10
12.9332879992
 20
9.5830173649
 30
0.0
 10
12.9638427784
 20
9.581134737
 30
0.0
 10
12.9791050908
 20
9.581134737
 30
0.0
  0
SPLINE
  5
4B9
100
AcDbEntity
  8
0
100
AcDbSpline
 62
7
  6
CONTINUOUS
 70
0
 71
3
 72
12
 73
8
 74
0
 42
0.0000001
 43
0.0000001
 44
0.0000000001
 40
0.0
 40
0.0
 40
0.0
 40
0.0
 40
0.0757662823
 40
0.1686209189
 40
0.4007247668
 40
0.6826954693
 40
1.0
 40
1.0
 40
1.0
 40
1.0
 10
7.8756265758
 20
10.8095420004
 30
0.0
 10
7.8762944377
 20
10.8100413881
 30
0.0
 10
7.8778947842
 20
10.8109978935
 30
0.0
 10
7.881903216
 20
10.8128452003
 30
0.0
 10
7.8882436201
 20
10.8149924906
 30
0.0
 10
7.8970638905
 20
10.8174264709
 30
0.0
 10
7.9034784146
 20
10.8189695366
 30
0.0
 10
7.9068808138
 20
10.8197573611
 30
0.0
  0
SPLINE
  5
4BA
100
AcDbEntity
  8
0
100
AcDbSpline
 62
7
  6
CONTINUOUS
 70
0
 71
3
 72
12
 73
8
 74
0
 42
0.0000001
 43
0.0000001
 44
0.0000000001
 40
0.0
 40
0.0
 40
0.0
 40
0.0
 40
0.3111982053
 40
0.590108801
 40
0.8239185115
 40
0.9198062455
 40
1.0
 40
1.0
 40
1.0
 40
1.0
 10
7.9068808138
 20
9.9799339188
 30
0.0
 10
7.9036336565
 20
9.9806858145
 30
0.0
 10
7.8974871038
 20
9.9821626391
 30
0.0
 10
7.8889740092
 20
9.9844866378
 30
0.0
 10
7.8827742788
 20
9.9865319926
 30
0.0
 10
7.8787424479
 20
9.9882752085
 30
0.0
 10
7.877078868
 20
9.9891748313
 30
0.0
 10
7.8763580074
 20
9.9896418309
 30
0.0
  0
SPLINE
  5
4BB
100
AcDbEntity
  8
0
100
AcDbSpline
 62
7
  6
CONTINUOUS
 70
0
 71
3
 72
10
 73
6
 74
0
 42
0.0000001
 43
0.0000001
 44
0.0000000001
 40
0.0
 40
0.0
 40
0.0
 40
0.0
 40
0.3724381755
 40
0.7027289525
 40
1.0
 40
1.0
 40
1.0
 40
1.0
 10
7.9068770761
 20
10.8197621183
 30
0.0
 10
7.9112181874
 20
10.8207677917
 30
0.0
 10
7.9194305244
 20
10.8225757024
 30
0.0
 10
7.9309914862
 20
10.8256752658
 30
0.0
 10
7.9381555014
 20
10.8279295554
 30
0.0
 10
7.9415315858
 20
10.829048661
 30
0.0
  0
SPLINE
  5
4BC
100
AcDbEntity
  8
0
100
AcDbSpline
 62
9
  6
CONTINUOUS
 70
0
 71
3
 72
41
 73
37
 74
0
 42
0.0000001
 43
0.0000001
 44
0.0000000001
 40
0.0
 40
0.0
 40
0.0
 40
0.0
 40
0.0490068679
 40
0.0751481524
 40
0.1024665292
 40
0.1606429403
 40
0.2233427591
 40
0.2562107806
 40
0.2899535857
 40
0.3244507721
 40
0.3595441812
 40
0.3950538071
 40
0.4128824851
 40
0.4306938419
 40
0.4484171772
 40
0.4659369126
 40
0.4746321838
 40
0.4832266721
 40
0.5000004208
 40
0.5167741191
 40
0.5253685639
 40
0.5340637985
 40
0.5515835166
 40
0.5693068392
 40
0.5871180772
 40
0.6049466421
 40
0.6404564291
 40
0.6755498933
 40
0.7100469332
 40
0.7437895668
 40
0.7766575468
 40
0.8393577827
 40
0.8975345734
 40
0.9248532136
 40
0.9509946099
 40
1.0
 40
1.0
 40
1.0
 40
1.0
 10
6.7674847193
 20
10.0598458441
 30
0.0
 10
6.7469771082
 20
10.0598465854
 30
0.0
 10
6.7154702347
 20
10.0637468003
 30
0.0
 10
6.6739759469
 20
10.0746122672
 30
0.0
 10
6.6297983408
 20
10.0899499447
 30
0.0
 10
6.573462374
 20
10.1162382755
 30
0.0
 10
6.5180625101
 20
10.1491015971
 30
0.0
 10
6.4731832987
 20
10.1793503238
 30
0.0
 10
6.4389811285
 20
10.2042727484
 30
0.0
 10
6.4049242975
 20
10.2309333799
 30
0.0
 10
6.3713695532
 20
10.2593812796
 30
0.0
 10
6.3442053832
 20
10.2845420393
 30
0.0
 10
6.3234169666
 20
10.3058674157
 30
0.0
 10
6.3085662148
 20
10.3225555139
 30
0.0
 10
6.2947603078
 20
10.3399664057
 30
0.0
 10
6.2849112837
 20
10.3555661881
 30
0.0
 10
6.2786739169
 20
10.3687546241
 30
0.0
 10
6.2738510109
 20
10.3821782044
 30
0.0
 10
6.2708526236
 20
10.3998461901
 30
0.0
 10
6.2738510393
 20
10.4175141615
 30
0.0
 10
6.2786740438
 20
10.4309376511
 30
0.0
 10
6.2849115764
 20
10.444125967
 30
0.0
 10
6.2947609426
 20
10.4597255044
 30
0.0
 10
6.3085670566
 20
10.4771361361
 30
0.0
 10
6.3234175674
 20
10.4938243034
 30
0.0
 10
6.3442057062
 20
10.5151499184
 30
0.0
 10
6.3713702873
 20
10.5403103119
 30
0.0
 10
6.4049250187
 20
10.5687582519
 30
0.0
 10
6.4389816186
 20
10.5954190046
 30
0.0
 10
6.4731836746
 20
10.6203413346
 30
0.0
 10
6.5180630453
 20
10.6505899779
 30
0.0
 10
6.5734631821
 20
10.6834534474
 30
0.0
 10
6.6297995842
 20
10.7097419257
 30
0.0
 10
6.6739775886
 20
10.7250794338
 30
0.0
 10
6.7154714761
 20
10.735944566
 30
0.0
 10
6.7469777599
 20
10.7398448456
 30
0.0
 10
6.7674847526
 20
10.7398455123
 30
0.0
  0
SPLINE
  5
4BD
100
AcDbEntity
  8
0
100
AcDbSpline
 62
9
  6
CONTINUOUS
 70
0
 71
3
 72
48
 73
44
 74
0
 42
0.0000001
 43
0.0000001
 44
0.0000000001
 40
0.0
 40
0.0
 40
0.0
 40
0.0
 40
0.0216475991
 40
0.0444313661
 40
0.0685183594
 40
0.0940634847
 40
0.1211369671
 40
0.1497385869
 40
0.1798249909
 40
0.2113207079
 40
0.2441283598
 40
0.2781359675
 40
0.3132169385
 40
0.3492302409
 40
0.3675443517
 40
0.3860516228
 40
0.4047345914
 40
0.4235625654
 40
0.4425297975
 40
0.4616077311
 40
0.4807893397
 40
0.4904154773
 40
0.5000676524
 40
0.5097193097
 40
0.5193443356
 40
0.5289477552
 40
0.5385329114
 40
0.55760304
 40
0.5765579817
 40
0.5953888871
 40
0.6140616852
 40
0.6508732022
 40
0.6868862683
 40
0.7219627364
 40
0.755966502
 40
0.7887709281
 40
0.8202633102
 40
0.8503466499
 40
0.878945838
 40
0.9060186785
 40
0.9315652464
 40
0.9556583821
 40
1.0
 40
1.0
 40
1.0
 40
1.0
 10
6.6947014213
 20
10.7910241407
 30
0.0
 10
6.6857997818
 20
10.7909687154
 30
0.0
 10
6.667518823
 20
10.7895447442
 30
0.0
 10
6.6398767851
 20
10.7837415427
 30
0.0
 10
6.6116075894
 20
10.7741916955
 30
0.0
 10
6.5828112096
 20
10.7612239737
 30
0.0
 10
6.5535133123
 20
10.7451277771
 30
0.0
 10
6.5237974895
 20
10.726094041
 30
0.0
 10
6.4937540645
 20
10.7043234324
 30
0.0
 10
6.4634676775
 20
10.6800264203
 30
0.0
 10
6.4330436746
 20
10.6533878847
 30
0.0
 10
6.4026092113
 20
10.6245728692
 30
0.0
 10
6.372356629
 20
10.5936934163
 30
0.0
 10
6.3476760599
 20
10.566425187
 30
0.0
 10
6.3283859511
 20
10.5435097241
 30
0.0
 10
6.3141722923
 20
10.5256475022
 30
0.0
 10
6.3004404431
 20
10.5071438304
 30
0.0
 10
6.2875310576
 20
10.4878251644
 30
0.0
 10
6.2757220014
 20
10.4676124743
 30
0.0
 10
6.2657562931
 20
10.4462499209
 30
0.0
 10
6.2598335905
 20
10.4273642368
 30
0.0
 10
6.2573606877
 20
10.4117154216
 30
0.0
 10
6.2567539792
 20
10.3998127683
 30
0.0
 10
6.2573654278
 20
10.3879110682
 30
0.0
 10
6.2592292657
 20
10.3761602559
 30
0.0
 10
6.2622346651
 20
10.364682534
 30
0.0
 10
6.2674404359
 20
10.3498219218
 30
0.0
 10
6.2757575888
 20
10.3320474125
 30
0.0
 10
6.2875258847
 20
10.3118233665
 30
0.0
 10
6.3004951256
 20
10.2925525242
 30
0.0
 10
6.3186648615
 20
10.2679731211
 30
0.0
 10
6.3425851534
 20
10.238899704
 30
0.0
 10
6.3723619505
 20
10.2059895976
 30
0.0
 10
6.4026142582
 20
10.1751131691
 30
0.0
 10
6.4330442044
 20
10.1463007281
 30
0.0
 10
6.4634666754
 20
10.1196668322
 30
0.0
 10
6.4937492813
 20
10.0953714574
 30
0.0
 10
6.523788984
 20
10.0736021626
 30
0.0
 10
6.5535049786
 20
10.0545718945
 30
0.0
 10
6.5827963026
 20
10.0384718158
 30
0.0
 10
6.6115993946
 20
10.0254874261
 30
0.0
 10
6.6482535149
 20
10.0131257478
 30
0.0
 10
6.676468324
 20
10.0088411082
 30
0.0
 10
6.6947014213
 20
10.0086671392
 30
0.0
  0
SPLINE
  5
4BE
100
AcDbEntity
  8
0
100
AcDbSpline
 62
9
  6
CONTINUOUS
 70
0
 71
3
 72
11
 73
7
 74
0
 42
0.0000001
 43
0.0000001
 44
0.0000000001
 40
0.0
 40
0.0
 40
0.0
 40
0.0
 40
0.2652358388
 40
0.5141830538
 40
0.7562569827
 40
1.0
 40
1.0
 40
1.0
 40
1.0
 10
6.8077930511
 20
10.0581233063
 30
0.0
 10
6.7999835445
 20
10.0500858031
 30
0.0
 10
6.7834677809
 20
10.0357402161
 30
0.0
 10
6.7554507371
 20
10.0199114083
 30
0.0
 10
6.7255940357
 20
10.0106139525
 30
0.0
 10
6.7049999986
 20
10.0086697743
 30
0.0
 10
6.6947014213
 20
10.0086671392
 30
0.0
  0
SPLINE
  5
4BF
100
AcDbEntity
  8
0
100
AcDbSpline
 62
9
  6
CONTINUOUS
 70
0
 71
3
 72
11
 73
7
 74
0
 42
0.0000001
 43
0.0000001
 44
0.0000000001
 40
0.0
 40
0.0
 40
0.0
 40
0.0
 40
0.2437667584
 40
0.485829359
 40
0.7347739138
 40
1.0
 40
1.0
 40
1.0
 40
1.0
 10
6.6947014213
 20
10.7910241407
 30
0.0
 10
6.7049980913
 20
10.7910179772
 30
0.0
 10
6.7255860397
 20
10.7890740647
 30
0.0
 10
6.7554368454
 20
10.7797858395
 30
0.0
 10
6.7834468074
 20
10.7639646197
 30
0.0
 10
6.7999595208
 20
10.7496260794
 30
0.0
 10
6.8077682885
 20
10.7415928461
 30
0.0
  0
ENDSEC
  0
SECTION
  2
OBJECTS
  0
DICTIONARY
  5
C
100
AcDbDictionary
280
0
281
1
  3
ACAD_GROUP
350
D
  3
ACAD_MLINESTYLE
350
17
  3
ACAD_LAYOUT
350
1A
  3
ACAD_PLOTSETTINGS
350
19
  3
ACAD_PLOTSTYLENAME
350
E
  0
DICTIONARY
  5
D
102
{ACAD_REACTORS
330
C
102
}
100
AcDbDictionary
280
0
281
1
  0
ACDBDICTIONARYWDFLT
  5
E
102
{ACAD_REACTORS
330
C
102
}
100
AcDbDictionary
281
1
  3
Normal
350
F
100
AcDbDictionaryWithDefault
340
F
  0
DICTIONARY
  5
17
102
{ACAD_REACTORS
330
C
102
}
100
AcDbDictionary
280
0
281
1
  3
Standard
350
18
  0
DICTIONARY
  5
19
102
{ACAD_REACTORS
330
C
102
}
100
AcDbDictionary
281
1
  0
DICTIONARY
  5
1A
102
{ACAD_REACTORS
330
C
102
}
100
AcDbDictionary
281
1
  3
Model
350
4C0
  3
Layout1
350
4C1
  0
ACDBPLACEHOLDER
  5
F
102
{ACAD_REACTORS
330
E
102
}
  0
MLINESTYLE
  5
18
102
{ACAD_REACTORS
330
17
102
}
100
AcDbMlineStyle
  2
STANDARD
 70
0
  3

 62
256
 51
90.0
 52
90.0
 71
2
 49
0.5
 62
256
  6
BYLAYER
 49
-0.5
 62
256
  6
BYLAYER
  0
LAYOUT
  5
4C0
102
{ACAD_REACTORS
330
1A
102
}
100
AcDbPlotSettings
  1

  2
none_device
  4
ANSI_C_(22.00_x_17.00_Inches)
  6

 40
0.0
 41
0.0
 42
0.0
 43
0.0
 44
558.8
 45
431.8
 46
0.0
 47
0.0
 48
0.0
 49
0.0
140
0.0
141
0.0
142
1.0
143
1.0
 70
1024
 72
0
 73
0
 74
0
  7

 75
0
147
1.0
148
0.0
149
0.0
100
AcDbLayout
  1
Model
 70
0
 71
0
 10
0.0
 20
0.0
 11
22.0
 21
17.0
 12
0.0
 22
0.0
 32
0.0
 14
0.0
 24
0.0
 34
0.0
 15
0.0
 25
0.0
 35
0.0
146
0.0
 13
0.0
 23
0.0
 33
0.0
 16
1.0
 26
0.0
 36
0.0
 17
0.0
 27
1.0
 37
0.0
 76
0
330
202
345
0
346
0
  0
LAYOUT
  5
4C1
102
{ACAD_REACTORS
330
1A
102
}
100
AcDbPlotSettings
  1

  2
none_device
  4
ANSI_C_(22.00_x_17.00_Inches)
  6

 40
0.0
 41
0.0
 42
0.0
 43
0.0
 44
558.8
 45
431.8
 46
0.0
 47
0.0
 48
0.0
 49
0.0
140
0.0
141
0.0
142
1.0
143
1.0
 70
0
 72
0
 73
0
 74
0
  7

 75
0
147
1.0
148
0.0
149
0.0
100
AcDbLayout
  1
Layout1
 70
0
 71
1
 10
0.0
 20
0.0
 11
22.0
 21
17.0
 12
0.0
 22
0.0
 32
0.0
 14
0.0
 24
0.0
 34
0.0
 15
0.0
 25
0.0
 35
0.0
146
0.0
 13
0.0
 23
0.0
 33
0.0
 16
1.0
 26
0.0
 36
0.0
 17
0.0
 27
1.0
 37
0.0
 76
0
330
203
345
0
346
0
  0
ENDSEC
  0
EOF
