999
DXF file: E:\BT Custom\CADOUTPUT\_RIGHT.dxf
999
Pro/ENGINEER 2018400 by Parametric Technology Corporation
  0
SECTION
  2
HEADER
  9
$ACADVER
  1
AC1018
  9
$DWGCODEPAGE
  3
ANSI_1252
  9
$EXTMAX
 10
22.0
 20
17.0
 30
0.0
  9
$EXTMIN
 10
0.0
 20
0.0
 30
0.0
  9
$LIMMIN
 10
0.0
 20
0.0
  9
$LIMMAX
 10
22.0
 20
17.0
  9
$VIEWCTR
 10
11.0
 20
8.5
  9
$VIEWSIZE
 40
17.0
  9
$CLAYER
  8
0
  9
$LTSCALE
 40
1.21
  9
$CELTYPE
  6
BYLAYER
  9
$DIMSCALE
 40
1.0
  9
$DIMASZ
 40
0.1
  9
$DIMEXO
 40
0.0625
  9
$DIMDLI
 40
0.836
  9
$DIMEXE
 40
0.125
  9
$DIMCEN
 40
0.198
  9
$DIMLFAC
 40
1.0
  9
$DIMBLK
  1
_FILLED
  9
$DIMALT
 70
1
  9
$DIMALTD
 70
2
  9
$DIMALTTD
 70
2
  9
$DIMALTF
 40
25.4
  9
$DIMTXT
 40
0.08
  9
$DIMTOL
 70
1
  9
$DIMLIM
 70
0
  9
$DIMTFAC
 40
1.0
  9
$DIMTP
 40
0.001
  9
$DIMTM
 40
0.001
  9
$DIMGAP
 40
0.09
  9
$DIMDSEP
 70
46
  9
$AUNITS
 70
0
  9
$PDMODE
 70
3
  9
$PDSIZE
 40
0.06
  9
$HANDSEED
  5
2B6
  9
$TILEMODE
 70
1
  9
$MEASUREMENT
 70
0
  9
$INSUNITS
 70
1
  0
ENDSEC
  0
SECTION
  2
CLASSES
  0
CLASS
  1
ACDBDICTIONARYWDFLT
  2
AcDbDictionaryWithDefault
  3
AutoCAD 2000
 90
0
 91
1
280
0
281
0
  0
CLASS
  1
ACDBPLACEHOLDER
  2
AcDbPlaceHolder
  3
AutoCAD 2000
 90
0
 91
1
280
0
281
0
  0
CLASS
  1
LAYOUT
  2
AcDbLayout
  3
AutoCAD 2000
 90
0
 91
0
280
0
281
0
  0
ENDSEC
  0
SECTION
  2
TABLES
  0
TABLE
  2
VPORT
  5
8
100
AcDbSymbolTable
 70
2
  0
VPORT
  5
1F4
100
AcDbSymbolTableRecord
100
AcDbViewportTableRecord
  2
*ACTIVE
 70
0
 10
0.0
 20
0.0
 11
1.0
 21
1.0
 12
11.0
 22
8.5
 13
0.0
 23
0.0
 14
1.0
 24
1.0
 15
0.0
 25
0.0
 16
0.0
 26
0.0
 36
1.0
 17
0.0
 27
0.0
 37
0.0
 40
17.0
 41
1.2941176471
 42
50.0
 43
0.0
 44
0.0
 50
0.0
 51
0.0
 71
0
 72
100
 73
1
 74
1
 75
0
 76
0
 77
0
 78
0
  0
ENDTAB
  0
TABLE
  2
LTYPE
  5
5
100
AcDbSymbolTable
 70
6
  0
LTYPE
  5
14
100
AcDbSymbolTableRecord
100
AcDbLinetypeTableRecord
  2
BYBLOCK
 70
0
  3

 72
65
 73
0
 40
0.0
  0
LTYPE
  5
15
100
AcDbSymbolTableRecord
100
AcDbLinetypeTableRecord
  2
BYLAYER
 70
0
  3

 72
65
 73
0
 40
0.0
  0
LTYPE
  5
16
100
AcDbSymbolTableRecord
100
AcDbLinetypeTableRecord
  2
CONTINUOUS
 70
64
  3
Solid line
 72
65
 73
0
 40
0.0
  0
LTYPE
  5
1F5
100
AcDbSymbolTableRecord
100
AcDbLinetypeTableRecord
  2
CENTER
 70
64
  3
____ _ ____ _ ____ _ ____ _ ____ _ ____ _ ____
 72
65
 73
4
 40
0.6
 49
0.375
 74
0
 49
-0.075
 74
0
 49
0.075
 74
0
 49
-0.075
 74
0
  0
LTYPE
  5
1F6
100
AcDbSymbolTableRecord
100
AcDbLinetypeTableRecord
  2
HIDDEN
 70
64
  3
- - - - - - - - - - - - - - - - - - - -
 72
65
 73
2
 40
0.2
 49
0.1
 74
0
 49
-0.1
 74
0
  0
LTYPE
  5
1F7
100
AcDbSymbolTableRecord
100
AcDbLinetypeTableRecord
  2
PHANTOM
 70
64
  3
_____ _ _ _____ _ _ _____ _ _ _____
 72
65
 73
6
 40
0.8
 49
0.45
 74
0
 49
-0.05
 74
0
 49
0.1
 74
0
 49
-0.05
 74
0
 49
0.1
 74
0
 49
-0.05
 74
0
  0
LTYPE
  5
1F8
100
AcDbSymbolTableRecord
100
AcDbLinetypeTableRecord
  2
DOT
 70
64
  3
. . . . . . . . . . . . . . . . . . . .
 72
65
 73
2
 40
0.2
 49
0.1
 74
0
 49
-0.1
 74
0
  0
LTYPE
  5
1F9
100
AcDbSymbolTableRecord
100
AcDbLinetypeTableRecord
  2
DASHED
 70
64
  3
- - - - - - - - - - - - - - - - - - - -
 72
65
 73
2
 40
0.2
 49
0.1
 74
0
 49
-0.1
 74
0
  0
ENDTAB
  0
TABLE
  2
LAYER
  5
2
100
AcDbSymbolTable
 70
36
  0
LAYER
  5
10
100
AcDbSymbolTableRecord
100
AcDbLayerTableRecord
  2
0
 70
0
 62
7
  6
CONTINUOUS
370
-3
390
F
  0
LAYER
  5
1FA
100
AcDbSymbolTableRecord
100
AcDbLayerTableRecord
  2
DEFAULT_1
 70
0
 62
7
  6
CENTER
370
-3
390
F
  0
LAYER
  5
1FB
100
AcDbSymbolTableRecord
100
AcDbLayerTableRecord
  2
DEFAULT_2
 70
0
 62
8
  6
HIDDEN
370
-3
390
F
  0
LAYER
  5
1FC
100
AcDbSymbolTableRecord
100
AcDbLayerTableRecord
  2
DEFAULT_3
 70
0
 62
7
  6
PHANTOM
370
-3
390
F
  0
LAYER
  5
1FD
100
AcDbSymbolTableRecord
100
AcDbLayerTableRecord
  2
ALL_FEATURES
 70
0
 62
7
  6
CONTINUOUS
370
-3
390
F
  0
LAYER
  5
1FE
100
AcDbSymbolTableRecord
100
AcDbLayerTableRecord
  2
AXES_FEATURES
 70
0
 62
7
  6
CONTINUOUS
370
-3
390
F
  0
LAYER
  5
1FF
100
AcDbSymbolTableRecord
100
AcDbLayerTableRecord
  2
DIMENSIONS
 70
0
 62
7
  6
CONTINUOUS
370
-3
390
F
  0
ENDTAB
  0
TABLE
  2
STYLE
  5
3
100
AcDbSymbolTable
 70
1
  0
STYLE
  5
11
100
AcDbSymbolTableRecord
100
AcDbTextStyleTableRecord
  2
STANDARD
 70
0
 40
0.0
 41
0.8
 50
0.0
 71
0
 42
0.2
  3
txt
  4

  0
STYLE
  5
200
100
AcDbSymbolTableRecord
100
AcDbTextStyleTableRecord
  2
TEXTSTYLE_1
 70
0
 40
0.0
 41
0.8
 50
0.0
 71
0
 42
0.2
  3
gdt
  4

  0
ENDTAB
  0
TABLE
  2
VIEW
  5
6
100
AcDbSymbolTable
 70
0
  0
ENDTAB
  0
TABLE
  2
UCS
  5
7
100
AcDbSymbolTable
 70
0
  0
ENDTAB
  0
TABLE
  2
APPID
  5
9
100
AcDbSymbolTable
 70
1
  0
APPID
  5
201
100
AcDbSymbolTableRecord
100
AcDbRegAppTableRecord
  2
ACAD
 70
0
  0
ENDTAB
  0
TABLE
  2
BLOCK_RECORD
  5
1
100
AcDbSymbolTable
 70
0
  0
BLOCK_RECORD
  5
202
100
AcDbSymbolTableRecord
100
AcDbBlockTableRecord
  2
*Model_Space
  0
BLOCK_RECORD
  5
203
100
AcDbSymbolTableRecord
100
AcDbBlockTableRecord
  2
*Paper_Space
  0
BLOCK_RECORD
  5
204
100
AcDbSymbolTableRecord
100
AcDbBlockTableRecord
  2
_FILLED
  0
ENDTAB
  0
TABLE
  2
DIMSTYLE
  5
A
100
AcDbSymbolTable
 70
1
100
AcDbDimStyleTable
 71
0
  0
DIMSTYLE
105
205
100
AcDbSymbolTableRecord
100
AcDbDimStyleTableRecord
  2
STANDARD
 70
0
  3

  4

 40
1.0
 41
0.1
 42
0.0625
 43
0.38
 44
0.125
 45
0.0
 46
0.0
 47
0.001
 48
0.001
140
0.08
141
0.09
142
0.0
143
25.4
144
1.0
145
0.0
146
1.0
147
0.09
 71
1.0
 72
0.0
 73
1
 74
1
 75
0
 76
0
 77
0
 78
4
 79
1
170
1
171
2
172
0
173
0
174
0
175
0
176
0
177
0
178
0
270
2
179
3
271
3
272
3
273
2
274
2
275
0
280
0
281
0
282
0
283
1
284
4
285
0
286
0
287
3
288
0
340
11
278
46
341
204
342
204
343
204
344
204
  0
ENDTAB
  0
ENDSEC
  0
SECTION
  2
BLOCKS
  0
BLOCK
  5
20
100
AcDbEntity
  8
0
100
AcDbBlockBegin
  2
*Model_Space
 70
0
 10
0.0
 20
0.0
 30
0.0
  3
*Model_Space
  1

  0
ENDBLK
  5
21
100
AcDbEntity
  8
0
100
AcDbBlockEnd
  0
BLOCK
  5
1C
100
AcDbEntity
  8
0
100
AcDbBlockBegin
  2
*Paper_Space
 70
0
 10
0.0
 20
0.0
 30
0.0
  3
*Paper_Space
  1

  0
ENDBLK
  5
1D
100
AcDbEntity
  8
0
100
AcDbBlockEnd
  0
BLOCK
  5
206
100
AcDbEntity
  8
0
100
AcDbBlockBegin
  2
_FILLED
 70
64
 10
0.0
 20
0.0
  3
_FILLED
  1

  0
SOLID
  5
207
100
AcDbEntity
  8
0
  6
BYBLOCK
 62
0
100
AcDbTrace
 10
0.0
 20
0.0
 11
-1.0
 21
0.2
 12
-1.0
 22
-0.2
 13
-1.0
 23
-0.2
  0
ENDBLK
  5
208
100
AcDbEntity
  8
0
  6
BYBLOCK
 62
0
100
AcDbBlockEnd
  0
ENDSEC
  0
SECTION
  2
ENTITIES
  0
LINE
  5
209
100
AcDbEntity
  8
0
100
AcDbLine
 62
7
  6
CONTINUOUS
 10
7.6410568344
 20
8.996266804
 11
7.6410568344
 21
8.811266804
  0
LINE
  5
20A
100
AcDbEntity
  8
0
100
AcDbLine
 62
7
  6
CONTINUOUS
 10
7.6635568344
 20
9.005266804
 11
7.6635568344
 21
8.996266804
  0
LINE
  5
20B
100
AcDbEntity
  8
0
100
AcDbLine
 62
7
  6
CONTINUOUS
 10
7.6268022367
 20
9.6062894192
 11
7.6339639498
 21
9.6168137784
  0
LINE
  5
20C
100
AcDbEntity
  8
0
100
AcDbLine
 62
7
  6
CONTINUOUS
 10
7.7154627127
 20
9.72715538
 11
7.6268022368
 21
9.6062894191
  0
LWPOLYLINE
  5
20D
100
AcDbEntity
  8
0
100
AcDbPolyline
 62
7
  6
CONTINUOUS
 90
3
 70
0
 10
8.0457205692
 20
10.0465848587
 10
7.8672327358
 20
9.8949101649
 10
7.7154627127
 20
9.72715538
  0
LINE
  5
20E
100
AcDbEntity
  8
0
100
AcDbLine
 62
7
  6
CONTINUOUS
 10
8.1440174249
 20
10.1141498641
 11
8.0457205749
 21
10.0465848627
  0
LINE
  5
20F
100
AcDbEntity
  8
0
100
AcDbLine
 62
7
  6
CONTINUOUS
 10
7.5825568344
 20
9.005266804
 11
7.5775568344
 21
9.010266804
  0
LINE
  5
210
100
AcDbEntity
  8
0
100
AcDbLine
 62
7
  6
CONTINUOUS
 10
8.5435568344
 20
9.005266804
 11
8.5435568344
 21
8.996266804
  0
LINE
  5
211
100
AcDbEntity
  8
0
100
AcDbLine
 62
7
  6
CONTINUOUS
 10
8.5660568344
 20
8.996266804
 11
8.5660568344
 21
8.811266804
  0
LINE
  5
212
100
AcDbEntity
  8
0
100
AcDbLine
 62
7
  6
CONTINUOUS
 10
8.7485029374
 20
9.3002625864
 11
8.7485406332
 21
9.3003033815
  0
LWPOLYLINE
  5
213
100
AcDbEntity
  8
0
100
AcDbPolyline
 62
7
  6
CONTINUOUS
 90
5
 70
0
 10
8.7485406332
 20
9.3003033815
 10
8.7798505901
 20
9.3325726004
 10
8.8170448593
 20
9.3674478948
 10
8.8585868263
 20
9.4026730389
 10
8.9034226939
 20
9.4366885825
  0
LINE
  5
214
100
AcDbEntity
  8
0
100
AcDbLine
 62
7
  6
CONTINUOUS
 10
8.6245568344
 20
9.005266804
 11
8.6295568344
 21
9.010266804
  0
LINE
  5
215
100
AcDbEntity
  8
0
100
AcDbLine
 62
7
  6
CONTINUOUS
 10
11.6785568344
 20
7.405266804
 11
14.0285568344
 21
7.405266804
  0
LINE
  5
216
100
AcDbEntity
  8
0
100
AcDbLine
 62
9
  6
CONTINUOUS
 10
14.0235568344
 20
7.419266804
 11
11.6835568344
 21
7.419266804
  0
LINE
  5
217
100
AcDbEntity
  8
0
100
AcDbLine
 62
9
  6
CONTINUOUS
 10
11.749185124
 20
7.529266804
 11
13.9579285448
 21
7.529266804
  0
LINE
  5
218
100
AcDbEntity
  8
0
100
AcDbLine
 62
9
  6
CONTINUOUS
 10
11.7816344648
 20
7.580266804
 11
13.9254792041
 21
7.580266804
  0
LINE
  5
219
100
AcDbEntity
  8
0
100
AcDbLine
 62
9
  6
CONTINUOUS
 10
11.8128109068
 20
7.638266804
 11
13.894302762
 21
7.638266804
  0
LINE
  5
21A
100
AcDbEntity
  8
0
100
AcDbLine
 62
9
  6
CONTINUOUS
 10
11.8370863281
 20
7.679266804
 11
13.8700273407
 21
7.679266804
  0
LINE
  5
21B
100
AcDbEntity
  8
0
100
AcDbLine
 62
7
  6
CONTINUOUS
 10
13.9431568344
 20
7.685266804
 11
13.8684857323
 21
7.685266804
  0
LINE
  5
21C
100
AcDbEntity
  8
0
100
AcDbLine
 62
7
  6
CONTINUOUS
 10
11.8386279365
 20
7.685266804
 11
11.7639568344
 21
7.685266804
  0
LINE
  5
21D
100
AcDbEntity
  8
0
100
AcDbLine
 62
9
  6
CONTINUOUS
 10
11.8742132773
 20
7.735266804
 11
13.8329003915
 21
7.735266804
  0
LINE
  5
21E
100
AcDbEntity
  8
0
100
AcDbLine
 62
9
  6
CONTINUOUS
 10
11.9016086808
 20
7.770266804
 11
13.805504988
 21
7.770266804
  0
LINE
  5
21F
100
AcDbEntity
  8
0
100
AcDbLine
 62
9
  6
CONTINUOUS
 10
11.9117330642
 20
7.785266804
 11
13.7953806046
 21
7.785266804
  0
LINE
  5
220
100
AcDbEntity
  8
0
100
AcDbLine
 62
9
  6
CONTINUOUS
 10
13.6690273969
 20
8.074266804
 11
12.0380862719
 21
8.074266804
  0
LINE
  5
221
100
AcDbEntity
  8
0
100
AcDbLine
 62
9
  6
CONTINUOUS
 10
13.6690007703
 20
8.0935967749
 11
13.7152487614
 21
8.0935967749
  0
LINE
  5
222
100
AcDbEntity
  8
0
100
AcDbLine
 62
9
  6
CONTINUOUS
 10
12.0658092709
 20
8.479266804
 11
13.6413043979
 21
8.479266804
  0
LINE
  5
223
100
AcDbEntity
  8
0
100
AcDbLine
 62
7
  6
CONTINUOUS
 10
8.5217252193
 20
8.641266804
 11
7.6853884495
 21
8.641266804
  0
LINE
  5
224
100
AcDbEntity
  8
0
100
AcDbLine
 62
9
  6
CONTINUOUS
 10
8.5308449215
 20
8.6471642399
 11
7.6762687474
 21
8.6471642399
  0
LINE
  5
225
100
AcDbEntity
  8
0
100
AcDbLine
 62
9
  6
CONTINUOUS
 10
7.6410568344
 20
8.811266804
 11
8.5660568344
 21
8.811266804
  0
LINE
  5
226
100
AcDbEntity
  8
0
100
AcDbLine
 62
7
  6
CONTINUOUS
 10
8.5660528066
 20
8.996266804
 11
7.6410608622
 21
8.996266804
  0
LINE
  5
227
100
AcDbEntity
  8
0
100
AcDbLine
 62
7
  6
CONTINUOUS
 10
7.5825568344
 20
9.005266804
 11
8.6245568344
 21
9.005266804
  0
LINE
  5
228
100
AcDbEntity
  8
0
100
AcDbLine
 62
7
  6
CONTINUOUS
 10
7.4645568344
 20
9.010266804
 11
8.7425568344
 21
9.010266804
  0
LINE
  5
229
100
AcDbEntity
  8
0
100
AcDbLine
 62
9
  6
CONTINUOUS
 10
12.3290617339
 20
9.017761284
 11
13.3780519349
 21
9.017761284
  0
LINE
  5
22A
100
AcDbEntity
  8
0
100
AcDbLine
 62
7
  6
CONTINUOUS
 10
12.1939210357
 20
8.9052696164
 11
12.2445999854
 21
8.905266804
  0
LINE
  5
22B
100
AcDbEntity
  8
0
100
AcDbLine
 62
7
  6
CONTINUOUS
 10
10.3761246818
 20
9.214215394
 11
10.376182369
 21
9.2141775555
  0
LWPOLYLINE
  5
22C
100
AcDbEntity
  8
0
100
AcDbPolyline
 62
7
  6
CONTINUOUS
 90
5
 70
0
 10
10.3761823885
 20
9.2141775428
 10
10.5821499328
 20
9.0715519422
 10
10.8060080378
 20
8.8955271196
 10
11.0334913156
 20
8.6839940708
 10
11.2740475067
 20
8.4246977225
  0
LINE
  5
22D
100
AcDbEntity
  8
0
100
AcDbLine
 62
7
  6
CONTINUOUS
 10
12.6735568344
 20
10.604516804
 11
12.6835568344
 21
10.614516804
  0
LINE
  5
22E
100
AcDbEntity
  8
0
100
AcDbLine
 62
9
  6
CONTINUOUS
 10
12.4188912908
 20
9.2081618142
 11
13.288222378
 21
9.2081618142
  0
LINE
  5
22F
100
AcDbEntity
  8
0
100
AcDbLine
 62
7
  6
CONTINUOUS
 10
12.1939210357
 20
8.9052696164
 11
12.1660583736
 21
8.9080603737
  0
LINE
  5
230
100
AcDbEntity
  8
0
100
AcDbLine
 62
7
  6
CONTINUOUS
 10
12.1948455456
 20
8.9052667638
 11
12.1825418398
 21
8.906611569
  0
LWPOLYLINE
  5
231
100
AcDbEntity
  8
0
100
AcDbPolyline
 62
7
  6
CONTINUOUS
 90
3
 70
0
 10
9.60369367
 20
9.5750533468
 10
9.7275337628
 20
9.5427603696
 10
9.8513262954
 20
9.4991394708
  0
LINE
  5
232
100
AcDbEntity
  8
0
100
AcDbLine
 62
7
  6
CONTINUOUS
 10
8.7484984215
 20
9.300266804
 11
7.4586059934
 21
9.300266804
  0
LINE
  5
233
100
AcDbEntity
  8
0
100
AcDbLine
 62
9
  6
CONTINUOUS
 10
13.2637134834
 20
9.3471586628
 11
12.4434001855
 21
9.3471586628
  0
LINE
  5
234
100
AcDbEntity
  8
0
100
AcDbLine
 62
7
  6
CONTINUOUS
 10
13.1849288639
 20
9.413266804
 11
12.5221862182
 21
9.413266804
  0
LINE
  5
235
100
AcDbEntity
  8
0
100
AcDbLine
 62
7
  6
CONTINUOUS
 10
12.5010568344
 20
9.444516804
 11
13.2060568344
 21
9.444516804
  0
LINE
  5
236
100
AcDbEntity
  8
0
100
AcDbLine
 62
9
  6
CONTINUOUS
 10
13.2303130279
 20
9.4708449876
 11
13.2060568344
 21
9.4708449876
  0
LINE
  5
237
100
AcDbEntity
  8
0
100
AcDbLine
 62
9
  6
CONTINUOUS
 10
12.5010568344
 20
9.4708449876
 11
12.4768006409
 21
9.4708449876
  0
LINE
  5
238
100
AcDbEntity
  8
0
100
AcDbLine
 62
7
  6
CONTINUOUS
 10
13.2060568344
 20
9.494516804
 11
12.5010568344
 21
9.494516804
  0
LINE
  5
239
100
AcDbEntity
  8
0
100
AcDbLine
 62
7
  6
CONTINUOUS
 10
9.4840671494
 20
9.5946737119
 11
9.6036936699
 21
9.5750533469
  0
LINE
  5
23A
100
AcDbEntity
  8
0
100
AcDbLine
 62
7
  6
CONTINUOUS
 10
12.1660583736
 20
8.9080603737
 11
12.127742404
 21
8.9211207447
  0
LWPOLYLINE
  5
23B
100
AcDbEntity
  8
0
100
AcDbPolyline
 62
7
  6
CONTINUOUS
 90
3
 70
0
 10
9.2658138437
 20
9.591486316
 10
9.3705033787
 20
9.6004095982
 10
9.4840671493
 20
9.594673712
  0
LINE
  5
23C
100
AcDbEntity
  8
0
100
AcDbLine
 62
7
  6
CONTINUOUS
 10
12.127742404
 20
8.9211207447
 11
12.0998376473
 21
8.9391881558
  0
LINE
  5
23D
100
AcDbEntity
  8
0
100
AcDbLine
 62
7
  6
CONTINUOUS
 10
11.6835568344
 20
7.419266804
 11
11.6835568344
 21
7.405266804
  0
LINE
  5
23E
100
AcDbEntity
  8
0
100
AcDbLine
 62
9
  6
CONTINUOUS
 10
13.2300141074
 20
9.8978085849
 11
13.179165077
 21
9.8978085849
  0
LINE
  5
23F
100
AcDbEntity
  8
0
100
AcDbLine
 62
9
  6
CONTINUOUS
 10
12.5279485919
 20
9.8978085849
 11
12.4770995614
 21
9.8978085849
  0
LWPOLYLINE
  5
240
100
AcDbEntity
  8
0
100
AcDbPolyline
 62
7
  6
CONTINUOUS
 90
6
 70
0
 10
10.2238379169
 20
10.0756617026
 10
10.0415151263
 20
10.1561496827
 10
9.7914095599
 20
10.2554057075
 10
9.5503719654
 20
10.3298614417
 10
9.3208505428
 20
10.3750972034
 10
9.181113282
 20
10.3883655049
  0
LINE
  5
241
100
AcDbEntity
  8
0
100
AcDbLine
 62
7
  6
CONTINUOUS
 10
10.213171365
 20
10.0804763466
 11
10.2238379166
 21
10.0756617028
  0
LINE
  5
242
100
AcDbEntity
  8
0
100
AcDbLine
 62
7
  6
CONTINUOUS
 10
12.0997995729
 20
8.9392193247
 11
12.0580226022
 21
8.9731471475
  0
LINE
  5
243
100
AcDbEntity
  8
0
100
AcDbLine
 62
7
  6
CONTINUOUS
 10
12.5230568344
 20
10.406516804
 11
12.5690240133
 21
10.406516804
  0
LINE
  5
244
100
AcDbEntity
  8
0
100
AcDbLine
 62
7
  6
CONTINUOUS
 10
13.1380896555
 20
10.406516804
 11
13.1840568344
 21
10.406516804
  0
LINE
  5
245
100
AcDbEntity
  8
0
100
AcDbLine
 62
9
  6
CONTINUOUS
 10
13.1840568344
 20
10.477516804
 11
13.0458584009
 21
10.477516804
  0
LINE
  5
246
100
AcDbEntity
  8
0
100
AcDbLine
 62
9
  6
CONTINUOUS
 10
12.6612552679
 20
10.477516804
 11
12.5230568344
 21
10.477516804
  0
LINE
  5
247
100
AcDbEntity
  8
0
100
AcDbLine
 62
7
  6
CONTINUOUS
 10
12.4434001847
 20
9.3471586583
 11
12.4188912908
 21
9.2081618142
  0
LINE
  5
248
100
AcDbEntity
  8
0
100
AcDbLine
 62
7
  6
CONTINUOUS
 10
13.1370568344
 20
10.524516804
 11
12.8878469913
 21
10.524516804
  0
LINE
  5
249
100
AcDbEntity
  8
0
100
AcDbLine
 62
7
  6
CONTINUOUS
 10
12.8192666775
 20
10.524516804
 11
12.5700568344
 21
10.524516804
  0
LINE
  5
24A
100
AcDbEntity
  8
0
100
AcDbLine
 62
7
  6
CONTINUOUS
 10
13.1255568344
 20
10.548516804
 11
12.5815568344
 21
10.548516804
  0
LINE
  5
24B
100
AcDbEntity
  8
0
100
AcDbLine
 62
7
  6
CONTINUOUS
 10
12.6735568344
 20
10.604516804
 11
13.0335568344
 21
10.604516804
  0
LINE
  5
24C
100
AcDbEntity
  8
0
100
AcDbLine
 62
7
  6
CONTINUOUS
 10
13.0235568344
 20
10.614516804
 11
12.6835568344
 21
10.614516804
  0
LINE
  5
24D
100
AcDbEntity
  8
0
100
AcDbLine
 62
7
  6
CONTINUOUS
 10
12.5010568344
 20
9.494516804
 11
12.5010568344
 21
9.444516804
  0
LINE
  5
24E
100
AcDbEntity
  8
0
100
AcDbLine
 62
7
  6
CONTINUOUS
 10
12.5230568344
 20
10.477516804
 11
12.5230568344
 21
10.406516804
  0
LINE
  5
24F
100
AcDbEntity
  8
0
100
AcDbLine
 62
7
  6
CONTINUOUS
 10
12.5815568344
 20
10.548516804
 11
12.5815568344
 21
10.524516804
  0
LINE
  5
250
100
AcDbEntity
  8
0
100
AcDbLine
 62
7
  6
CONTINUOUS
 10
12.6698077075
 20
9.413266804
 11
12.6698077075
 21
9.444516804
  0
LINE
  5
251
100
AcDbEntity
  8
0
100
AcDbLine
 62
7
  6
CONTINUOUS
 10
12.6755759132
 20
9.444516804
 11
12.6755759132
 21
9.413266804
  0
LINE
  5
252
100
AcDbEntity
  8
0
100
AcDbLine
 62
7
  6
CONTINUOUS
 10
12.6920136407
 20
9.413266804
 11
12.6920136407
 21
9.444516804
  0
LINE
  5
253
100
AcDbEntity
  8
0
100
AcDbLine
 62
7
  6
CONTINUOUS
 10
12.697662612
 20
9.413266804
 11
12.697662612
 21
9.444516804
  0
LINE
  5
254
100
AcDbEntity
  8
0
100
AcDbLine
 62
7
  6
CONTINUOUS
 10
12.7388130607
 20
9.413266804
 11
12.7388130607
 21
9.444516804
  0
LINE
  5
255
100
AcDbEntity
  8
0
100
AcDbLine
 62
7
  6
CONTINUOUS
 10
12.7633969955
 20
9.444516804
 11
12.7633969955
 21
9.413266804
  0
LINE
  5
256
100
AcDbEntity
  8
0
100
AcDbLine
 62
7
  6
CONTINUOUS
 10
12.7822065473
 20
9.413266804
 11
12.7822065473
 21
9.444516804
  0
LINE
  5
257
100
AcDbEntity
  8
0
100
AcDbLine
 62
7
  6
CONTINUOUS
 10
12.7999865449
 20
9.444516804
 11
12.7999865449
 21
9.413266804
  0
LINE
  5
258
100
AcDbEntity
  8
0
100
AcDbLine
 62
7
  6
CONTINUOUS
 10
12.8030811801
 20
9.413266804
 11
12.8030811801
 21
9.444516804
  0
LINE
  5
259
100
AcDbEntity
  8
0
100
AcDbLine
 62
7
  6
CONTINUOUS
 10
12.8320799085
 20
9.444516804
 11
12.8320799085
 21
9.413266804
  0
LINE
  5
25A
100
AcDbEntity
  8
0
100
AcDbLine
 62
7
  6
CONTINUOUS
 10
12.843934369
 20
9.413266804
 11
12.843934369
 21
9.444516804
  0
LINE
  5
25B
100
AcDbEntity
  8
0
100
AcDbLine
 62
7
  6
CONTINUOUS
 10
12.8631792998
 20
9.444516804
 11
12.8631792998
 21
9.413266804
  0
LINE
  5
25C
100
AcDbEntity
  8
0
100
AcDbLine
 62
7
  6
CONTINUOUS
 10
12.8750337604
 20
9.413266804
 11
12.8750337604
 21
9.444516804
  0
LINE
  5
25D
100
AcDbEntity
  8
0
100
AcDbLine
 62
7
  6
CONTINUOUS
 10
12.9040324887
 20
9.444516804
 11
12.9040324887
 21
9.413266804
  0
LINE
  5
25E
100
AcDbEntity
  8
0
100
AcDbLine
 62
7
  6
CONTINUOUS
 10
12.9071271239
 20
9.413266804
 11
12.9071271239
 21
9.444516804
  0
LINE
  5
25F
100
AcDbEntity
  8
0
100
AcDbLine
 62
7
  6
CONTINUOUS
 10
12.9249071215
 20
9.444516804
 11
12.9249071215
 21
9.413266804
  0
LINE
  5
260
100
AcDbEntity
  8
0
100
AcDbLine
 62
7
  6
CONTINUOUS
 10
12.9437166733
 20
9.413266804
 11
12.9437166733
 21
9.444516804
  0
LINE
  5
261
100
AcDbEntity
  8
0
100
AcDbLine
 62
7
  6
CONTINUOUS
 10
12.9683006081
 20
9.444516804
 11
12.9683006081
 21
9.413266804
  0
LINE
  5
262
100
AcDbEntity
  8
0
100
AcDbLine
 62
7
  6
CONTINUOUS
 10
12.9757725088
 20
9.444516804
 11
12.9757725088
 21
9.413266804
  0
LINE
  5
263
100
AcDbEntity
  8
0
100
AcDbLine
 62
7
  6
CONTINUOUS
 10
12.9986735681
 20
9.413266804
 11
12.9986735681
 21
9.444516804
  0
LINE
  5
264
100
AcDbEntity
  8
0
100
AcDbLine
 62
7
  6
CONTINUOUS
 10
13.0151000282
 20
9.444516804
 11
13.0151000282
 21
9.413266804
  0
LINE
  5
265
100
AcDbEntity
  8
0
100
AcDbLine
 62
7
  6
CONTINUOUS
 10
13.0315377556
 20
9.413266804
 11
13.0315377556
 21
9.444516804
  0
LINE
  5
266
100
AcDbEntity
  8
0
100
AcDbLine
 62
7
  6
CONTINUOUS
 10
13.0373059613
 20
9.444516804
 11
13.0373059613
 21
9.413266804
  0
LINE
  5
267
100
AcDbEntity
  8
0
100
AcDbLine
 62
7
  6
CONTINUOUS
 10
13.1255568344
 20
10.548516804
 11
13.1255568344
 21
10.524516804
  0
LINE
  5
268
100
AcDbEntity
  8
0
100
AcDbLine
 62
7
  6
CONTINUOUS
 10
13.1840568344
 20
10.477516804
 11
13.1840568344
 21
10.406516804
  0
LINE
  5
269
100
AcDbEntity
  8
0
100
AcDbLine
 62
7
  6
CONTINUOUS
 10
13.2060568344
 20
9.494516804
 11
13.2060568344
 21
9.444516804
  0
LINE
  5
26A
100
AcDbEntity
  8
0
100
AcDbLine
 62
7
  6
CONTINUOUS
 10
13.2637134842
 20
9.3471586583
 11
13.288222378
 21
9.2081618142
  0
LINE
  5
26B
100
AcDbEntity
  8
0
100
AcDbLine
 62
7
  6
CONTINUOUS
 10
13.0335568344
 20
10.604516804
 11
13.0235568344
 21
10.614516804
  0
LINE
  5
26C
100
AcDbEntity
  8
0
100
AcDbLine
 62
7
  6
CONTINUOUS
 10
14.0235568344
 20
7.419266804
 11
14.0235568344
 21
7.405266804
  0
ARC
  5
26D
100
AcDbEntity
  8
0
100
AcDbCircle
 62
7
  6
CONTINUOUS
 10
8.0410568344
 20
8.811266804
 40
0.4
100
AcDbArc
 50
180.0
 51
204.220943109
  0
ARC
  5
26E
100
AcDbEntity
  8
0
100
AcDbCircle
 62
7
  6
CONTINUOUS
 10
8.1660568344
 20
8.811266804
 40
0.4
100
AcDbArc
 50
335.779056891
 51
360.0
  0
ARC
  5
26F
100
AcDbEntity
  8
0
100
AcDbCircle
 62
7
  6
CONTINUOUS
 10
7.6853884495
 20
8.651266804
 40
0.01
100
AcDbArc
 50
204.220943109
 51
269.9999951895
  0
ARC
  5
270
100
AcDbEntity
  8
0
100
AcDbCircle
 62
7
  6
CONTINUOUS
 10
8.5217252193
 20
8.651266804
 40
0.01
100
AcDbArc
 50
270.0000048105
 51
335.779056891
  0
ARC
  5
271
100
AcDbEntity
  8
0
100
AcDbCircle
 62
7
  6
CONTINUOUS
 10
8.6359031894
 20
9.155266804
 40
0.18
100
AcDbArc
 50
306.3360575146
 51
53.6639424854
  0
ARC
  5
272
100
AcDbEntity
  8
0
100
AcDbCircle
 62
7
  6
CONTINUOUS
 10
7.5712104794
 20
9.155266804
 40
0.18
100
AcDbArc
 50
126.3360575146
 51
233.6639424854
  0
ARC
  5
273
100
AcDbEntity
  8
0
100
AcDbCircle
 62
7
  6
CONTINUOUS
 10
13.554817859
 20
8.1738925671
 40
1.52
100
AcDbArc
 50
168.4101664985
 51
183.7580464625
  0
ARC
  5
274
100
AcDbEntity
  8
0
100
AcDbCircle
 62
7
  6
CONTINUOUS
 10
12.1522958098
 20
8.1738925671
 40
1.52
100
AcDbArc
 50
356.2419535375
 51
11.5898335015
  0
ARC
  5
275
100
AcDbEntity
  8
0
100
AcDbCircle
 62
7
  6
CONTINUOUS
 10
12.465771302
 20
8.2381818801
 40
1.2
100
AcDbArc
 50
11.5898335015
 51
40.5151811264
  0
ARC
  5
276
100
AcDbEntity
  8
0
100
AcDbCircle
 62
7
  6
CONTINUOUS
 10
13.2413423668
 20
8.2381818801
 40
1.2
100
AcDbArc
 50
139.4848188736
 51
168.4101664985
  0
ARC
  5
277
100
AcDbEntity
  8
0
100
AcDbCircle
 62
7
  6
CONTINUOUS
 10
14.4706265497
 20
8.8802433009
 40
1.0906
100
AcDbArc
 50
222.510175772
 51
226.1616685884
  0
ARC
  5
278
100
AcDbEntity
  8
0
100
AcDbCircle
 62
7
  6
CONTINUOUS
 10
13.1611480548
 20
7.5165591618
 40
0.8
100
AcDbArc
 50
12.1741943262
 51
46.1616685884
  0
ARC
  5
279
100
AcDbEntity
  8
0
100
AcDbCircle
 62
7
  6
CONTINUOUS
 10
12.5459656141
 20
7.5165591618
 40
0.8
100
AcDbArc
 50
167.5438505827
 51
167.8258056738
  0
ARC
  5
27A
100
AcDbEntity
  8
0
100
AcDbCircle
 62
7
  6
CONTINUOUS
 10
12.13595717
 20
7.4187832017
 40
0.4576
100
AcDbArc
 50
144.383963238
 51
181.692624989
  0
ARC
  5
27B
100
AcDbEntity
  8
0
100
AcDbCircle
 62
7
  6
CONTINUOUS
 10
13.5711564988
 20
7.4187832017
 40
0.4576
100
AcDbArc
 50
358.307375011
 51
35.616036762
  0
ARC
  5
27C
100
AcDbEntity
  8
0
100
AcDbCircle
 62
7
  6
CONTINUOUS
 10
14.0112898537
 20
8.0517854641
 40
0.343
100
AcDbArc
 50
176.2419535375
 51
230.9887457036
  0
ARC
  5
27D
100
AcDbEntity
  8
0
100
AcDbCircle
 62
7
  6
CONTINUOUS
 10
11.6958238151
 20
8.0517854641
 40
0.343
100
AcDbArc
 50
309.0112542964
 51
3.7580464625
  0
ARC
  5
27E
100
AcDbEntity
  8
0
100
AcDbCircle
 62
7
  6
CONTINUOUS
 10
11.5695034852
 20
7.7322517233
 40
0.2000007852
100
AcDbArc
 50
347.543839713
 51
34.0205752865
  0
ARC
  5
27F
100
AcDbEntity
  8
0
100
AcDbCircle
 62
7
  6
CONTINUOUS
 10
11.8085568344
 20
7.419266804
 40
0.125
100
AcDbArc
 50
118.3576365763
 51
180.0
  0
ARC
  5
280
100
AcDbEntity
  8
0
100
AcDbCircle
 62
7
  6
CONTINUOUS
 10
13.8985568344
 20
7.419266804
 40
0.125
100
AcDbArc
 50
0.0
 51
61.6423634237
  0
ARC
  5
281
100
AcDbEntity
  8
0
100
AcDbCircle
 62
7
  6
CONTINUOUS
 10
11.9143212437
 20
7.6683687395
 40
0.078
100
AcDbArc
 50
120.9443106101
 51
171.96842665
  0
ARC
  5
282
100
AcDbEntity
  8
0
100
AcDbCircle
 62
7
  6
CONTINUOUS
 10
13.7927924251
 20
7.6683687395
 40
0.078
100
AcDbArc
 50
8.03157335
 51
59.0556893899
  0
ARC
  5
283
100
AcDbEntity
  8
0
100
AcDbCircle
 62
7
  6
CONTINUOUS
 10
11.8595057763
 20
7.5757880944
 40
0.078
100
AcDbArc
 50
126.7734275125
 51
176.708302835
  0
ARC
  5
284
100
AcDbEntity
  8
0
100
AcDbCircle
 62
7
  6
CONTINUOUS
 10
13.8476078925
 20
7.5757880944
 40
0.078
100
AcDbArc
 50
3.291697165
 51
53.2265724875
  0
ARC
  5
285
100
AcDbEntity
  8
0
100
AcDbCircle
 62
7
  6
CONTINUOUS
 10
13.8647810827
 20
7.7884421887
 40
0.062
100
AcDbArc
 50
197.0467181652
 51
239.05568939
  0
ARC
  5
286
100
AcDbEntity
  8
0
100
AcDbCircle
 62
7
  6
CONTINUOUS
 10
11.8423325862
 20
7.7884421887
 40
0.062
100
AcDbArc
 50
300.94431061
 51
342.9532818348
  0
ARC
  5
287
100
AcDbEntity
  8
0
100
AcDbCircle
 62
7
  6
CONTINUOUS
 10
13.9314191967
 20
7.6879293681
 40
0.062
100
AcDbArc
 50
188.0315733501
 51
233.2265724873
  0
ARC
  5
288
100
AcDbEntity
  8
0
100
AcDbCircle
 62
7
  6
CONTINUOUS
 10
11.7756944721
 20
7.6879293681
 40
0.062
100
AcDbArc
 50
306.7734275127
 51
351.9684266499
  0
ARC
  5
289
100
AcDbEntity
  8
0
100
AcDbCircle
 62
7
  6
CONTINUOUS
 10
13.9873769132
 20
7.583826804
 40
0.062
100
AcDbArc
 50
183.291697165
 51
241.6423634236
  0
ARC
  5
28A
100
AcDbEntity
  8
0
100
AcDbCircle
 62
7
  6
CONTINUOUS
 10
11.7197367556
 20
7.583826804
 40
0.062
100
AcDbArc
 50
298.3576365764
 51
356.708302835
  0
ARC
  5
28B
100
AcDbEntity
  8
0
100
AcDbCircle
 62
7
  6
CONTINUOUS
 10
11.9312467281
 20
7.7611791117
 40
0.031
100
AcDbArc
 50
129.0112542964
 51
162.9532818348
  0
ARC
  5
28C
100
AcDbEntity
  8
0
100
AcDbCircle
 62
7
  6
CONTINUOUS
 10
13.7758669407
 20
7.7611791117
 40
0.031
100
AcDbArc
 50
17.0467181652
 51
50.9887457036
  0
ARC
  5
28D
100
AcDbEntity
  8
0
100
AcDbCircle
 62
9
  6
CONTINUOUS
 10
11.1802415396
 20
9.2924255556
 40
1.2326311136
100
AcDbArc
 50
314.1490997286
 51
315.4597761124
  0
CIRCLE
  5
28E
100
AcDbEntity
  8
0
100
AcDbCircle
 62
7
  6
CONTINUOUS
 10
12.8535568344
 20
10.127516804
 40
0.4
  0
ARC
  5
28F
100
AcDbEntity
  8
0
100
AcDbCircle
 62
7
  6
CONTINUOUS
 10
12.0249681896
 20
9.2776210852
 40
0.4
100
AcDbArc
 50
319.4848188736
 51
350.0
  0
ARC
  5
290
100
AcDbEntity
  8
0
100
AcDbCircle
 62
7
  6
CONTINUOUS
 10
13.6821454792
 20
9.2776210852
 40
0.4
100
AcDbArc
 50
190.0
 51
220.5151811264
  0
ARC
  5
291
100
AcDbEntity
  8
0
100
AcDbCircle
 62
7
  6
CONTINUOUS
 10
12.7735568344
 20
9.7001063267
 40
0.375
100
AcDbArc
 50
145.163694059
 51
217.6881634585
  0
ARC
  5
292
100
AcDbEntity
  8
0
100
AcDbCircle
 62
7
  6
CONTINUOUS
 10
12.9335568344
 20
9.7001063267
 40
0.375
100
AcDbArc
 50
322.3118365415
 51
34.836305941
  0
ARC
  5
293
100
AcDbEntity
  8
0
100
AcDbCircle
 62
7
  6
CONTINUOUS
 10
12.9335568344
 20
10.1274563267
 40
0.375
100
AcDbArc
 50
322.2371948106
 51
48.0871091166
  0
ARC
  5
294
100
AcDbEntity
  8
0
100
AcDbCircle
 62
7
  6
CONTINUOUS
 10
12.7735568344
 20
10.1274563267
 40
0.375
100
AcDbArc
 50
131.9128908834
 51
217.7628051894
  0
ARC
  5
295
100
AcDbEntity
  8
0
100
AcDbCircle
 62
7
  6
CONTINUOUS
 10
13.5157380671
 20
9.2503376212
 40
0.3606812327
100
AcDbArc
 50
142.3118365415
 51
153.3136608714
  0
ARC
  5
296
100
AcDbEntity
  8
0
100
AcDbCircle
 62
7
  6
CONTINUOUS
 10
12.1913756017
 20
9.2503376212
 40
0.3606812327
100
AcDbArc
 50
26.6863391286
 51
37.6881634585
  0
ARC
  5
297
100
AcDbEntity
  8
0
100
AcDbCircle
 62
7
  6
CONTINUOUS
 10
12.1941754822
 20
9.6786442
 40
0.3578813522
100
AcDbArc
 50
329.0364377797
 51
37.7628051894
  0
ARC
  5
298
100
AcDbEntity
  8
0
100
AcDbCircle
 62
7
  6
CONTINUOUS
 10
13.5129381866
 20
9.6786442
 40
0.3578813522
100
AcDbArc
 50
142.2371948106
 51
210.9635622203
  0
CIRCLE
  5
299
100
AcDbEntity
  8
0
100
AcDbCircle
 62
7
  6
CONTINUOUS
 10
12.8535568344
 20
10.127516804
 40
0.2525
  0
CIRCLE
  5
29A
100
AcDbEntity
  8
0
100
AcDbCircle
 62
7
  6
CONTINUOUS
 10
12.8535568344
 20
10.127516804
 40
0.2375
  0
ARC
  5
29B
100
AcDbEntity
  8
0
100
AcDbCircle
 62
7
  6
CONTINUOUS
 10
12.1949042581
 20
9.0557313365
 40
0.1504653928
100
AcDbArc
 50
257.2772013298
 51
265.26120688
  0
ARC
  5
29C
100
AcDbEntity
  8
0
100
AcDbCircle
 62
7
  6
CONTINUOUS
 10
12.1949772328
 20
9.0555089906
 40
0.1502770092
100
AcDbArc
 50
230.7290001145
 51
243.1598640649
  0
ARC
  5
29D
100
AcDbEntity
  8
0
100
AcDbCircle
 62
7
  6
CONTINUOUS
 10
12.1948729381
 20
9.0551725045
 40
0.1499058843
100
AcDbArc
 50
265.2554912961
 51
269.636169421
  0
ARC
  5
29E
100
AcDbEntity
  8
0
100
AcDbCircle
 62
7
  6
CONTINUOUS
 10
12.1948034533
 20
9.0551752447
 40
0.149900756
100
AcDbArc
 50
243.1615347767
 51
257.2679741369
  0
ARC
  5
29F
100
AcDbEntity
  8
0
100
AcDbCircle
 62
7
  6
CONTINUOUS
 10
12.5221848049
 20
9.333266804
 40
0.08
100
AcDbArc
 50
90.0
 51
169.9999967015
  0
ARC
  5
2A0
100
AcDbEntity
  8
0
100
AcDbCircle
 62
7
  6
CONTINUOUS
 10
13.1849288639
 20
9.333266804
 40
0.08
100
AcDbArc
 50
10.0000032985
 51
90.0
  0
ARC
  5
2A1
100
AcDbEntity
  8
0
100
AcDbCircle
 62
7
  6
CONTINUOUS
 10
13.0895568344
 20
10.604516804
 40
0.056
100
AcDbArc
 50
180.0
 51
270.0
  0
ARC
  5
2A2
100
AcDbEntity
  8
0
100
AcDbCircle
 62
7
  6
CONTINUOUS
 10
12.6175568344
 20
10.604516804
 40
0.056
100
AcDbArc
 50
270.0
 51
360.0
  0
ARC
  5
2A3
100
AcDbEntity
  8
0
100
AcDbCircle
 62
7
  6
CONTINUOUS
 10
13.1370568344
 20
10.477516804
 40
0.047
100
AcDbArc
 50
0.0
 51
90.0
  0
ARC
  5
2A4
100
AcDbEntity
  8
0
100
AcDbCircle
 62
7
  6
CONTINUOUS
 10
12.5700568344
 20
10.477516804
 40
0.047
100
AcDbArc
 50
90.0
 51
180.0
  0
SPLINE
  5
2A5
100
AcDbEntity
  8
0
100
AcDbSpline
 62
7
  6
CONTINUOUS
 70
0
 71
3
 72
17
 73
13
 74
0
 42
0.0000001
 43
0.0000001
 44
0.0000000001
 40
0.0
 40
0.0
 40
0.0
 40
0.0
 40
0.0627028714
 40
0.1254052733
 40
0.1880714819
 40
0.2506794731
 40
0.3132360971
 40
0.3757502903
 40
0.5006821562
 40
0.625532618
 40
0.750347067
 40
1.0
 40
1.0
 40
1.0
 40
1.0
 10
11.7352714855
 20
7.8441502669
 30
0.0
 10
11.7265952547
 20
7.8570033404
 30
0.0
 10
11.7090321912
 20
7.8825676821
 30
0.0
 10
11.6821565072
 20
7.9205315878
 30
0.0
 10
11.6548551016
 20
7.9581611584
 30
0.0
 10
11.6272061836
 20
7.9954910537
 30
0.0
 10
11.5992234606
 20
8.0325242796
 30
0.0
 10
11.5615023964
 20
8.0815149721
 30
0.0
 10
11.5135928653
 20
8.1421005287
 30
0.0
 10
11.4550158954
 20
8.2138788897
 30
0.0
 10
11.3756528996
 20
8.3084924305
 30
0.0
 10
11.3149051185
 20
8.3784069724
 30
0.0
 10
11.2740474271
 20
8.4246977974
 30
0.0
  0
SPLINE
  5
2A6
100
AcDbEntity
  8
0
100
AcDbSpline
 62
7
  6
CONTINUOUS
 70
0
 71
3
 72
15
 73
11
 74
0
 42
0.0000001
 43
0.0000001
 44
0.0000000001
 40
0.0
 40
0.0
 40
0.0
 40
0.0
 40
0.1240563341
 40
0.2474654907
 40
0.3702330159
 40
0.4931433175
 40
0.6170514244
 40
0.7422574404
 40
0.8692791224
 40
1.0
 40
1.0
 40
1.0
 40
1.0
 10
10.3761246818
 20
9.214215394
 30
0.0
 10
10.3554411831
 20
9.2277820227
 30
0.0
 10
10.3140221269
 20
9.2546020992
 30
0.0
 10
10.2514681747
 20
9.2938075717
 30
0.0
 10
10.1884147264
 20
9.3317666866
 30
0.0
 10
10.124457012
 20
9.3683861931
 30
0.0
 10
10.059166724
 20
9.403613375
 30
0.0
 10
9.9921711936
 20
9.4373481285
 30
0.0
 10
9.922913159
 20
9.4695316456
 30
0.0
 10
9.8755363758
 20
9.4894831798
 30
0.0
 10
9.8513263831
 20
9.4991394357
 30
0.0
  0
LINE
  5
2A7
100
AcDbEntity
  8
0
100
AcDbLine
 62
7
  6
CONTINUOUS
 10
7.4586066838
 20
9.3002664583
 11
7.4596246092
 21
9.3025999495
  0
SPLINE
  5
2A8
100
AcDbEntity
  8
0
100
AcDbSpline
 62
7
  6
CONTINUOUS
 70
0
 71
3
 72
13
 73
9
 74
0
 42
0.0000001
 43
0.0000001
 44
0.0000000001
 40
0.0
 40
0.0
 40
0.0
 40
0.0
 40
0.125358216
 40
0.2517233111
 40
0.3785401807
 40
0.5051273431
 40
0.7553804867
 40
1.0
 40
1.0
 40
1.0
 40
1.0
 10
7.4596246092
 20
9.3025999495
 30
0.0
 10
7.4654331429
 20
9.3158911311
 30
0.0
 10
7.477402029
 20
9.3424481338
 30
0.0
 10
7.4963212499
 20
9.3819557051
 30
0.0
 10
7.5162091224
 20
9.421144519
 30
0.0
 10
7.5437639898
 20
9.4725010224
 30
0.0
 10
7.5799533306
 20
9.5346691028
 30
0.0
 10
7.6109569685
 20
9.5828357949
 30
0.0
 10
7.6268022363
 20
9.6062894188
 30
0.0
  0
LINE
  5
2A9
100
AcDbEntity
  8
0
100
AcDbLine
 62
7
  6
CONTINUOUS
 10
8.1440172383
 20
10.1141497974
 11
8.1465314621
 21
10.1157468583
  0
SPLINE
  5
2AA
100
AcDbEntity
  8
0
100
AcDbSpline
 62
7
  6
CONTINUOUS
 70
0
 71
3
 72
20
 73
16
 74
0
 42
0.0000001
 43
0.0000001
 44
0.0000000001
 40
0.0
 40
0.0
 40
0.0
 40
0.0
 40
0.0573420042
 40
0.1163946699
 40
0.238797624
 40
0.3017779112
 40
0.3656397921
 40
0.4301450935
 40
0.4950605073
 40
0.5601508485
 40
0.6251501698
 40
0.6897817791
 40
0.7537681635
 40
0.8789734398
 40
1.0
 40
1.0
 40
1.0
 40
1.0
 10
8.1465314621
 20
10.1157468583
 30
0.0
 10
8.1640730978
 20
10.1268675364
 30
0.0
 10
8.2001039055
 20
10.1487801738
 30
0.0
 10
8.2756096602
 20
10.1909984789
 30
0.0
 10
8.3552726459
 20
10.2298642388
 30
0.0
 10
8.4385628233
 20
10.2647345901
 30
0.0
 10
8.503485875
 20
10.2890448489
 30
0.0
 10
8.5699553788
 20
10.3110749339
 30
0.0
 10
8.6376576082
 20
10.330636096
 30
0.0
 10
8.7062563684
 20
10.3475387732
 30
0.0
 10
8.7753591525
 20
10.3617390937
 30
0.0
 10
8.844566737
 20
10.373186016
 30
0.0
 10
8.9358088378
 20
10.3846301876
 30
0.0
 10
9.0480571458
 20
10.3919428342
 30
0.0
 10
9.1373413968
 20
10.3907224424
 30
0.0
 10
9.181114626
 20
10.3883658387
 30
0.0
  0
SPLINE
  5
2AB
100
AcDbEntity
  8
0
100
AcDbSpline
 62
7
  6
CONTINUOUS
 70
0
 71
3
 72
15
 73
11
 74
0
 42
0.0000001
 43
0.0000001
 44
0.0000000001
 40
0.0
 40
0.0
 40
0.0
 40
0.0
 40
0.1310838351
 40
0.2572315998
 40
0.3799965936
 40
0.500875682
 40
0.6214236861
 40
0.7436246479
 40
0.8693977603
 40
1.0
 40
1.0
 40
1.0
 40
1.0
 10
9.2658138438
 20
9.591486315
 30
0.0
 10
9.248666397
 20
9.5887340124
 30
0.0
 10
9.2152035539
 20
9.5820895856
 30
0.0
 10
9.1665930702
 20
9.5688655042
 30
0.0
 10
9.1201521199
 20
9.5531712058
 30
0.0
 10
9.0753873935
 20
9.535098278
 30
0.0
 10
9.0317224359
 20
9.5146900695
 30
0.0
 10
8.988642941
 20
9.4916644165
 30
0.0
 10
8.9456547415
 20
9.4657841706
 30
0.0
 10
8.9175010944
 20
9.4467480671
 30
0.0
 10
8.9034226144
 20
9.4366885256
 30
0.0
  0
SPLINE
  5
2AC
100
AcDbEntity
  8
0
100
AcDbSpline
 62
7
  6
CONTINUOUS
 70
0
 71
3
 72
15
 73
11
 74
0
 42
0.0000001
 43
0.0000001
 44
0.0000000001
 40
0.0
 40
0.0
 40
0.0
 40
0.0
 40
0.125624037
 40
0.2509882931
 40
0.3761654487
 40
0.501270069
 40
0.6263912411
 40
0.7513705064
 40
0.8759826407
 40
1.0
 40
1.0
 40
1.0
 40
1.0
 10
10.223837917
 20
10.075661703
 30
0.0
 10
10.3057320152
 20
10.0386537871
 30
0.0
 10
10.4686173422
 20
9.9630726176
 30
0.0
 10
10.70994665
 20
9.843951576
 30
0.0
 10
10.9475162655
 20
9.7182684596
 30
0.0
 10
11.1807878742
 20
9.5851014386
 30
0.0
 10
11.4090042683
 20
9.4437048735
 30
0.0
 10
11.6317713294
 20
9.294505846
 30
0.0
 10
11.8484955278
 20
9.1380081328
 30
0.0
 10
11.9889622341
 20
9.0288301927
 30
0.0
 10
12.0580271567
 20
8.973143537
 30
0.0
  0
LINE
  5
2AD
100
AcDbEntity
  8
0
100
AcDbLine
 62
9
  6
CONTINUOUS
 10
11.8740250971
 20
7.7356305595
 11
11.8729891737
 21
7.7352494175
  0
SPLINE
  5
2AE
100
AcDbEntity
  8
0
100
AcDbSpline
 62
9
  6
CONTINUOUS
 70
0
 71
3
 72
23
 73
19
 74
0
 42
0.0000001
 43
0.0000001
 44
0.0000000001
 40
0.0
 40
0.0
 40
0.0
 40
0.0
 40
0.2237380515
 40
0.4206300822
 40
0.5904317805
 40
0.6650994151
 40
0.7327807147
 40
0.7932180229
 40
0.8461426981
 40
0.8912789453
 40
0.9284102617
 40
0.9576138253
 40
0.9692963346
 40
0.9790650167
 40
0.9869505125
 40
0.9929961984
 40
0.9972798154
 40
1.0
 40
1.0
 40
1.0
 40
1.0
 10
11.8729891737
 20
7.7352494175
 30
0.0
 10
11.864742143
 20
7.7322140431
 30
0.0
 10
11.8492520114
 20
7.7264677806
 30
0.0
 10
11.8276063014
 20
7.7181430361
 30
0.0
 10
11.81153808
 20
7.7116316054
 30
0.0
 10
11.800278149
 20
7.706779199
 30
0.0
 10
11.7930117305
 20
7.7035166888
 30
0.0
 10
11.7865628823
 20
7.7005199739
 30
0.0
 10
11.7809464092
 20
7.6978343909
 30
0.0
 10
11.7761753395
 20
7.695503321
 30
0.0
 10
11.7722479217
 20
7.6935683002
 30
0.0
 10
11.7695123282
 20
7.6921867427
 30
0.0
 10
11.7677569191
 20
7.6912503179
 30
0.0
 10
11.7667526672
 20
7.6906843839
 30
0.0
 10
11.7659590091
 20
7.6901990049
 30
0.0
 10
11.7653705707
 20
7.6897869309
 30
0.0
 10
11.7649871091
 20
7.6894520523
 30
0.0
 10
11.7648195628
 20
7.6892173733
 30
0.0
 10
11.7647965177
 20
7.6891130459
 30
0.0
  0
SPLINE
  5
2AF
100
AcDbEntity
  8
0
100
AcDbSpline
 62
9
  6
CONTINUOUS
 70
0
 71
3
 72
53
 73
49
 74
0
 42
0.0000001
 43
0.0000001
 44
0.0000000001
 40
0.0
 40
0.0
 40
0.0
 40
0.0
 40
0.024563763
 40
0.0490378767
 40
0.0733726048
 40
0.0854804442
 40
0.0975362034
 40
0.109536147
 40
0.1214747893
 40
0.1451584938
 40
0.1686175948
 40
0.1918679531
 40
0.214925953
 40
0.2377963295
 40
0.2829631261
 40
0.3273565694
 40
0.3709209651
 40
0.4135950816
 40
0.455316294
 40
0.4960219831
 40
0.5356510154
 40
0.6114472361
 40
0.6822778512
 40
0.747723874
 40
0.7782891302
 40
0.8073318599
 40
0.8347854509
 40
0.8605736822
 40
0.8846126124
 40
0.906806041
 40
0.9270364798
 40
0.9451735874
 40
0.9610561894
 40
0.9745069652
 40
0.9802563586
 40
0.9853190135
 40
0.9896671946
 40
0.9932718229
 40
0.99478647
 40
0.9961049465
 40
0.9972244458
 40
0.9981430834
 40
0.9988610403
 40
0.9993835725
 40
0.9995777408
 40
0.9997349599
 40
0.9998685695
 40
1.0
 40
1.0
 40
1.0
 40
1.0
 10
12.05958852
 20
8.4341955117
 30
0.0
 10
12.0560540002
 20
8.4367658633
 30
0.0
 10
12.0491597932
 20
8.4421276454
 30
0.0
 10
12.039552388
 20
8.4509931616
 30
0.0
 10
12.0324272304
 20
8.4592011492
 30
0.0
 10
12.0274579814
 20
8.4662632982
 30
0.0
 10
12.0241501651
 20
8.4717891645
 30
0.0
 10
12.0212844755
 20
8.4775234847
 30
0.0
 10
12.0180924282
 20
8.485379917
 30
0.0
 10
12.0152570671
 20
8.4955440422
 30
0.0
 10
12.0135365635
 20
8.5079794574
 30
0.0
 10
12.0131761345
 20
8.5204060826
 30
0.0
 10
12.0138631584
 20
8.5327063036
 30
0.0
 10
12.0158353362
 20
8.548801912
 30
0.0
 10
12.0197721667
 20
8.5684404471
 30
0.0
 10
12.0259282025
 20
8.5913209897
 30
0.0
 10
12.0329743907
 20
8.6134751051
 30
0.0
 10
12.0405974378
 20
8.634930394
 30
0.0
 10
12.0486001537
 20
8.6557017339
 30
0.0
 10
12.0568498594
 20
8.6757911565
 30
0.0
 10
12.0678958327
 20
8.7012801642
 30
0.0
 10
12.0818719168
 20
8.7313350356
 30
0.0
 10
12.0989831904
 20
8.7649719078
 30
0.0
 10
12.1134237429
 20
8.7909158904
 30
0.0
 10
12.1248244024
 20
8.8100236719
 30
0.0
 10
12.133026508
 20
8.8231648523
 30
0.0
 10
12.1410336989
 20
8.835422067
 30
0.0
 10
12.1487944708
 20
8.8467732077
 30
0.0
 10
12.156252194
 20
8.8571942582
 30
0.0
 10
12.1633426418
 20
8.8666586031
 30
0.0
 10
12.1699841195
 20
8.8751441559
 30
0.0
 10
12.1760907806
 20
8.8826195862
 30
0.0
 10
12.1815538743
 20
8.8890611156
 30
0.0
 10
12.1856667623
 20
8.8937564866
 30
0.0
 10
12.1885337151
 20
8.8969837081
 30
0.0
 10
12.190328107
 20
8.8989975081
 30
0.0
 10
12.1918642408
 20
8.9007302931
 30
0.0
 10
12.1929694275
 20
8.9020015882
 30
0.0
 10
12.1937043828
 20
8.9028801171
 30
0.0
 10
12.1941456371
 20
8.9034277999
 30
0.0
 10
12.1945074233
 20
8.9039029704
 30
0.0
 10
12.1947881521
 20
8.9043055501
 30
0.0
 10
12.1949850828
 20
8.904635311
 30
0.0
 10
12.1950901036
 20
8.9048702808
 30
0.0
 10
12.1951209358
 20
8.9050234315
 30
0.0
 10
12.1951187097
 20
8.9051108485
 30
0.0
 10
12.195089943
 20
8.9051825826
 30
0.0
 10
12.195053314
 20
8.9052150305
 30
0.0
 10
12.1950332432
 20
8.9052270288
 30
0.0
  0
LINE
  5
2B0
100
AcDbEntity
  8
0
100
AcDbLine
 62
9
  6
CONTINUOUS
 10
12.1950332432
 20
8.9052270288
 11
12.1948473236
 21
8.905266804
  0
SPLINE
  5
2B1
100
AcDbEntity
  8
0
100
AcDbSpline
 62
9
  6
CONTINUOUS
 70
0
 71
3
 72
33
 73
29
 74
0
 42
0.0000001
 43
0.0000001
 44
0.0000000001
 40
0.0
 40
0.0
 40
0.0
 40
0.0
 40
0.108633463
 40
0.2127455474
 40
0.2629807978
 40
0.3119315731
 40
0.4058007602
 40
0.4939981864
 40
0.5761649957
 40
0.6519611059
 40
0.7210911274
 40
0.7832678909
 40
0.8382071336
 40
0.8628742861
 40
0.8856251377
 40
0.9064233565
 40
0.9252322761
 40
0.9420149073
 40
0.9567342876
 40
0.9693556299
 40
0.9798447
 40
0.9881674113
 40
0.9915064479
 40
0.9942928607
 40
0.9965249366
 40
0.9982044171
 40
0.9993434749
 40
1.0
 40
1.0
 40
1.0
 40
1.0
 10
11.9990004351
 20
7.8931068959
 30
0.0
 10
11.9895425226
 20
7.8908738558
 30
0.0
 10
11.9709269142
 20
7.886893773
 30
0.0
 10
11.9477925449
 20
7.882615146
 30
0.0
 10
11.9298687518
 20
7.8795357303
 30
0.0
 10
11.9128330419
 20
7.8767002141
 30
0.0
 10
11.8924260151
 20
7.8734379038
 30
0.0
 10
11.8690700646
 20
7.8698016426
 30
0.0
 10
11.8473169246
 20
7.8663793579
 30
0.0
 10
11.8272737501
 20
7.8630662326
 30
0.0
 10
11.8090225319
 20
7.8598817799
 30
0.0
 10
11.7926414124
 20
7.8568389759
 30
0.0
 10
11.7802053278
 20
7.8543437766
 30
0.0
 10
11.7712493858
 20
7.8524374675
 30
0.0
 10
11.7652901431
 20
7.8511232892
 30
0.0
 10
11.7598515758
 20
7.8498822552
 30
0.0
 10
11.7549418293
 20
7.8487242379
 30
0.0
 10
11.7505688856
 20
7.8476595949
 30
0.0
 10
11.7467409425
 20
7.8466969312
 30
0.0
 10
11.743463424
 20
7.8458541163
 30
0.0
 10
11.740740601
 20
7.8451523448
 30
0.0
 10
11.7388183599
 20
7.8446702794
 30
0.0
 10
11.7375593238
 20
7.8443789158
 30
0.0
 10
11.7368271103
 20
7.8442251216
 30
0.0
 10
11.7362382936
 20
7.8441205876
 30
0.0
 10
11.7357857545
 20
7.8440684706
 30
0.0
 10
11.7354811204
 20
7.8440640596
 30
0.0
 10
11.7353110813
 20
7.8441069092
 30
0.0
 10
11.7352714783
 20
7.844150278
 30
0.0
  0
SPLINE
  5
2B2
100
AcDbEntity
  8
0
100
AcDbSpline
 62
9
  6
CONTINUOUS
 70
0
 71
3
 72
9
 73
5
 74
0
 42
0.0000001
 43
0.0000001
 44
0.0000000001
 40
0.0
 40
0.0
 40
0.0
 40
0.0
 40
0.2508372482
 40
1.0
 40
1.0
 40
1.0
 40
1.0
 10
12.0388036536
 20
8.4079760456
 30
0.0
 10
12.0400482932
 20
8.4067085591
 30
0.0
 10
12.0450464037
 20
8.4016910833
 30
0.0
 10
12.050178906
 20
8.3968082629
 30
0.0
 10
12.0540814968
 20
8.3932140447
 30
0.0
  0
SPLINE
  5
2B3
100
AcDbEntity
  8
0
100
AcDbSpline
 62
9
  6
CONTINUOUS
 70
0
 71
3
 72
46
 73
42
 74
0
 42
0.0000001
 43
0.0000001
 44
0.0000000001
 40
0.0
 40
0.0
 40
0.0
 40
0.0
 40
0.0001998893
 40
0.0005468216
 40
0.0010627314
 40
0.0017515974
 40
0.0036466241
 40
0.0062214106
 40
0.0094597739
 40
0.0133447723
 40
0.0178596921
 40
0.0229884199
 40
0.0287157785
 40
0.0350274295
 40
0.0493459941
 40
0.0658329129
 40
0.08438026
 40
0.1048897347
 40
0.1272812515
 40
0.1514802091
 40
0.1774150578
 40
0.2050185424
 40
0.2342286783
 40
0.2972263496
 40
0.3659643771
 40
0.4400406624
 40
0.5191260648
 40
0.5604821081
 40
0.6030423507
 40
0.6468445593
 40
0.6919979742
 40
0.7387135247
 40
0.7627709189
 40
0.7873641042
 40
0.812553059
 40
0.8383427589
 40
0.8647267601
 40
0.8915565364
 40
0.9186630464
 40
0.9458760724
 40
1.0
 40
1.0
 40
1.0
 40
1.0
 10
12.0998357641
 20
8.939189601
 30
0.0
 10
12.0998050363
 20
8.9392129902
 30
0.0
 10
12.0996874161
 20
8.9392146033
 30
0.0
 10
12.0994966393
 20
8.9391505822
 30
0.0
 10
12.0992227454
 20
8.9390222487
 30
0.0
 10
12.0987052897
 20
8.9387223603
 30
0.0
 10
12.0978830614
 20
8.938155688
 30
0.0
 10
12.0967054344
 20
8.9372443076
 30
0.0
 10
12.0952725428
 20
8.9360361476
 30
0.0
 10
12.0936043137
 20
8.9345282583
 30
0.0
 10
12.0917197696
 20
8.9327167513
 30
0.0
 10
12.0896383063
 20
8.9305982908
 30
0.0
 10
12.0873782366
 20
8.9281703933
 30
0.0
 10
12.0839990757
 20
8.9243606391
 30
0.0
 10
12.0794261396
 20
8.9188343053
 30
0.0
 10
12.0736384146
 20
8.9112547181
 30
0.0
 10
12.0674463064
 20
8.9024880232
 30
0.0
 10
12.0609506245
 20
8.892548721
 30
0.0
 10
12.0542268945
 20
8.8814630043
 30
0.0
 10
12.0473497098
 20
8.8692529844
 30
0.0
 10
12.0403929941
 20
8.8559405594
 30
0.0
 10
12.0334294951
 20
8.8415478429
 30
0.0
 10
12.0239711801
 20
8.8204189541
 30
0.0
 10
12.0125297094
 20
8.7914876108
 30
0.0
 10
11.9999948072
 20
8.7537323326
 30
0.0
 10
11.9888686839
 20
8.7123063087
 30
0.0
 10
11.9814216695
 20
8.6754412561
 30
0.0
 10
11.9768128976
 20
8.6442834497
 30
0.0
 10
11.9741719141
 20
8.6197442399
 30
0.0
 10
11.9725586045
 20
8.594377246
 30
0.0
 10
11.9723661234
 20
8.5681527143
 30
0.0
 10
11.9737133181
 20
8.5457712949
 30
0.0
 10
11.9760730244
 20
8.5274919272
 30
0.0
 10
11.9786700886
 20
8.5134568633
 30
0.0
 10
11.9822211625
 20
8.4992843378
 30
0.0
 10
11.9868978249
 20
8.4850731008
 30
0.0
 10
11.9928397212
 20
8.4709959426
 30
0.0
 10
12.0000273556
 20
8.4572234129
 30
0.0
 10
12.0084329332
 20
8.4439697577
 30
0.0
 10
12.0209218452
 20
8.4271311453
 30
0.0
 10
12.0314775234
 20
8.4154366566
 30
0.0
 10
12.0388036145
 20
8.4079760111
 30
0.0
  0
ENDSEC
  0
SECTION
  2
OBJECTS
  0
DICTIONARY
  5
C
100
AcDbDictionary
280
0
281
1
  3
ACAD_GROUP
350
D
  3
ACAD_MLINESTYLE
350
17
  3
ACAD_LAYOUT
350
1A
  3
ACAD_PLOTSETTINGS
350
19
  3
ACAD_PLOTSTYLENAME
350
E
  0
DICTIONARY
  5
D
102
{ACAD_REACTORS
330
C
102
}
100
AcDbDictionary
280
0
281
1
  0
ACDBDICTIONARYWDFLT
  5
E
102
{ACAD_REACTORS
330
C
102
}
100
AcDbDictionary
281
1
  3
Normal
350
F
100
AcDbDictionaryWithDefault
340
F
  0
DICTIONARY
  5
17
102
{ACAD_REACTORS
330
C
102
}
100
AcDbDictionary
280
0
281
1
  3
Standard
350
18
  0
DICTIONARY
  5
19
102
{ACAD_REACTORS
330
C
102
}
100
AcDbDictionary
281
1
  0
DICTIONARY
  5
1A
102
{ACAD_REACTORS
330
C
102
}
100
AcDbDictionary
281
1
  3
Model
350
2B4
  3
Layout1
350
2B5
  0
ACDBPLACEHOLDER
  5
F
102
{ACAD_REACTORS
330
E
102
}
  0
MLINESTYLE
  5
18
102
{ACAD_REACTORS
330
17
102
}
100
AcDbMlineStyle
  2
STANDARD
 70
0
  3

 62
256
 51
90.0
 52
90.0
 71
2
 49
0.5
 62
256
  6
BYLAYER
 49
-0.5
 62
256
  6
BYLAYER
  0
LAYOUT
  5
2B4
102
{ACAD_REACTORS
330
1A
102
}
100
AcDbPlotSettings
  1

  2
none_device
  4
ANSI_C_(22.00_x_17.00_Inches)
  6

 40
0.0
 41
0.0
 42
0.0
 43
0.0
 44
558.8
 45
431.8
 46
0.0
 47
0.0
 48
0.0
 49
0.0
140
0.0
141
0.0
142
1.0
143
1.0
 70
1024
 72
0
 73
0
 74
0
  7

 75
0
147
1.0
148
0.0
149
0.0
100
AcDbLayout
  1
Model
 70
0
 71
0
 10
0.0
 20
0.0
 11
22.0
 21
17.0
 12
0.0
 22
0.0
 32
0.0
 14
0.0
 24
0.0
 34
0.0
 15
0.0
 25
0.0
 35
0.0
146
0.0
 13
0.0
 23
0.0
 33
0.0
 16
1.0
 26
0.0
 36
0.0
 17
0.0
 27
1.0
 37
0.0
 76
0
330
202
345
0
346
0
  0
LAYOUT
  5
2B5
102
{ACAD_REACTORS
330
1A
102
}
100
AcDbPlotSettings
  1

  2
none_device
  4
ANSI_C_(22.00_x_17.00_Inches)
  6

 40
0.0
 41
0.0
 42
0.0
 43
0.0
 44
558.8
 45
431.8
 46
0.0
 47
0.0
 48
0.0
 49
0.0
140
0.0
141
0.0
142
1.0
143
1.0
 70
0
 72
0
 73
0
 74
0
  7

 75
0
147
1.0
148
0.0
149
0.0
100
AcDbLayout
  1
Layout1
 70
0
 71
1
 10
0.0
 20
0.0
 11
22.0
 21
17.0
 12
0.0
 22
0.0
 32
0.0
 14
0.0
 24
0.0
 34
0.0
 15
0.0
 25
0.0
 35
0.0
146
0.0
 13
0.0
 23
0.0
 33
0.0
 16
1.0
 26
0.0
 36
0.0
 17
0.0
 27
1.0
 37
0.0
 76
0
330
203
345
0
346
0
  0
ENDSEC
  0
EOF
