999
DXF file: E:\BT Custom\CADOUTPUT\_TOP.dxf
999
Pro/ENGINEER 2018400 by Parametric Technology Corporation
  0
SECTION
  2
HEADER
  9
$ACADVER
  1
AC1018
  9
$DWGCODEPAGE
  3
ANSI_1252
  9
$EXTMAX
 10
22.0
 20
17.0
 30
0.0
  9
$EXTMIN
 10
0.0
 20
0.0
 30
0.0
  9
$LIMMIN
 10
0.0
 20
0.0
  9
$LIMMAX
 10
22.0
 20
17.0
  9
$VIEWCTR
 10
11.0
 20
8.5
  9
$VIEWSIZE
 40
17.0
  9
$CLAYER
  8
0
  9
$LTSCALE
 40
1.21
  9
$CELTYPE
  6
BYLAYER
  9
$DIMSCALE
 40
1.0
  9
$DIMASZ
 40
0.1
  9
$DIMEXO
 40
0.0625
  9
$DIMDLI
 40
0.836
  9
$DIMEXE
 40
0.125
  9
$DIMCEN
 40
0.198
  9
$DIMLFAC
 40
1.0
  9
$DIMBLK
  1
_FILLED
  9
$DIMALT
 70
1
  9
$DIMALTD
 70
2
  9
$DIMALTTD
 70
2
  9
$DIMALTF
 40
25.4
  9
$DIMTXT
 40
0.08
  9
$DIMTOL
 70
1
  9
$DIMLIM
 70
0
  9
$DIMTFAC
 40
1.0
  9
$DIMTP
 40
0.001
  9
$DIMTM
 40
0.001
  9
$DIMGAP
 40
0.09
  9
$DIMDSEP
 70
46
  9
$AUNITS
 70
0
  9
$PDMODE
 70
3
  9
$PDSIZE
 40
0.06
  9
$HANDSEED
  5
2BF
  9
$TILEMODE
 70
1
  9
$MEASUREMENT
 70
0
  9
$INSUNITS
 70
1
  0
ENDSEC
  0
SECTION
  2
CLASSES
  0
CLASS
  1
ACDBDICTIONARYWDFLT
  2
AcDbDictionaryWithDefault
  3
AutoCAD 2000
 90
0
 91
1
280
0
281
0
  0
CLASS
  1
ACDBPLACEHOLDER
  2
AcDbPlaceHolder
  3
AutoCAD 2000
 90
0
 91
1
280
0
281
0
  0
CLASS
  1
LAYOUT
  2
AcDbLayout
  3
AutoCAD 2000
 90
0
 91
0
280
0
281
0
  0
ENDSEC
  0
SECTION
  2
TABLES
  0
TABLE
  2
VPORT
  5
8
100
AcDbSymbolTable
 70
2
  0
VPORT
  5
1F4
100
AcDbSymbolTableRecord
100
AcDbViewportTableRecord
  2
*ACTIVE
 70
0
 10
0.0
 20
0.0
 11
1.0
 21
1.0
 12
11.0
 22
8.5
 13
0.0
 23
0.0
 14
1.0
 24
1.0
 15
0.0
 25
0.0
 16
0.0
 26
0.0
 36
1.0
 17
0.0
 27
0.0
 37
0.0
 40
17.0
 41
1.2941176471
 42
50.0
 43
0.0
 44
0.0
 50
0.0
 51
0.0
 71
0
 72
100
 73
1
 74
1
 75
0
 76
0
 77
0
 78
0
  0
ENDTAB
  0
TABLE
  2
LTYPE
  5
5
100
AcDbSymbolTable
 70
6
  0
LTYPE
  5
14
100
AcDbSymbolTableRecord
100
AcDbLinetypeTableRecord
  2
BYBLOCK
 70
0
  3

 72
65
 73
0
 40
0.0
  0
LTYPE
  5
15
100
AcDbSymbolTableRecord
100
AcDbLinetypeTableRecord
  2
BYLAYER
 70
0
  3

 72
65
 73
0
 40
0.0
  0
LTYPE
  5
16
100
AcDbSymbolTableRecord
100
AcDbLinetypeTableRecord
  2
CONTINUOUS
 70
64
  3
Solid line
 72
65
 73
0
 40
0.0
  0
LTYPE
  5
1F5
100
AcDbSymbolTableRecord
100
AcDbLinetypeTableRecord
  2
CENTER
 70
64
  3
____ _ ____ _ ____ _ ____ _ ____ _ ____ _ ____
 72
65
 73
4
 40
0.6
 49
0.375
 74
0
 49
-0.075
 74
0
 49
0.075
 74
0
 49
-0.075
 74
0
  0
LTYPE
  5
1F6
100
AcDbSymbolTableRecord
100
AcDbLinetypeTableRecord
  2
HIDDEN
 70
64
  3
- - - - - - - - - - - - - - - - - - - -
 72
65
 73
2
 40
0.2
 49
0.1
 74
0
 49
-0.1
 74
0
  0
LTYPE
  5
1F7
100
AcDbSymbolTableRecord
100
AcDbLinetypeTableRecord
  2
PHANTOM
 70
64
  3
_____ _ _ _____ _ _ _____ _ _ _____
 72
65
 73
6
 40
0.8
 49
0.45
 74
0
 49
-0.05
 74
0
 49
0.1
 74
0
 49
-0.05
 74
0
 49
0.1
 74
0
 49
-0.05
 74
0
  0
LTYPE
  5
1F8
100
AcDbSymbolTableRecord
100
AcDbLinetypeTableRecord
  2
DOT
 70
64
  3
. . . . . . . . . . . . . . . . . . . .
 72
65
 73
2
 40
0.2
 49
0.1
 74
0
 49
-0.1
 74
0
  0
LTYPE
  5
1F9
100
AcDbSymbolTableRecord
100
AcDbLinetypeTableRecord
  2
DASHED
 70
64
  3
- - - - - - - - - - - - - - - - - - - -
 72
65
 73
2
 40
0.2
 49
0.1
 74
0
 49
-0.1
 74
0
  0
ENDTAB
  0
TABLE
  2
LAYER
  5
2
100
AcDbSymbolTable
 70
36
  0
LAYER
  5
10
100
AcDbSymbolTableRecord
100
AcDbLayerTableRecord
  2
0
 70
0
 62
7
  6
CONTINUOUS
370
-3
390
F
  0
LAYER
  5
1FA
100
AcDbSymbolTableRecord
100
AcDbLayerTableRecord
  2
DEFAULT_1
 70
0
 62
7
  6
CENTER
370
-3
390
F
  0
LAYER
  5
1FB
100
AcDbSymbolTableRecord
100
AcDbLayerTableRecord
  2
DEFAULT_2
 70
0
 62
8
  6
HIDDEN
370
-3
390
F
  0
LAYER
  5
1FC
100
AcDbSymbolTableRecord
100
AcDbLayerTableRecord
  2
DEFAULT_3
 70
0
 62
7
  6
PHANTOM
370
-3
390
F
  0
LAYER
  5
1FD
100
AcDbSymbolTableRecord
100
AcDbLayerTableRecord
  2
ALL_FEATURES
 70
0
 62
7
  6
CONTINUOUS
370
-3
390
F
  0
LAYER
  5
1FE
100
AcDbSymbolTableRecord
100
AcDbLayerTableRecord
  2
AXES_FEATURES
 70
0
 62
7
  6
CONTINUOUS
370
-3
390
F
  0
LAYER
  5
1FF
100
AcDbSymbolTableRecord
100
AcDbLayerTableRecord
  2
DIMENSIONS
 70
0
 62
7
  6
CONTINUOUS
370
-3
390
F
  0
ENDTAB
  0
TABLE
  2
STYLE
  5
3
100
AcDbSymbolTable
 70
1
  0
STYLE
  5
11
100
AcDbSymbolTableRecord
100
AcDbTextStyleTableRecord
  2
STANDARD
 70
0
 40
0.0
 41
0.8
 50
0.0
 71
0
 42
0.2
  3
txt
  4

  0
STYLE
  5
200
100
AcDbSymbolTableRecord
100
AcDbTextStyleTableRecord
  2
TEXTSTYLE_1
 70
0
 40
0.0
 41
0.8
 50
0.0
 71
0
 42
0.2
  3
gdt
  4

  0
ENDTAB
  0
TABLE
  2
VIEW
  5
6
100
AcDbSymbolTable
 70
0
  0
ENDTAB
  0
TABLE
  2
UCS
  5
7
100
AcDbSymbolTable
 70
0
  0
ENDTAB
  0
TABLE
  2
APPID
  5
9
100
AcDbSymbolTable
 70
1
  0
APPID
  5
201
100
AcDbSymbolTableRecord
100
AcDbRegAppTableRecord
  2
ACAD
 70
0
  0
ENDTAB
  0
TABLE
  2
BLOCK_RECORD
  5
1
100
AcDbSymbolTable
 70
0
  0
BLOCK_RECORD
  5
202
100
AcDbSymbolTableRecord
100
AcDbBlockTableRecord
  2
*Model_Space
  0
BLOCK_RECORD
  5
203
100
AcDbSymbolTableRecord
100
AcDbBlockTableRecord
  2
*Paper_Space
  0
BLOCK_RECORD
  5
204
100
AcDbSymbolTableRecord
100
AcDbBlockTableRecord
  2
_FILLED
  0
ENDTAB
  0
TABLE
  2
DIMSTYLE
  5
A
100
AcDbSymbolTable
 70
1
100
AcDbDimStyleTable
 71
0
  0
DIMSTYLE
105
205
100
AcDbSymbolTableRecord
100
AcDbDimStyleTableRecord
  2
STANDARD
 70
0
  3

  4

 40
1.0
 41
0.1
 42
0.0625
 43
0.38
 44
0.125
 45
0.0
 46
0.0
 47
0.001
 48
0.001
140
0.08
141
0.09
142
0.0
143
25.4
144
1.0
145
0.0
146
1.0
147
0.09
 71
1.0
 72
0.0
 73
1
 74
1
 75
0
 76
0
 77
0
 78
4
 79
1
170
1
171
2
172
0
173
0
174
0
175
0
176
0
177
0
178
0
270
2
179
3
271
3
272
3
273
2
274
2
275
0
280
0
281
0
282
0
283
1
284
4
285
0
286
0
287
3
288
0
340
11
278
46
341
204
342
204
343
204
344
204
  0
ENDTAB
  0
ENDSEC
  0
SECTION
  2
BLOCKS
  0
BLOCK
  5
20
100
AcDbEntity
  8
0
100
AcDbBlockBegin
  2
*Model_Space
 70
0
 10
0.0
 20
0.0
 30
0.0
  3
*Model_Space
  1

  0
ENDBLK
  5
21
100
AcDbEntity
  8
0
100
AcDbBlockEnd
  0
BLOCK
  5
1C
100
AcDbEntity
  8
0
100
AcDbBlockBegin
  2
*Paper_Space
 70
0
 10
0.0
 20
0.0
 30
0.0
  3
*Paper_Space
  1

  0
ENDBLK
  5
1D
100
AcDbEntity
  8
0
100
AcDbBlockEnd
  0
BLOCK
  5
206
100
AcDbEntity
  8
0
100
AcDbBlockBegin
  2
_FILLED
 70
64
 10
0.0
 20
0.0
  3
_FILLED
  1

  0
SOLID
  5
207
100
AcDbEntity
  8
0
  6
BYBLOCK
 62
0
100
AcDbTrace
 10
0.0
 20
0.0
 11
-1.0
 21
0.2
 12
-1.0
 22
-0.2
 13
-1.0
 23
-0.2
  0
ENDBLK
  5
208
100
AcDbEntity
  8
0
  6
BYBLOCK
 62
0
100
AcDbBlockEnd
  0
ENDSEC
  0
SECTION
  2
ENTITIES
  0
LINE
  5
209
100
AcDbEntity
  8
0
100
AcDbLine
 62
7
  6
CONTINUOUS
 10
4.0823183383
 20
9.3884052057
 11
4.0823183383
 21
9.8634052057
  0
LINE
  5
20A
100
AcDbEntity
  8
0
100
AcDbLine
 62
9
  6
CONTINUOUS
 10
4.2123761738
 20
9.4097086773
 11
4.2123761738
 21
9.842101734
  0
LINE
  5
20B
100
AcDbEntity
  8
0
100
AcDbLine
 62
7
  6
CONTINUOUS
 10
4.4053183383
 20
9.4074052057
 11
4.4053183383
 21
9.8444052057
  0
LINE
  5
20C
100
AcDbEntity
  8
0
100
AcDbLine
 62
9
  6
CONTINUOUS
 10
4.7490780832
 20
10.0201545141
 11
4.7490780832
 21
9.2316558973
  0
LINE
  5
20D
100
AcDbEntity
  8
0
100
AcDbLine
 62
9
  6
CONTINUOUS
 10
5.8039142553
 20
9.4366952785
 11
5.8039142553
 21
9.8151151329
  0
LINE
  5
20E
100
AcDbEntity
  8
0
100
AcDbLine
 62
7
  6
CONTINUOUS
 10
6.5973183383
 20
9.8759052057
 11
6.5973183383
 21
9.3759052057
  0
LINE
  5
20F
100
AcDbEntity
  8
0
100
AcDbLine
 62
7
  6
CONTINUOUS
 10
6.6423183383
 20
9.3759052057
 11
6.6423183383
 21
9.8759052057
  0
LINE
  5
210
100
AcDbEntity
  8
0
100
AcDbLine
 62
7
  6
CONTINUOUS
 10
6.6673183383
 20
9.3756553326
 11
6.6673183383
 21
9.876155073
  0
LINE
  5
211
100
AcDbEntity
  8
0
100
AcDbLine
 62
7
  6
CONTINUOUS
 10
6.6673183383
 20
9.4009052057
 11
6.6423183383
 21
9.3759052057
  0
LINE
  5
212
100
AcDbEntity
  8
0
100
AcDbLine
 62
7
  6
CONTINUOUS
 10
6.6673183383
 20
9.8509052057
 11
6.6423183383
 21
9.8759052057
  0
LINE
  5
213
100
AcDbEntity
  8
0
100
AcDbLine
 62
9
  6
CONTINUOUS
 10
10.4581662146
 20
8.8558206482
 11
10.4581662146
 21
9.3468578622
  0
LINE
  5
214
100
AcDbEntity
  8
0
100
AcDbLine
 62
7
  6
CONTINUOUS
 10
11.0473183383
 20
4.9163656096
 11
11.0473183924
 21
4.4063123211
  0
LINE
  5
215
100
AcDbEntity
  8
0
100
AcDbLine
 62
7
  6
CONTINUOUS
 10
11.0473183383
 20
4.9188798334
 11
11.0473183238
 21
5.9534629973
  0
LINE
  5
216
100
AcDbEntity
  8
0
100
AcDbLine
 62
7
  6
CONTINUOUS
 10
11.0473183223
 20
6.9855197363
 11
11.0473183383
 21
8.830375528
  0
LINE
  5
217
100
AcDbEntity
  8
0
100
AcDbLine
 62
9
  6
CONTINUOUS
 10
11.0473183383
 20
4.9163656096
 11
11.0473183383
 21
4.9188798334
  0
LINE
  5
218
100
AcDbEntity
  8
0
100
AcDbLine
 62
9
  6
CONTINUOUS
 10
11.0473183383
 20
8.8722019371
 11
11.0473183383
 21
8.830375528
  0
LINE
  5
219
100
AcDbEntity
  8
0
100
AcDbLine
 62
9
  6
CONTINUOUS
 10
11.7382375637
 20
8.8657949756
 11
11.7371966256
 21
8.8640279784
  0
LWPOLYLINE
  5
21A
100
AcDbEntity
  8
0
100
AcDbPolyline
 62
7
  6
CONTINUOUS
 90
27
 70
0
 10
10.3564126124
 20
8.8657723078
 10
10.4052275996
 20
8.7719606079
 10
10.4573435534
 20
8.6210866076
 10
10.4926439743
 20
8.4324474324
 10
10.5075671818
 20
8.2240423961
 10
10.5094552383
 20
8.0141498535
 10
10.5069061402
 20
7.8069773454
 10
10.5053163524
 20
7.6034668816
 10
10.50430985
 20
7.4059712287
 10
10.501722709
 20
7.2151413439
 10
10.4960614994
 20
7.0311218501
 10
10.4871139733
 20
6.8531429791
 10
10.4767359592
 20
6.6789938464
 10
10.4670291837
 20
6.509287991
 10
10.4592347254
 20
6.342676457
 10
10.4532144078
 20
6.1792013821
 10
10.4472683235
 20
6.0224530247
 10
10.4409622538
 20
5.8706424736
 10
10.4361986302
 20
5.72420358
 10
10.434792741
 20
5.584173385
 10
10.4362164223
 20
5.4550163065
 10
10.4373238737
 20
5.3415825665
 10
10.4363961116
 20
5.2428744726
 10
10.4328142749
 20
5.1553243636
 10
10.4272760397
 20
5.0892189689
 10
10.4206675698
 20
5.0399556532
 10
10.4117309428
 20
4.9849949618
  0
LINE
  5
21B
100
AcDbEntity
  8
0
100
AcDbLine
 62
9
  6
CONTINUOUS
 10
11.6364704619
 20
8.8558279046
 11
11.6364704619
 21
9.3468578622
  0
LINE
  5
21C
100
AcDbEntity
  8
0
100
AcDbLine
 62
9
  6
CONTINUOUS
 10
10.3574497024
 20
8.8640116897
 11
10.3564126124
 21
8.8657723078
  0
LWPOLYLINE
  5
21D
100
AcDbEntity
  8
0
100
AcDbPolyline
 62
7
  6
CONTINUOUS
 90
27
 70
0
 10
11.6829057347
 20
4.9849949562
 10
11.6739690945
 20
5.0399557333
 10
11.6673606286
 20
5.0892190442
 10
11.661822395
 20
5.1553244717
 10
11.658240562
 20
5.2428745988
 10
11.6573128032
 20
5.3415827023
 10
11.6584202562
 20
5.4550164482
 10
11.6598439361
 20
5.5841735369
 10
11.658438043
 20
5.7242037304
 10
11.6536744168
 20
5.8706426235
 10
11.6473683472
 20
6.0224531697
 10
11.6414222638
 20
6.1792015249
 10
11.6354019454
 20
6.3426765975
 10
11.6276074858
 20
6.5092881257
 10
11.6179007096
 20
6.6789939757
 10
11.6075226961
 20
6.853143104
 10
11.5985751722
 20
7.0311219705
 10
11.5929139651
 20
7.2151414606
 10
11.5903268257
 20
7.4059713421
 10
11.5893203237
 20
7.6034669924
 10
11.587730535
 20
7.806977452
 10
11.5851814376
 20
8.0141499513
 10
11.5870694976
 20
8.2240424874
 10
11.6019927134
 20
8.4324475233
 10
11.6372931422
 20
8.6210866801
 10
11.6894090876
 20
8.7719606319
 10
11.7382375637
 20
8.8657949756
  0
LINE
  5
21E
100
AcDbEntity
  8
0
100
AcDbLine
 62
7
  6
CONTINUOUS
 10
15.4273183383
 20
9.8509052057
 11
15.4523183383
 21
9.8759052057
  0
LINE
  5
21F
100
AcDbEntity
  8
0
100
AcDbLine
 62
7
  6
CONTINUOUS
 10
16.2907224213
 20
9.8151151329
 11
17.3455585934
 21
10.0201545141
  0
LINE
  5
220
100
AcDbEntity
  8
0
100
AcDbLine
 62
7
  6
CONTINUOUS
 10
5.8039142553
 20
9.8151151329
 11
4.7490780832
 21
10.0201545141
  0
LINE
  5
221
100
AcDbEntity
  8
0
100
AcDbLine
 62
7
  6
CONTINUOUS
 10
15.4973183383
 20
9.3759052057
 11
15.4523183383
 21
9.3759052057
  0
LINE
  5
222
100
AcDbEntity
  8
0
100
AcDbLine
 62
7
  6
CONTINUOUS
 10
6.5973183383
 20
9.3759052057
 11
6.6423183383
 21
9.3759052057
  0
LINE
  5
223
100
AcDbEntity
  8
0
100
AcDbLine
 62
7
  6
CONTINUOUS
 10
15.4973183383
 20
9.8759052057
 11
15.4523183383
 21
9.8759052057
  0
LINE
  5
224
100
AcDbEntity
  8
0
100
AcDbLine
 62
7
  6
CONTINUOUS
 10
6.5973183383
 20
9.8759052057
 11
6.6423183383
 21
9.8759052057
  0
LINE
  5
225
100
AcDbEntity
  8
0
100
AcDbLine
 62
7
  6
CONTINUOUS
 10
5.8039142553
 20
9.4366952785
 11
4.7490780832
 21
9.2316558973
  0
LINE
  5
226
100
AcDbEntity
  8
0
100
AcDbLine
 62
7
  6
CONTINUOUS
 10
16.2907224213
 20
9.4366952785
 11
17.3455585934
 21
9.2316558973
  0
LINE
  5
227
100
AcDbEntity
  8
0
100
AcDbLine
 62
7
  6
CONTINUOUS
 10
15.4273183383
 20
9.8761550788
 11
15.4273183383
 21
9.3756553383
  0
LINE
  5
228
100
AcDbEntity
  8
0
100
AcDbLine
 62
7
  6
CONTINUOUS
 10
15.4523183383
 20
9.8759052057
 11
15.4523183383
 21
9.3759052057
  0
LINE
  5
229
100
AcDbEntity
  8
0
100
AcDbLine
 62
7
  6
CONTINUOUS
 10
15.4973183383
 20
9.3759052057
 11
15.4973183383
 21
9.8759052057
  0
LINE
  5
22A
100
AcDbEntity
  8
0
100
AcDbLine
 62
7
  6
CONTINUOUS
 10
15.4273183383
 20
9.4009052057
 11
15.4523183383
 21
9.3759052057
  0
LINE
  5
22B
100
AcDbEntity
  8
0
100
AcDbLine
 62
9
  6
CONTINUOUS
 10
16.2907224213
 20
9.8151151329
 11
16.2907224213
 21
9.4366952785
  0
LINE
  5
22C
100
AcDbEntity
  8
0
100
AcDbLine
 62
9
  6
CONTINUOUS
 10
17.3455585934
 20
9.2316558973
 11
17.3455585934
 21
10.0201545141
  0
LINE
  5
22D
100
AcDbEntity
  8
0
100
AcDbLine
 62
7
  6
CONTINUOUS
 10
17.6893183383
 20
9.4074052057
 11
17.6893183383
 21
9.8444052057
  0
LINE
  5
22E
100
AcDbEntity
  8
0
100
AcDbLine
 62
9
  6
CONTINUOUS
 10
17.8822605028
 20
9.842101734
 11
17.8822605028
 21
9.4097086773
  0
LINE
  5
22F
100
AcDbEntity
  8
0
100
AcDbLine
 62
7
  6
CONTINUOUS
 10
18.0123183383
 20
9.3884052057
 11
18.0123183383
 21
9.8634052057
  0
ARC
  5
230
100
AcDbEntity
  8
0
100
AcDbCircle
 62
7
  6
CONTINUOUS
 10
6.0901277484
 20
7.9642545033
 40
1.5
100
AcDbArc
 50
70.2371945424
 51
101.0
  0
ARC
  5
231
100
AcDbEntity
  8
0
100
AcDbCircle
 62
7
  6
CONTINUOUS
 10
4.6893548676
 20
9.5389052057
 40
0.313
100
AcDbArc
 50
204.8426560169
 51
281.0
  0
ARC
  5
232
100
AcDbEntity
  8
0
100
AcDbCircle
 62
7
  6
CONTINUOUS
 10
4.3102183909
 20
9.5234052057
 40
0.15
100
AcDbArc
 50
229.2861651141
 51
309.3458297661
  0
ARC
  5
233
100
AcDbEntity
  8
0
100
AcDbCircle
 62
7
  6
CONTINUOUS
 10
4.1562799693
 20
9.3445226678
 40
0.086
100
AcDbArc
 50
49.2861651141
 51
149.3187124064
  0
ARC
  5
234
100
AcDbEntity
  8
0
100
AcDbCircle
 62
7
  6
CONTINUOUS
 10
4.6893548676
 20
9.7129052057
 40
0.313
100
AcDbArc
 50
79.0
 51
155.1573439831
  0
ARC
  5
235
100
AcDbEntity
  8
0
100
AcDbCircle
 62
7
  6
CONTINUOUS
 10
4.1602899953
 20
9.6259052057
 40
0.249971657
100
AcDbArc
 50
108.1750968409
 51
251.8249031591
  0
ARC
  5
236
100
AcDbEntity
  8
0
100
AcDbCircle
 62
7
  6
CONTINUOUS
 10
4.3102183909
 20
9.7284052057
 40
0.15
100
AcDbArc
 50
50.6541702339
 51
130.7138348859
  0
ARC
  5
237
100
AcDbEntity
  8
0
100
AcDbCircle
 62
7
  6
CONTINUOUS
 10
4.1562799693
 20
9.9072877436
 40
0.086
100
AcDbArc
 50
210.6812875936
 51
310.7138348859
  0
ARC
  5
238
100
AcDbEntity
  8
0
100
AcDbCircle
 62
7
  6
CONTINUOUS
 10
7.0473183383
 20
9.6259052057
 40
1.17
100
AcDbArc
 50
188.7089464971
 51
171.2910535029
  0
ARC
  5
239
100
AcDbEntity
  8
0
100
AcDbCircle
 62
9
  6
CONTINUOUS
 10
7.0473183383
 20
9.6259052057
 40
1.1043717104
100
AcDbArc
 50
188.7556666413
 51
171.2443333587
  0
ARC
  5
23A
100
AcDbEntity
  8
0
100
AcDbCircle
 62
9
  6
CONTINUOUS
 10
7.0473183383
 20
9.6259052057
 40
1.0719223696
100
AcDbArc
 50
188.929913143
 51
171.070086857
  0
ARC
  5
23B
100
AcDbEntity
  8
0
100
AcDbCircle
 62
9
  6
CONTINUOUS
 10
7.0473183383
 20
9.6259052057
 40
1.0407459276
100
AcDbArc
 50
189.1473896981
 51
170.8526103019
  0
ARC
  5
23C
100
AcDbEntity
  8
0
100
AcDbCircle
 62
9
  6
CONTINUOUS
 10
7.0473183383
 20
9.6259052057
 40
1.0164705063
100
AcDbArc
 50
189.3259649298
 51
170.6740350702
  0
ARC
  5
23D
100
AcDbEntity
  8
0
100
AcDbCircle
 62
9
  6
CONTINUOUS
 10
7.0473183383
 20
9.6259052057
 40
0.9793435571
100
AcDbArc
 50
189.6139732455
 51
170.3860267545
  0
ARC
  5
23E
100
AcDbEntity
  8
0
100
AcDbCircle
 62
9
  6
CONTINUOUS
 10
7.0473183383
 20
9.6259052057
 40
0.9519481536
100
AcDbArc
 50
189.8431147776
 51
170.1568852224
  0
ARC
  5
23F
100
AcDbEntity
  8
0
100
AcDbCircle
 62
9
  6
CONTINUOUS
 10
7.0473183383
 20
9.6259052057
 40
0.9418237702
100
AcDbArc
 50
189.9311710139
 51
170.0688289861
  0
ARC
  5
240
100
AcDbEntity
  8
0
100
AcDbCircle
 62
7
  6
CONTINUOUS
 10
7.0473183383
 20
9.6259052057
 40
0.8187389754
100
AcDbArc
 50
192.132967575
 51
167.867032425
  0
ARC
  5
241
100
AcDbEntity
  8
0
100
AcDbCircle
 62
9
  6
CONTINUOUS
 10
7.0473183383
 20
9.6259052057
 40
0.7877475635
100
AcDbArc
 50
192.7600112585
 51
167.2399887415
  0
ARC
  5
242
100
AcDbEntity
  8
0
100
AcDbCircle
 62
9
  6
CONTINUOUS
 10
7.0473183383
 20
9.6259052057
 40
0.5244951005
100
AcDbArc
 50
208.027361123
 51
151.9726894423
  0
ARC
  5
243
100
AcDbEntity
  8
0
100
AcDbCircle
 62
7
  6
CONTINUOUS
 10
7.0473183383
 20
9.6259052057
 40
0.455
100
AcDbArc
 50
213.3669941407
 51
146.6330058593
  0
CIRCLE
  5
244
100
AcDbEntity
  8
0
100
AcDbCircle
 62
7
  6
CONTINUOUS
 10
7.0473183383
 20
9.6259052057
 40
0.3305
  0
CIRCLE
  5
245
100
AcDbEntity
  8
0
100
AcDbCircle
 62
9
  6
CONTINUOUS
 10
7.0473183383
 20
9.6259052057
 40
0.2835
  0
CIRCLE
  5
246
100
AcDbEntity
  8
0
100
AcDbCircle
 62
7
  6
CONTINUOUS
 10
7.0473183383
 20
9.6259052057
 40
0.272
  0
CIRCLE
  5
247
100
AcDbEntity
  8
0
100
AcDbCircle
 62
9
  6
CONTINUOUS
 10
7.0473183383
 20
9.6259052057
 40
0.236
  0
CIRCLE
  5
248
100
AcDbEntity
  8
0
100
AcDbCircle
 62
7
  6
CONTINUOUS
 10
7.0473183383
 20
9.6259052057
 40
0.18
  0
CIRCLE
  5
249
100
AcDbEntity
  8
0
100
AcDbCircle
 62
7
  6
CONTINUOUS
 10
7.0473183383
 20
9.6259052057
 40
0.17
  0
ARC
  5
24A
100
AcDbEntity
  8
0
100
AcDbCircle
 62
7
  6
CONTINUOUS
 10
6.0901277484
 20
11.287555908
 40
1.5
100
AcDbArc
 50
259.0
 51
289.7628054576
  0
ARC
  5
24B
100
AcDbEntity
  8
0
100
AcDbCircle
 62
9
  6
CONTINUOUS
 10
10.7843110446
 20
8.7098167025
 40
0.5331687582
100
AcDbArc
 50
139.1228934159
 51
140.4095632096
  0
ARC
  5
24C
100
AcDbEntity
  8
0
100
AcDbCircle
 62
9
  6
CONTINUOUS
 10
11.0006902898
 20
9.5815235222
 40
0.5243264551
100
AcDbArc
 50
205.1355118389
 51
209.8733706713
  0
ARC
  5
24D
100
AcDbEntity
  8
0
100
AcDbCircle
 62
9
  6
CONTINUOUS
 10
10.6919975933
 20
8.9184417645
 40
0.4449710903
100
AcDbArc
 50
146.6285378523
 51
148.4385727128
  0
ARC
  5
24E
100
AcDbEntity
  8
0
100
AcDbCircle
 62
9
  6
CONTINUOUS
 10
10.825961593
 20
9.6225523485
 40
0.3492993386
100
AcDbArc
 50
213.6323987195
 51
219.3248929742
  0
ARC
  5
24F
100
AcDbEntity
  8
0
100
AcDbCircle
 62
9
  6
CONTINUOUS
 10
10.5463900702
 20
8.9655978776
 40
0.3002048489
100
AcDbArc
 50
134.4647342727
 51
138.8343343758
  0
ARC
  5
250
100
AcDbEntity
  8
0
100
AcDbCircle
 62
9
  6
CONTINUOUS
 10
10.4651819182
 20
8.9861319748
 40
0.1110390096
100
AcDbArc
 50
132.1587551213
 51
139.1619411579
  0
ARC
  5
251
100
AcDbEntity
  8
0
100
AcDbCircle
 62
7
  6
CONTINUOUS
 10
16.0045089282
 20
7.9642545033
 40
1.5
100
AcDbArc
 50
79.0
 51
109.7628054576
  0
ARC
  5
252
100
AcDbEntity
  8
0
100
AcDbCircle
 62
7
  6
CONTINUOUS
 10
11.0473183383
 20
4.8759052057
 40
0.712346355
100
AcDbArc
 50
149.2943985562
 51
30.7056011123
  0
ARC
  5
253
100
AcDbEntity
  8
0
100
AcDbCircle
 62
7
  6
CONTINUOUS
 10
11.0473183383
 20
9.6259052057
 40
1.1751996644
100
AcDbArc
 50
300.0991761421
 51
239.9008241818
  0
ARC
  5
254
100
AcDbEntity
  8
0
100
AcDbCircle
 62
7
  6
CONTINUOUS
 10
11.0473183383
 20
9.6259052057
 40
1.0896
100
AcDbArc
 50
305.3793491922
 51
234.6202056684
  0
ARC
  5
255
100
AcDbEntity
  8
0
100
AcDbCircle
 62
9
  6
CONTINUOUS
 10
11.0473183383
 20
9.6259052057
 40
0.861691927
100
AcDbArc
 50
327.5225681491
 51
212.4774357005
  0
ARC
  5
256
100
AcDbEntity
  8
0
100
AcDbCircle
 62
9
  6
CONTINUOUS
 10
11.2972961524
 20
8.6987927563
 40
0.5502350494
100
AcDbArc
 50
39.6106114732
 51
40.8572642286
  0
ARC
  5
257
100
AcDbEntity
  8
0
100
AcDbCircle
 62
9
  6
CONTINUOUS
 10
11.0473183383
 20
9.6259052057
 40
0.5487
100
AcDbArc
 50
338.9797584136
 51
201.0202607717
  0
ARC
  5
258
100
AcDbEntity
  8
0
100
AcDbCircle
 62
9
  6
CONTINUOUS
 10
11.0991264766
 20
9.5788269706
 40
0.5184902306
100
AcDbArc
 50
330.098849598
 51
334.8910830487
  0
CIRCLE
  5
259
100
AcDbEntity
  8
0
100
AcDbCircle
 62
7
  6
CONTINUOUS
 10
11.0473183383
 20
9.6259052057
 40
0.455
  0
ARC
  5
25A
100
AcDbEntity
  8
0
100
AcDbCircle
 62
9
  6
CONTINUOUS
 10
11.3993289885
 20
8.9163403897
 40
0.4488913786
100
AcDbArc
 50
31.5688277323
 51
33.3630569994
  0
ARC
  5
25B
100
AcDbEntity
  8
0
100
AcDbCircle
 62
9
  6
CONTINUOUS
 10
11.2718369075
 20
9.6202131475
 40
0.3453719275
100
AcDbArc
 50
320.642628109
 51
326.3999154433
  0
CIRCLE
  5
25C
100
AcDbEntity
  8
0
100
AcDbCircle
 62
7
  6
CONTINUOUS
 10
11.0473183383
 20
9.6259052057
 40
0.3305
  0
ARC
  5
25D
100
AcDbEntity
  8
0
100
AcDbCircle
 62
9
  6
CONTINUOUS
 10
11.5461976701
 20
8.9636636357
 40
0.3030213726
100
AcDbArc
 50
41.1859781023
 51
45.5149244578
  0
CIRCLE
  5
25E
100
AcDbEntity
  8
0
100
AcDbCircle
 62
9
  6
CONTINUOUS
 10
11.0473183383
 20
9.6259052057
 40
0.2834999985
  0
CIRCLE
  5
25F
100
AcDbEntity
  8
0
100
AcDbCircle
 62
7
  6
CONTINUOUS
 10
11.0473183383
 20
9.6259052057
 40
0.272
  0
CIRCLE
  5
260
100
AcDbEntity
  8
0
100
AcDbCircle
 62
9
  6
CONTINUOUS
 10
11.0473183383
 20
9.6259052057
 40
0.2369912274
  0
CIRCLE
  5
261
100
AcDbEntity
  8
0
100
AcDbCircle
 62
7
  6
CONTINUOUS
 10
11.0473183383
 20
9.6259052057
 40
0.18
  0
CIRCLE
  5
262
100
AcDbEntity
  8
0
100
AcDbCircle
 62
7
  6
CONTINUOUS
 10
11.0473183383
 20
9.6259052057
 40
0.17
  0
ARC
  5
263
100
AcDbEntity
  8
0
100
AcDbCircle
 62
9
  6
CONTINUOUS
 10
11.6298232553
 20
8.9864920775
 40
0.1105247479
100
AcDbArc
 50
40.8223130706
 51
47.8599656596
  0
ARC
  5
264
100
AcDbEntity
  8
0
100
AcDbCircle
 62
7
  6
CONTINUOUS
 10
15.0473183383
 20
9.6259052057
 40
1.17
100
AcDbArc
 50
8.7089464971
 51
351.2910535029
  0
ARC
  5
265
100
AcDbEntity
  8
0
100
AcDbCircle
 62
9
  6
CONTINUOUS
 10
15.0473183383
 20
9.6259052057
 40
1.1043717104
100
AcDbArc
 50
8.7556666413
 51
351.2443333587
  0
ARC
  5
266
100
AcDbEntity
  8
0
100
AcDbCircle
 62
9
  6
CONTINUOUS
 10
15.0473183383
 20
9.6259052057
 40
1.0719223696
100
AcDbArc
 50
8.929913143
 51
351.070086857
  0
ARC
  5
267
100
AcDbEntity
  8
0
100
AcDbCircle
 62
9
  6
CONTINUOUS
 10
15.0473183383
 20
9.6259052057
 40
1.0407459276
100
AcDbArc
 50
9.1473896981
 51
350.8526103019
  0
ARC
  5
268
100
AcDbEntity
  8
0
100
AcDbCircle
 62
9
  6
CONTINUOUS
 10
15.0473183383
 20
9.6259052057
 40
1.0164705063
100
AcDbArc
 50
9.3259649298
 51
350.6740350702
  0
ARC
  5
269
100
AcDbEntity
  8
0
100
AcDbCircle
 62
9
  6
CONTINUOUS
 10
15.0473183383
 20
9.6259052057
 40
0.9793435571
100
AcDbArc
 50
9.6139732455
 51
350.3860267545
  0
ARC
  5
26A
100
AcDbEntity
  8
0
100
AcDbCircle
 62
9
  6
CONTINUOUS
 10
15.0473183383
 20
9.6259052057
 40
0.9519481536
100
AcDbArc
 50
9.8431147776
 51
350.1568852224
  0
ARC
  5
26B
100
AcDbEntity
  8
0
100
AcDbCircle
 62
9
  6
CONTINUOUS
 10
15.0473183383
 20
9.6259052057
 40
0.9418237702
100
AcDbArc
 50
9.9311710139
 51
350.0688289861
  0
ARC
  5
26C
100
AcDbEntity
  8
0
100
AcDbCircle
 62
7
  6
CONTINUOUS
 10
15.0473183383
 20
9.6259052057
 40
0.8187389754
100
AcDbArc
 50
12.132967575
 51
347.867032425
  0
ARC
  5
26D
100
AcDbEntity
  8
0
100
AcDbCircle
 62
9
  6
CONTINUOUS
 10
15.0473183383
 20
9.6259052057
 40
0.7877475635
100
AcDbArc
 50
12.7600112585
 51
347.2399887415
  0
ARC
  5
26E
100
AcDbEntity
  8
0
100
AcDbCircle
 62
9
  6
CONTINUOUS
 10
15.0473183383
 20
9.6259052057
 40
0.5244951005
100
AcDbArc
 50
28.027361123
 51
331.9726894423
  0
ARC
  5
26F
100
AcDbEntity
  8
0
100
AcDbCircle
 62
7
  6
CONTINUOUS
 10
15.0473183383
 20
9.6259052057
 40
0.455
100
AcDbArc
 50
33.3669941407
 51
326.6330058593
  0
CIRCLE
  5
270
100
AcDbEntity
  8
0
100
AcDbCircle
 62
7
  6
CONTINUOUS
 10
15.0473183383
 20
9.6259052057
 40
0.3305
  0
CIRCLE
  5
271
100
AcDbEntity
  8
0
100
AcDbCircle
 62
9
  6
CONTINUOUS
 10
15.0473183383
 20
9.6259052057
 40
0.2835
  0
CIRCLE
  5
272
100
AcDbEntity
  8
0
100
AcDbCircle
 62
7
  6
CONTINUOUS
 10
15.0473183383
 20
9.6259052057
 40
0.272
  0
CIRCLE
  5
273
100
AcDbEntity
  8
0
100
AcDbCircle
 62
9
  6
CONTINUOUS
 10
15.0473183383
 20
9.6259052057
 40
0.236
  0
CIRCLE
  5
274
100
AcDbEntity
  8
0
100
AcDbCircle
 62
7
  6
CONTINUOUS
 10
15.0473183383
 20
9.6259052057
 40
0.18
  0
CIRCLE
  5
275
100
AcDbEntity
  8
0
100
AcDbCircle
 62
7
  6
CONTINUOUS
 10
15.0473183383
 20
9.6259052057
 40
0.17
  0
ARC
  5
276
100
AcDbEntity
  8
0
100
AcDbCircle
 62
7
  6
CONTINUOUS
 10
17.4052818089
 20
9.5389052057
 40
0.313
100
AcDbArc
 50
259.0
 51
335.1573439831
  0
ARC
  5
277
100
AcDbEntity
  8
0
100
AcDbCircle
 62
7
  6
CONTINUOUS
 10
17.7844182857
 20
9.5234052057
 40
0.15
100
AcDbArc
 50
230.6541702339
 51
310.7138348859
  0
ARC
  5
278
100
AcDbEntity
  8
0
100
AcDbCircle
 62
7
  6
CONTINUOUS
 10
17.9383567072
 20
9.3445226678
 40
0.086
100
AcDbArc
 50
30.6812875936
 51
130.7138348859
  0
ARC
  5
279
100
AcDbEntity
  8
0
100
AcDbCircle
 62
7
  6
CONTINUOUS
 10
17.4052818089
 20
9.7129052057
 40
0.313
100
AcDbArc
 50
24.8426560169
 51
101.0
  0
ARC
  5
27A
100
AcDbEntity
  8
0
100
AcDbCircle
 62
7
  6
CONTINUOUS
 10
17.9343466813
 20
9.6259052057
 40
0.249971657
100
AcDbArc
 50
288.1750968409
 51
71.8249031591
  0
ARC
  5
27B
100
AcDbEntity
  8
0
100
AcDbCircle
 62
7
  6
CONTINUOUS
 10
17.7844182857
 20
9.7284052057
 40
0.15
100
AcDbArc
 50
49.2861651141
 51
129.3458297661
  0
ARC
  5
27C
100
AcDbEntity
  8
0
100
AcDbCircle
 62
7
  6
CONTINUOUS
 10
17.9383567072
 20
9.9072877436
 40
0.086
100
AcDbArc
 50
229.2861651141
 51
329.3187124064
  0
ARC
  5
27D
100
AcDbEntity
  8
0
100
AcDbCircle
 62
7
  6
CONTINUOUS
 10
16.0045089282
 20
11.287555908
 40
1.5
100
AcDbArc
 50
250.2371945424
 51
281.0
  0
SPLINE
  5
27E
100
AcDbEntity
  8
0
100
AcDbSpline
 62
7
  6
CONTINUOUS
 70
0
 71
3
 72
27
 73
23
 74
0
 42
0.0000001
 43
0.0000001
 44
0.0000000001
 40
0.0
 40
0.0
 40
0.0
 40
0.0
 40
0.0624684782
 40
0.1249921958
 40
0.1874884091
 40
0.2499759527
 40
0.2812337711
 40
0.3124929617
 40
0.3437526179
 40
0.3750120718
 40
0.4375042803
 40
0.46876091
 40
0.5000189329
 40
0.5625156941
 40
0.6250114402
 40
0.6875035639
 40
0.7499973855
 40
0.8124947503
 40
0.8749910975
 40
0.9062481875
 40
0.9375046641
 40
1.0
 40
1.0
 40
1.0
 40
1.0
 10
11.0473193854
 20
4.2309543646
 30
0.0
 10
11.0239513229
 20
4.2309543574
 30
0.0
 10
10.9771555541
 20
4.2335018756
 30
0.0
 10
10.9078175866
 20
4.2449031308
 30
0.0
 10
10.8401320242
 20
4.2638252636
 30
0.0
 10
10.7857683642
 20
4.2856237882
 30
0.0
 10
10.7439079138
 20
4.3065067132
 30
0.0
 10
10.7133931898
 20
4.3238466384
 30
0.0
 10
10.6838598089
 20
4.3428119896
 30
0.0
 10
10.6459239086
 20
4.3701859062
 30
0.0
 10
10.6102662162
 20
4.4006105113
 30
0.0
 10
10.5772945438
 20
4.4337969766
 30
0.0
 10
10.5461877163
 20
4.4687419367
 30
0.0
 10
10.5109376122
 20
4.5155226443
 30
0.0
 10
10.4749807117
 20
4.575894225
 30
0.0
 10
10.4457710512
 20
4.6398080189
 30
0.0
 10
10.4236994508
 20
4.706524527
 30
0.0
 10
10.4089823218
 20
4.7752356907
 30
0.0
 10
10.4030070986
 20
4.8335056568
 30
0.0
 10
10.4020604888
 20
4.8802806338
 30
0.0
 10
10.4036853404
 20
4.9270324016
 30
0.0
 10
10.4077679319
 20
4.9619552085
 30
0.0
 10
10.4117282172
 20
4.9849954372
 30
0.0
  0
SPLINE
  5
27F
100
AcDbEntity
  8
0
100
AcDbSpline
 62
7
  6
CONTINUOUS
 70
0
 71
3
 72
27
 73
23
 74
0
 42
0.0000001
 43
0.0000001
 44
0.0000000001
 40
0.0
 40
0.0
 40
0.0
 40
0.0
 40
0.0624956871
 40
0.0937522289
 40
0.12500929
 40
0.1875053612
 40
0.2500021706
 40
0.312495171
 40
0.3749863681
 40
0.4374811975
 40
0.4999771095
 40
0.5312347776
 40
0.5624912036
 40
0.6249834368
 40
0.6562429656
 40
0.6875027341
 40
0.7187620929
 40
0.7500201299
 40
0.8125083384
 40
0.8750057422
 40
0.9375309389
 40
1.0
 40
1.0
 40
1.0
 40
1.0
 10
11.68290848
 20
4.9849954326
 30
0.0
 10
11.686868808
 20
4.9619551208
 30
0.0
 10
11.6909513312
 20
4.9270322107
 30
0.0
 10
11.6925762215
 20
4.8802803873
 30
0.0
 10
11.6916297112
 20
4.8335055795
 30
0.0
 10
11.6856543484
 20
4.7752360576
 30
0.0
 10
11.6709375504
 20
4.7065255986
 30
0.0
 10
11.6488664146
 20
4.6398099739
 30
0.0
 10
11.6196573413
 20
4.5758971557
 30
0.0
 10
11.5837014853
 20
4.5155263007
 30
0.0
 10
11.5484526043
 20
4.4687458032
 30
0.0
 10
11.5173464458
 20
4.4338010442
 30
0.0
 10
11.4843746112
 20
4.4006151461
 30
0.0
 10
11.4487176436
 20
4.370189952
 30
0.0
 10
11.4107821756
 20
4.3428154216
 30
0.0
 10
11.3812488829
 20
4.3238498034
 30
0.0
 10
11.3507342243
 20
4.3065095153
 30
0.0
 10
11.3088736451
 20
4.2856261443
 30
0.0
 10
11.2545095008
 20
4.2638270764
 30
0.0
 10
11.186823129
 20
4.2449036087
 30
0.0
 10
11.1174840545
 20
4.2335022708
 30
0.0
 10
11.0706876237
 20
4.2309543567
 30
0.0
 10
11.0473193854
 20
4.2309543646
 30
0.0
  0
LINE
  5
280
100
AcDbEntity
  8
0
100
AcDbLine
 62
7
  6
CONTINUOUS
 10
11.0473183094
 20
5.9534629973
 11
11.0473183109
 21
6.1667376813
  0
SPLINE
  5
281
100
AcDbEntity
  8
0
100
AcDbSpline
 62
9
  6
CONTINUOUS
 70
0
 71
3
 72
36
 73
32
 74
0
 42
0.0000001
 43
0.0000001
 44
0.0000000001
 40
0.0
 40
0.0
 40
0.0
 40
0.0
 40
0.0779696159
 40
0.1576244957
 40
0.2377809196
 40
0.3173637184
 40
0.3953055182
 40
0.4706672526
 40
0.5425538177
 40
0.6101859895
 40
0.672821606
 40
0.7020511523
 40
0.7297830414
 40
0.7559455305
 40
0.7804819027
 40
0.8033489592
 40
0.8245271604
 40
0.8440356434
 40
0.8619870754
 40
0.8704878862
 40
0.8787821783
 40
0.8870233537
 40
0.8954472953
 40
0.9043728714
 40
0.9141773966
 40
0.9252280576
 40
0.9377018053
 40
0.9516361745
 40
0.9668399431
 40
0.9830432878
 40
1.0
 40
1.0
 40
1.0
 40
1.0
 10
11.0473183382
 20
8.8722019065
 30
0.0
 10
11.0642575462
 20
8.8720684239
 30
0.0
 10
11.0984971813
 20
8.8699596549
 30
0.0
 10
11.1496901403
 20
8.8628024876
 30
0.0
 10
11.2007486572
 20
8.8527878956
 30
0.0
 10
11.2509742644
 20
8.840745611
 30
0.0
 10
11.2998090597
 20
8.8274873383
 30
0.0
 10
11.3467276356
 20
8.8136101542
 30
0.0
 10
11.391290259
 20
8.7996898739
 30
0.0
 10
11.4330845697
 20
8.7861901162
 30
0.0
 10
11.4660214965
 20
8.775421786
 30
0.0
 10
11.4907622915
 20
8.7674810726
 30
0.0
 10
11.5080006773
 20
8.7620963098
 30
0.0
 10
11.5243289756
 20
8.7572208377
 30
0.0
 10
11.5397332606
 20
8.7529536125
 30
0.0
 10
11.5542040327
 20
8.7493896886
 30
0.0
 10
11.5677503695
 20
8.7466832328
 30
0.0
 10
11.5803875054
 20
8.7449801299
 30
0.0
 10
11.5904049177
 20
8.7447193814
 30
0.0
 10
11.597927594
 20
8.7454668829
 30
0.0
 10
11.6032645103
 20
8.7465808809
 30
0.0
 10
11.6084019038
 20
8.7483736963
 30
0.0
 10
11.6133246429
 20
8.7510112607
 30
0.0
 10
11.6180061861
 20
8.754647517
 30
0.0
 10
11.6224008535
 20
8.7594344901
 30
0.0
 10
11.6264573372
 20
8.7654585004
 30
0.0
 10
11.6301975643
 20
8.7727023546
 30
0.0
 10
11.6335931902
 20
8.7810909459
 30
0.0
 10
11.6366992988
 20
8.7904441801
 30
0.0
 10
11.6395399572
 20
8.8005633675
 30
0.0
 10
11.6412498881
 20
8.8075630157
 30
0.0
 10
11.6420813633
 20
8.8111519858
 30
0.0
  0
LINE
  5
282
100
AcDbEntity
  8
0
100
AcDbLine
 62
9
  6
CONTINUOUS
 10
11.6420813461
 20
8.8111520249
 11
11.6463327097
 21
8.8312410171
  0
SPLINE
  5
283
100
AcDbEntity
  8
0
100
AcDbSpline
 62
9
  6
CONTINUOUS
 70
0
 71
3
 72
9
 73
5
 74
0
 42
0.0000001
 43
0.0000001
 44
0.0000000001
 40
0.0
 40
0.0
 40
0.0
 40
0.0
 40
0.2528697248
 40
1.0
 40
1.0
 40
1.0
 40
1.0
 10
11.6463315842
 20
8.831243319
 30
0.0
 10
11.6502699648
 20
8.851443055
 30
0.0
 10
11.6667074551
 20
8.9311525465
 30
0.0
 10
11.6867456643
 20
9.0101342372
 30
0.0
 10
11.7039786907
 20
9.0684471754
 30
0.0
  0
SPLINE
  5
284
100
AcDbEntity
  8
0
100
AcDbSpline
 62
9
  6
CONTINUOUS
 70
0
 71
3
 72
22
 73
18
 74
0
 42
0.0000001
 43
0.0000001
 44
0.0000000001
 40
0.0
 40
0.0
 40
0.0
 40
0.0
 40
0.117430031
 40
0.1748124134
 40
0.2316137129
 40
0.288195285
 40
0.3449617703
 40
0.4023916457
 40
0.4315428596
 40
0.4610779786
 40
0.5214404506
 40
0.5837462768
 40
0.6481839717
 40
0.7147891739
 40
0.8540089417
 40
0.9263041558
 40
1.0
 40
1.0
 40
1.0
 40
1.0
 10
11.7817897792
 20
9.1513450991
 30
0.0
 10
11.7884098136
 20
9.1405688576
 30
0.0
 10
11.7975950457
 20
9.1240792747
 30
0.0
 10
11.8076357984
 20
9.1012266458
 30
0.0
 10
11.8138095417
 20
9.0838828835
 30
0.0
 10
11.8185430601
 20
9.0661567826
 30
0.0
 10
11.8216977575
 20
9.0480107326
 30
0.0
 10
11.8228845129
 20
9.0325910252
 30
0.0
 10
11.8229160124
 20
9.0200807873
 30
0.0
 10
11.8223041268
 20
9.0072690569
 30
0.0
 10
11.820311877
 20
8.9909709185
 30
0.0
 10
11.8160250902
 20
8.9712537732
 30
0.0
 10
11.8098285372
 20
8.951347005
 30
0.0
 10
11.7989891474
 20
8.924306825
 30
0.0
 10
11.7848125685
 20
8.8978028806
 30
0.0
 10
11.7680418143
 20
8.8720595869
 30
0.0
 10
11.758772136
 20
8.8593481417
 30
0.0
 10
11.753944141
 20
8.8530483649
 30
0.0
  0
SPLINE
  5
285
100
AcDbEntity
  8
0
100
AcDbSpline
 62
9
  6
CONTINUOUS
 70
0
 71
3
 72
9
 73
5
 74
0
 42
0.0000001
 43
0.0000001
 44
0.0000000001
 40
0.0
 40
0.0
 40
0.0
 40
0.0
 40
0.4953869719
 40
1.0
 40
1.0
 40
1.0
 40
1.0
 10
11.753944141
 20
8.8530483649
 30
0.0
 10
11.746017307
 20
8.8427050889
 30
0.0
 10
11.7291975922
 20
8.8224450292
 30
0.0
 10
11.7110696047
 20
8.8033577173
 30
0.0
 10
11.7016499368
 20
8.7940050611
 30
0.0
  0
SPLINE
  5
286
100
AcDbEntity
  8
0
100
AcDbSpline
 62
9
  6
CONTINUOUS
 70
0
 71
3
 72
13
 73
9
 74
0
 42
0.0000001
 43
0.0000001
 44
0.0000000001
 40
0.0
 40
0.0
 40
0.0
 40
0.0
 40
0.1104428847
 40
0.2260570485
 40
0.4709918682
 40
0.5995665372
 40
0.7312249388
 40
1.0
 40
1.0
 40
1.0
 40
1.0
 10
11.7211945739
 20
9.0496042834
 30
0.0
 10
11.7221716861
 20
9.0539095098
 30
0.0
 10
11.7245724239
 20
9.0626349199
 30
0.0
 10
11.731032865
 20
9.0803343803
 30
0.0
 10
11.7398651483
 20
9.0978739518
 30
0.0
 10
11.7508020445
 20
9.1148621608
 30
0.0
 10
11.7634080536
 20
9.131854454
 30
0.0
 10
11.7741446993
 20
9.1437965877
 30
0.0
 10
11.7817897872
 20
9.1513450853
 30
0.0
  0
SPLINE
  5
287
100
AcDbEntity
  8
0
100
AcDbSpline
 62
9
  6
CONTINUOUS
 70
0
 71
3
 72
13
 73
9
 74
0
 42
0.0000001
 43
0.0000001
 44
0.0000000001
 40
0.0
 40
0.0
 40
0.0
 40
0.0
 40
0.1110394506
 40
0.227256278
 40
0.473063193
 40
0.6017062449
 40
0.7330873592
 40
1.0
 40
1.0
 40
1.0
 40
1.0
 10
11.7134618831
 20
9.058743717
 30
0.0
 10
11.7144145113
 20
9.0631722045
 30
0.0
 10
11.7167863833
 20
9.0721493496
 30
0.0
 10
11.7232447968
 20
9.0903513264
 30
0.0
 10
11.7321347177
 20
9.1083840797
 30
0.0
 10
11.743158865
 20
9.1258409688
 30
0.0
 10
11.7558139988
 20
9.1432316703
 30
0.0
 10
11.7665835826
 20
9.1554668554
 30
0.0
 10
11.7742443095
 20
9.1632046671
 30
0.0
  0
SPLINE
  5
288
100
AcDbEntity
  8
0
100
AcDbSpline
 62
9
  6
CONTINUOUS
 70
0
 71
3
 72
20
 73
16
 74
0
 42
0.0000001
 43
0.0000001
 44
0.0000000001
 40
0.0
 40
0.0
 40
0.0
 40
0.0
 40
0.1174961049
 40
0.17490706
 40
0.2317336698
 40
0.2883347508
 40
0.3451137886
 40
0.4025563874
 40
0.4612403168
 40
0.5216000866
 40
0.5838945468
 40
0.6483188074
 40
0.7149027766
 40
0.8540904276
 40
1.0
 40
1.0
 40
1.0
 40
1.0
 10
10.3128468495
 20
9.151345145
 30
0.0
 10
10.3062414326
 20
9.1405849761
 30
0.0
 10
10.2970736191
 20
9.1241231307
 30
0.0
 10
10.2870429391
 20
9.1013134585
 30
0.0
 10
10.2808699182
 20
9.0840051526
 30
0.0
 10
10.2761286666
 20
9.0663177224
 30
0.0
 10
10.2729605494
 20
9.0482106946
 30
0.0
 10
10.2715087931
 20
9.0296573586
 30
0.0
 10
10.2719315907
 20
9.0106654737
 30
0.0
 10
10.2742712599
 20
8.9912906622
 30
0.0
 10
10.2785176585
 20
8.9716133578
 30
0.0
 10
10.2846681882
 20
8.9517471906
 30
0.0
 10
10.2954342396
 20
8.9247543235
 30
0.0
 10
10.3132662402
 20
8.8913000695
 30
0.0
 10
10.3307441088
 20
8.8660660193
 30
0.0
 10
10.3402650617
 20
8.8536086334
 30
0.0
  0
SPLINE
  5
289
100
AcDbEntity
  8
0
100
AcDbSpline
 62
9
  6
CONTINUOUS
 70
0
 71
3
 72
9
 73
5
 74
0
 42
0.0000001
 43
0.0000001
 44
0.0000000001
 40
0.0
 40
0.0
 40
0.0
 40
0.0
 40
0.4956192876
 40
1.0
 40
1.0
 40
1.0
 40
1.0
 10
10.3402650617
 20
8.8536086334
 30
0.0
 10
10.3479412604
 20
8.8435649569
 30
0.0
 10
10.3642007511
 20
8.8238822904
 30
0.0
 10
10.3816982015
 20
8.8053010469
 30
0.0
 10
10.3907860675
 20
8.7961955607
 30
0.0
  0
SPLINE
  5
28A
100
AcDbEntity
  8
0
100
AcDbSpline
 62
9
  6
CONTINUOUS
 70
0
 71
3
 72
13
 73
9
 74
0
 42
0.0000001
 43
0.0000001
 44
0.0000000001
 40
0.0
 40
0.0
 40
0.0
 40
0.0
 40
0.1115182625
 40
0.227980847
 40
0.4737512549
 40
0.6022076275
 40
0.7333675382
 40
1.0
 40
1.0
 40
1.0
 40
1.0
 10
10.3734420997
 20
9.049604335
 30
0.0
 10
10.3724554706
 20
9.0539514876
 30
0.0
 10
10.3700299494
 20
9.0627502527
 30
0.0
 10
10.3635117743
 20
9.0805463332
 30
0.0
 10
10.3546273806
 20
9.0981302758
 30
0.0
 10
10.343662726
 20
9.1151109523
 30
0.0
 10
10.3311024663
 20
9.1319997277
 30
0.0
 10
10.3204310142
 20
9.1438568267
 30
0.0
 10
10.3128468601
 20
9.1513451622
 30
0.0
  0
SPLINE
  5
28B
100
AcDbEntity
  8
0
100
AcDbSpline
 62
9
  6
CONTINUOUS
 70
0
 71
3
 72
13
 73
9
 74
0
 42
0.0000001
 43
0.0000001
 44
0.0000000001
 40
0.0
 40
0.0
 40
0.0
 40
0.0
 40
0.1110274842
 40
0.2272348439
 40
0.4730324081
 40
0.6016767963
 40
0.7330634973
 40
1.0
 40
1.0
 40
1.0
 40
1.0
 10
10.3811747883
 20
9.0587436965
 30
0.0
 10
10.3802222706
 20
9.0631717123
 30
0.0
 10
10.3778506881
 20
9.0721480331
 30
0.0
 10
10.3713929541
 20
9.0903489331
 30
0.0
 10
10.3625036496
 20
9.1083812089
 30
0.0
 10
10.3514798355
 20
9.1258382132
 30
0.0
 10
10.3388242039
 20
9.1432301302
 30
0.0
 10
10.3280538933
 20
9.1554663141
 30
0.0
 10
10.3203924816
 20
9.1632048307
 30
0.0
  0
SPLINE
  5
28C
100
AcDbEntity
  8
0
100
AcDbSpline
 62
9
  6
CONTINUOUS
 70
0
 71
3
 72
15
 73
11
 74
0
 42
0.0000001
 43
0.0000001
 44
0.0000000001
 40
0.0
 40
0.0
 40
0.0
 40
0.0
 40
0.1432262397
 40
0.2828880205
 40
0.417892441
 40
0.5472609369
 40
0.6702821299
 40
0.7867485968
 40
0.8966229482
 40
1.0
 40
1.0
 40
1.0
 40
1.0
 10
10.3361029866
 20
9.1798461391
 30
0.0
 10
10.340516097
 20
9.1772979122
 30
0.0
 10
10.3490820535
 20
9.1719981801
 30
0.0
 10
10.3612067862
 20
9.1633739347
 30
0.0
 10
10.3723268203
 20
9.1542436278
 30
0.0
 10
10.3822895684
 20
9.1446959444
 30
0.0
 10
10.3909457184
 20
9.1348074878
 30
0.0
 10
10.3982310594
 20
9.1247110663
 30
0.0
 10
10.4040995644
 20
9.1145289554
 30
0.0
 10
10.4071288686
 20
9.107548417
 30
0.0
 10
10.4083681185
 20
9.1040853213
 30
0.0
  0
SPLINE
  5
28D
100
AcDbEntity
  8
0
100
AcDbSpline
 62
9
  6
CONTINUOUS
 70
0
 71
3
 72
13
 73
9
 74
0
 42
0.0000001
 43
0.0000001
 44
0.0000000001
 40
0.0
 40
0.0
 40
0.0
 40
0.0
 40
0.1128596057
 40
0.2304353879
 40
0.4773872634
 40
0.6057532969
 40
0.7363012007
 40
1.0
 40
1.0
 40
1.0
 40
1.0
 10
10.3906557055
 20
9.0684452022
 30
0.0
 10
10.3899706464
 20
9.0731207558
 30
0.0
 10
10.3881434348
 20
9.0826090007
 30
0.0
 10
10.3827915958
 20
9.1018832985
 30
0.0
 10
10.3749908256
 20
9.121086996
 30
0.0
 10
10.3649851645
 20
9.13976944
 30
0.0
 10
10.3533875503
 20
9.1583394342
 30
0.0
 10
10.3433293659
 20
9.1714981582
 30
0.0
 10
10.3361029563
 20
9.179845996
 30
0.0
  0
SPLINE
  5
28E
100
AcDbEntity
  8
0
100
AcDbSpline
 62
9
  6
CONTINUOUS
 70
0
 71
3
 72
9
 73
5
 74
0
 42
0.0000001
 43
0.0000001
 44
0.0000000001
 40
0.0
 40
0.0
 40
0.0
 40
0.0
 40
0.2473328715
 40
1.0
 40
1.0
 40
1.0
 40
1.0
 10
10.3906548444
 20
9.0684437986
 30
0.0
 10
10.3963592551
 20
9.0491391702
 30
0.0
 10
10.4184192542
 20
8.9707929888
 30
0.0
 10
10.4365794104
 20
8.8913640151
 30
0.0
 10
10.4483027548
 20
8.831238578
 30
0.0
  0
LINE
  5
28F
100
AcDbEntity
  8
0
100
AcDbLine
 62
9
  6
CONTINUOUS
 10
10.4483039284
 20
8.8312409153
 11
10.4525553406
 21
8.811152048
  0
SPLINE
  5
290
100
AcDbEntity
  8
0
100
AcDbSpline
 62
9
  6
CONTINUOUS
 70
0
 71
3
 72
36
 73
32
 74
0
 42
0.0000001
 43
0.0000001
 44
0.0000000001
 40
0.0
 40
0.0
 40
0.0
 40
0.0
 40
0.0169438112
 40
0.0331335142
 40
0.0483235214
 40
0.0622442288
 40
0.0747043416
 40
0.0857406564
 40
0.0955299122
 40
0.1044401206
 40
0.1128501228
 40
0.1210805158
 40
0.1293686624
 40
0.1378691377
 40
0.1558386388
 40
0.1753882409
 40
0.1966241491
 40
0.2195568778
 40
0.2441582913
 40
0.2703788401
 40
0.2981568207
 40
0.3274184783
 40
0.3900814027
 40
0.4577172902
 40
0.5295912333
 40
0.6049250558
 40
0.6828285602
 40
0.7623677841
 40
0.8424771666
 40
0.9220820086
 40
1.0
 40
1.0
 40
1.0
 40
1.0
 10
10.4525553105
 20
8.8111519795
 30
0.0
 10
10.4533859391
 20
8.8075666528
 30
0.0
 10
10.455094286
 20
8.8005744375
 30
0.0
 10
10.457932584
 20
8.7904664603
 30
0.0
 10
10.4610358651
 20
8.7811243319
 30
0.0
 10
10.4644282093
 20
8.7727465215
 30
0.0
 10
10.4681645492
 20
8.7655131643
 30
0.0
 10
10.4722170481
 20
8.7594999311
 30
0.0
 10
10.4766082757
 20
8.7547250637
 30
0.0
 10
10.4812873167
 20
8.7511033976
 30
0.0
 10
10.4862086342
 20
8.7484840346
 30
0.0
 10
10.4913455627
 20
8.7467137545
 30
0.0
 10
10.4966830613
 20
8.7456271141
 30
0.0
 10
10.5042106198
 20
8.7449224115
 30
0.0
 10
10.5142366607
 20
8.745248088
 30
0.0
 10
10.5268844817
 20
8.7470343151
 30
0.0
 10
10.5404465832
 20
8.7498242504
 30
0.0
 10
10.5549363333
 20
8.7534648619
 30
0.0
 10
10.5703612934
 20
8.7577948195
 30
0.0
 10
10.5867112224
 20
8.7627104936
 30
0.0
 10
10.6039726412
 20
8.7681051041
 30
0.0
 10
10.6287345661
 20
8.7760332541
 30
0.0
 10
10.6616859899
 20
8.7867729149
 30
0.0
 10
10.703493231
 20
8.8002092549
 30
0.0
 10
10.7480604167
 20
8.8140480654
 30
0.0
 10
10.7949740675
 20
8.8278373133
 30
0.0
 10
10.8437954986
 20
8.8410043006
 30
0.0
 10
10.8940004797
 20
8.8529555222
 30
0.0
 10
10.9450301121
 20
8.8628883472
 30
0.0
 10
10.996185592
 20
8.8699820979
 30
0.0
 10
11.0303946439
 20
8.8720703055
 30
0.0
 10
11.0473183388
 20
8.8722018849
 30
0.0
  0
LINE
  5
291
100
AcDbEntity
  8
0
100
AcDbLine
 62
7
  6
CONTINUOUS
 10
11.0473183702
 20
6.9855197363
 11
11.0473183734
 21
6.1667376812
  0
SPLINE
  5
292
100
AcDbEntity
  8
0
100
AcDbSpline
 62
9
  6
CONTINUOUS
 70
0
 71
3
 72
11
 73
7
 74
0
 42
0.0000001
 43
0.0000001
 44
0.0000000001
 40
0.0
 40
0.0
 40
0.0
 40
0.0
 40
0.2620252114
 40
0.51539573
 40
0.7609040704
 40
1.0
 40
1.0
 40
1.0
 40
1.0
 10
11.6862675198
 20
9.1040864313
 30
0.0
 10
11.6819393797
 20
9.1252950013
 30
0.0
 10
11.6733001298
 20
9.1669858826
 30
0.0
 10
11.6604102177
 20
9.2285077177
 30
0.0
 10
11.6480411858
 20
9.2882033432
 30
0.0
 10
11.6402062818
 20
9.3274628499
 30
0.0
 10
11.6364704619
 20
9.3468578622
 30
0.0
  0
SPLINE
  5
293
100
AcDbEntity
  8
0
100
AcDbSpline
 62
9
  6
CONTINUOUS
 70
0
 71
3
 72
9
 73
5
 74
0
 42
0.0000001
 43
0.0000001
 44
0.0000000001
 40
0.0
 40
0.0
 40
0.0
 40
0.0
 40
0.5084746166
 40
1.0
 40
1.0
 40
1.0
 40
1.0
 10
11.6364704619
 20
9.3468578622
 30
0.0
 10
11.6357670905
 20
9.3520741468
 30
0.0
 10
11.6342671777
 20
9.3623175416
 30
0.0
 10
11.6324584246
 20
9.3725126483
 30
0.0
 10
11.6314598583
 20
9.3775017404
 30
0.0
  0
SPLINE
  5
294
100
AcDbEntity
  8
0
100
AcDbSpline
 62
9
  6
CONTINUOUS
 70
0
 71
3
 72
10
 73
6
 74
0
 42
0.0000001
 43
0.0000001
 44
0.0000000001
 40
0.0
 40
0.0
 40
0.0
 40
0.0
 40
0.2656267725
 40
0.5213590076
 40
1.0
 40
1.0
 40
1.0
 40
1.0
 10
11.667068173
 20
9.4057503362
 30
0.0
 10
11.6631658116
 20
9.4012844174
 30
0.0
 10
11.6559848094
 20
9.3920768414
 30
0.0
 10
11.6444136034
 20
9.3729589044
 30
0.0
 10
11.6385593912
 20
9.3573386112
 30
0.0
 10
11.6364704006
 20
9.3468581174
 30
0.0
  0
SPLINE
  5
295
100
AcDbEntity
  8
0
100
AcDbSpline
 62
9
  6
CONTINUOUS
 70
0
 71
3
 72
43
 73
39
 74
0
 42
0.0000001
 43
0.0000001
 44
0.0000000001
 40
0.0
 40
0.0
 40
0.0
 40
0.0
 40
0.0164293928
 40
0.0318914905
 40
0.0459875409
 40
0.0523882128
 40
0.0582908082
 40
0.0636695289
 40
0.0685339442
 40
0.0769094614
 40
0.0806408175
 40
0.0842194553
 40
0.0877551166
 40
0.0913334652
 40
0.095014025
 40
0.0988309958
 40
0.1069340153
 40
0.1156840397
 40
0.1250475528
 40
0.1349700019
 40
0.145403346
 40
0.1676311581
 40
0.1914665547
 40
0.2167302778
 40
0.243298289
 40
0.271081179
 40
0.3000114254
 40
0.3300341864
 40
0.3610993472
 40
0.3931590132
 40
0.4600669587
 40
0.5303694207
 40
0.6036707652
 40
0.6795658132
 40
0.757630052
 40
0.8374089996
 40
0.9183909062
 40
1.0
 40
1.0
 40
1.0
 40
1.0
 10
11.6338006593
 20
8.8351424189
 30
0.0
 10
11.63326402
 20
8.8315893027
 30
0.0
 10
11.632129881
 20
8.8247051971
 30
0.0
 10
11.6300977719
 20
8.8148513912
 30
0.0
 10
11.6280489634
 20
8.8072482902
 30
0.0
 10
11.6261322189
 20
8.8017984957
 30
0.0
 10
11.6246217747
 20
8.7982352029
 30
0.0
 10
11.6229826118
 20
8.7951002957
 30
0.0
 10
11.6207455571
 20
8.7916951192
 30
0.0
 10
11.6181364583
 20
8.7889633176
 30
0.0
 10
11.6151928392
 20
8.7871698947
 30
0.0
 10
11.6129750265
 20
8.7862966689
 30
0.0
 10
11.6106799901
 20
8.785801402
 30
0.0
 10
11.6083177126
 20
8.7856388582
 30
0.0
 10
11.605893804
 20
8.785764904
 30
0.0
 10
11.6025150681
 20
8.7862701407
 30
0.0
 10
11.59814125
 20
8.7874671283
 30
0.0
 10
11.5927755907
 20
8.7895008277
 30
0.0
 10
11.5871844217
 20
8.7920253528
 30
0.0
 10
11.5813656054
 20
8.7949243979
 30
0.0
 10
11.573135462
 20
8.7992860134
 30
0.0
 10
11.5623440705
 20
8.8053072326
 30
0.0
 10
11.548768165
 20
8.8129925918
 30
0.0
 10
11.5343281843
 20
8.8210790127
 30
0.0
 10
11.5190449067
 20
8.8294250365
 30
0.0
 10
11.5029394575
 20
8.8379355757
 30
0.0
 10
11.4860343942
 20
8.8465458053
 30
0.0
 10
11.4683558555
 20
8.8552142238
 30
0.0
 10
11.4499286854
 20
8.8639053511
 30
0.0
 10
11.4240263581
 20
8.875652059
 30
0.0
 10
11.3899651697
 20
8.8901764896
 30
0.0
 10
11.3470640052
 20
8.9069141501
 30
0.0
 10
11.3017645261
 20
8.9228437509
 30
0.0
 10
11.2542604132
 20
8.9375234559
 30
0.0
 10
11.2047496579
 20
8.9503485623
 30
0.0
 10
11.1534696692
 20
8.9604951229
 30
0.0
 10
11.1007913759
 20
8.9669000149
 30
0.0
 10
11.0651571681
 20
8.9678144234
 30
0.0
 10
11.0473184727
 20
8.9671956949
 30
0.0
  0
SPLINE
  5
296
100
AcDbEntity
  8
0
100
AcDbSpline
 62
9
  6
CONTINUOUS
 70
0
 71
3
 72
20
 73
16
 74
0
 42
0.0000001
 43
0.0000001
 44
0.0000000001
 40
0.0
 40
0.0
 40
0.0
 40
0.0
 40
0.1397945071
 40
0.2770148317
 40
0.409635534
 40
0.4738862554
 40
0.5366806801
 40
0.5980572838
 40
0.6581076786
 40
0.7169640211
 40
0.7747907431
 40
0.8317790253
 40
0.8881450629
 40
0.9441358699
 40
1.0
 40
1.0
 40
1.0
 40
1.0
 10
11.0473183383
 20
9.0674871529
 30
0.0
 10
11.0748143422
 20
9.0668934215
 30
0.0
 10
11.129418695
 20
9.0685358662
 30
0.0
 10
11.2093284397
 20
9.0803440717
 30
0.0
 10
11.2728078187
 20
9.0981954462
 30
0.0
 10
11.3203265217
 20
9.1170441817
 30
0.0
 10
11.3537695649
 20
9.1331086236
 30
0.0
 10
11.385262086
 20
9.1511085276
 30
0.0
 10
11.4147337567
 20
9.1708971535
 30
0.0
 10
11.4421509788
 20
9.1923286238
 30
0.0
 10
11.4675138641
 20
9.2152657222
 30
0.0
 10
11.4908400856
 20
9.239595519
 30
0.0
 10
11.5121611955
 20
9.2652317237
 30
0.0
 10
11.531511388
 20
9.2921113817
 30
0.0
 10
11.5431219927
 20
9.3108283445
 30
0.0
 10
11.548598926
 20
9.3203568401
 30
0.0
  0
SPLINE
  5
297
100
AcDbEntity
  8
0
100
AcDbSpline
 62
9
  6
CONTINUOUS
 70
0
 71
3
 72
9
 73
5
 74
0
 42
0.0000001
 43
0.0000001
 44
0.0000000001
 40
0.0
 40
0.0
 40
0.0
 40
0.0
 40
0.2448328667
 40
1.0
 40
1.0
 40
1.0
 40
1.0
 10
11.6338006593
 20
8.8351424189
 30
0.0
 10
11.6340548012
 20
8.8368249765
 30
0.0
 10
11.6350479146
 20
8.8437040328
 30
0.0
 10
11.6358894559
 20
8.8506043263
 30
0.0
 10
11.6364704619
 20
8.8558206482
 30
0.0
  0
SPLINE
  5
298
100
AcDbEntity
  8
0
100
AcDbSpline
 62
9
  6
CONTINUOUS
 70
0
 71
3
 72
9
 73
5
 74
0
 42
0.0000001
 43
0.0000001
 44
0.0000000001
 40
0.0
 40
0.0
 40
0.0
 40
0.0
 40
0.255857553
 40
1.0
 40
1.0
 40
1.0
 40
1.0
 10
11.6420813192
 20
8.8111519221
 30
0.0
 10
11.6411579081
 20
8.8131122914
 30
0.0
 10
11.6377488692
 20
8.8208658996
 30
0.0
 10
11.6351618867
 20
8.8289886287
 30
0.0
 10
11.6338006395
 20
8.835142321
 30
0.0
  0
SPLINE
  5
299
100
AcDbEntity
  8
0
100
AcDbSpline
 62
9
  6
CONTINUOUS
 70
0
 71
3
 72
9
 73
5
 74
0
 42
0.0000001
 43
0.0000001
 44
0.0000000001
 40
0.0
 40
0.0
 40
0.0
 40
0.0
 40
0.5043189951
 40
1.0
 40
1.0
 40
1.0
 40
1.0
 10
11.6364704619
 20
8.8558279046
 30
0.0
 10
11.6431609875
 20
8.897873383
 30
0.0
 10
11.6579688175
 20
8.981008681
 30
0.0
 10
11.6762603567
 20
9.0634553864
 30
0.0
 10
11.6862675198
 20
9.1040864313
 30
0.0
  0
SPLINE
  5
29A
100
AcDbEntity
  8
0
100
AcDbSpline
 62
9
  6
CONTINUOUS
 70
0
 71
3
 72
9
 73
5
 74
0
 42
0.0000001
 43
0.0000001
 44
0.0000000001
 40
0.0
 40
0.0
 40
0.0
 40
0.0
 40
0.510870462
 40
1.0
 40
1.0
 40
1.0
 40
1.0
 10
11.6463315043
 20
8.8312429095
 30
0.0
 10
11.6441092804
 20
8.8351800522
 30
0.0
 10
11.6402305633
 20
8.8431654227
 30
0.0
 10
11.637484888
 20
8.8516158868
 30
0.0
 10
11.6364698241
 20
8.8558237809
 30
0.0
  0
SPLINE
  5
29B
100
AcDbEntity
  8
0
100
AcDbSpline
 62
9
  6
CONTINUOUS
 70
0
 71
3
 72
15
 73
11
 74
0
 42
0.0000001
 43
0.0000001
 44
0.0000000001
 40
0.0
 40
0.0
 40
0.0
 40
0.0
 40
0.1033768308
 40
0.213251012
 40
0.3297173709
 40
0.4527385226
 40
0.5821070526
 40
0.7171115846
 40
0.8567735403
 40
1.0
 40
1.0
 40
1.0
 40
1.0
 10
11.6862683224
 20
9.1040846268
 30
0.0
 10
11.687507548
 20
9.107547746
 30
0.0
 10
11.6905368139
 20
9.1145283355
 30
0.0
 10
11.6964052874
 20
9.124710525
 30
0.0
 10
11.7036906212
 20
9.134807029
 30
0.0
 10
11.7123467869
 20
9.1446955701
 30
0.0
 10
11.7223095747
 20
9.154243336
 30
0.0
 10
11.73342967
 20
9.1633737208
 30
0.0
 10
11.7455544819
 20
9.1719980379
 30
0.0
 10
11.7541204995
 20
9.1772978116
 30
0.0
 10
11.7585336425
 20
9.1798460579
 30
0.0
  0
SPLINE
  5
29C
100
AcDbEntity
  8
0
100
AcDbSpline
 62
9
  6
CONTINUOUS
 70
0
 71
3
 72
9
 73
5
 74
0
 42
0.0000001
 43
0.0000001
 44
0.0000000001
 40
0.0
 40
0.0
 40
0.0
 40
0.0
 40
0.2619037386
 40
1.0
 40
1.0
 40
1.0
 40
1.0
 10
11.7039827362
 20
9.0684525203
 30
0.0
 10
11.7019752739
 20
9.0712979545
 30
0.0
 10
11.6947054281
 20
9.082428063
 30
0.0
 10
11.6890580473
 20
9.0946760112
 30
0.0
 10
11.6862682414
 20
9.1040849263
 30
0.0
  0
SPLINE
  5
29D
100
AcDbEntity
  8
0
100
AcDbSpline
 62
9
  6
CONTINUOUS
 70
0
 71
3
 72
13
 73
9
 74
0
 42
0.0000001
 43
0.0000001
 44
0.0000000001
 40
0.0
 40
0.0
 40
0.0
 40
0.0
 40
0.1128596149
 40
0.2304354018
 40
0.4773872756
 40
0.605753304
 40
0.7363012027
 40
1.0
 40
1.0
 40
1.0
 40
1.0
 10
11.7039809824
 20
9.0684452352
 30
0.0
 10
11.704666042
 20
9.0731207843
 30
0.0
 10
11.7064932539
 20
9.08260902
 30
0.0
 10
11.7118450902
 20
9.1018832983
 30
0.0
 10
11.7196458528
 20
9.1210869764
 30
0.0
 10
11.7296515018
 20
9.1397694023
 30
0.0
 10
11.7412491016
 20
9.1583393792
 30
0.0
 10
11.7513072728
 20
9.171498092
 30
0.0
 10
11.7585336727
 20
9.1798459236
 30
0.0
  0
SPLINE
  5
29E
100
AcDbEntity
  8
0
100
AcDbSpline
 62
9
  6
CONTINUOUS
 70
0
 71
3
 72
9
 73
5
 74
0
 42
0.0000001
 43
0.0000001
 44
0.0000000001
 40
0.0
 40
0.0
 40
0.0
 40
0.0
 40
0.5123708211
 40
1.0
 40
1.0
 40
1.0
 40
1.0
 10
11.65510769
 20
9.4320605301
 30
0.0
 10
11.6493191021
 20
9.4236520209
 30
0.0
 10
11.6394909672
 20
9.4061697523
 30
0.0
 10
11.633323546
 20
9.3870366614
 30
0.0
 10
11.6314598733
 20
9.3775016667
 30
0.0
  0
SPLINE
  5
29F
100
AcDbEntity
  8
0
100
AcDbSpline
 62
9
  6
CONTINUOUS
 70
0
 71
3
 72
30
 73
26
 74
0
 42
0.0000001
 43
0.0000001
 44
0.0000000001
 40
0.0
 40
0.0
 40
0.0
 40
0.0
 40
0.0762868244
 40
0.1490102234
 40
0.2168353091
 40
0.2483562569
 40
0.277900794
 40
0.305167148
 40
0.3298724686
 40
0.3519024213
 40
0.3714582397
 40
0.3893173217
 40
0.4068230703
 40
0.4254478837
 40
0.4462152827
 40
0.4695284738
 40
0.4953863192
 40
0.5235553846
 40
0.5537599977
 40
0.6191091019
 40
0.6895275719
 40
0.7636359921
 40
0.8404824117
 40
0.9194243455
 40
1.0
 40
1.0
 40
1.0
 40
1.0
 10
11.6314598583
 20
9.3775017404
 30
0.0
 10
11.6308178476
 20
9.3807094948
 30
0.0
 10
11.6294744423
 20
9.3869581442
 30
0.0
 10
11.627167632
 20
9.3959684202
 30
0.0
 10
11.6249476472
 20
9.40301264
 30
0.0
 10
11.6229439832
 20
9.4081661435
 30
0.0
 10
11.6213730376
 20
9.4116157249
 30
0.0
 10
11.6196911214
 20
9.4146850282
 30
0.0
 10
11.6178863366
 20
9.4173041408
 30
0.0
 10
11.6159498939
 20
9.4194034698
 30
0.0
 10
11.6138601035
 20
9.4209045481
 30
0.0
 10
11.6116087541
 20
9.4217165779
 30
0.0
 10
11.6092523673
 20
9.4217495451
 30
0.0
 10
11.6068864589
 20
9.4210419242
 30
0.0
 10
11.6045416393
 20
9.4196923262
 30
0.0
 10
11.6022105233
 20
9.4177912123
 30
0.0
 10
11.5998927494
 20
9.4154120624
 30
0.0
 10
11.5975873479
 20
9.4126277475
 30
0.0
 10
11.5944534092
 20
9.4083439134
 30
0.0
 10
11.590638959
 20
9.402327393
 30
0.0
 10
11.586208706
 20
9.3944914403
 30
0.0
 10
11.5818031095
 20
9.3860812686
 30
0.0
 10
11.5774072469
 20
9.3772566109
 30
0.0
 10
11.57300779
 20
9.3681250848
 30
0.0
 10
11.5700892883
 20
9.3619383588
 30
0.0
 10
11.5686221568
 20
9.3588100158
 30
0.0
  0
SPLINE
  5
2A0
100
AcDbEntity
  8
0
100
AcDbSpline
 62
9
  6
CONTINUOUS
 70
0
 71
3
 72
9
 73
5
 74
0
 42
0.0000001
 43
0.0000001
 44
0.0000000001
 40
0.0
 40
0.0
 40
0.0
 40
0.0
 40
0.5126273115
 40
1.0
 40
1.0
 40
1.0
 40
1.0
 10
10.4395289959
 20
9.4320605512
 30
0.0
 10
10.4453204825
 20
9.4236478582
 30
0.0
 10
10.4551479093
 20
9.4061649987
 30
0.0
 10
10.4613141379
 20
9.387031793
 30
0.0
 10
10.463176837
 20
9.3775018348
 30
0.0
  0
SPLINE
  5
2A1
100
AcDbEntity
  8
0
100
AcDbSpline
 62
9
  6
CONTINUOUS
 70
0
 71
3
 72
9
 73
5
 74
0
 42
0.0000001
 43
0.0000001
 44
0.0000000001
 40
0.0
 40
0.0
 40
0.0
 40
0.0
 40
0.491523784
 40
1.0
 40
1.0
 40
1.0
 40
1.0
 10
10.4631768183
 20
9.3775017404
 30
0.0
 10
10.4621782276
 20
9.3725126699
 30
0.0
 10
10.4603694878
 20
9.3623175608
 30
0.0
 10
10.4588695091
 20
9.3520741741
 30
0.0
 10
10.4581662146
 20
9.3468578622
 30
0.0
  0
SPLINE
  5
2A2
100
AcDbEntity
  8
0
100
AcDbSpline
 62
9
  6
CONTINUOUS
 70
0
 71
3
 72
11
 73
7
 74
0
 42
0.0000001
 43
0.0000001
 44
0.0000000001
 40
0.0
 40
0.0
 40
0.0
 40
0.0
 40
0.2335713589
 40
0.4162312203
 40
0.6051534024
 40
1.0
 40
1.0
 40
1.0
 40
1.0
 10
10.5351339305
 20
9.4290853822
 30
0.0
 10
10.5360342
 20
9.4235816616
 30
0.0
 10
10.5368188766
 20
9.4136258923
 30
0.0
 10
10.5361403981
 20
9.3991708059
 30
0.0
 10
10.5334596251
 20
9.3810452856
 30
0.0
 10
10.5294543109
 20
9.367589986
 30
0.0
 10
10.5260133474
 20
9.3588128271
 30
0.0
  0
SPLINE
  5
2A3
100
AcDbEntity
  8
0
100
AcDbSpline
 62
9
  6
CONTINUOUS
 70
0
 71
3
 72
30
 73
26
 74
0
 42
0.0000001
 43
0.0000001
 44
0.0000000001
 40
0.0
 40
0.0
 40
0.0
 40
0.0
 40
0.08057473
 40
0.1595151917
 40
0.2363620299
 40
0.3104711047
 40
0.3808903171
 40
0.4462403143
 40
0.4764460478
 40
0.5046142848
 40
0.530472048
 40
0.5537853458
 40
0.5745526728
 40
0.5931778533
 40
0.6106846238
 40
0.6285444587
 40
0.6481010505
 40
0.6701307615
 40
0.6948364609
 40
0.7221009622
 40
0.7516458953
 40
0.7831656362
 40
0.8509903853
 40
0.9237131036
 40
1.0
 40
1.0
 40
1.0
 40
1.0
 10
10.5260147008
 20
9.3588103637
 30
0.0
 10
10.5245476222
 20
9.3619386797
 30
0.0
 10
10.5216289763
 20
9.3681252093
 30
0.0
 10
10.5172292144
 20
9.377256469
 30
0.0
 10
10.5128334677
 20
9.3860811411
 30
0.0
 10
10.5084278602
 20
9.3944913729
 30
0.0
 10
10.5039976399
 20
9.4023274343
 30
0.0
 10
10.5001831833
 20
9.4083440738
 30
0.0
 10
10.4970492501
 20
9.4126279605
 30
0.0
 10
10.49474379
 20
9.415412238
 30
0.0
 10
10.4924259503
 20
9.4177912462
 30
0.0
 10
10.4900949597
 20
9.4196925214
 30
0.0
 10
10.4877500211
 20
9.4210419251
 30
0.0
 10
10.4853840976
 20
9.4217496699
 30
0.0
 10
10.4830275883
 20
9.4217164846
 30
0.0
 10
10.4807762643
 20
9.4209041834
 30
0.0
 10
10.4786862956
 20
9.4194032699
 30
0.0
 10
10.476750062
 20
9.4173036727
 30
0.0
 10
10.4749453293
 20
9.4146846484
 30
0.0
 10
10.4732634187
 20
9.4116153922
 30
0.0
 10
10.4716926744
 20
9.4081658561
 30
0.0
 10
10.469688915
 20
9.4030124576
 30
0.0
 10
10.4674690764
 20
9.3959683019
 30
0.0
 10
10.4651622137
 20
9.3869581062
 30
0.0
 10
10.4638188237
 20
9.380709492
 30
0.0
 10
10.4631768183
 20
9.3775017404
 30
0.0
  0
SPLINE
  5
2A4
100
AcDbEntity
  8
0
100
AcDbSpline
 62
9
  6
CONTINUOUS
 70
0
 71
3
 72
11
 73
7
 74
0
 42
0.0000001
 43
0.0000001
 44
0.0000000001
 40
0.0
 40
0.0
 40
0.0
 40
0.0
 40
0.2284620144
 40
0.4708691665
 40
0.7280478165
 40
1.0
 40
1.0
 40
1.0
 40
1.0
 10
10.4275685772
 20
9.4057497934
 30
0.0
 10
10.4206107025
 20
9.3885430433
 30
0.0
 10
10.4060279521
 20
9.3531776497
 30
0.0
 10
10.3833560279
 20
9.2985488775
 30
0.0
 10
10.3597273736
 20
9.2404923572
 30
0.0
 10
10.3440115001
 20
9.2004795313
 30
0.0
 10
10.3361043252
 20
9.179849542
 30
0.0
  0
SPLINE
  5
2A5
100
AcDbEntity
  8
0
100
AcDbSpline
 62
9
  6
CONTINUOUS
 70
0
 71
3
 72
11
 73
7
 74
0
 42
0.0000001
 43
0.0000001
 44
0.0000000001
 40
0.0
 40
0.0
 40
0.0
 40
0.0
 40
0.4739756491
 40
0.6012573884
 40
0.7316014383
 40
1.0
 40
1.0
 40
1.0
 40
1.0
 10
10.55575574
 20
9.4011960623
 30
0.0
 10
10.5582488789
 20
9.3884295671
 30
0.0
 10
10.5584939275
 20
9.3715582932
 30
0.0
 10
10.5553693043
 20
9.3517333472
 30
0.0
 10
10.5521715886
 20
9.3376435031
 30
0.0
 10
10.5487338304
 20
9.3272188945
 30
0.0
 10
10.5460333654
 20
9.3203659152
 30
0.0
  0
SPLINE
  5
2A6
100
AcDbEntity
  8
0
100
AcDbSpline
 62
9
  6
CONTINUOUS
 70
0
 71
3
 72
10
 73
6
 74
0
 42
0.0000001
 43
0.0000001
 44
0.0000000001
 40
0.0
 40
0.0
 40
0.0
 40
0.0
 40
0.218714814
 40
0.4679777524
 40
1.0
 40
1.0
 40
1.0
 40
1.0
 10
11.0478663946
 20
9.171237307
 30
0.0
 10
11.0479523377
 20
9.1636735894
 30
0.0
 10
11.0480429383
 20
9.1474886336
 30
0.0
 10
11.0479615316
 20
9.1129037511
 30
0.0
 10
11.0476365118
 20
9.0858842703
 30
0.0
 10
11.0473188182
 20
9.0674871356
 30
0.0
  0
SPLINE
  5
2A7
100
AcDbEntity
  8
0
100
AcDbSpline
 62
9
  6
CONTINUOUS
 70
0
 71
3
 72
23
 73
19
 74
0
 42
0.0000001
 43
0.0000001
 44
0.0000000001
 40
0.0
 40
0.0
 40
0.0
 40
0.0
 40
0.0701509363
 40
0.1399796045
 40
0.2091669209
 40
0.2774353616
 40
0.344540909
 40
0.4103005087
 40
0.4745977461
 40
0.5373919028
 40
0.5987159247
 40
0.6586658407
 40
0.717388174
 40
0.775068374
 40
0.8319199586
 40
0.8881814272
 40
0.9441210864
 40
1.0
 40
1.0
 40
1.0
 40
1.0
 10
11.0473183383
 20
9.0674871529
 30
0.0
 10
11.0335726819
 20
9.0677837503
 30
0.0
 10
11.0061547944
 20
9.0690781459
 30
0.0
 10
10.9653366834
 20
9.0730359395
 30
0.0
 10
10.9251157514
 20
9.0788621963
 30
0.0
 10
10.8857422768
 20
9.0865037043
 30
0.0
 10
10.84746714
 20
9.0960176302
 30
0.0
 10
10.8105434963
 20
9.1074905637
 30
0.0
 10
10.7751926753
 20
9.1209407634
 30
0.0
 10
10.7416070225
 20
9.1363614294
 30
0.0
 10
10.7099353043
 20
9.1536985751
 30
0.0
 10
10.6802789779
 20
9.1728624627
 30
0.0
 10
10.6526957442
 20
9.1937430074
 30
0.0
 10
10.6272010363
 20
9.2162189814
 30
0.0
 10
10.6037855144
 20
9.2401824893
 30
0.0
 10
10.5824201161
 20
9.2655454447
 30
0.0
 10
10.5630700417
 20
9.2922389533
 30
0.0
 10
10.5514908067
 20
9.3108702611
 30
0.0
 10
10.5460332029
 20
9.3203652082
 30
0.0
  0
SPLINE
  5
2A8
100
AcDbEntity
  8
0
100
AcDbSpline
 62
9
  6
CONTINUOUS
 70
0
 71
3
 72
11
 73
7
 74
0
 42
0.0000001
 43
0.0000001
 44
0.0000000001
 40
0.0
 40
0.0
 40
0.0
 40
0.0
 40
0.2244856492
 40
0.4660046619
 40
0.7250048901
 40
1.0
 40
1.0
 40
1.0
 40
1.0
 10
11.5388806507
 20
9.4011946309
 30
0.0
 10
11.5376983893
 20
9.3951402678
 30
0.0
 10
11.5363198408
 20
9.3823448748
 30
0.0
 10
11.5372287947
 20
9.3623732985
 30
0.0
 10
11.5412469951
 20
9.3413791013
 30
0.0
 10
11.5458332549
 20
9.3273951483
 30
0.0
 10
11.548603719
 20
9.3203646453
 30
0.0
  0
SPLINE
  5
2A9
100
AcDbEntity
  8
0
100
AcDbSpline
 62
9
  6
CONTINUOUS
 70
0
 71
3
 72
11
 73
7
 74
0
 42
0.0000001
 43
0.0000001
 44
0.0000000001
 40
0.0
 40
0.0
 40
0.0
 40
0.0
 40
0.2330106182
 40
0.4154753046
 40
0.604407175
 40
1.0
 40
1.0
 40
1.0
 40
1.0
 10
11.5595041908
 20
9.4290863986
 30
0.0
 10
11.5586059019
 20
9.4235956131
 30
0.0
 10
11.5578205803
 20
9.4136577761
 30
0.0
 10
11.5584920251
 20
9.3992194608
 30
0.0
 10
11.561166736
 20
9.3810784703
 30
0.0
 10
11.5651751404
 20
9.3676038534
 30
0.0
 10
11.5686223846
 20
9.3588094662
 30
0.0
  0
SPLINE
  5
2AA
100
AcDbEntity
  8
0
100
AcDbSpline
 62
9
  6
CONTINUOUS
 70
0
 71
3
 72
15
 73
11
 74
0
 42
0.0000001
 43
0.0000001
 44
0.0000000001
 40
0.0
 40
0.0
 40
0.0
 40
0.0
 40
0.110399876
 40
0.2238825741
 40
0.3412249611
 40
0.4630917667
 40
0.5898091042
 40
0.7215045478
 40
0.8582862243
 40
1.0
 40
1.0
 40
1.0
 40
1.0
 10
11.5388806276
 20
9.4011946026
 30
0.0
 10
11.5318427957
 20
9.3925981677
 30
0.0
 10
11.5167897623
 20
9.3757910812
 30
0.0
 10
11.49181541
 20
9.3521733358
 30
0.0
 10
11.4641987508
 20
9.3298267752
 30
0.0
 10
11.4339834743
 20
9.3087280408
 30
0.0
 10
11.4012020049
 20
9.2889311498
 30
0.0
 10
11.3659026044
 20
9.2705566297
 30
0.0
 10
11.3281809877
 20
9.2537363656
 30
0.0
 10
11.3019443679
 20
9.2438299663
 30
0.0
 10
11.2884641437
 20
9.2391756219
 30
0.0
  0
SPLINE
  5
2AB
100
AcDbEntity
  8
0
100
AcDbSpline
 62
9
  6
CONTINUOUS
 70
0
 71
3
 72
15
 73
11
 74
0
 42
0.0000001
 43
0.0000001
 44
0.0000000001
 40
0.0
 40
0.0
 40
0.0
 40
0.0
 40
0.1422806013
 40
0.279659848
 40
0.4118598971
 40
0.5389020585
 40
0.6608155847
 40
0.7778335805
 40
0.8906276021
 40
1.0
 40
1.0
 40
1.0
 40
1.0
 10
10.8140284727
 20
9.2345405299
 30
0.0
 10
10.8000500242
 20
9.2392719808
 30
0.0
 10
10.7728544917
 20
9.2494238525
 30
0.0
 10
10.7337980146
 20
9.2667910197
 30
0.0
 10
10.697287216
 20
9.2858054326
 30
0.0
 10
10.6634393392
 20
9.3062860053
 30
0.0
 10
10.6323111786
 20
9.3280604246
 30
0.0
 10
10.603930469
 20
9.3510354112
 30
0.0
 10
10.5783413318
 20
9.3752294725
 30
0.0
 10
10.5629423221
 20
9.3924168613
 30
0.0
 10
10.5557560482
 20
9.4011946068
 30
0.0
  0
SPLINE
  5
2AC
100
AcDbEntity
  8
0
100
AcDbSpline
 62
9
  6
CONTINUOUS
 70
0
 71
3
 72
11
 73
7
 74
0
 42
0.0000001
 43
0.0000001
 44
0.0000000001
 40
0.0
 40
0.0
 40
0.0
 40
0.0
 40
0.2719507063
 40
0.5291304098
 40
0.771542591
 40
1.0
 40
1.0
 40
1.0
 40
1.0
 10
11.7585324259
 20
9.1798493885
 30
0.0
 10
11.7506252643
 20
9.2004793134
 30
0.0
 10
11.734909256
 20
9.2404921651
 30
0.0
 10
11.7112804106
 20
9.2985491772
 30
0.0
 10
11.6886091334
 20
9.3531785086
 30
0.0
 10
11.6740262993
 20
9.3885440038
 30
0.0
 10
11.6670681146
 20
9.4057502748
 30
0.0
  0
SPLINE
  5
2AD
100
AcDbEntity
  8
0
100
AcDbSpline
 62
9
  6
CONTINUOUS
 70
0
 71
3
 72
9
 73
5
 74
0
 42
0.0000001
 43
0.0000001
 44
0.0000000001
 40
0.0
 40
0.0
 40
0.0
 40
0.0
 40
0.5097655693
 40
1.0
 40
1.0
 40
1.0
 40
1.0
 10
11.6670681333
 20
9.4057503076
 30
0.0
 10
11.6652265666
 20
9.4103043399
 30
0.0
 10
11.6614604513
 20
9.4191770592
 30
0.0
 10
11.6572851562
 20
9.4278680891
 30
0.0
 10
11.6551076373
 20
9.4320603839
 30
0.0
  0
SPLINE
  5
2AE
100
AcDbEntity
  8
0
100
AcDbSpline
 62
9
  6
CONTINUOUS
 70
0
 71
3
 72
24
 73
20
 74
0
 42
0.0000001
 43
0.0000001
 44
0.0000000001
 40
0.0
 40
0.0
 40
0.0
 40
0.0
 40
0.0760149815
 40
0.148617923
 40
0.2171979617
 40
0.2810090835
 40
0.3397303986
 40
0.393675363
 40
0.4193795944
 40
0.444655829
 40
0.4698567776
 40
0.4953037798
 40
0.5479365584
 40
0.6040126193
 40
0.6636197382
 40
0.7264253158
 40
0.7918316456
 40
0.8594792779
 40
1.0
 40
1.0
 40
1.0
 40
1.0
 10
11.6551077247
 20
9.4320605439
 30
0.0
 10
11.6535862593
 20
9.4349897462
 30
0.0
 10
11.6504854002
 20
9.4406530279
 30
0.0
 10
11.6454733423
 20
9.4486502799
 30
0.0
 10
11.6401774575
 20
9.455819027
 30
0.0
 10
11.634550411
 20
9.461948989
 30
0.0
 10
11.6285654178
 20
9.4667892343
 30
0.0
 10
11.6231772786
 20
9.469587372
 30
0.0
 10
11.6187791749
 20
9.4708281792
 30
0.0
 10
11.6154927236
 20
9.4712866311
 30
0.0
 10
11.6121860972
 20
9.4712978895
 30
0.0
 10
11.6077259727
 20
9.4707265601
 30
0.0
 10
11.6021396568
 20
9.4689009115
 30
0.0
 10
11.5956976313
 20
9.4653957234
 30
0.0
 10
11.5894045173
 20
9.4608457262
 30
0.0
 10
11.583248829
 20
9.4554850448
 30
0.0
 10
11.5771846682
 20
9.4495165906
 30
0.0
 10
11.569119278
 20
9.4407905039
 30
0.0
 10
11.5633378616
 20
9.4338350536
 30
0.0
 10
11.5595044279
 20
9.4290877926
 30
0.0
  0
SPLINE
  5
2AF
100
AcDbEntity
  8
0
100
AcDbSpline
 62
9
  6
CONTINUOUS
 70
0
 71
3
 72
24
 73
20
 74
0
 42
0.0000001
 43
0.0000001
 44
0.0000000001
 40
0.0
 40
0.0
 40
0.0
 40
0.0
 40
0.1405230962
 40
0.2081684443
 40
0.2735726778
 40
0.3363775872
 40
0.3959847379
 40
0.4520607211
 40
0.5046934327
 40
0.5301404405
 40
0.5553413962
 40
0.580617628
 40
0.6063218541
 40
0.6602668691
 40
0.7189883377
 40
0.782799729
 40
0.8513803769
 40
0.9239843584
 40
1.0
 40
1.0
 40
1.0
 40
1.0
 10
10.5351323235
 20
9.4290881649
 30
0.0
 10
10.5312989208
 20
9.433835562
 30
0.0
 10
10.525517463
 20
9.4407909596
 30
0.0
 10
10.5174519561
 20
9.4495167759
 30
0.0
 10
10.5113878455
 20
9.4554849328
 30
0.0
 10
10.5052322612
 20
9.4608455125
 30
0.0
 10
10.4989392329
 20
9.4653955389
 30
0.0
 10
10.4924972356
 20
9.4689007328
 30
0.0
 10
10.4869109439
 20
9.470726377
 30
0.0
 10
10.4824508394
 20
9.4712977387
 30
0.0
 10
10.4791442217
 20
9.471286517
 30
0.0
 10
10.4758577739
 20
9.4708281069
 30
0.0
 10
10.4714596659
 20
9.469587353
 30
0.0
 10
10.4660715094
 20
9.4667892621
 30
0.0
 10
10.4600864841
 20
9.4619490571
 30
0.0
 10
10.4544593843
 20
9.4558191132
 30
0.0
 10
10.4491634436
 20
9.4486503324
 30
0.0
 10
10.4441513576
 20
9.4406530095
 30
0.0
 10
10.4410504748
 20
9.4349896772
 30
0.0
 10
10.4395289985
 20
9.4320604585
 30
0.0
  0
SPLINE
  5
2B0
100
AcDbEntity
  8
0
100
AcDbSpline
 62
9
  6
CONTINUOUS
 70
0
 71
3
 72
9
 73
5
 74
0
 42
0.0000001
 43
0.0000001
 44
0.0000000001
 40
0.0
 40
0.0
 40
0.0
 40
0.0
 40
0.490245524
 40
1.0
 40
1.0
 40
1.0
 40
1.0
 10
10.4395289725
 20
9.4320605062
 30
0.0
 10
10.4373514028
 20
9.4278681141
 30
0.0
 10
10.4331761633
 20
9.4191770494
 30
0.0
 10
10.4294100544
 20
9.4103043244
 30
0.0
 10
10.4275684704
 20
9.4057504112
 30
0.0
  0
SPLINE
  5
2B1
100
AcDbEntity
  8
0
100
AcDbSpline
 62
9
  6
CONTINUOUS
 70
0
 71
3
 72
11
 73
7
 74
0
 42
0.0000001
 43
0.0000001
 44
0.0000000001
 40
0.0
 40
0.0
 40
0.0
 40
0.0
 40
0.2390958168
 40
0.484602664
 40
0.7379753243
 40
1.0
 40
1.0
 40
1.0
 40
1.0
 10
10.4581662146
 20
9.3468578622
 30
0.0
 10
10.4544306757
 20
9.3274622337
 30
0.0
 10
10.4465950013
 20
9.2882018517
 30
0.0
 10
10.4342255727
 20
9.2285044978
 30
0.0
 10
10.4213356236
 20
9.1669808356
 30
0.0
 10
10.4126958859
 20
9.1252886847
 30
0.0
 10
10.4083676206
 20
9.1040795577
 30
0.0
  0
SPLINE
  5
2B2
100
AcDbEntity
  8
0
100
AcDbSpline
 62
9
  6
CONTINUOUS
 70
0
 71
3
 72
10
 73
6
 74
0
 42
0.0000001
 43
0.0000001
 44
0.0000000001
 40
0.0
 40
0.0
 40
0.0
 40
0.0
 40
0.2629375418
 40
0.5179436456
 40
1.0
 40
1.0
 40
1.0
 40
1.0
 10
10.4275683265
 20
9.4057483252
 30
0.0
 10
10.4314310552
 20
9.4013280164
 30
0.0
 10
10.4385689542
 20
9.3921856721
 30
0.0
 10
10.4501692797
 20
9.3730879692
 30
0.0
 10
10.4560624747
 20
9.3574139765
 30
0.0
 10
10.4581664635
 20
9.3468594291
 30
0.0
  0
SPLINE
  5
2B3
100
AcDbEntity
  8
0
100
AcDbSpline
 62
9
  6
CONTINUOUS
 70
0
 71
3
 72
9
 73
5
 74
0
 42
0.0000001
 43
0.0000001
 44
0.0000000001
 40
0.0
 40
0.0
 40
0.0
 40
0.0
 40
0.4956819902
 40
1.0
 40
1.0
 40
1.0
 40
1.0
 10
10.4083676206
 20
9.1040795577
 30
0.0
 10
10.4183757309
 20
9.0634471396
 30
0.0
 10
10.4366667477
 20
8.980997247
 30
0.0
 10
10.4514756007
 20
8.8978591242
 30
0.0
 10
10.4581662146
 20
8.8558122227
 30
0.0
  0
SPLINE
  5
2B4
100
AcDbEntity
  8
0
100
AcDbSpline
 62
9
  6
CONTINUOUS
 70
0
 71
3
 72
21
 73
17
 74
0
 42
0.0000001
 43
0.0000001
 44
0.0000000001
 40
0.0
 40
0.0
 40
0.0
 40
0.0
 40
0.0810263784
 40
0.1580246777
 40
0.2989550718
 40
0.3632197441
 40
0.4236924664
 40
0.4808862446
 40
0.5355596151
 40
0.5887720959
 40
0.6417730651
 40
0.6957806735
 40
0.7517008881
 40
0.8099048332
 40
0.8706013249
 40
1.0
 40
1.0
 40
1.0
 40
1.0
 10
10.3564078227
 20
8.865787568
 30
0.0
 10
10.35365553
 20
8.8704936437
 30
0.0
 10
10.3485110023
 20
8.8798071833
 30
0.0
 10
10.3398052467
 20
8.8979454286
 30
0.0
 10
10.3332541674
 20
8.9158617692
 30
0.0
 10
10.3293615105
 20
8.9333309886
 30
0.0
 10
10.327865234
 20
8.9455025796
 30
0.0
 10
10.3276991107
 20
8.9571208993
 30
0.0
 10
10.3287925916
 20
8.9681984722
 30
0.0
 10
10.3310865286
 20
8.9788015578
 30
0.0
 10
10.3345113428
 20
8.9890435797
 30
0.0
 10
10.3389588385
 20
8.999077622
 30
0.0
 10
10.344311654
 20
9.0090533329
 30
0.0
 10
10.3504997705
 20
9.0190638162
 30
0.0
 10
10.3599819443
 20
9.0328250035
 30
0.0
 10
10.3678934626
 20
9.0428921186
 30
0.0
 10
10.3734407434
 20
9.0496026385
 30
0.0
  0
SPLINE
  5
2B5
100
AcDbEntity
  8
0
100
AcDbSpline
 62
9
  6
CONTINUOUS
 70
0
 71
3
 72
9
 73
5
 74
0
 42
0.0000001
 43
0.0000001
 44
0.0000000001
 40
0.0
 40
0.0
 40
0.0
 40
0.0
 40
0.2619037578
 40
1.0
 40
1.0
 40
1.0
 40
1.0
 10
10.3906538287
 20
9.0684531243
 30
0.0
 10
10.3926612989
 20
9.0712985806
 30
0.0
 10
10.3999311698
 20
9.082428773
 30
0.0
 10
10.4055785544
 20
9.094676823
 30
0.0
 10
10.4083683086
 20
9.1040858185
 30
0.0
  0
SPLINE
  5
2B6
100
AcDbEntity
  8
0
100
AcDbSpline
 62
9
  6
CONTINUOUS
 70
0
 71
3
 72
9
 73
5
 74
0
 42
0.0000001
 43
0.0000001
 44
0.0000000001
 40
0.0
 40
0.0
 40
0.0
 40
0.0
 40
0.2546666559
 40
1.0
 40
1.0
 40
1.0
 40
1.0
 10
10.4581662146
 20
8.8558206482
 30
0.0
 10
10.4583621536
 20
8.8540615485
 30
0.0
 10
10.459156946
 20
8.8471570346
 30
0.0
 10
10.4600624165
 20
8.8402645284
 30
0.0
 10
10.4608360173
 20
8.8351424189
 30
0.0
  0
SPLINE
  5
2B7
100
AcDbEntity
  8
0
100
AcDbSpline
 62
9
  6
CONTINUOUS
 70
0
 71
3
 72
9
 73
5
 74
0
 42
0.0000001
 43
0.0000001
 44
0.0000000001
 40
0.0
 40
0.0
 40
0.0
 40
0.0
 40
0.5113212694
 40
1.0
 40
1.0
 40
1.0
 40
1.0
 10
10.4483038512
 20
8.8312413388
 30
0.0
 10
10.4505280992
 20
8.8351816665
 30
0.0
 10
10.4544065886
 20
8.8431667479
 30
0.0
 10
10.4571519323
 20
8.8516167805
 30
0.0
 10
10.4581662285
 20
8.8558205388
 30
0.0
  0
SPLINE
  5
2B8
100
AcDbEntity
  8
0
100
AcDbSpline
 62
9
  6
CONTINUOUS
 70
0
 71
3
 72
43
 73
39
 74
0
 42
0.0000001
 43
0.0000001
 44
0.0000000001
 40
0.0
 40
0.0
 40
0.0
 40
0.0
 40
0.016430465
 40
0.0318964362
 40
0.0459999021
 40
0.0524057706
 40
0.0583133114
 40
0.063700772
 40
0.068572105
 40
0.0769655973
 40
0.0807044317
 40
0.0842890444
 40
0.087827937
 40
0.0914077259
 40
0.0988914705
 40
0.1069825699
 40
0.1157158739
 40
0.1250566718
 40
0.1349560684
 40
0.1453631993
 40
0.156237218
 40
0.1675414844
 40
0.1913331483
 40
0.216563704
 40
0.243111995
 40
0.2708891503
 40
0.2998254414
 40
0.3298611149
 40
0.3609424202
 40
0.3930188688
 40
0.4599587003
 40
0.5302890265
 40
0.6036133942
 40
0.6795258563
 40
0.757602909
 40
0.8373919039
 40
0.9183826606
 40
1.0
 40
1.0
 40
1.0
 40
1.0
 10
10.4608360173
 20
8.8351424189
 30
0.0
 10
10.4613726809
 20
8.8315891676
 30
0.0
 10
10.4625072702
 20
8.8247042611
 30
0.0
 10
10.4645379002
 20
8.8148476225
 30
0.0
 10
10.4665868672
 20
8.8072411807
 30
0.0
 10
10.4685013099
 20
8.8017866171
 30
0.0
 10
10.4700129156
 20
8.7982195262
 30
0.0
 10
10.4716494527
 20
8.7950782807
 30
0.0
 10
10.4738876255
 20
8.7916652074
 30
0.0
 10
10.4764935381
 20
8.7889215831
 30
0.0
 10
10.4794362698
 20
8.7871140526
 30
0.0
 10
10.4816525204
 20
8.7862275469
 30
0.0
 10
10.4839471607
 20
8.78571946
 30
0.0
 10
10.4871410107
 20
8.7854814452
 30
0.0
 10
10.491337223
 20
8.7859293369
 30
0.0
 10
10.496484954
 20
8.7872991557
 30
0.0
 10
10.5018541663
 20
8.7892958949
 30
0.0
 10
10.5074508189
 20
8.7917728882
 30
0.0
 10
10.5132734201
 20
8.7946288084
 30
0.0
 10
10.5193222253
 20
8.7977790027
 30
0.0
 10
10.5255920289
 20
8.8011677624
 30
0.0
 10
10.5343972264
 20
8.8060212697
 30
0.0
 10
10.5459153202
 20
8.8124571129
 30
0.0
 10
10.5603754072
 20
8.8204628385
 30
0.0
 10
10.575675812
 20
8.8287493735
 30
0.0
 10
10.5917936983
 20
8.8372258642
 30
0.0
 10
10.6087047276
 20
8.8458293614
 30
0.0
 10
10.6263852598
 20
8.8545097653
 30
0.0
 10
10.6448109293
 20
8.8632261421
 30
0.0
 10
10.6707083885
 20
8.8750159105
 30
0.0
 10
10.7047590492
 20
8.8896047186
 30
0.0
 10
10.7476430796
 20
8.9064321366
 30
0.0
 10
10.7929211445
 20
8.9224632712
 30
0.0
 10
10.840404259
 20
8.9372457356
 30
0.0
 10
10.8898971137
 20
8.9501696945
 30
0.0
 10
10.9411651874
 20
8.9604065407
 30
0.0
 10
10.9938406675
 20
8.966878416
 30
0.0
 10
11.0294783776
 20
8.9678121597
 30
0.0
 10
11.0473184727
 20
8.9671956949
 30
0.0
  0
SPLINE
  5
2B9
100
AcDbEntity
  8
0
100
AcDbSpline
 62
9
  6
CONTINUOUS
 70
0
 71
3
 72
9
 73
5
 74
0
 42
0.0000001
 43
0.0000001
 44
0.0000000001
 40
0.0
 40
0.0
 40
0.0
 40
0.0
 40
0.2538371617
 40
1.0
 40
1.0
 40
1.0
 40
1.0
 10
10.4525553229
 20
8.811151926
 30
0.0
 10
10.4534714379
 20
8.8130968208
 30
0.0
 10
10.4568820836
 20
8.8208496595
 30
0.0
 10
10.4594710699
 20
8.8289721179
 30
0.0
 10
10.4608359997
 20
8.8351425305
 30
0.0
  0
SPLINE
  5
2BA
100
AcDbEntity
  8
0
100
AcDbSpline
 62
9
  6
CONTINUOUS
 70
0
 71
3
 72
10
 73
6
 74
0
 42
0.0000001
 43
0.0000001
 44
0.0000000001
 40
0.0
 40
0.0
 40
0.0
 40
0.0
 40
0.2231468528
 40
0.4691212607
 40
1.0
 40
1.0
 40
1.0
 40
1.0
 10
11.0473200314
 20
8.8722018931
 30
0.0
 10
11.0475307929
 20
8.8792652487
 30
0.0
 10
11.0478259934
 20
8.8941190399
 30
0.0
 10
11.0480126672
 20
8.9257865457
 30
0.0
 10
11.0477000598
 20
8.9503884322
 30
0.0
 10
11.0473184624
 20
8.9671956946
 30
0.0
  0
SPLINE
  5
2BB
100
AcDbEntity
  8
0
100
AcDbSpline
 62
9
  6
CONTINUOUS
 70
0
 71
3
 72
21
 73
17
 74
0
 42
0.0000001
 43
0.0000001
 44
0.0000000001
 40
0.0
 40
0.0
 40
0.0
 40
0.0
 40
0.1293999205
 40
0.1900972461
 40
0.248302145
 40
0.3042230751
 40
0.3582306473
 40
0.4112315424
 40
0.4644446211
 40
0.5191182637
 40
0.5763115874
 40
0.636783647
 40
0.701047674
 40
0.8419766913
 40
0.9189742807
 40
1.0
 40
1.0
 40
1.0
 40
1.0
 10
11.721194578
 20
9.0496042785
 30
0.0
 10
11.7267418894
 20
9.0428938013
 30
0.0
 10
11.7346534654
 20
9.0328267355
 30
0.0
 10
11.7441357465
 20
9.0190656007
 30
0.0
 10
11.7503239596
 20
9.0090551336
 30
0.0
 10
11.755676887
 20
8.9990795037
 30
0.0
 10
11.7601245634
 20
8.9890456328
 30
0.0
 10
11.7635495742
 20
8.978803768
 30
0.0
 10
11.7658437145
 20
8.9682007961
 30
0.0
 10
11.7669374631
 20
8.9571233474
 30
0.0
 10
11.7667716231
 20
8.9455052094
 30
0.0
 10
11.7652756548
 20
8.9333338373
 30
0.0
 10
11.7613834458
 20
8.9158649071
 30
0.0
 10
11.7548328397
 20
8.8979488125
 30
0.0
 10
11.7461275441
 20
8.8798107996
 30
0.0
 10
11.7409832462
 20
8.8704973734
 30
0.0
 10
11.7382310685
 20
8.8657913523
 30
0.0
  0
LINE
  5
2BC
100
AcDbEntity
  8
0
100
AcDbLine
 62
7
  6
CONTINUOUS
 10
11.0473182157
 20
4.2309550551
 11
11.04731823
 21
4.4063123211
  0
ENDSEC
  0
SECTION
  2
OBJECTS
  0
DICTIONARY
  5
C
100
AcDbDictionary
280
0
281
1
  3
ACAD_GROUP
350
D
  3
ACAD_MLINESTYLE
350
17
  3
ACAD_LAYOUT
350
1A
  3
ACAD_PLOTSETTINGS
350
19
  3
ACAD_PLOTSTYLENAME
350
E
  0
DICTIONARY
  5
D
102
{ACAD_REACTORS
330
C
102
}
100
AcDbDictionary
280
0
281
1
  0
ACDBDICTIONARYWDFLT
  5
E
102
{ACAD_REACTORS
330
C
102
}
100
AcDbDictionary
281
1
  3
Normal
350
F
100
AcDbDictionaryWithDefault
340
F
  0
DICTIONARY
  5
17
102
{ACAD_REACTORS
330
C
102
}
100
AcDbDictionary
280
0
281
1
  3
Standard
350
18
  0
DICTIONARY
  5
19
102
{ACAD_REACTORS
330
C
102
}
100
AcDbDictionary
281
1
  0
DICTIONARY
  5
1A
102
{ACAD_REACTORS
330
C
102
}
100
AcDbDictionary
281
1
  3
Model
350
2BD
  3
Layout1
350
2BE
  0
ACDBPLACEHOLDER
  5
F
102
{ACAD_REACTORS
330
E
102
}
  0
MLINESTYLE
  5
18
102
{ACAD_REACTORS
330
17
102
}
100
AcDbMlineStyle
  2
STANDARD
 70
0
  3

 62
256
 51
90.0
 52
90.0
 71
2
 49
0.5
 62
256
  6
BYLAYER
 49
-0.5
 62
256
  6
BYLAYER
  0
LAYOUT
  5
2BD
102
{ACAD_REACTORS
330
1A
102
}
100
AcDbPlotSettings
  1

  2
none_device
  4
ANSI_C_(22.00_x_17.00_Inches)
  6

 40
0.0
 41
0.0
 42
0.0
 43
0.0
 44
558.8
 45
431.8
 46
0.0
 47
0.0
 48
0.0
 49
0.0
140
0.0
141
0.0
142
1.0
143
1.0
 70
1024
 72
0
 73
0
 74
0
  7

 75
0
147
1.0
148
0.0
149
0.0
100
AcDbLayout
  1
Model
 70
0
 71
0
 10
0.0
 20
0.0
 11
22.0
 21
17.0
 12
0.0
 22
0.0
 32
0.0
 14
0.0
 24
0.0
 34
0.0
 15
0.0
 25
0.0
 35
0.0
146
0.0
 13
0.0
 23
0.0
 33
0.0
 16
1.0
 26
0.0
 36
0.0
 17
0.0
 27
1.0
 37
0.0
 76
0
330
202
345
0
346
0
  0
LAYOUT
  5
2BE
102
{ACAD_REACTORS
330
1A
102
}
100
AcDbPlotSettings
  1

  2
none_device
  4
ANSI_C_(22.00_x_17.00_Inches)
  6

 40
0.0
 41
0.0
 42
0.0
 43
0.0
 44
558.8
 45
431.8
 46
0.0
 47
0.0
 48
0.0
 49
0.0
140
0.0
141
0.0
142
1.0
143
1.0
 70
0
 72
0
 73
0
 74
0
  7

 75
0
147
1.0
148
0.0
149
0.0
100
AcDbLayout
  1
Layout1
 70
0
 71
1
 10
0.0
 20
0.0
 11
22.0
 21
17.0
 12
0.0
 22
0.0
 32
0.0
 14
0.0
 24
0.0
 34
0.0
 15
0.0
 25
0.0
 35
0.0
146
0.0
 13
0.0
 23
0.0
 33
0.0
 16
1.0
 26
0.0
 36
0.0
 17
0.0
 27
1.0
 37
0.0
 76
0
330
203
345
0
346
0
  0
ENDSEC
  0
EOF
