999
DXF file: E:\BT Custom\CADOUTPUT\_FRONT.dxf
999
Pro/ENGINEER 2018400 by Parametric Technology Corporation
  0
SECTION
  2
HEADER
  9
$ACADVER
  1
AC1018
  9
$DWGCODEPAGE
  3
ANSI_1252
  9
$EXTMAX
 10
22.0
 20
17.0
 30
0.0
  9
$EXTMIN
 10
0.0
 20
0.0
 30
0.0
  9
$LIMMIN
 10
0.0
 20
0.0
  9
$LIMMAX
 10
22.0
 20
17.0
  9
$VIEWCTR
 10
11.0
 20
8.5
  9
$VIEWSIZE
 40
17.0
  9
$CLAYER
  8
0
  9
$LTSCALE
 40
1.21
  9
$CELTYPE
  6
BYLAYER
  9
$DIMSCALE
 40
1.0
  9
$DIMASZ
 40
0.1
  9
$DIMEXO
 40
0.0625
  9
$DIMDLI
 40
0.836
  9
$DIMEXE
 40
0.125
  9
$DIMCEN
 40
0.198
  9
$DIMLFAC
 40
1.0
  9
$DIMBLK
  1
_FILLED
  9
$DIMALT
 70
1
  9
$DIMALTD
 70
2
  9
$DIMALTTD
 70
2
  9
$DIMALTF
 40
25.4
  9
$DIMTXT
 40
0.08
  9
$DIMTOL
 70
1
  9
$DIMLIM
 70
0
  9
$DIMTFAC
 40
1.0
  9
$DIMTP
 40
0.001
  9
$DIMTM
 40
0.001
  9
$DIMGAP
 40
0.09
  9
$DIMDSEP
 70
46
  9
$AUNITS
 70
0
  9
$PDMODE
 70
3
  9
$PDSIZE
 40
0.06
  9
$HANDSEED
  5
437
  9
$TILEMODE
 70
1
  9
$MEASUREMENT
 70
0
  9
$INSUNITS
 70
1
  0
ENDSEC
  0
SECTION
  2
CLASSES
  0
CLASS
  1
ACDBDICTIONARYWDFLT
  2
AcDbDictionaryWithDefault
  3
AutoCAD 2000
 90
0
 91
1
280
0
281
0
  0
CLASS
  1
ACDBPLACEHOLDER
  2
AcDbPlaceHolder
  3
AutoCAD 2000
 90
0
 91
1
280
0
281
0
  0
CLASS
  1
LAYOUT
  2
AcDbLayout
  3
AutoCAD 2000
 90
0
 91
0
280
0
281
0
  0
ENDSEC
  0
SECTION
  2
TABLES
  0
TABLE
  2
VPORT
  5
8
100
AcDbSymbolTable
 70
2
  0
VPORT
  5
1F4
100
AcDbSymbolTableRecord
100
AcDbViewportTableRecord
  2
*ACTIVE
 70
0
 10
0.0
 20
0.0
 11
1.0
 21
1.0
 12
11.0
 22
8.5
 13
0.0
 23
0.0
 14
1.0
 24
1.0
 15
0.0
 25
0.0
 16
0.0
 26
0.0
 36
1.0
 17
0.0
 27
0.0
 37
0.0
 40
17.0
 41
1.2941176471
 42
50.0
 43
0.0
 44
0.0
 50
0.0
 51
0.0
 71
0
 72
100
 73
1
 74
1
 75
0
 76
0
 77
0
 78
0
  0
ENDTAB
  0
TABLE
  2
LTYPE
  5
5
100
AcDbSymbolTable
 70
6
  0
LTYPE
  5
14
100
AcDbSymbolTableRecord
100
AcDbLinetypeTableRecord
  2
BYBLOCK
 70
0
  3

 72
65
 73
0
 40
0.0
  0
LTYPE
  5
15
100
AcDbSymbolTableRecord
100
AcDbLinetypeTableRecord
  2
BYLAYER
 70
0
  3

 72
65
 73
0
 40
0.0
  0
LTYPE
  5
16
100
AcDbSymbolTableRecord
100
AcDbLinetypeTableRecord
  2
CONTINUOUS
 70
64
  3
Solid line
 72
65
 73
0
 40
0.0
  0
LTYPE
  5
1F5
100
AcDbSymbolTableRecord
100
AcDbLinetypeTableRecord
  2
CENTER
 70
64
  3
____ _ ____ _ ____ _ ____ _ ____ _ ____ _ ____
 72
65
 73
4
 40
0.6
 49
0.375
 74
0
 49
-0.075
 74
0
 49
0.075
 74
0
 49
-0.075
 74
0
  0
LTYPE
  5
1F6
100
AcDbSymbolTableRecord
100
AcDbLinetypeTableRecord
  2
HIDDEN
 70
64
  3
- - - - - - - - - - - - - - - - - - - -
 72
65
 73
2
 40
0.2
 49
0.1
 74
0
 49
-0.1
 74
0
  0
LTYPE
  5
1F7
100
AcDbSymbolTableRecord
100
AcDbLinetypeTableRecord
  2
PHANTOM
 70
64
  3
_____ _ _ _____ _ _ _____ _ _ _____
 72
65
 73
6
 40
0.8
 49
0.45
 74
0
 49
-0.05
 74
0
 49
0.1
 74
0
 49
-0.05
 74
0
 49
0.1
 74
0
 49
-0.05
 74
0
  0
LTYPE
  5
1F8
100
AcDbSymbolTableRecord
100
AcDbLinetypeTableRecord
  2
DOT
 70
64
  3
. . . . . . . . . . . . . . . . . . . .
 72
65
 73
2
 40
0.2
 49
0.1
 74
0
 49
-0.1
 74
0
  0
LTYPE
  5
1F9
100
AcDbSymbolTableRecord
100
AcDbLinetypeTableRecord
  2
DASHED
 70
64
  3
- - - - - - - - - - - - - - - - - - - -
 72
65
 73
2
 40
0.2
 49
0.1
 74
0
 49
-0.1
 74
0
  0
ENDTAB
  0
TABLE
  2
LAYER
  5
2
100
AcDbSymbolTable
 70
36
  0
LAYER
  5
10
100
AcDbSymbolTableRecord
100
AcDbLayerTableRecord
  2
0
 70
0
 62
7
  6
CONTINUOUS
370
-3
390
F
  0
LAYER
  5
1FA
100
AcDbSymbolTableRecord
100
AcDbLayerTableRecord
  2
DEFAULT_1
 70
0
 62
7
  6
CENTER
370
-3
390
F
  0
LAYER
  5
1FB
100
AcDbSymbolTableRecord
100
AcDbLayerTableRecord
  2
DEFAULT_2
 70
0
 62
8
  6
HIDDEN
370
-3
390
F
  0
LAYER
  5
1FC
100
AcDbSymbolTableRecord
100
AcDbLayerTableRecord
  2
DEFAULT_3
 70
0
 62
7
  6
PHANTOM
370
-3
390
F
  0
LAYER
  5
1FD
100
AcDbSymbolTableRecord
100
AcDbLayerTableRecord
  2
ALL_FEATURES
 70
0
 62
7
  6
CONTINUOUS
370
-3
390
F
  0
LAYER
  5
1FE
100
AcDbSymbolTableRecord
100
AcDbLayerTableRecord
  2
AXES_FEATURES
 70
0
 62
7
  6
CONTINUOUS
370
-3
390
F
  0
LAYER
  5
1FF
100
AcDbSymbolTableRecord
100
AcDbLayerTableRecord
  2
DIMENSIONS
 70
0
 62
7
  6
CONTINUOUS
370
-3
390
F
  0
ENDTAB
  0
TABLE
  2
STYLE
  5
3
100
AcDbSymbolTable
 70
1
  0
STYLE
  5
11
100
AcDbSymbolTableRecord
100
AcDbTextStyleTableRecord
  2
STANDARD
 70
0
 40
0.0
 41
0.8
 50
0.0
 71
0
 42
0.2
  3
txt
  4

  0
STYLE
  5
200
100
AcDbSymbolTableRecord
100
AcDbTextStyleTableRecord
  2
TEXTSTYLE_1
 70
0
 40
0.0
 41
0.8
 50
0.0
 71
0
 42
0.2
  3
gdt
  4

  0
ENDTAB
  0
TABLE
  2
VIEW
  5
6
100
AcDbSymbolTable
 70
0
  0
ENDTAB
  0
TABLE
  2
UCS
  5
7
100
AcDbSymbolTable
 70
0
  0
ENDTAB
  0
TABLE
  2
APPID
  5
9
100
AcDbSymbolTable
 70
1
  0
APPID
  5
201
100
AcDbSymbolTableRecord
100
AcDbRegAppTableRecord
  2
ACAD
 70
0
  0
ENDTAB
  0
TABLE
  2
BLOCK_RECORD
  5
1
100
AcDbSymbolTable
 70
0
  0
BLOCK_RECORD
  5
202
100
AcDbSymbolTableRecord
100
AcDbBlockTableRecord
  2
*Model_Space
  0
BLOCK_RECORD
  5
203
100
AcDbSymbolTableRecord
100
AcDbBlockTableRecord
  2
*Paper_Space
  0
BLOCK_RECORD
  5
204
100
AcDbSymbolTableRecord
100
AcDbBlockTableRecord
  2
_FILLED
  0
ENDTAB
  0
TABLE
  2
DIMSTYLE
  5
A
100
AcDbSymbolTable
 70
1
100
AcDbDimStyleTable
 71
0
  0
DIMSTYLE
105
205
100
AcDbSymbolTableRecord
100
AcDbDimStyleTableRecord
  2
STANDARD
 70
0
  3

  4

 40
1.0
 41
0.1
 42
0.0625
 43
0.38
 44
0.125
 45
0.0
 46
0.0
 47
0.001
 48
0.001
140
0.08
141
0.09
142
0.0
143
25.4
144
1.0
145
0.0
146
1.0
147
0.09
 71
1.0
 72
0.0
 73
1
 74
1
 75
0
 76
0
 77
0
 78
4
 79
1
170
1
171
2
172
0
173
0
174
0
175
0
176
0
177
0
178
0
270
2
179
3
271
3
272
3
273
2
274
2
275
0
280
0
281
0
282
0
283
1
284
4
285
0
286
0
287
3
288
0
340
11
278
46
341
204
342
204
343
204
344
204
  0
ENDTAB
  0
ENDSEC
  0
SECTION
  2
BLOCKS
  0
BLOCK
  5
20
100
AcDbEntity
  8
0
100
AcDbBlockBegin
  2
*Model_Space
 70
0
 10
0.0
 20
0.0
 30
0.0
  3
*Model_Space
  1

  0
ENDBLK
  5
21
100
AcDbEntity
  8
0
100
AcDbBlockEnd
  0
BLOCK
  5
1C
100
AcDbEntity
  8
0
100
AcDbBlockBegin
  2
*Paper_Space
 70
0
 10
0.0
 20
0.0
 30
0.0
  3
*Paper_Space
  1

  0
ENDBLK
  5
1D
100
AcDbEntity
  8
0
100
AcDbBlockEnd
  0
BLOCK
  5
206
100
AcDbEntity
  8
0
100
AcDbBlockBegin
  2
_FILLED
 70
64
 10
0.0
 20
0.0
  3
_FILLED
  1

  0
SOLID
  5
207
100
AcDbEntity
  8
0
  6
BYBLOCK
 62
0
100
AcDbTrace
 10
0.0
 20
0.0
 11
-1.0
 21
0.2
 12
-1.0
 22
-0.2
 13
-1.0
 23
-0.2
  0
ENDBLK
  5
208
100
AcDbEntity
  8
0
  6
BYBLOCK
 62
0
100
AcDbBlockEnd
  0
ENDSEC
  0
SECTION
  2
ENTITIES
  0
LINE
  5
209
100
AcDbEntity
  8
0
100
AcDbLine
 62
7
  6
CONTINUOUS
 10
3.9726923427
 20
9.156900544
 11
3.9726923427
 21
8.681900544
  0
LINE
  5
20A
100
AcDbEntity
  8
0
100
AcDbLine
 62
9
  6
CONTINUOUS
 10
4.1027501782
 20
8.7032040157
 11
4.1027501782
 21
9.1355970723
  0
LINE
  5
20B
100
AcDbEntity
  8
0
100
AcDbLine
 62
7
  6
CONTINUOUS
 10
4.2956923427
 20
9.137900544
 11
4.2956923427
 21
8.700900544
  0
LINE
  5
20C
100
AcDbEntity
  8
0
100
AcDbLine
 62
9
  6
CONTINUOUS
 10
4.6394520876
 20
9.3136498524
 11
4.6394520876
 21
8.5251512356
  0
LINE
  5
20D
100
AcDbEntity
  8
0
100
AcDbLine
 62
9
  6
CONTINUOUS
 10
5.6942882597
 20
8.7301906168
 11
5.6942882597
 21
9.1086104712
  0
LINE
  5
20E
100
AcDbEntity
  8
0
100
AcDbLine
 62
7
  6
CONTINUOUS
 10
5.7676923427
 20
6.211150544
 11
5.7676923427
 21
6.197150544
  0
LINE
  5
20F
100
AcDbEntity
  8
0
100
AcDbLine
 62
7
  6
CONTINUOUS
 10
6.4876923427
 20
9.169400544
 11
6.4876923427
 21
8.669400544
  0
LINE
  5
210
100
AcDbEntity
  8
0
100
AcDbLine
 62
7
  6
CONTINUOUS
 10
6.5326923427
 20
8.669400544
 11
6.5326923427
 21
9.169400544
  0
LINE
  5
211
100
AcDbEntity
  8
0
100
AcDbLine
 62
7
  6
CONTINUOUS
 10
6.5576923427
 20
8.6943220161
 11
6.5576923427
 21
9.144400544
  0
LINE
  5
212
100
AcDbEntity
  8
0
100
AcDbLine
 62
7
  6
CONTINUOUS
 10
6.5851923427
 20
8.286400544
 11
6.5851923427
 21
8.236400544
  0
LINE
  5
213
100
AcDbEntity
  8
0
100
AcDbLine
 62
7
  6
CONTINUOUS
 10
6.6071923427
 20
9.269400544
 11
6.6071923427
 21
9.198400544
  0
LINE
  5
214
100
AcDbEntity
  8
0
100
AcDbLine
 62
7
  6
CONTINUOUS
 10
6.6656923427
 20
9.340400544
 11
6.6656923427
 21
9.316400544
  0
LINE
  5
215
100
AcDbEntity
  8
0
100
AcDbLine
 62
7
  6
CONTINUOUS
 10
6.7539432158
 20
8.205150544
 11
6.7539432158
 21
8.236400544
  0
LINE
  5
216
100
AcDbEntity
  8
0
100
AcDbLine
 62
7
  6
CONTINUOUS
 10
6.7597114215
 20
8.236400544
 11
6.7597114215
 21
8.205150544
  0
LINE
  5
217
100
AcDbEntity
  8
0
100
AcDbLine
 62
7
  6
CONTINUOUS
 10
6.776149149
 20
8.205150544
 11
6.776149149
 21
8.236400544
  0
LINE
  5
218
100
AcDbEntity
  8
0
100
AcDbLine
 62
7
  6
CONTINUOUS
 10
6.7925756091
 20
8.236400544
 11
6.7925756091
 21
8.205150544
  0
LINE
  5
219
100
AcDbEntity
  8
0
100
AcDbLine
 62
7
  6
CONTINUOUS
 10
6.8154766683
 20
8.205150544
 11
6.8154766683
 21
8.236400544
  0
LINE
  5
21A
100
AcDbEntity
  8
0
100
AcDbLine
 62
7
  6
CONTINUOUS
 10
6.822948569
 20
8.205150544
 11
6.822948569
 21
8.236400544
  0
LINE
  5
21B
100
AcDbEntity
  8
0
100
AcDbLine
 62
7
  6
CONTINUOUS
 10
6.8475325038
 20
8.236400544
 11
6.8475325038
 21
8.205150544
  0
LINE
  5
21C
100
AcDbEntity
  8
0
100
AcDbLine
 62
7
  6
CONTINUOUS
 10
6.5275356938
 20
8.1390424027
 11
6.5030267991
 21
8.0000455541
  0
LINE
  5
21D
100
AcDbEntity
  8
0
100
AcDbLine
 62
7
  6
CONTINUOUS
 10
6.8663420556
 20
8.205150544
 11
6.8663420556
 21
8.236400544
  0
LINE
  5
21E
100
AcDbEntity
  8
0
100
AcDbLine
 62
7
  6
CONTINUOUS
 10
6.8841220533
 20
8.236400544
 11
6.8841220533
 21
8.205150544
  0
LINE
  5
21F
100
AcDbEntity
  8
0
100
AcDbLine
 62
7
  6
CONTINUOUS
 10
6.8872166885
 20
8.205150544
 11
6.8872166885
 21
8.236400544
  0
LINE
  5
220
100
AcDbEntity
  8
0
100
AcDbLine
 62
7
  6
CONTINUOUS
 10
6.9162154168
 20
8.236400544
 11
6.9162154168
 21
8.205150544
  0
LINE
  5
221
100
AcDbEntity
  8
0
100
AcDbLine
 62
7
  6
CONTINUOUS
 10
6.9280698774
 20
8.205150544
 11
6.9280698774
 21
8.236400544
  0
LINE
  5
222
100
AcDbEntity
  8
0
100
AcDbLine
 62
7
  6
CONTINUOUS
 10
6.9473148081
 20
8.236400544
 11
6.9473148081
 21
8.205150544
  0
LINE
  5
223
100
AcDbEntity
  8
0
100
AcDbLine
 62
7
  6
CONTINUOUS
 10
6.9591692687
 20
8.205150544
 11
6.9591692687
 21
8.236400544
  0
LINE
  5
224
100
AcDbEntity
  8
0
100
AcDbLine
 62
7
  6
CONTINUOUS
 10
6.988167997
 20
8.236400544
 11
6.988167997
 21
8.205150544
  0
LINE
  5
225
100
AcDbEntity
  8
0
100
AcDbLine
 62
7
  6
CONTINUOUS
 10
6.9912626322
 20
8.205150544
 11
6.9912626322
 21
8.236400544
  0
LINE
  5
226
100
AcDbEntity
  8
0
100
AcDbLine
 62
7
  6
CONTINUOUS
 10
7.0090426298
 20
8.236400544
 11
7.0090426298
 21
8.205150544
  0
LINE
  5
227
100
AcDbEntity
  8
0
100
AcDbLine
 62
7
  6
CONTINUOUS
 10
7.0278521816
 20
8.205150544
 11
7.0278521816
 21
8.236400544
  0
LINE
  5
228
100
AcDbEntity
  8
0
100
AcDbLine
 62
7
  6
CONTINUOUS
 10
7.0524361165
 20
8.236400544
 11
7.0524361165
 21
8.205150544
  0
LINE
  5
229
100
AcDbEntity
  8
0
100
AcDbLine
 62
7
  6
CONTINUOUS
 10
7.0599080171
 20
8.236400544
 11
7.0599080171
 21
8.205150544
  0
LINE
  5
22A
100
AcDbEntity
  8
0
100
AcDbLine
 62
7
  6
CONTINUOUS
 10
7.0828090764
 20
8.205150544
 11
7.0828090764
 21
8.236400544
  0
LINE
  5
22B
100
AcDbEntity
  8
0
100
AcDbLine
 62
7
  6
CONTINUOUS
 10
7.0992355365
 20
8.236400544
 11
7.0992355365
 21
8.205150544
  0
LINE
  5
22C
100
AcDbEntity
  8
0
100
AcDbLine
 62
7
  6
CONTINUOUS
 10
7.115673264
 20
8.205150544
 11
7.115673264
 21
8.236400544
  0
LINE
  5
22D
100
AcDbEntity
  8
0
100
AcDbLine
 62
7
  6
CONTINUOUS
 10
7.1214414697
 20
8.236400544
 11
7.1214414697
 21
8.205150544
  0
LINE
  5
22E
100
AcDbEntity
  8
0
100
AcDbLine
 62
7
  6
CONTINUOUS
 10
7.2096923427
 20
9.340400544
 11
7.2096923427
 21
9.316400544
  0
LINE
  5
22F
100
AcDbEntity
  8
0
100
AcDbLine
 62
7
  6
CONTINUOUS
 10
7.2681923427
 20
9.269400544
 11
7.2681923427
 21
9.198400544
  0
LINE
  5
230
100
AcDbEntity
  8
0
100
AcDbLine
 62
7
  6
CONTINUOUS
 10
7.2901923427
 20
8.286400544
 11
7.2901923427
 21
8.236400544
  0
LINE
  5
231
100
AcDbEntity
  8
0
100
AcDbLine
 62
7
  6
CONTINUOUS
 10
7.2309237874
 20
8.435930051
 11
7.2311268028
 21
8.4400999788
  0
LINE
  5
232
100
AcDbEntity
  8
0
100
AcDbLine
 62
7
  6
CONTINUOUS
 10
7.1555026539
 20
8.4536732731
 11
7.1574929353
 21
8.4705279399
  0
LINE
  5
233
100
AcDbEntity
  8
0
100
AcDbLine
 62
7
  6
CONTINUOUS
 10
6.5576923427
 20
8.6943400667
 11
6.5612350698
 21
8.6896923249
  0
LINE
  5
234
100
AcDbEntity
  8
0
100
AcDbLine
 62
7
  6
CONTINUOUS
 10
7.1594911828
 20
8.4130668238
 11
7.1619344259
 21
8.4046031814
  0
LINE
  5
235
100
AcDbEntity
  8
0
100
AcDbLine
 62
7
  6
CONTINUOUS
 10
7.1989433395
 20
8.436400544
 11
7.1873963342
 21
8.476400544
  0
LINE
  5
236
100
AcDbEntity
  8
0
100
AcDbLine
 62
7
  6
CONTINUOUS
 10
7.3478489917
 20
8.1390424027
 11
7.3723578863
 21
8.0000455541
  0
LINE
  5
237
100
AcDbEntity
  8
0
100
AcDbLine
 62
7
  6
CONTINUOUS
 10
7.1643023234
 20
8.476400544
 11
7.1553843203
 21
8.445507675
  0
LINE
  5
238
100
AcDbEntity
  8
0
100
AcDbLine
 62
7
  6
CONTINUOUS
 10
7.1873963342
 20
8.396400544
 11
7.1989433395
 21
8.436400544
  0
LINE
  5
239
100
AcDbEntity
  8
0
100
AcDbLine
 62
7
  6
CONTINUOUS
 10
6.7676923427
 20
9.406400544
 11
6.7576923427
 21
9.396400544
  0
LINE
  5
23A
100
AcDbEntity
  8
0
100
AcDbLine
 62
7
  6
CONTINUOUS
 10
5.7676923427
 20
6.197150544
 11
8.1076923427
 21
6.197150544
  0
LINE
  5
23B
100
AcDbEntity
  8
0
100
AcDbLine
 62
7
  6
CONTINUOUS
 10
9.5126923427
 20
6.197150544
 11
12.3626923427
 21
6.197150544
  0
LINE
  5
23C
100
AcDbEntity
  8
0
100
AcDbLine
 62
7
  6
CONTINUOUS
 10
13.7676923427
 20
6.197150544
 11
16.1076923427
 21
6.197150544
  0
LINE
  5
23D
100
AcDbEntity
  8
0
100
AcDbLine
 62
9
  6
CONTINUOUS
 10
16.1076923427
 20
6.211150544
 11
13.7676923427
 21
6.211150544
  0
LINE
  5
23E
100
AcDbEntity
  8
0
100
AcDbLine
 62
9
  6
CONTINUOUS
 10
8.1076923427
 20
6.211150544
 11
5.7676923427
 21
6.211150544
  0
LINE
  5
23F
100
AcDbEntity
  8
0
100
AcDbLine
 62
7
  6
CONTINUOUS
 10
6.5576923427
 20
9.144400544
 11
6.5326923427
 21
9.169400544
  0
LINE
  5
240
100
AcDbEntity
  8
0
100
AcDbLine
 62
7
  6
CONTINUOUS
 10
7.1937471871
 20
8.487023332
 11
7.1892864898
 21
8.4933317106
  0
LINE
  5
241
100
AcDbEntity
  8
0
100
AcDbLine
 62
7
  6
CONTINUOUS
 10
8.1076923427
 20
6.211150544
 11
8.1076923427
 21
6.197150544
  0
LINE
  5
242
100
AcDbEntity
  8
0
100
AcDbLine
 62
7
  6
CONTINUOUS
 10
6.5576923427
 20
8.694400544
 11
6.5326923427
 21
8.669400544
  0
LINE
  5
243
100
AcDbEntity
  8
0
100
AcDbLine
 62
9
  6
CONTINUOUS
 10
16.0420640532
 20
6.321150544
 11
13.8333206323
 21
6.321150544
  0
LINE
  5
244
100
AcDbEntity
  8
0
100
AcDbLine
 62
9
  6
CONTINUOUS
 10
5.8333206323
 20
6.321150544
 11
8.0420640532
 21
6.321150544
  0
LINE
  5
245
100
AcDbEntity
  8
0
100
AcDbLine
 62
9
  6
CONTINUOUS
 10
12.3626923427
 20
6.330150544
 11
9.5126923427
 21
6.330150544
  0
LINE
  5
246
100
AcDbEntity
  8
0
100
AcDbLine
 62
9
  6
CONTINUOUS
 10
16.0096147124
 20
6.372150544
 11
13.8657699731
 21
6.372150544
  0
LINE
  5
247
100
AcDbEntity
  8
0
100
AcDbLine
 62
9
  6
CONTINUOUS
 10
5.8657699731
 20
6.372150544
 11
8.0096147124
 21
6.372150544
  0
LINE
  5
248
100
AcDbEntity
  8
0
100
AcDbLine
 62
9
  6
CONTINUOUS
 10
15.9784382703
 20
6.430150544
 11
13.8969464151
 21
6.430150544
  0
LINE
  5
249
100
AcDbEntity
  8
0
100
AcDbLine
 62
9
  6
CONTINUOUS
 10
5.8969464151
 20
6.430150544
 11
7.9784382703
 21
6.430150544
  0
LINE
  5
24A
100
AcDbEntity
  8
0
100
AcDbLine
 62
9
  6
CONTINUOUS
 10
15.9541628491
 20
6.471150544
 11
13.9212218364
 21
6.471150544
  0
LINE
  5
24B
100
AcDbEntity
  8
0
100
AcDbLine
 62
9
  6
CONTINUOUS
 10
5.9212218364
 20
6.471150544
 11
7.9541628491
 21
6.471150544
  0
LINE
  5
24C
100
AcDbEntity
  8
0
100
AcDbLine
 62
9
  6
CONTINUOUS
 10
15.9170358998
 20
6.527150544
 11
13.9583487857
 21
6.527150544
  0
LINE
  5
24D
100
AcDbEntity
  8
0
100
AcDbLine
 62
9
  6
CONTINUOUS
 10
5.9583487857
 20
6.527150544
 11
7.9170358998
 21
6.527150544
  0
LINE
  5
24E
100
AcDbEntity
  8
0
100
AcDbLine
 62
9
  6
CONTINUOUS
 10
9.644524677
 20
6.5540219151
 11
12.2308600085
 21
6.5540219151
  0
LINE
  5
24F
100
AcDbEntity
  8
0
100
AcDbLine
 62
9
  6
CONTINUOUS
 10
15.8896404964
 20
6.562150544
 11
13.9857441891
 21
6.562150544
  0
LINE
  5
250
100
AcDbEntity
  8
0
100
AcDbLine
 62
9
  6
CONTINUOUS
 10
5.9857441891
 20
6.562150544
 11
7.8896404964
 21
6.562150544
  0
LINE
  5
251
100
AcDbEntity
  8
0
100
AcDbLine
 62
9
  6
CONTINUOUS
 10
15.879516113
 20
6.577150544
 11
13.9958685725
 21
6.577150544
  0
LINE
  5
252
100
AcDbEntity
  8
0
100
AcDbLine
 62
9
  6
CONTINUOUS
 10
5.9958685725
 20
6.577150544
 11
7.879516113
 21
6.577150544
  0
LINE
  5
253
100
AcDbEntity
  8
0
100
AcDbLine
 62
9
  6
CONTINUOUS
 10
9.6846923427
 20
6.6222327242
 11
12.1906923427
 21
6.6222327242
  0
LINE
  5
254
100
AcDbEntity
  8
0
100
AcDbLine
 62
9
  6
CONTINUOUS
 10
12.1906923427
 20
6.624150544
 11
9.6846923427
 21
6.624150544
  0
LINE
  5
255
100
AcDbEntity
  8
0
100
AcDbLine
 62
7
  6
CONTINUOUS
 10
7.1076923427
 20
9.406400544
 11
7.1176923427
 21
9.396400544
  0
LINE
  5
256
100
AcDbEntity
  8
0
100
AcDbLine
 62
7
  6
CONTINUOUS
 10
12.0426923427
 20
6.772150544
 11
9.8326923427
 21
6.772150544
  0
LINE
  5
257
100
AcDbEntity
  8
0
100
AcDbLine
 62
9
  6
CONTINUOUS
 10
15.7531629052
 20
6.866150544
 11
14.1222217802
 21
6.866150544
  0
LINE
  5
258
100
AcDbEntity
  8
0
100
AcDbLine
 62
9
  6
CONTINUOUS
 10
7.7531629052
 20
6.866150544
 11
6.1222217802
 21
6.866150544
  0
LINE
  5
259
100
AcDbEntity
  8
0
100
AcDbLine
 62
9
  6
CONTINUOUS
 10
15.7254399062
 20
7.271150544
 11
14.1499447793
 21
7.271150544
  0
LINE
  5
25A
100
AcDbEntity
  8
0
100
AcDbLine
 62
9
  6
CONTINUOUS
 10
6.1499447793
 20
7.271150544
 11
7.7254399062
 21
7.271150544
  0
LINE
  5
25B
100
AcDbEntity
  8
0
100
AcDbLine
 62
7
  6
CONTINUOUS
 10
9.5126923427
 20
6.330150544
 11
9.5126923427
 21
6.197150544
  0
LINE
  5
25C
100
AcDbEntity
  8
0
100
AcDbLine
 62
7
  6
CONTINUOUS
 10
9.6846923427
 20
6.624150544
 11
9.6846923427
 21
6.6222327242
  0
LINE
  5
25D
100
AcDbEntity
  8
0
100
AcDbLine
 62
7
  6
CONTINUOUS
 10
17.2359325978
 20
9.3136498524
 11
16.1810964257
 21
9.1086104712
  0
LINE
  5
25E
100
AcDbEntity
  8
0
100
AcDbLine
 62
9
  6
CONTINUOUS
 10
6.4131972422
 20
7.8096450239
 11
7.4621874432
 21
7.8096450239
  0
LINE
  5
25F
100
AcDbEntity
  8
0
100
AcDbLine
 62
9
  6
CONTINUOUS
 10
14.4131972422
 20
7.8096450239
 11
15.4621874432
 21
7.8096450239
  0
LINE
  5
260
100
AcDbEntity
  8
0
100
AcDbLine
 62
9
  6
CONTINUOUS
 10
6.5030267991
 20
8.0000455541
 11
7.3723578863
 21
8.0000455541
  0
LINE
  5
261
100
AcDbEntity
  8
0
100
AcDbLine
 62
9
  6
CONTINUOUS
 10
14.5030267991
 20
8.0000455541
 11
15.3723578863
 21
8.0000455541
  0
LINE
  5
262
100
AcDbEntity
  8
0
100
AcDbLine
 62
9
  6
CONTINUOUS
 10
15.3478489917
 20
8.1390424027
 11
14.5275356938
 21
8.1390424027
  0
LINE
  5
263
100
AcDbEntity
  8
0
100
AcDbLine
 62
9
  6
CONTINUOUS
 10
7.3478489917
 20
8.1390424027
 11
6.5275356938
 21
8.1390424027
  0
LINE
  5
264
100
AcDbEntity
  8
0
100
AcDbLine
 62
7
  6
CONTINUOUS
 10
15.2690643566
 20
8.205150544
 11
14.6063203289
 21
8.205150544
  0
LINE
  5
265
100
AcDbEntity
  8
0
100
AcDbLine
 62
7
  6
CONTINUOUS
 10
7.2690643566
 20
8.205150544
 11
6.6063203289
 21
8.205150544
  0
LINE
  5
266
100
AcDbEntity
  8
0
100
AcDbLine
 62
7
  6
CONTINUOUS
 10
6.5851969763
 20
8.236400544
 11
7.2901877091
 21
8.236400544
  0
LINE
  5
267
100
AcDbEntity
  8
0
100
AcDbLine
 62
7
  6
CONTINUOUS
 10
14.5851969763
 20
8.236400544
 11
15.2901877091
 21
8.236400544
  0
LINE
  5
268
100
AcDbEntity
  8
0
100
AcDbLine
 62
7
  6
CONTINUOUS
 10
15.2901923427
 20
8.286400544
 11
14.5851923427
 21
8.286400544
  0
LINE
  5
269
100
AcDbEntity
  8
0
100
AcDbLine
 62
7
  6
CONTINUOUS
 10
7.2901923427
 20
8.286400544
 11
6.5851923427
 21
8.286400544
  0
LINE
  5
26A
100
AcDbEntity
  8
0
100
AcDbLine
 62
7
  6
CONTINUOUS
 10
4.6394520876
 20
9.3136498524
 11
5.6942882597
 21
9.1086104712
  0
LINE
  5
26B
100
AcDbEntity
  8
0
100
AcDbLine
 62
7
  6
CONTINUOUS
 10
10.4751923427
 20
10.618739787
 11
10.4751923427
 21
10.4484463891
  0
LWPOLYLINE
  5
26C
100
AcDbEntity
  8
0
100
AcDbPolyline
 62
7
  6
CONTINUOUS
 90
3
 70
0
 10
10.3630431865
 20
11.0428870371
 10
10.3579972506
 20
10.9830313598
 10
10.3562227211
 20
10.9619938589
  0
LINE
  5
26D
100
AcDbEntity
  8
0
100
AcDbLine
 62
7
  6
CONTINUOUS
 10
10.3807943994
 20
11.2534371984
 11
10.3630431865
 21
11.0428870371
  0
LINE
  5
26E
100
AcDbEntity
  8
0
100
AcDbLine
 62
7
  6
CONTINUOUS
 10
10.3883725011
 20
11.3430931632
 11
10.3807943994
 21
11.2534371984
  0
LWPOLYLINE
  5
26F
100
AcDbEntity
  8
0
100
AcDbPolyline
 62
7
  6
CONTINUOUS
 90
25
 70
0
 10
10.3274587626
 20
10.5101694992
 10
10.3196615311
 20
10.4273755363
 10
10.3086045148
 20
10.3123682676
 10
10.2968801009
 20
10.1929599008
 10
10.2844648908
 20
10.069205584
 10
10.2713345289
 20
9.9411699181
 10
10.2574633531
 20
9.8089181281
 10
10.2428244636
 20
9.6725065671
 10
10.2273897218
 20
9.5319980311
 10
10.2111298205
 20
9.3874687794
 10
10.1940107291
 20
9.2389806508
 10
10.1759865433
 20
9.0865230252
 10
10.157006755
 20
8.9300735073
 10
10.1370172685
 20
8.7696158601
 10
10.1159600847
 20
8.6051487384
 10
10.0937730772
 20
8.4366893039
 10
10.0703897875
 20
8.2642781026
 10
10.0457392447
 20
8.0879892817
 10
10.0197487217
 20
7.9079548733
 10
9.9923317577
 20
7.7242879989
 10
9.9633897732
 20
7.5371125573
 10
9.93281635
 20
7.3466136889
 10
9.9004971892
 20
7.1530619804
 10
9.8663107373
 20
6.9568269571
 10
9.8326923427
 20
6.772150544
  0
LINE
  5
270
100
AcDbEntity
  8
0
100
AcDbLine
 62
7
  6
CONTINUOUS
 10
11.4414920063
 20
10.5682771836
 11
11.4285192899
 21
10.5565267535
  0
LINE
  5
271
100
AcDbEntity
  8
0
100
AcDbLine
 62
7
  6
CONTINUOUS
 10
14.7021250546
 20
8.396400544
 11
14.6879883513
 21
8.396400544
  0
LINE
  5
272
100
AcDbEntity
  8
0
100
AcDbLine
 62
7
  6
CONTINUOUS
 10
7.1873963342
 20
8.396400544
 11
7.1654384776
 21
8.396400544
  0
LINE
  5
273
100
AcDbEntity
  8
0
100
AcDbLine
 62
7
  6
CONTINUOUS
 10
14.7226293675
 20
8.436400544
 11
14.6764413459
 21
8.436400544
  0
LINE
  5
274
100
AcDbEntity
  8
0
100
AcDbLine
 62
7
  6
CONTINUOUS
 10
7.1555082479
 20
8.436400544
 11
7.1989433395
 21
8.436400544
  0
LINE
  5
275
100
AcDbEntity
  8
0
100
AcDbLine
 62
7
  6
CONTINUOUS
 10
7.1643023234
 20
8.476400544
 11
7.1873963342
 21
8.476400544
  0
LINE
  5
276
100
AcDbEntity
  8
0
100
AcDbLine
 62
7
  6
CONTINUOUS
 10
14.6879883513
 20
8.476400544
 11
14.7110823621
 21
8.476400544
  0
LINE
  5
277
100
AcDbEntity
  8
0
100
AcDbLine
 62
7
  6
CONTINUOUS
 10
15.3876923427
 20
8.669400544
 11
15.3426923427
 21
8.669400544
  0
LINE
  5
278
100
AcDbEntity
  8
0
100
AcDbLine
 62
7
  6
CONTINUOUS
 10
6.4876923427
 20
8.669400544
 11
6.5326923427
 21
8.669400544
  0
LINE
  5
279
100
AcDbEntity
  8
0
100
AcDbLine
 62
9
  6
CONTINUOUS
 10
15.3141496157
 20
8.6896923249
 11
14.5612350698
 21
8.6896923249
  0
LINE
  5
27A
100
AcDbEntity
  8
0
100
AcDbLine
 62
9
  6
CONTINUOUS
 10
7.3141496157
 20
8.6896923249
 11
6.5612350698
 21
8.6896923249
  0
LINE
  5
27B
100
AcDbEntity
  8
0
100
AcDbLine
 62
7
  6
CONTINUOUS
 10
10.5714423427
 20
10.3499112447
 11
10.5714423427
 21
10.3030066222
  0
LINE
  5
27C
100
AcDbEntity
  8
0
100
AcDbLine
 62
9
  6
CONTINUOUS
 10
10.9376923427
 20
11.1062446519
 11
10.9376923427
 21
12.338379248
  0
LINE
  5
27D
100
AcDbEntity
  8
0
100
AcDbLine
 62
7
  6
CONTINUOUS
 10
15.3876923427
 20
9.169400544
 11
15.3426923427
 21
9.169400544
  0
LINE
  5
27E
100
AcDbEntity
  8
0
100
AcDbLine
 62
7
  6
CONTINUOUS
 10
6.4876923427
 20
9.169400544
 11
6.5326923427
 21
9.169400544
  0
LINE
  5
27F
100
AcDbEntity
  8
0
100
AcDbLine
 62
7
  6
CONTINUOUS
 10
6.6071923427
 20
9.198400544
 11
7.2681923427
 21
9.198400544
  0
LINE
  5
280
100
AcDbEntity
  8
0
100
AcDbLine
 62
7
  6
CONTINUOUS
 10
14.6071923427
 20
9.198400544
 11
15.2681923427
 21
9.198400544
  0
LINE
  5
281
100
AcDbEntity
  8
0
100
AcDbLine
 62
9
  6
CONTINUOUS
 10
15.2681923427
 20
9.269400544
 11
14.6071923427
 21
9.269400544
  0
LINE
  5
282
100
AcDbEntity
  8
0
100
AcDbLine
 62
9
  6
CONTINUOUS
 10
7.2681923427
 20
9.269400544
 11
6.6071923427
 21
9.269400544
  0
LINE
  5
283
100
AcDbEntity
  8
0
100
AcDbLine
 62
7
  6
CONTINUOUS
 10
15.2211875269
 20
9.316400544
 11
14.6541971586
 21
9.316400544
  0
LINE
  5
284
100
AcDbEntity
  8
0
100
AcDbLine
 62
7
  6
CONTINUOUS
 10
7.2211875269
 20
9.316400544
 11
6.6541971586
 21
9.316400544
  0
LINE
  5
285
100
AcDbEntity
  8
0
100
AcDbLine
 62
7
  6
CONTINUOUS
 10
11.3039423427
 20
10.3499192528
 11
11.3039423427
 21
10.3030066222
  0
LINE
  5
286
100
AcDbEntity
  8
0
100
AcDbLine
 62
7
  6
CONTINUOUS
 10
11.3824721603
 20
10.6690815772
 11
11.3824721603
 21
10.676149904
  0
LINE
  5
287
100
AcDbEntity
  8
0
100
AcDbLine
 62
7
  6
CONTINUOUS
 10
11.4001923427
 20
10.618739787
 11
11.4001923427
 21
10.4484463891
  0
LINE
  5
288
100
AcDbEntity
  8
0
100
AcDbLine
 62
7
  6
CONTINUOUS
 10
4.6394520876
 20
8.5251512356
 11
5.6942882597
 21
8.7301906168
  0
LINE
  5
289
100
AcDbEntity
  8
0
100
AcDbLine
 62
7
  6
CONTINUOUS
 10
15.2096878115
 20
9.340400544
 11
14.665696874
 21
9.340400544
  0
LINE
  5
28A
100
AcDbEntity
  8
0
100
AcDbLine
 62
7
  6
CONTINUOUS
 10
7.2096878115
 20
9.340400544
 11
6.665696874
 21
9.340400544
  0
LINE
  5
28B
100
AcDbEntity
  8
0
100
AcDbLine
 62
7
  6
CONTINUOUS
 10
6.7576923427
 20
9.396400544
 11
7.1176923427
 21
9.396400544
  0
LINE
  5
28C
100
AcDbEntity
  8
0
100
AcDbLine
 62
7
  6
CONTINUOUS
 10
14.7576923427
 20
9.396400544
 11
15.1176923427
 21
9.396400544
  0
LINE
  5
28D
100
AcDbEntity
  8
0
100
AcDbLine
 62
7
  6
CONTINUOUS
 10
15.1076878939
 20
9.406400544
 11
14.7676967916
 21
9.406400544
  0
LINE
  5
28E
100
AcDbEntity
  8
0
100
AcDbLine
 62
7
  6
CONTINUOUS
 10
7.1076878939
 20
9.406400544
 11
6.7676967916
 21
9.406400544
  0
LINE
  5
28F
100
AcDbEntity
  8
0
100
AcDbLine
 62
7
  6
CONTINUOUS
 10
17.2359325978
 20
8.5251512356
 11
16.1810964257
 21
8.7301906168
  0
LINE
  5
290
100
AcDbEntity
  8
0
100
AcDbLine
 62
7
  6
CONTINUOUS
 10
10.5714423427
 20
10.3214094757
 11
10.5664168521
 21
10.3273550482
  0
LINE
  5
291
100
AcDbEntity
  8
0
100
AcDbLine
 62
7
  6
CONTINUOUS
 10
10.5714423427
 20
10.3375557453
 11
10.5660082194
 21
10.3442243297
  0
LWPOLYLINE
  5
292
100
AcDbEntity
  8
0
100
AcDbPolyline
 62
7
  6
CONTINUOUS
 90
44
 70
0
 10
11.4841132275
 20
11.3773062193
 10
11.480291388
 20
11.4223097422
 10
11.4766707096
 20
11.4648160463
 10
11.4732460233
 20
11.5048847212
 10
11.4700119483
 20
11.5425785438
 10
11.466962935
 20
11.5779628557
 10
11.4640932783
 20
11.61110538
 10
11.4613971287
 20
11.6420760564
 10
11.4588684999
 20
11.6709469006
 10
11.45650127
 20
11.6977919207
 10
11.4542894381
 20
11.7226841655
 10
11.452227464
 20
11.7456919669
 10
11.4503101147
 20
11.7668822823
 10
11.4485317906
 20
11.7863309308
 10
11.4468862073
 20
11.8041218724
 10
11.4453666059
 20
11.8203436416
 10
11.443965365
 20
11.8350930266
 10
11.4426743963
 20
11.8484702143
 10
11.4414851506
 20
11.8605781024
 10
11.440388383
 20
11.8715238629
 10
11.4393737766
 20
11.8814213819
 10
11.4384292529
 20
11.8903957973
 10
11.4375395875
 20
11.8985926798
 10
11.4366846665
 20
11.9061867581
 10
11.4358355925
 20
11.9134028236
 10
11.434947733
 20
11.92054729
 10
11.4339535137
 20
11.9280150401
 10
11.4327209241
 20
11.9364888922
 10
11.4309682032
 20
11.9472114257
 10
11.4279804982
 20
11.9627904907
 10
11.4222423706
 20
11.986847349
 10
11.4121305386
 20
12.0194498219
 10
11.3966693668
 20
12.0574469676
 10
11.3758041983
 20
12.0971596933
 10
11.3500135046
 20
12.1361231214
 10
11.3194115134
 20
12.1734517875
 10
11.2840121508
 20
12.2085178491
 10
11.2439162409
 20
12.2406765986
 10
11.1993953878
 20
12.2693187994
 10
11.1507950888
 20
12.2938164801
 10
11.0984430016
 20
12.3135362289
 10
11.0427869911
 20
12.327886651
 10
10.984391795
 20
12.3363135982
 10
10.9376923427
 20
12.338379248
  0
LWPOLYLINE
  5
293
100
AcDbEntity
  8
0
100
AcDbPolyline
 62
7
  6
CONTINUOUS
 90
3
 70
0
 10
11.4968326055
 20
11.2268660041
 10
11.4923791704
 20
11.2796227819
 10
11.4841132275
 20
11.3773062193
  0
LINE
  5
294
100
AcDbEntity
  8
0
100
AcDbLine
 62
7
  6
CONTINUOUS
 10
11.5191975161
 20
10.9615732707
 11
11.4968326055
 21
11.2268660041
  0
LWPOLYLINE
  5
295
100
AcDbEntity
  8
0
100
AcDbPolyline
 62
7
  6
CONTINUOUS
 90
26
 70
0
 10
12.0426923427
 20
6.772150544
 10
12.0102809273
 20
6.950055481
 10
11.9771711245
 20
7.139683951
 10
11.9458107037
 20
7.3268369238
 10
11.9160896704
 20
7.5111731779
 10
11.8879042515
 20
7.6924392162
 10
11.8611575044
 20
7.8704576725
 10
11.8357593302
 20
8.0451083901
 10
11.8116283298
 20
8.2162965657
 10
11.7886976661
 20
8.3838961109
 10
11.7669025915
 20
8.5478276206
 10
11.7461819476
 20
8.7080459641
 10
11.7264783981
 20
8.8645288195
 10
11.7077382676
 20
9.017271271
 10
11.6899113591
 20
9.1662825907
 10
11.6729507217
 20
9.3115824191
 10
11.6568124899
 20
9.4531888188
 10
11.641459715
 20
9.5910869449
 10
11.6268650249
 20
9.725203001
 10
11.613002336
 20
9.8554748187
 10
11.5998467532
 20
9.9818486769
 10
11.5873743662
 20
10.10427294
 10
11.5755624638
 20
10.2226866685
 10
11.5643893507
 20
10.3370339014
 10
11.5538341371
 20
10.4472669068
 10
11.5479247787
 20
10.5102205232
  0
LINE
  5
296
100
AcDbEntity
  8
0
100
AcDbLine
 62
7
  6
CONTINUOUS
 10
12.1906923427
 20
6.624150544
 11
12.1906923427
 21
6.6222327242
  0
LINE
  5
297
100
AcDbEntity
  8
0
100
AcDbLine
 62
7
  6
CONTINUOUS
 10
12.3626923427
 20
6.330150544
 11
12.3626923427
 21
6.197150544
  0
LINE
  5
298
100
AcDbEntity
  8
0
100
AcDbLine
 62
7
  6
CONTINUOUS
 10
14.7676923427
 20
9.406400544
 11
14.7576923427
 21
9.396400544
  0
LINE
  5
299
100
AcDbEntity
  8
0
100
AcDbLine
 62
7
  6
CONTINUOUS
 10
14.6816374984
 20
8.385777756
 11
14.6894018817
 21
8.3747972597
  0
LINE
  5
29A
100
AcDbEntity
  8
0
100
AcDbLine
 62
7
  6
CONTINUOUS
 10
13.7676923427
 20
6.211150544
 11
13.7676923427
 21
6.197150544
  0
LWPOLYLINE
  5
29B
100
AcDbEntity
  8
0
100
AcDbPolyline
 62
7
  6
CONTINUOUS
 90
49
 70
0
 10
10.9376923427
 20
12.338379248
 10
10.8946281382
 20
12.336622468
 10
10.8386473057
 20
12.3290667874
 10
10.7852824688
 20
12.3161008458
 10
10.734960502
 20
12.298241936
 10
10.6880216727
 20
12.2759914479
 10
10.6446930424
 20
12.2498806936
 10
10.6052188046
 20
12.2204129857
 10
10.5698277678
 20
12.1880580428
 10
10.5386477115
 20
12.1532844078
 10
10.5117148993
 20
12.1165660583
 10
10.48895622
 20
12.0781482622
 10
10.4708759729
 20
12.0394534199
 10
10.4581333725
 20
12.0040557467
 10
10.450239207
 20
11.975413239
 10
10.4460482983
 20
11.9560711687
 10
10.4437300543
 20
11.9431793144
 10
10.44225983
 20
11.9338042353
 10
10.4411736073
 20
11.9261355971
 10
10.4402678949
 20
11.9192206606
 10
10.4394467207
 20
11.9125517409
 10
10.4386614414
 20
11.9058507813
 10
10.4378862924
 20
11.898965367
 10
10.4371001664
 20
11.8917475262
 10
10.436287419
 20
11.8840746351
 10
10.4354377125
 20
11.8758594028
 10
10.4345430789
 20
11.8670290594
 10
10.4335969191
 20
11.8575189399
 10
10.4325934192
 20
11.8472685606
 10
10.4315271936
 20
11.8362191102
 10
10.4303930575
 20
11.8243117757
 10
10.4291858763
 20
11.8114865798
 10
10.4279004618
 20
11.7976815434
 10
10.4265314969
 20
11.7828320375
 10
10.4250733143
 20
11.7668684677
 10
10.423519717
 20
11.7497142655
 10
10.4218642836
 20
11.7312894146
 10
10.4201004795
 20
11.7115138602
 10
10.4182209649
 20
11.6902992607
 10
10.4162184751
 20
11.667557597
 10
10.4140876792
 20
11.6432226427
 10
10.4118238885
 20
11.6172357988
 10
10.4094225242
 20
11.589540144
 10
10.406879129
 20
11.5600806087
 10
10.4041893799
 20
11.5288041498
 10
10.401349101
 20
11.4956599255
 10
10.3983542415
 20
11.4605990524
 10
10.3951990287
 20
11.4235528952
 10
10.3883725011
 20
11.3430931632
  0
LINE
  5
29C
100
AcDbEntity
  8
0
100
AcDbLine
 62
7
  6
CONTINUOUS
 10
15.3176923427
 20
8.694400544
 11
15.3426923427
 21
8.669400544
  0
LINE
  5
29D
100
AcDbEntity
  8
0
100
AcDbLine
 62
7
  6
CONTINUOUS
 10
15.1076923427
 20
9.406400544
 11
15.1176923427
 21
9.396400544
  0
LINE
  5
29E
100
AcDbEntity
  8
0
100
AcDbLine
 62
7
  6
CONTINUOUS
 10
14.5851923427
 20
8.286400544
 11
14.5851923427
 21
8.236400544
  0
LINE
  5
29F
100
AcDbEntity
  8
0
100
AcDbLine
 62
7
  6
CONTINUOUS
 10
14.6071923427
 20
9.269400544
 11
14.6071923427
 21
9.198400544
  0
LINE
  5
2A0
100
AcDbEntity
  8
0
100
AcDbLine
 62
7
  6
CONTINUOUS
 10
14.6816374984
 20
8.487023332
 11
14.683857406
 21
8.4901627556
  0
LINE
  5
2A1
100
AcDbEntity
  8
0
100
AcDbLine
 62
7
  6
CONTINUOUS
 10
15.3176923427
 20
9.144400544
 11
15.3426923427
 21
9.169400544
  0
LINE
  5
2A2
100
AcDbEntity
  8
0
100
AcDbLine
 62
7
  6
CONTINUOUS
 10
14.6764413459
 20
8.436400544
 11
14.6879883513
 21
8.396400544
  0
LINE
  5
2A3
100
AcDbEntity
  8
0
100
AcDbLine
 62
7
  6
CONTINUOUS
 10
14.7226293675
 20
8.436400544
 11
14.7110823621
 21
8.476400544
  0
LINE
  5
2A4
100
AcDbEntity
  8
0
100
AcDbLine
 62
7
  6
CONTINUOUS
 10
14.6656923427
 20
9.340400544
 11
14.6656923427
 21
9.316400544
  0
LINE
  5
2A5
100
AcDbEntity
  8
0
100
AcDbLine
 62
7
  6
CONTINUOUS
 10
14.7539432158
 20
8.205150544
 11
14.7539432158
 21
8.236400544
  0
LINE
  5
2A6
100
AcDbEntity
  8
0
100
AcDbLine
 62
7
  6
CONTINUOUS
 10
14.7597114215
 20
8.236400544
 11
14.7597114215
 21
8.205150544
  0
LINE
  5
2A7
100
AcDbEntity
  8
0
100
AcDbLine
 62
7
  6
CONTINUOUS
 10
14.776149149
 20
8.205150544
 11
14.776149149
 21
8.236400544
  0
LINE
  5
2A8
100
AcDbEntity
  8
0
100
AcDbLine
 62
7
  6
CONTINUOUS
 10
14.7925756091
 20
8.236400544
 11
14.7925756091
 21
8.205150544
  0
LINE
  5
2A9
100
AcDbEntity
  8
0
100
AcDbLine
 62
7
  6
CONTINUOUS
 10
14.8154766683
 20
8.205150544
 11
14.8154766683
 21
8.236400544
  0
LINE
  5
2AA
100
AcDbEntity
  8
0
100
AcDbLine
 62
7
  6
CONTINUOUS
 10
14.822948569
 20
8.205150544
 11
14.822948569
 21
8.236400544
  0
LINE
  5
2AB
100
AcDbEntity
  8
0
100
AcDbLine
 62
7
  6
CONTINUOUS
 10
14.8475325038
 20
8.236400544
 11
14.8475325038
 21
8.205150544
  0
LINE
  5
2AC
100
AcDbEntity
  8
0
100
AcDbLine
 62
7
  6
CONTINUOUS
 10
14.8663420556
 20
8.205150544
 11
14.8663420556
 21
8.236400544
  0
LINE
  5
2AD
100
AcDbEntity
  8
0
100
AcDbLine
 62
7
  6
CONTINUOUS
 10
14.8841220533
 20
8.236400544
 11
14.8841220533
 21
8.205150544
  0
LINE
  5
2AE
100
AcDbEntity
  8
0
100
AcDbLine
 62
7
  6
CONTINUOUS
 10
14.8872166885
 20
8.205150544
 11
14.8872166885
 21
8.236400544
  0
LINE
  5
2AF
100
AcDbEntity
  8
0
100
AcDbLine
 62
7
  6
CONTINUOUS
 10
14.9162154168
 20
8.236400544
 11
14.9162154168
 21
8.205150544
  0
LINE
  5
2B0
100
AcDbEntity
  8
0
100
AcDbLine
 62
7
  6
CONTINUOUS
 10
14.9280698774
 20
8.205150544
 11
14.9280698774
 21
8.236400544
  0
LINE
  5
2B1
100
AcDbEntity
  8
0
100
AcDbLine
 62
7
  6
CONTINUOUS
 10
14.9473148081
 20
8.236400544
 11
14.9473148081
 21
8.205150544
  0
LINE
  5
2B2
100
AcDbEntity
  8
0
100
AcDbLine
 62
7
  6
CONTINUOUS
 10
14.9591692687
 20
8.205150544
 11
14.9591692687
 21
8.236400544
  0
LINE
  5
2B3
100
AcDbEntity
  8
0
100
AcDbLine
 62
7
  6
CONTINUOUS
 10
14.988167997
 20
8.236400544
 11
14.988167997
 21
8.205150544
  0
LINE
  5
2B4
100
AcDbEntity
  8
0
100
AcDbLine
 62
7
  6
CONTINUOUS
 10
14.9912626322
 20
8.205150544
 11
14.9912626322
 21
8.236400544
  0
LINE
  5
2B5
100
AcDbEntity
  8
0
100
AcDbLine
 62
7
  6
CONTINUOUS
 10
15.0090426298
 20
8.236400544
 11
15.0090426298
 21
8.205150544
  0
LINE
  5
2B6
100
AcDbEntity
  8
0
100
AcDbLine
 62
7
  6
CONTINUOUS
 10
15.0278521816
 20
8.205150544
 11
15.0278521816
 21
8.236400544
  0
LINE
  5
2B7
100
AcDbEntity
  8
0
100
AcDbLine
 62
7
  6
CONTINUOUS
 10
15.0524361165
 20
8.236400544
 11
15.0524361165
 21
8.205150544
  0
LINE
  5
2B8
100
AcDbEntity
  8
0
100
AcDbLine
 62
7
  6
CONTINUOUS
 10
15.0599080171
 20
8.236400544
 11
15.0599080171
 21
8.205150544
  0
LINE
  5
2B9
100
AcDbEntity
  8
0
100
AcDbLine
 62
7
  6
CONTINUOUS
 10
15.0828090764
 20
8.205150544
 11
15.0828090764
 21
8.236400544
  0
LINE
  5
2BA
100
AcDbEntity
  8
0
100
AcDbLine
 62
7
  6
CONTINUOUS
 10
15.0992355365
 20
8.236400544
 11
15.0992355365
 21
8.205150544
  0
LINE
  5
2BB
100
AcDbEntity
  8
0
100
AcDbLine
 62
7
  6
CONTINUOUS
 10
15.115673264
 20
8.205150544
 11
15.115673264
 21
8.236400544
  0
LINE
  5
2BC
100
AcDbEntity
  8
0
100
AcDbLine
 62
7
  6
CONTINUOUS
 10
15.1214414697
 20
8.236400544
 11
15.1214414697
 21
8.205150544
  0
LINE
  5
2BD
100
AcDbEntity
  8
0
100
AcDbLine
 62
7
  6
CONTINUOUS
 10
14.6579439258
 20
8.4364300091
 11
14.657941973
 21
8.436400544
  0
LINE
  5
2BE
100
AcDbEntity
  8
0
100
AcDbLine
 62
7
  6
CONTINUOUS
 10
14.5275356938
 20
8.1390424027
 11
14.5030267991
 21
8.0000455541
  0
LINE
  5
2BF
100
AcDbEntity
  8
0
100
AcDbLine
 62
7
  6
CONTINUOUS
 10
14.6879883513
 20
8.476400544
 11
14.6764413459
 21
8.436400544
  0
LINE
  5
2C0
100
AcDbEntity
  8
0
100
AcDbLine
 62
7
  6
CONTINUOUS
 10
14.720667045
 20
8.4296028594
 11
14.7226293675
 21
8.436400544
  0
LINE
  5
2C1
100
AcDbEntity
  8
0
100
AcDbLine
 62
7
  6
CONTINUOUS
 10
15.3176923427
 20
8.6943400667
 11
15.3141496157
 21
8.6896923249
  0
LINE
  5
2C2
100
AcDbEntity
  8
0
100
AcDbLine
 62
7
  6
CONTINUOUS
 10
15.3478489917
 20
8.1390424027
 11
15.3723578863
 21
8.0000455541
  0
LINE
  5
2C3
100
AcDbEntity
  8
0
100
AcDbLine
 62
7
  6
CONTINUOUS
 10
15.2096923427
 20
9.340400544
 11
15.2096923427
 21
9.316400544
  0
LINE
  5
2C4
100
AcDbEntity
  8
0
100
AcDbLine
 62
7
  6
CONTINUOUS
 10
15.2681923427
 20
9.269400544
 11
15.2681923427
 21
9.198400544
  0
LINE
  5
2C5
100
AcDbEntity
  8
0
100
AcDbLine
 62
7
  6
CONTINUOUS
 10
15.2901923427
 20
8.286400544
 11
15.2901923427
 21
8.236400544
  0
LINE
  5
2C6
100
AcDbEntity
  8
0
100
AcDbLine
 62
7
  6
CONTINUOUS
 10
15.3176923427
 20
9.144400544
 11
15.3176923427
 21
8.6943220161
  0
LINE
  5
2C7
100
AcDbEntity
  8
0
100
AcDbLine
 62
7
  6
CONTINUOUS
 10
15.3426923427
 20
9.169400544
 11
15.3426923427
 21
8.669400544
  0
LINE
  5
2C8
100
AcDbEntity
  8
0
100
AcDbLine
 62
7
  6
CONTINUOUS
 10
15.3876923427
 20
8.669400544
 11
15.3876923427
 21
9.169400544
  0
LINE
  5
2C9
100
AcDbEntity
  8
0
100
AcDbLine
 62
7
  6
CONTINUOUS
 10
16.1076923427
 20
6.211150544
 11
16.1076923427
 21
6.197150544
  0
LINE
  5
2CA
100
AcDbEntity
  8
0
100
AcDbLine
 62
9
  6
CONTINUOUS
 10
16.1810964257
 20
9.1086104712
 11
16.1810964257
 21
8.7301906168
  0
LINE
  5
2CB
100
AcDbEntity
  8
0
100
AcDbLine
 62
9
  6
CONTINUOUS
 10
17.2359325978
 20
8.5251512356
 11
17.2359325978
 21
9.3136498524
  0
LINE
  5
2CC
100
AcDbEntity
  8
0
100
AcDbLine
 62
7
  6
CONTINUOUS
 10
17.5796923427
 20
9.137900544
 11
17.5796923427
 21
8.700900544
  0
LINE
  5
2CD
100
AcDbEntity
  8
0
100
AcDbLine
 62
9
  6
CONTINUOUS
 10
17.7726345072
 20
9.1355970723
 11
17.7726345072
 21
8.7032040157
  0
LINE
  5
2CE
100
AcDbEntity
  8
0
100
AcDbLine
 62
7
  6
CONTINUOUS
 10
17.9026923427
 20
9.156900544
 11
17.9026923427
 21
8.681900544
  0
ARC
  5
2CF
100
AcDbEntity
  8
0
100
AcDbCircle
 62
9
  6
CONTINUOUS
 10
-16.978849167
 20
11.748387131
 40
27.2694277294
100
AcDbArc
 50
349.485514723
 51
350.7123757988
  0
ARC
  5
2D0
100
AcDbEntity
  8
0
100
AcDbCircle
 62
7
  6
CONTINUOUS
 10
7.6389533674
 20
6.965776307
 40
1.52
100
AcDbArc
 50
168.4101664982
 51
183.7580464624
  0
ARC
  5
2D1
100
AcDbEntity
  8
0
100
AcDbCircle
 62
7
  6
CONTINUOUS
 10
6.2364313181
 20
6.965776307
 40
1.52
100
AcDbArc
 50
356.2419535376
 51
11.5898335018
  0
ARC
  5
2D2
100
AcDbEntity
  8
0
100
AcDbCircle
 62
7
  6
CONTINUOUS
 10
5.9805017528
 20
7.2577498416
 40
1.5
100
AcDbArc
 50
70.2371945424
 51
101.0
  0
ARC
  5
2D3
100
AcDbEntity
  8
0
100
AcDbCircle
 62
7
  6
CONTINUOUS
 10
6.5499068104
 20
7.0300656201
 40
1.2
100
AcDbArc
 50
11.5898335018
 51
40.5151811264
  0
ARC
  5
2D4
100
AcDbEntity
  8
0
100
AcDbCircle
 62
7
  6
CONTINUOUS
 10
7.3254778751
 20
7.0300656201
 40
1.2
100
AcDbArc
 50
139.4848188736
 51
168.4101664982
  0
ARC
  5
2D5
100
AcDbEntity
  8
0
100
AcDbCircle
 62
7
  6
CONTINUOUS
 10
8.0954253621
 20
6.843669204
 40
0.343
100
AcDbArc
 50
176.2419535375
 51
230.9887457036
  0
ARC
  5
2D6
100
AcDbEntity
  8
0
100
AcDbCircle
 62
7
  6
CONTINUOUS
 10
5.7799593234
 20
6.843669204
 40
0.343
100
AcDbArc
 50
309.0112542964
 51
3.7580464625
  0
ARC
  5
2D7
100
AcDbEntity
  8
0
100
AcDbCircle
 62
7
  6
CONTINUOUS
 10
9.7686923427
 20
6.330150544
 40
0.256
100
AcDbArc
 50
119.0144342968
 51
180.0
  0
ARC
  5
2D8
100
AcDbEntity
  8
0
100
AcDbCircle
 62
7
  6
CONTINUOUS
 10
9.8326923427
 20
6.624150544
 40
0.148
100
AcDbArc
 50
90.0
 51
180.0
  0
ARC
  5
2D9
100
AcDbEntity
  8
0
100
AcDbCircle
 62
7
  6
CONTINUOUS
 10
5.8926923427
 20
6.211150544
 40
0.125
100
AcDbArc
 50
118.3576365763
 51
180.0
  0
ARC
  5
2DA
100
AcDbEntity
  8
0
100
AcDbCircle
 62
7
  6
CONTINUOUS
 10
7.9826923427
 20
6.211150544
 40
0.125
100
AcDbArc
 50
0.0
 51
61.6423634237
  0
ARC
  5
2DB
100
AcDbEntity
  8
0
100
AcDbCircle
 62
7
  6
CONTINUOUS
 10
9.6066923427
 20
6.6222327242
 40
0.078
100
AcDbArc
 50
299.0144331218
 51
360.0
  0
ARC
  5
2DC
100
AcDbEntity
  8
0
100
AcDbCircle
 62
7
  6
CONTINUOUS
 10
5.998456752
 20
6.4602524795
 40
0.078
100
AcDbArc
 50
120.9443106101
 51
171.96842665
  0
ARC
  5
2DD
100
AcDbEntity
  8
0
100
AcDbCircle
 62
7
  6
CONTINUOUS
 10
7.8769279335
 20
6.4602524795
 40
0.078
100
AcDbArc
 50
8.03157335
 51
59.0556893899
  0
ARC
  5
2DE
100
AcDbEntity
  8
0
100
AcDbCircle
 62
7
  6
CONTINUOUS
 10
5.9436412846
 20
6.3676718343
 40
0.078
100
AcDbArc
 50
126.7734275124
 51
176.708302835
  0
ARC
  5
2DF
100
AcDbEntity
  8
0
100
AcDbCircle
 62
7
  6
CONTINUOUS
 10
7.9317434009
 20
6.3676718343
 40
0.078
100
AcDbArc
 50
3.291697165
 51
53.2265724876
  0
ARC
  5
2E0
100
AcDbEntity
  8
0
100
AcDbCircle
 62
7
  6
CONTINUOUS
 10
7.948916591
 20
6.5803259286
 40
0.062
100
AcDbArc
 50
197.0467181652
 51
239.0556893902
  0
ARC
  5
2E1
100
AcDbEntity
  8
0
100
AcDbCircle
 62
7
  6
CONTINUOUS
 10
5.9264680945
 20
6.5803259286
 40
0.062
100
AcDbArc
 50
300.9443106098
 51
342.9532818348
  0
ARC
  5
2E2
100
AcDbEntity
  8
0
100
AcDbCircle
 62
7
  6
CONTINUOUS
 10
8.0155547051
 20
6.4798131081
 40
0.062
100
AcDbArc
 50
188.0315733501
 51
233.2265724873
  0
ARC
  5
2E3
100
AcDbEntity
  8
0
100
AcDbCircle
 62
7
  6
CONTINUOUS
 10
5.8598299804
 20
6.4798131081
 40
0.062
100
AcDbArc
 50
306.7734275127
 51
351.9684266499
  0
ARC
  5
2E4
100
AcDbEntity
  8
0
100
AcDbCircle
 62
7
  6
CONTINUOUS
 10
8.0715124215
 20
6.375710544
 40
0.062
100
AcDbArc
 50
183.291697165
 51
241.6423634236
  0
ARC
  5
2E5
100
AcDbEntity
  8
0
100
AcDbCircle
 62
7
  6
CONTINUOUS
 10
5.8038722639
 20
6.375710544
 40
0.062
100
AcDbArc
 50
298.3576365764
 51
356.708302835
  0
ARC
  5
2E6
100
AcDbEntity
  8
0
100
AcDbCircle
 62
7
  6
CONTINUOUS
 10
6.0153822364
 20
6.5530628517
 40
0.031
100
AcDbArc
 50
129.0112542963
 51
162.9532818349
  0
ARC
  5
2E7
100
AcDbEntity
  8
0
100
AcDbCircle
 62
7
  6
CONTINUOUS
 10
7.8600024491
 20
6.5530628517
 40
0.031
100
AcDbArc
 50
17.0467181651
 51
50.9887457037
  0
ARC
  5
2E8
100
AcDbEntity
  8
0
100
AcDbCircle
 62
7
  6
CONTINUOUS
 10
6.1091036979
 20
8.0695048252
 40
0.4
100
AcDbArc
 50
319.4848188736
 51
350.0
  0
ARC
  5
2E9
100
AcDbEntity
  8
0
100
AcDbCircle
 62
7
  6
CONTINUOUS
 10
7.7662809875
 20
8.0695048252
 40
0.4
100
AcDbArc
 50
190.0
 51
220.5151811264
  0
ARC
  5
2EA
100
AcDbEntity
  8
0
100
AcDbCircle
 62
7
  6
CONTINUOUS
 10
7.0176923427
 20
8.9193400667
 40
0.375
100
AcDbArc
 50
322.2371948106
 51
48.0871091166
  0
ARC
  5
2EB
100
AcDbEntity
  8
0
100
AcDbCircle
 62
7
  6
CONTINUOUS
 10
6.8576923427
 20
8.9193400667
 40
0.375
100
AcDbArc
 50
131.9128908834
 51
143.1301023542
  0
ARC
  5
2EC
100
AcDbEntity
  8
0
100
AcDbCircle
 62
7
  6
CONTINUOUS
 10
6.2783109905
 20
8.4705279399
 40
0.3578813522
100
AcDbArc
 50
329.0364377797
 51
37.7628051894
  0
ARC
  5
2ED
100
AcDbEntity
  8
0
100
AcDbCircle
 62
7
  6
CONTINUOUS
 10
7.597073695
 20
8.4705279399
 40
0.3578813522
100
AcDbArc
 50
142.2371948106
 51
210.9635622203
  0
ARC
  5
2EE
100
AcDbEntity
  8
0
100
AcDbCircle
 62
7
  6
CONTINUOUS
 10
4.5797288721
 20
8.832400544
 40
0.313
100
AcDbArc
 50
204.8426560169
 51
281.0
  0
ARC
  5
2EF
100
AcDbEntity
  8
0
100
AcDbCircle
 62
7
  6
CONTINUOUS
 10
4.0506639997
 20
8.919400544
 40
0.249971657
100
AcDbArc
 50
108.1750968409
 51
251.8249031591
  0
ARC
  5
2F0
100
AcDbEntity
  8
0
100
AcDbCircle
 62
7
  6
CONTINUOUS
 10
4.2005923953
 20
8.816900544
 40
0.15
100
AcDbArc
 50
229.286165114
 51
309.345829766
  0
ARC
  5
2F1
100
AcDbEntity
  8
0
100
AcDbCircle
 62
7
  6
CONTINUOUS
 10
7.301929154
 20
8.4450939098
 40
0.146695745
100
AcDbArc
 50
176.6458250374
 51
183.574468267
  0
ARC
  5
2F2
100
AcDbEntity
  8
0
100
AcDbCircle
 62
7
  6
CONTINUOUS
 10
7.0732218335
 20
8.4453921087
 40
0.134126039
100
AcDbArc
 50
355.8566659039
 51
356.1561127654
  0
ARC
  5
2F3
100
AcDbEntity
  8
0
100
AcDbCircle
 62
7
  6
CONTINUOUS
 10
7.0733732421
 20
8.4453808528
 40
0.1339742129
100
AcDbArc
 50
355.173313613
 51
355.8567885884
  0
ARC
  5
2F4
100
AcDbEntity
  8
0
100
AcDbCircle
 62
7
  6
CONTINUOUS
 10
7.0945511715
 20
8.4375669858
 40
0.1122325498
100
AcDbArc
 50
8.4317574554
 51
8.79992769
  0
ARC
  5
2F5
100
AcDbEntity
  8
0
100
AcDbCircle
 62
7
  6
CONTINUOUS
 10
7.1003004121
 20
8.4385262078
 40
0.1064042618
100
AcDbArc
 50
8.7631040629
 51
13.0432058304
  0
ARC
  5
2F6
100
AcDbEntity
  8
0
100
AcDbCircle
 62
7
  6
CONTINUOUS
 10
7.1248919433
 20
8.4399289964
 40
0.1058103313
100
AcDbArc
 50
341.2111911603
 51
346.7117421925
  0
ARC
  5
2F7
100
AcDbEntity
  8
0
100
AcDbCircle
 62
7
  6
CONTINUOUS
 10
7.1075089941
 20
8.4401213688
 40
0.0990216819
100
AcDbArc
 50
13.0853686453
 51
13.5866457641
  0
ARC
  5
2F8
100
AcDbEntity
  8
0
100
AcDbCircle
 62
7
  6
CONTINUOUS
 10
4.0466539738
 20
8.6380180061
 40
0.086
100
AcDbArc
 50
49.2861651143
 51
149.3187124065
  0
ARC
  5
2F9
100
AcDbEntity
  8
0
100
AcDbCircle
 62
7
  6
CONTINUOUS
 10
7.2690643722
 20
8.125150544
 40
0.08
100
AcDbArc
 50
10.0000032985
 51
90.0000112242
  0
ARC
  5
2FA
100
AcDbEntity
  8
0
100
AcDbCircle
 62
7
  6
CONTINUOUS
 10
6.6063203132
 20
8.125150544
 40
0.08
100
AcDbArc
 50
89.9999887758
 51
169.9999967015
  0
ARC
  5
2FB
100
AcDbEntity
  8
0
100
AcDbCircle
 62
7
  6
CONTINUOUS
 10
7.2363635659
 20
8.4300654662
 40
0.0787269999
100
AcDbArc
 50
205.1732552486
 51
206.2722818408
  0
ARC
  5
2FC
100
AcDbEntity
  8
0
100
AcDbCircle
 62
7
  6
CONTINUOUS
 10
7.2325417176
 20
8.4281604558
 40
0.0744567188
100
AcDbArc
 50
206.2595610403
 51
208.0263684217
  0
ARC
  5
2FD
100
AcDbEntity
  8
0
100
AcDbCircle
 62
7
  6
CONTINUOUS
 10
7.1213557139
 20
8.4660401709
 40
0.0727745421
100
AcDbArc
 50
23.9279893567
 51
26.1924541672
  0
ARC
  5
2FE
100
AcDbEntity
  8
0
100
AcDbCircle
 62
7
  6
CONTINUOUS
 10
7.191522856
 20
8.3988089804
 40
0.0481334295
100
AcDbArc
 50
313.5002387631
 51
314.2850694294
  0
ARC
  5
2FF
100
AcDbEntity
  8
0
100
AcDbCircle
 62
7
  6
CONTINUOUS
 10
7.1674992854
 20
8.4748689839
 40
0.0304640708
100
AcDbArc
 50
39.1206088236
 51
40.9178798568
  0
ARC
  5
300
100
AcDbEntity
  8
0
100
AcDbCircle
 62
7
  6
CONTINUOUS
 10
7.1977306386
 20
8.3996422651
 40
0.0289597694
100
AcDbArc
 50
235.8935039334
 51
240.6777793156
  0
ARC
  5
301
100
AcDbEntity
  8
0
100
AcDbCircle
 62
7
  6
CONTINUOUS
 10
7.1948200788
 20
8.3925904724
 40
0.0212902239
100
AcDbArc
 50
256.7555055987
 51
266.7966671338
  0
ARC
  5
302
100
AcDbEntity
  8
0
100
AcDbCircle
 62
7
  6
CONTINUOUS
 10
7.1916445139
 20
8.3924050438
 40
0.0211048706
100
AcDbArc
 50
275.406429296
 51
278.3384268779
  0
ARC
  5
303
100
AcDbEntity
  8
0
100
AcDbCircle
 62
7
  6
CONTINUOUS
 10
7.1947952492
 20
8.392245644
 40
0.0209445475
100
AcDbArc
 50
266.8117729808
 51
269.9993491912
  0
ARC
  5
304
100
AcDbEntity
  8
0
100
AcDbCircle
 62
7
  6
CONTINUOUS
 10
7.1813287119
 20
8.4887135321
 40
0.0127911596
100
AcDbArc
 50
96.5673103954
 51
103.6930688995
  0
ARC
  5
305
100
AcDbEntity
  8
0
100
AcDbCircle
 62
7
  6
CONTINUOUS
 10
7.1812665655
 20
8.4891756767
 40
0.012324943
100
AcDbArc
 50
91.2246816522
 51
96.5260156502
  0
ARC
  5
306
100
AcDbEntity
  8
0
100
AcDbCircle
 62
7
  6
CONTINUOUS
 10
7.1812617668
 20
8.4892908208
 40
0.0122097229
100
AcDbArc
 50
90.001392681
 51
91.2137166722
  0
ARC
  5
307
100
AcDbEntity
  8
0
100
AcDbCircle
 62
7
  6
CONTINUOUS
 10
14.2364313181
 20
6.965776307
 40
1.52
100
AcDbArc
 50
356.2419535376
 51
11.5898335018
  0
ARC
  5
308
100
AcDbEntity
  8
0
100
AcDbCircle
 62
7
  6
CONTINUOUS
 10
15.6389533674
 20
6.965776307
 40
1.52
100
AcDbArc
 50
168.4101664982
 51
183.7580464624
  0
ARC
  5
309
100
AcDbEntity
  8
0
100
AcDbCircle
 62
7
  6
CONTINUOUS
 10
15.8948829327
 20
7.2577498416
 40
1.5
100
AcDbArc
 50
79.0
 51
109.7628054576
  0
ARC
  5
30A
100
AcDbEntity
  8
0
100
AcDbCircle
 62
7
  6
CONTINUOUS
 10
15.3254778751
 20
7.0300656201
 40
1.2
100
AcDbArc
 50
139.4848188736
 51
168.4101664982
  0
ARC
  5
30B
100
AcDbEntity
  8
0
100
AcDbCircle
 62
7
  6
CONTINUOUS
 10
14.5499068104
 20
7.0300656201
 40
1.2
100
AcDbArc
 50
11.5898335018
 51
40.5151811264
  0
ARC
  5
30C
100
AcDbEntity
  8
0
100
AcDbCircle
 62
7
  6
CONTINUOUS
 10
13.7799593234
 20
6.843669204
 40
0.343
100
AcDbArc
 50
309.0112542964
 51
3.7580464625
  0
ARC
  5
30D
100
AcDbEntity
  8
0
100
AcDbCircle
 62
7
  6
CONTINUOUS
 10
16.0954253621
 20
6.843669204
 40
0.343
100
AcDbArc
 50
176.2419535375
 51
230.9887457036
  0
ARC
  5
30E
100
AcDbEntity
  8
0
100
AcDbCircle
 62
7
  6
CONTINUOUS
 10
12.1066923427
 20
6.330150544
 40
0.256
100
AcDbArc
 50
0.0
 51
60.9855657032
  0
ARC
  5
30F
100
AcDbEntity
  8
0
100
AcDbCircle
 62
7
  6
CONTINUOUS
 10
12.0426923427
 20
6.624150544
 40
0.148
100
AcDbArc
 50
0.0
 51
90.0
  0
ARC
  5
310
100
AcDbEntity
  8
0
100
AcDbCircle
 62
7
  6
CONTINUOUS
 10
15.9826923427
 20
6.211150544
 40
0.125
100
AcDbArc
 50
0.0
 51
61.6423634237
  0
ARC
  5
311
100
AcDbEntity
  8
0
100
AcDbCircle
 62
7
  6
CONTINUOUS
 10
13.8926923427
 20
6.211150544
 40
0.125
100
AcDbArc
 50
118.3576365763
 51
180.0
  0
ARC
  5
312
100
AcDbEntity
  8
0
100
AcDbCircle
 62
7
  6
CONTINUOUS
 10
12.2686923427
 20
6.6222327242
 40
0.078
100
AcDbArc
 50
180.0
 51
240.9855668782
  0
ARC
  5
313
100
AcDbEntity
  8
0
100
AcDbCircle
 62
7
  6
CONTINUOUS
 10
15.8769279335
 20
6.4602524795
 40
0.078
100
AcDbArc
 50
8.03157335
 51
59.0556893899
  0
ARC
  5
314
100
AcDbEntity
  8
0
100
AcDbCircle
 62
7
  6
CONTINUOUS
 10
13.998456752
 20
6.4602524795
 40
0.078
100
AcDbArc
 50
120.9443106101
 51
171.96842665
  0
ARC
  5
315
100
AcDbEntity
  8
0
100
AcDbCircle
 62
7
  6
CONTINUOUS
 10
15.9317434009
 20
6.3676718343
 40
0.078
100
AcDbArc
 50
3.291697165
 51
53.2265724876
  0
ARC
  5
316
100
AcDbEntity
  8
0
100
AcDbCircle
 62
7
  6
CONTINUOUS
 10
13.9436412846
 20
6.3676718343
 40
0.078
100
AcDbArc
 50
126.7734275124
 51
176.708302835
  0
ARC
  5
317
100
AcDbEntity
  8
0
100
AcDbCircle
 62
7
  6
CONTINUOUS
 10
13.9264680945
 20
6.5803259286
 40
0.062
100
AcDbArc
 50
300.9443106098
 51
342.9532818348
  0
ARC
  5
318
100
AcDbEntity
  8
0
100
AcDbCircle
 62
7
  6
CONTINUOUS
 10
15.948916591
 20
6.5803259286
 40
0.062
100
AcDbArc
 50
197.0467181652
 51
239.0556893902
  0
ARC
  5
319
100
AcDbEntity
  8
0
100
AcDbCircle
 62
7
  6
CONTINUOUS
 10
13.8598299804
 20
6.4798131081
 40
0.062
100
AcDbArc
 50
306.7734275127
 51
351.9684266499
  0
ARC
  5
31A
100
AcDbEntity
  8
0
100
AcDbCircle
 62
7
  6
CONTINUOUS
 10
16.0155547051
 20
6.4798131081
 40
0.062
100
AcDbArc
 50
188.0315733501
 51
233.2265724873
  0
ARC
  5
31B
100
AcDbEntity
  8
0
100
AcDbCircle
 62
7
  6
CONTINUOUS
 10
13.8038722639
 20
6.375710544
 40
0.062
100
AcDbArc
 50
298.3576365764
 51
356.708302835
  0
ARC
  5
31C
100
AcDbEntity
  8
0
100
AcDbCircle
 62
7
  6
CONTINUOUS
 10
16.0715124215
 20
6.375710544
 40
0.062
100
AcDbArc
 50
183.291697165
 51
241.6423634236
  0
ARC
  5
31D
100
AcDbEntity
  8
0
100
AcDbCircle
 62
7
  6
CONTINUOUS
 10
15.8600024491
 20
6.5530628517
 40
0.031
100
AcDbArc
 50
17.0467181651
 51
50.9887457037
  0
ARC
  5
31E
100
AcDbEntity
  8
0
100
AcDbCircle
 62
7
  6
CONTINUOUS
 10
14.0153822364
 20
6.5530628517
 40
0.031
100
AcDbArc
 50
129.0112542963
 51
162.9532818349
  0
ARC
  5
31F
100
AcDbEntity
  8
0
100
AcDbCircle
 62
7
  6
CONTINUOUS
 10
15.7662809875
 20
8.0695048252
 40
0.4
100
AcDbArc
 50
190.0
 51
220.5151811264
  0
ARC
  5
320
100
AcDbEntity
  8
0
100
AcDbCircle
 62
7
  6
CONTINUOUS
 10
14.1091036979
 20
8.0695048252
 40
0.4
100
AcDbArc
 50
319.4848188736
 51
350.0
  0
ARC
  5
321
100
AcDbEntity
  8
0
100
AcDbCircle
 62
7
  6
CONTINUOUS
 10
14.8576923427
 20
8.9193400667
 40
0.375
100
AcDbArc
 50
131.9128908834
 51
217.7628051894
  0
ARC
  5
322
100
AcDbEntity
  8
0
100
AcDbCircle
 62
7
  6
CONTINUOUS
 10
15.0176923427
 20
8.9193400667
 40
0.375
100
AcDbArc
 50
36.8698976458
 51
48.0871091166
  0
ARC
  5
323
100
AcDbEntity
  8
0
100
AcDbCircle
 62
7
  6
CONTINUOUS
 10
15.597073695
 20
8.4705279399
 40
0.3578813522
100
AcDbArc
 50
142.2371948106
 51
210.9635622203
  0
ARC
  5
324
100
AcDbEntity
  8
0
100
AcDbCircle
 62
7
  6
CONTINUOUS
 10
14.2783109905
 20
8.4705279399
 40
0.3578813522
100
AcDbArc
 50
329.0364377797
 51
37.7628051894
  0
ARC
  5
325
100
AcDbEntity
  8
0
100
AcDbCircle
 62
7
  6
CONTINUOUS
 10
17.2956558134
 20
8.832400544
 40
0.313
100
AcDbArc
 50
259.0
 51
335.1573439831
  0
ARC
  5
326
100
AcDbEntity
  8
0
100
AcDbCircle
 62
7
  6
CONTINUOUS
 10
17.8247206858
 20
8.919400544
 40
0.249971657
100
AcDbArc
 50
288.1750968409
 51
71.8249031591
  0
ARC
  5
327
100
AcDbEntity
  8
0
100
AcDbCircle
 62
7
  6
CONTINUOUS
 10
17.6747922902
 20
8.816900544
 40
0.15
100
AcDbArc
 50
230.654170234
 51
310.713834886
  0
ARC
  5
328
100
AcDbEntity
  8
0
100
AcDbCircle
 62
7
  6
CONTINUOUS
 10
14.7870545108
 20
8.4275677363
 40
0.132542291
100
AcDbArc
 50
176.0012618158
 51
176.1788955126
  0
ARC
  5
329
100
AcDbEntity
  8
0
100
AcDbCircle
 62
7
  6
CONTINUOUS
 10
14.7826306105
 20
8.4278409879
 40
0.1281100171
100
AcDbArc
 50
176.1689798389
 51
184.0176576076
  0
ARC
  5
32A
100
AcDbEntity
  8
0
100
AcDbCircle
 62
7
  6
CONTINUOUS
 10
14.6396633842
 20
8.4433789361
 40
0.0867499299
100
AcDbArc
 50
18.237527858
 51
28.4054912058
  0
ARC
  5
32B
100
AcDbEntity
  8
0
100
AcDbCircle
 62
7
  6
CONTINUOUS
 10
17.8287307117
 20
8.6380180061
 40
0.086
100
AcDbArc
 50
30.6812875935
 51
130.7138348857
  0
ARC
  5
32C
100
AcDbEntity
  8
0
100
AcDbCircle
 62
7
  6
CONTINUOUS
 10
14.6508737571
 20
8.4286630358
 40
0.0857495829
100
AcDbArc
 50
56.3363528378
 51
57.531987774
  0
ARC
  5
32D
100
AcDbEntity
  8
0
100
AcDbCircle
 62
7
  6
CONTINUOUS
 10
14.6287884409
 20
8.4450896075
 40
0.0856509071
100
AcDbArc
 50
332.157003716
 51
339.8668996555
  0
ARC
  5
32E
100
AcDbEntity
  8
0
100
AcDbCircle
 62
7
  6
CONTINUOUS
 10
14.6411793204
 20
8.4438030136
 40
0.0851763236
100
AcDbArc
 50
357.5081373156
 51
18.2857229135
  0
ARC
  5
32F
100
AcDbEntity
  8
0
100
AcDbCircle
 62
7
  6
CONTINUOUS
 10
14.6517223036
 20
8.4299956438
 40
0.084169749
100
AcDbArc
 50
57.5323479409
 51
59.377362408
  0
ARC
  5
330
100
AcDbEntity
  8
0
100
AcDbCircle
 62
7
  6
CONTINUOUS
 10
14.6063203132
 20
8.125150544
 40
0.08
100
AcDbArc
 50
89.9999887758
 51
169.9999967015
  0
ARC
  5
331
100
AcDbEntity
  8
0
100
AcDbCircle
 62
7
  6
CONTINUOUS
 10
15.2690643722
 20
8.125150544
 40
0.08
100
AcDbArc
 50
10.0000032985
 51
90.0000112242
  0
ARC
  5
332
100
AcDbEntity
  8
0
100
AcDbCircle
 62
7
  6
CONTINUOUS
 10
14.7210114743
 20
8.4135043895
 40
0.0481579888
100
AcDbArc
 50
212.1422645459
 51
213.1571293737
  0
ARC
  5
333
100
AcDbEntity
  8
0
100
AcDbCircle
 62
7
  6
CONTINUOUS
 10
14.7186521728
 20
8.4119453448
 40
0.0453301467
100
AcDbArc
 50
213.1384200583
 51
215.2584020336
  0
ARC
  5
334
100
AcDbEntity
  8
0
100
AcDbCircle
 62
7
  6
CONTINUOUS
 10
14.7088716427
 20
8.4777650241
 40
0.0270452158
100
AcDbArc
 50
119.7627134681
 51
121.7330275806
  0
ARC
  5
335
100
AcDbEntity
  8
0
100
AcDbCircle
 62
7
  6
CONTINUOUS
 10
14.7085285528
 20
8.4783561448
 40
0.0263617581
100
AcDbArc
 50
119.4590662118
 51
119.7531618854
  0
ARC
  5
336
100
AcDbEntity
  8
0
100
AcDbCircle
 62
7
  6
CONTINUOUS
 10
14.6941214355
 20
8.4806307568
 40
0.0208697868
100
AcDbArc
 50
85.7467081213
 51
89.997155393
  0
ARC
  5
337
100
AcDbEntity
  8
0
100
AcDbCircle
 62
7
  6
CONTINUOUS
 10
14.6805141992
 20
8.3841490898
 40
0.0128537233
100
AcDbArc
 50
278.6147867386
 51
284.2347902485
  0
ARC
  5
338
100
AcDbEntity
  8
0
100
AcDbCircle
 62
7
  6
CONTINUOUS
 10
14.6805869974
 20
8.383692947
 40
0.0123918228
100
AcDbArc
 50
270.0187405502
 51
278.5979056339
  0
ARC
  5
339
100
AcDbEntity
  8
0
100
AcDbCircle
 62
7
  6
CONTINUOUS
 10
10.8760060427
 20
9.6631967006
 40
1.1719437347
100
AcDbArc
 50
101.8069279201
 51
102.5158711498
  0
ARC
  5
33A
100
AcDbEntity
  8
0
100
AcDbCircle
 62
7
  6
CONTINUOUS
 10
10.8578919301
 20
9.742634279
 40
1.0904685004
100
AcDbArc
 50
102.4912430733
 51
104.5322196547
  0
ARC
  5
33B
100
AcDbEntity
  8
0
100
AcDbCircle
 62
7
  6
CONTINUOUS
 10
4.5797288721
 20
9.006400544
 40
0.313
100
AcDbArc
 50
79.0
 51
155.1573439831
  0
ARC
  5
33C
100
AcDbEntity
  8
0
100
AcDbCircle
 62
7
  6
CONTINUOUS
 10
4.2005923953
 20
9.021900544
 40
0.15
100
AcDbArc
 50
50.654170234
 51
130.713834886
  0
ARC
  5
33D
100
AcDbEntity
  8
0
100
AcDbCircle
 62
7
  6
CONTINUOUS
 10
4.0466539738
 20
9.2007830819
 40
0.086
100
AcDbArc
 50
210.6812875935
 51
310.7138348857
  0
ARC
  5
33E
100
AcDbEntity
  8
0
100
AcDbCircle
 62
7
  6
CONTINUOUS
 10
7.1736923427
 20
9.396400544
 40
0.056
100
AcDbArc
 50
180.0
 51
270.0
  0
ARC
  5
33F
100
AcDbEntity
  8
0
100
AcDbCircle
 62
7
  6
CONTINUOUS
 10
6.7016923427
 20
9.396400544
 40
0.056
100
AcDbArc
 50
270.0
 51
360.0
  0
ARC
  5
340
100
AcDbEntity
  8
0
100
AcDbCircle
 62
7
  6
CONTINUOUS
 10
7.2211923427
 20
9.269400544
 40
0.047
100
AcDbArc
 50
0.0
 51
90.0
  0
ARC
  5
341
100
AcDbEntity
  8
0
100
AcDbCircle
 62
7
  6
CONTINUOUS
 10
6.6541923427
 20
9.269400544
 40
0.047
100
AcDbArc
 50
90.0
 51
180.0
  0
ARC
  5
342
100
AcDbEntity
  8
0
100
AcDbCircle
 62
7
  6
CONTINUOUS
 10
5.9805017528
 20
10.5810512464
 40
1.5
100
AcDbArc
 50
259.0
 51
289.7628054576
  0
ARC
  5
343
100
AcDbEntity
  8
0
100
AcDbCircle
 62
7
  6
CONTINUOUS
 10
10.7544071649
 20
10.0793106358
 40
0.7380368687
100
AcDbArc
 50
110.0385572006
 51
111.3237360979
  0
ARC
  5
344
100
AcDbEntity
  8
0
100
AcDbCircle
 62
7
  6
CONTINUOUS
 10
10.7152662704
 20
10.2838372268
 40
0.4938072238
100
AcDbArc
 50
114.6298881908
 51
117.0984850351
  0
ARC
  5
345
100
AcDbEntity
  8
0
100
AcDbCircle
 62
7
  6
CONTINUOUS
 10
10.6839973434
 20
10.3452967334
 40
0.4248508094
100
AcDbArc
 50
117.1200280983
 51
120.2282536288
  0
ARC
  5
346
100
AcDbEntity
  8
0
100
AcDbCircle
 62
7
  6
CONTINUOUS
 10
10.607742115
 20
10.3836223495
 40
0.3997132736
100
AcDbArc
 50
121.0211392199
 51
122.665229564
  0
ARC
  5
347
100
AcDbEntity
  8
0
100
AcDbCircle
 62
7
  6
CONTINUOUS
 10
10.5807600788
 20
10.4249552371
 40
0.3503544565
100
AcDbArc
 50
122.6574006068
 51
126.0520848014
  0
ARC
  5
348
100
AcDbEntity
  8
0
100
AcDbCircle
 62
7
  6
CONTINUOUS
 10
10.6205673265
 20
10.7263620593
 40
0.2416718061
100
AcDbArc
 50
230.2279386813
 51
232.8874986585
  0
ARC
  5
349
100
AcDbEntity
  8
0
100
AcDbCircle
 62
7
  6
CONTINUOUS
 10
10.6083496216
 20
10.5775652015
 40
0.1664898781
100
AcDbArc
 50
134.9945895693
 51
135.3988276753
  0
ARC
  5
34A
100
AcDbEntity
  8
0
100
AcDbCircle
 62
7
  6
CONTINUOUS
 10
10.606392019
 20
10.5794949385
 40
0.1637410433
100
AcDbArc
 50
135.3986282756
 51
135.877479753
  0
ARC
  5
34B
100
AcDbEntity
  8
0
100
AcDbCircle
 62
7
  6
CONTINUOUS
 10
10.6020048875
 20
10.5837315001
 40
0.1576422566
100
AcDbArc
 50
135.8727287586
 51
137.7657778569
  0
ARC
  5
34C
100
AcDbEntity
  8
0
100
AcDbCircle
 62
7
  6
CONTINUOUS
 10
10.5570725416
 20
10.659645089
 40
0.1494082023
100
AcDbArc
 50
219.3643780922
 51
219.88194897
  0
ARC
  5
34D
100
AcDbEntity
  8
0
100
AcDbCircle
 62
7
  6
CONTINUOUS
 10
10.5160025025
 20
10.5634266701
 40
0.1476390544
100
AcDbArc
 50
142.984649399
 51
143.5454853528
  0
ARC
  5
34E
100
AcDbEntity
  8
0
100
AcDbCircle
 62
7
  6
CONTINUOUS
 10
10.595966056
 20
10.6127137549
 40
0.1311402081
100
AcDbArc
 50
141.9090729716
 51
142.31343792
  0
ARC
  5
34F
100
AcDbEntity
  8
0
100
AcDbCircle
 62
7
  6
CONTINUOUS
 10
10.5943404557
 20
10.6139681386
 40
0.1290869049
100
AcDbArc
 50
142.3129412268
 51
142.910529495
  0
ARC
  5
350
100
AcDbEntity
  8
0
100
AcDbCircle
 62
7
  6
CONTINUOUS
 10
10.59071696
 20
10.6166951335
 40
0.1245519164
100
AcDbArc
 50
142.9059841636
 51
144.9882145833
  0
ARC
  5
351
100
AcDbEntity
  8
0
100
AcDbCircle
 62
7
  6
CONTINUOUS
 10
10.584934318
 20
10.6207774505
 40
0.11747353
100
AcDbArc
 50
145.0007957591
 51
146.8230392849
  0
ARC
  5
352
100
AcDbEntity
  8
0
100
AcDbCircle
 62
7
  6
CONTINUOUS
 10
10.5781982287
 20
10.6251727927
 40
0.1094302797
100
AcDbArc
 50
146.8191987858
 51
150.7229804115
  0
ARC
  5
353
100
AcDbEntity
  8
0
100
AcDbCircle
 62
7
  6
CONTINUOUS
 10
10.4939792684
 20
10.6578355393
 40
0.1027949395
100
AcDbArc
 50
194.4356847817
 51
196.3354369782
  0
ARC
  5
354
100
AcDbEntity
  8
0
100
AcDbCircle
 62
7
  6
CONTINUOUS
 10
10.5086803418
 20
10.6292023722
 40
0.1016088838
100
AcDbArc
 50
153.9701266794
 51
158.7305492954
  0
ARC
  5
355
100
AcDbEntity
  8
0
100
AcDbCircle
 62
7
  6
CONTINUOUS
 10
10.5744539834
 20
10.607771146
 40
0.1015120156
100
AcDbArc
 50
148.1828369161
 51
151.9357745485
  0
ARC
  5
356
100
AcDbEntity
  8
0
100
AcDbCircle
 62
7
  6
CONTINUOUS
 10
10.4892403898
 20
10.6567190759
 40
0.097927401
100
AcDbArc
 50
186.6575452074
 51
194.4942840087
  0
ARC
  5
357
100
AcDbEntity
  8
0
100
AcDbCircle
 62
7
  6
CONTINUOUS
 10
10.5898582693
 20
10.6556002638
 40
0.0939759284
100
AcDbArc
 50
150.0430368364
 51
151.9832587762
  0
ARC
  5
358
100
AcDbEntity
  8
0
100
AcDbCircle
 62
7
  6
CONTINUOUS
 10
10.4786394297
 20
10.6560388926
 40
0.0920843318
100
AcDbArc
 50
192.0926631328
 51
197.3919230986
  0
ARC
  5
359
100
AcDbEntity
  8
0
100
AcDbCircle
 62
7
  6
CONTINUOUS
 10
10.5772586366
 20
10.6575779638
 40
0.090219262
100
AcDbArc
 50
155.3392344931
 51
157.5266268534
  0
ARC
  5
35A
100
AcDbEntity
  8
0
100
AcDbCircle
 62
7
  6
CONTINUOUS
 10
10.5722852151
 20
10.6595625022
 40
0.0848649646
100
AcDbArc
 50
157.481201135
 51
162.640766271
  0
ARC
  5
35B
100
AcDbEntity
  8
0
100
AcDbCircle
 62
7
  6
CONTINUOUS
 10
10.5622401977
 20
10.6821072428
 40
0.0802746982
100
AcDbArc
 50
195.018901092
 51
197.4962352487
  0
ARC
  5
35C
100
AcDbEntity
  8
0
100
AcDbCircle
 62
7
  6
CONTINUOUS
 10
10.5663961691
 20
10.6613315089
 40
0.0787163736
100
AcDbArc
 50
162.5908101993
 51
169.7151252348
  0
ARC
  5
35D
100
AcDbEntity
  8
0
100
AcDbCircle
 62
7
  6
CONTINUOUS
 10
10.5500233428
 20
10.6390691307
 40
0.0784952144
100
AcDbArc
 50
190.4719564921
 51
194.8248352172
  0
ARC
  5
35E
100
AcDbEntity
  8
0
100
AcDbCircle
 62
7
  6
CONTINUOUS
 10
10.5624355159
 20
10.6620260064
 40
0.074695366
100
AcDbArc
 50
169.6968642998
 51
177.3741290069
  0
ARC
  5
35F
100
AcDbEntity
  8
0
100
AcDbCircle
 62
7
  6
CONTINUOUS
 10
10.5461497116
 20
10.6382911662
 40
0.0745717855
100
AcDbArc
 50
172.0892988244
 51
175.6665737837
  0
ARC
  5
360
100
AcDbEntity
  8
0
100
AcDbCircle
 62
7
  6
CONTINUOUS
 10
10.5615513543
 20
10.662078591
 40
0.0738097245
100
AcDbArc
 50
177.3834615511
 51
177.9931524885
  0
ARC
  5
361
100
AcDbEntity
  8
0
100
AcDbCircle
 62
7
  6
CONTINUOUS
 10
10.5614301933
 20
10.6620826141
 40
0.0736884971
100
AcDbArc
 50
177.9929796565
 51
179.9654516404
  0
ARC
  5
362
100
AcDbEntity
  8
0
100
AcDbCircle
 62
7
  6
CONTINUOUS
 10
10.5613878549
 20
10.6620833003
 40
0.0736461582
100
AcDbArc
 50
179.9659655897
 51
181.6592071986
  0
ARC
  5
363
100
AcDbEntity
  8
0
100
AcDbCircle
 62
7
  6
CONTINUOUS
 10
10.560965752
 20
10.6654869263
 40
0.0732736665
100
AcDbArc
 50
182.4333053444
 51
183.3902603387
  0
ARC
  5
364
100
AcDbEntity
  8
0
100
AcDbCircle
 62
7
  6
CONTINUOUS
 10
11.0171090716
 20
9.7417464359
 40
1.0914183262
100
AcDbArc
 50
74.7217561793
 51
77.4990853972
  0
ARC
  5
365
100
AcDbEntity
  8
0
100
AcDbCircle
 62
7
  6
CONTINUOUS
 10
11.0430906213
 20
9.8402544322
 40
0.9895459255
100
AcDbArc
 50
74.3600068548
 51
74.5924404411
  0
ARC
  5
366
100
AcDbEntity
  8
0
100
AcDbCircle
 62
7
  6
CONTINUOUS
 10
17.2956558134
 20
9.006400544
 40
0.313
100
AcDbArc
 50
24.8426560169
 51
101.0
  0
ARC
  5
367
100
AcDbEntity
  8
0
100
AcDbCircle
 62
7
  6
CONTINUOUS
 10
17.6747922902
 20
9.021900544
 40
0.15
100
AcDbArc
 50
49.286165114
 51
129.345829766
  0
ARC
  5
368
100
AcDbEntity
  8
0
100
AcDbCircle
 62
7
  6
CONTINUOUS
 10
17.8287307117
 20
9.2007830819
 40
0.086
100
AcDbArc
 50
229.2861651143
 51
329.3187124065
  0
ARC
  5
369
100
AcDbEntity
  8
0
100
AcDbCircle
 62
7
  6
CONTINUOUS
 10
14.7016923427
 20
9.396400544
 40
0.056
100
AcDbArc
 50
270.0
 51
360.0
  0
ARC
  5
36A
100
AcDbEntity
  8
0
100
AcDbCircle
 62
7
  6
CONTINUOUS
 10
15.1736923427
 20
9.396400544
 40
0.056
100
AcDbArc
 50
180.0
 51
270.0
  0
ARC
  5
36B
100
AcDbEntity
  8
0
100
AcDbCircle
 62
7
  6
CONTINUOUS
 10
14.6541923427
 20
9.269400544
 40
0.047
100
AcDbArc
 50
90.0
 51
180.0
  0
ARC
  5
36C
100
AcDbEntity
  8
0
100
AcDbCircle
 62
7
  6
CONTINUOUS
 10
15.2211923427
 20
9.269400544
 40
0.047
100
AcDbArc
 50
0.0
 51
90.0
  0
ARC
  5
36D
100
AcDbEntity
  8
0
100
AcDbCircle
 62
7
  6
CONTINUOUS
 10
15.8948829327
 20
10.5810512464
 40
1.5
100
AcDbArc
 50
250.2371945424
 51
281.0
  0
ARC
  5
36E
100
AcDbEntity
  8
0
100
AcDbCircle
 62
7
  6
CONTINUOUS
 10
11.1118383019
 20
10.0546894902
 40
0.7642990917
100
AcDbArc
 50
69.6548646773
 51
69.9770827772
  0
ARC
  5
36F
100
AcDbEntity
  8
0
100
AcDbCircle
 62
7
  6
CONTINUOUS
 10
11.1236360082
 20
10.0863382702
 40
0.7305229523
100
AcDbArc
 50
68.1428624143
 51
69.6594325557
  0
ARC
  5
370
100
AcDbEntity
  8
0
100
AcDbCircle
 62
7
  6
CONTINUOUS
 10
11.1395526683
 20
10.2390115539
 40
0.5431258682
100
AcDbArc
 50
65.7262167681
 51
66.5322271367
  0
ARC
  5
371
100
AcDbEntity
  8
0
100
AcDbCircle
 62
7
  6
CONTINUOUS
 10
11.2815017591
 20
10.4052569431
 40
0.3740202228
100
AcDbArc
 50
55.8206991791
 51
57.3391847435
  0
ARC
  5
372
100
AcDbEntity
  8
0
100
AcDbCircle
 62
7
  6
CONTINUOUS
 10
11.2577688044
 20
10.7226416147
 40
0.2369241862
100
AcDbArc
 50
307.0742593301
 51
309.7990601545
  0
ARC
  5
373
100
AcDbEntity
  8
0
100
AcDbCircle
 62
7
  6
CONTINUOUS
 10
11.2427942018
 20
10.5512392919
 40
0.2022870484
100
AcDbArc
 50
49.3352362185
 51
50.1918798934
  0
ARC
  5
374
100
AcDbEntity
  8
0
100
AcDbCircle
 62
7
  6
CONTINUOUS
 10
11.2471825821
 20
10.556337667
 40
0.1955601422
100
AcDbArc
 50
48.5491788232
 51
49.3371337155
  0
ARC
  5
375
100
AcDbEntity
  8
0
100
AcDbCircle
 62
7
  6
CONTINUOUS
 10
11.319553148
 20
10.6916429923
 40
0.1734595282
100
AcDbArc
 50
314.6667111274
 51
317.4306846553
  0
ARC
  5
376
100
AcDbEntity
  8
0
100
AcDbCircle
 62
7
  6
CONTINUOUS
 10
11.3249538358
 20
10.6542833217
 40
0.1408728947
100
AcDbArc
 50
320.4015825891
 51
323.5588097323
  0
ARC
  5
377
100
AcDbEntity
  8
0
100
AcDbCircle
 62
7
  6
CONTINUOUS
 10
11.2881139932
 20
10.5967570563
 40
0.1379731045
100
AcDbArc
 50
39.1185675979
 51
40.1196189987
  0
ARC
  5
378
100
AcDbEntity
  8
0
100
AcDbCircle
 62
7
  6
CONTINUOUS
 10
11.3741690259
 20
10.7098845811
 40
0.1296744355
100
AcDbArc
 50
327.26478099
 51
328.2427338735
  0
ARC
  5
379
100
AcDbEntity
  8
0
100
AcDbCircle
 62
7
  6
CONTINUOUS
 10
11.2829118187
 20
10.5956189577
 40
0.1232565533
100
AcDbArc
 50
36.1949785516
 51
38.6345536647
  0
ARC
  5
37A
100
AcDbEntity
  8
0
100
AcDbCircle
 62
7
  6
CONTINUOUS
 10
11.2769975984
 20
10.6270127866
 40
0.1217935933
100
AcDbArc
 50
37.9943839163
 51
39.0903648319
  0
ARC
  5
37B
100
AcDbEntity
  8
0
100
AcDbCircle
 62
7
  6
CONTINUOUS
 10
11.2804515588
 20
10.6297006834
 40
0.1174170003
100
AcDbArc
 50
36.8130827236
 51
37.9982631367
  0
ARC
  5
37C
100
AcDbEntity
  8
0
100
AcDbCircle
 62
7
  6
CONTINUOUS
 10
11.2861643925
 20
10.6559537044
 40
0.0932466956
100
AcDbArc
 50
28.0091559346
 51
29.9641806088
  0
ARC
  5
37D
100
AcDbEntity
  8
0
100
AcDbCircle
 62
7
  6
CONTINUOUS
 10
11.3069220352
 20
10.6463269667
 40
0.0861064832
100
AcDbArc
 50
24.329066433
 51
27.1196543811
  0
ARC
  5
37E
100
AcDbEntity
  8
0
100
AcDbCircle
 62
7
  6
CONTINUOUS
 10
11.3105605625
 20
10.6479628313
 40
0.0821171399
100
AcDbArc
 50
21.995705082
 51
24.3349258023
  0
ARC
  5
37F
100
AcDbEntity
  8
0
100
AcDbCircle
 62
7
  6
CONTINUOUS
 10
11.3976360863
 20
10.6432708087
 40
0.0804148252
100
AcDbArc
 50
4.1091558708
 51
6.6837536134
  0
ARC
  5
380
100
AcDbEntity
  8
0
100
AcDbCircle
 62
7
  6
CONTINUOUS
 10
11.3213959091
 20
10.679343637
 40
0.066303773
100
AcDbArc
 50
347.5677755001
 51
354.9902086236
  0
ARC
  5
381
100
AcDbEntity
  8
0
100
AcDbCircle
 62
7
  6
CONTINUOUS
 10
11.317007612
 20
10.6761024528
 40
0.0654645655
100
AcDbArc
 50
0.0415301462
 51
11.8200445011
  0
SPLINE
  5
382
100
AcDbEntity
  8
0
100
AcDbSpline
 62
7
  6
CONTINUOUS
 70
0
 71
3
 72
21
 73
17
 74
0
 42
0.0000001
 43
0.0000001
 44
0.0000000001
 40
0.0
 40
0.0
 40
0.0
 40
0.0
 40
0.0697353255
 40
0.1393288736
 40
0.277185434
 40
0.4120863991
 40
0.4780199687
 40
0.5427150829
 40
0.6060183994
 40
0.6677895399
 40
0.727897119
 40
0.786226367
 40
0.8426742195
 40
0.8971571774
 40
0.9496133315
 40
1.0
 40
1.0
 40
1.0
 40
1.0
 10
14.6685353567
 20
8.436400544
 30
0.0
 10
14.6685353567
 20
8.4376334093
 30
0.0
 10
14.668572195
 20
8.4400968124
 30
0.0
 10
14.6687916253
 20
8.4449928828
 30
0.0
 10
14.6693347153
 20
8.4510249448
 30
0.0
 10
14.6702409943
 20
8.4569481835
 30
0.0
 10
14.6711798538
 20
8.4615484672
 30
0.0
 10
14.6719795058
 20
8.4648832066
 30
0.0
 10
14.6728771634
 20
8.4681166175
 30
0.0
 10
14.6738694004
 20
8.471237336
 30
0.0
 10
14.6749530611
 20
8.4742342193
 30
0.0
 10
14.6761239612
 20
8.4770967621
 30
0.0
 10
14.677378161
 20
8.4798147585
 30
0.0
 10
14.6787113133
 20
8.4823785832
 30
0.0
 10
14.6801183979
 20
8.4847792025
 30
0.0
 10
14.681123215
 20
8.4862959237
 30
0.0
 10
14.6816375281
 20
8.4870232478
 30
0.0
  0
SPLINE
  5
383
100
AcDbEntity
  8
0
100
AcDbSpline
 62
7
  6
CONTINUOUS
 70
0
 71
3
 72
21
 73
17
 74
0
 42
0.0000001
 43
0.0000001
 44
0.0000000001
 40
0.0
 40
0.0
 40
0.0
 40
0.0
 40
0.0516547352
 40
0.105198628
 40
0.1605797133
 40
0.217729446
 40
0.276560738
 40
0.3369771596
 40
0.3988689408
 40
0.4621160972
 40
0.5265915614
 40
0.5921548612
 40
0.725945408
 40
0.8623348106
 40
0.9311079891
 40
1.0
 40
1.0
 40
1.0
 40
1.0
 10
14.6802346748
 20
8.3878832164
 30
0.0
 10
14.6797719321
 20
8.3886195499
 30
0.0
 10
14.6788690644
 20
8.3901443053
 30
0.0
 10
14.6776045677
 20
8.3925349302
 30
0.0
 10
14.6764091292
 20
8.3950635397
 30
0.0
 10
14.6752866422
 20
8.3977221583
 30
0.0
 10
14.6742403039
 20
8.4005023626
 30
0.0
 10
14.6732736949
 20
8.4033955254
 30
0.0
 10
14.6723897066
 20
8.406392537
 30
0.0
 10
14.6715910239
 20
8.4094839902
 30
0.0
 10
14.6708804406
 20
8.4126602375
 30
0.0
 10
14.6700474967
 20
8.4170239288
 30
0.0
 10
14.6692439443
 20
8.4226227747
 30
0.0
 10
14.6687623482
 20
8.4283123808
 30
0.0
 10
14.6685679727
 20
8.4329227734
 30
0.0
 10
14.6685353567
 20
8.4352406699
 30
0.0
 10
14.6685353567
 20
8.436400544
 30
0.0
  0
SPLINE
  5
384
100
AcDbEntity
  8
0
100
AcDbSpline
 62
7
  6
CONTINUOUS
 70
0
 71
3
 72
12
 73
8
 74
0
 42
0.0000001
 43
0.0000001
 44
0.0000000001
 40
0.0
 40
0.0
 40
0.0
 40
0.0
 40
0.2712440192
 40
0.4013932351
 40
0.5279360038
 40
0.7704656225
 40
1.0
 40
1.0
 40
1.0
 40
1.0
 10
14.683858403
 20
8.4901641612
 30
0.0
 10
14.6846530124
 20
8.4912879235
 30
0.0
 10
14.6858944123
 20
8.4929066312
 30
0.0
 10
14.6876649746
 20
8.4949178922
 30
0.0
 10
14.6894268098
 20
8.4967390713
 30
0.0
 10
14.6916976027
 20
8.4987646254
 30
0.0
 10
14.6936562844
 20
8.500154678
 30
0.0
 10
14.6946468867
 20
8.5007671983
 30
0.0
  0
LINE
  5
385
100
AcDbEntity
  8
0
100
AcDbLine
 62
7
  6
CONTINUOUS
 10
14.6816375281
 20
8.4870232478
 11
14.6840015221
 21
8.4900549553
  0
SPLINE
  5
386
100
AcDbEntity
  8
0
100
AcDbSpline
 62
7
  6
CONTINUOUS
 70
0
 71
3
 72
8
 73
4
 74
0
 42
0.0000001
 43
0.0000001
 44
0.0000000001
 40
0.0
 40
0.0
 40
0.0
 40
0.0
 40
1.0
 40
1.0
 40
1.0
 40
1.0
 10
14.6840015221
 20
8.4900549553
 30
0.0
 10
14.6840135347
 20
8.4900688452
 30
0.0
 10
14.6840255473
 20
8.4900827351
 30
0.0
 10
14.6840375599
 20
8.4900966249
 30
0.0
  0
SPLINE
  5
387
100
AcDbEntity
  8
0
100
AcDbSpline
 62
7
  6
CONTINUOUS
 70
0
 71
3
 72
19
 73
15
 74
0
 42
0.0000001
 43
0.0000001
 44
0.0000000001
 40
0.0
 40
0.0
 40
0.0
 40
0.0
 40
0.1452254302
 40
0.2829569302
 40
0.4137380076
 40
0.5383680822
 40
0.5987206781
 40
0.6579485192
 40
0.7162221594
 40
0.7737238466
 40
0.8306466807
 40
0.8871938091
 40
0.9435745486
 40
1.0
 40
1.0
 40
1.0
 40
1.0
 10
14.6840375599
 20
8.4900966249
 30
0.0
 10
14.6846545356
 20
8.4908089121
 30
0.0
 10
14.6859120663
 20
8.4921502504
 30
0.0
 10
14.6879191358
 20
8.4939391544
 30
0.0
 10
14.6899870303
 20
8.4954407725
 30
0.0
 10
14.6917720018
 20
8.4964570882
 30
0.0
 10
14.6932160091
 20
8.4971118778
 30
0.0
 10
14.6942957754
 20
8.4975215808
 30
0.0
 10
14.6953822749
 20
8.4978546014
 30
0.0
 10
14.6964741669
 20
8.498110504
 30
0.0
 10
14.6975700571
 20
8.4982888039
 30
0.0
 10
14.698668539
 20
8.4983891765
 30
0.0
 10
14.6997680893
 20
8.4984116497
 30
0.0
 10
14.70049986
 20
8.4983747339
 30
0.0
 10
14.7008646556
 20
8.4983434395
 30
0.0
  0
SPLINE
  5
388
100
AcDbEntity
  8
0
100
AcDbSpline
 62
7
  6
CONTINUOUS
 70
0
 71
3
 72
11
 73
7
 74
0
 42
0.0000001
 43
0.0000001
 44
0.0000000001
 40
0.0
 40
0.0
 40
0.0
 40
0.0
 40
0.2265285175
 40
0.4676986395
 40
0.7252047641
 40
1.0
 40
1.0
 40
1.0
 40
1.0
 10
14.6914337671
 20
8.3765553622
 30
0.0
 10
14.6905331391
 20
8.3770431036
 30
0.0
 10
14.6887473786
 20
8.3781905377
 30
0.0
 10
14.6862349792
 20
8.3803090713
 30
0.0
 10
14.6838285792
 20
8.3828555499
 30
0.0
 10
14.6823548734
 20
8.3847633966
 30
0.0
 10
14.6816375282
 20
8.3857778405
 30
0.0
  0
SPLINE
  5
389
100
AcDbEntity
  8
0
100
AcDbSpline
 62
7
  6
CONTINUOUS
 70
0
 71
3
 72
21
 73
17
 74
0
 42
0.0000001
 43
0.0000001
 44
0.0000000001
 40
0.0
 40
0.0
 40
0.0
 40
0.0
 40
0.0697353255
 40
0.1393288736
 40
0.277185434
 40
0.4120863991
 40
0.4780199687
 40
0.5427150829
 40
0.6060183994
 40
0.6677895399
 40
0.727897119
 40
0.786226367
 40
0.8426742195
 40
0.8971571774
 40
0.9496133315
 40
1.0
 40
1.0
 40
1.0
 40
1.0
 10
7.2068493288
 20
8.436400544
 30
0.0
 10
7.2068493288
 20
8.4351676787
 30
0.0
 10
7.2068124905
 20
8.4327042756
 30
0.0
 10
7.2065930602
 20
8.4278082052
 30
0.0
 10
7.2060499702
 20
8.4217761432
 30
0.0
 10
7.2051436912
 20
8.4158529045
 30
0.0
 10
7.2042048317
 20
8.4112526208
 30
0.0
 10
7.2034051797
 20
8.4079178814
 30
0.0
 10
7.2025075221
 20
8.4046844705
 30
0.0
 10
7.2015152851
 20
8.401563752
 30
0.0
 10
7.2004316244
 20
8.3985668687
 30
0.0
 10
7.1992607243
 20
8.3957043259
 30
0.0
 10
7.1980065245
 20
8.3929863295
 30
0.0
 10
7.1966733722
 20
8.3904225048
 30
0.0
 10
7.1952662875
 20
8.3880218855
 30
0.0
 10
7.1942614704
 20
8.3865051643
 30
0.0
 10
7.1937471574
 20
8.3857778402
 30
0.0
  0
SPLINE
  5
38A
100
AcDbEntity
  8
0
100
AcDbSpline
 62
7
  6
CONTINUOUS
 70
0
 71
3
 72
10
 73
6
 74
0
 42
0.0000001
 43
0.0000001
 44
0.0000000001
 40
0.0
 40
0.0
 40
0.0
 40
0.0
 40
0.4752173784
 40
0.7312442529
 40
1.0
 40
1.0
 40
1.0
 40
1.0
 10
7.1826552551
 20
8.5004181693
 30
0.0
 10
7.1838808914
 20
8.4994826854
 30
0.0
 10
7.185631423
 20
8.4978600565
 30
0.0
 10
7.1877561442
 20
8.4954067665
 30
0.0
 10
7.188781747
 20
8.4940455047
 30
0.0
 10
7.1892851732
 20
8.4933335222
 30
0.0
  0
SPLINE
  5
38B
100
AcDbEntity
  8
0
100
AcDbSpline
 62
7
  6
CONTINUOUS
 70
0
 71
3
 72
11
 73
7
 74
0
 42
0.0000001
 43
0.0000001
 44
0.0000000001
 40
0.0
 40
0.0
 40
0.0
 40
0.0
 40
0.2318749796
 40
0.4761445429
 40
0.7323946921
 40
1.0
 40
1.0
 40
1.0
 40
1.0
 10
7.1937471573
 20
8.4870232475
 30
0.0
 10
7.1944291027
 20
8.4860588648
 30
0.0
 10
7.1957500521
 20
8.4840215349
 30
0.0
 10
7.1975557254
 20
8.4807539459
 30
0.0
 10
7.1992276669
 20
8.4772138214
 30
0.0
 10
7.2002256372
 20
8.4747372889
 30
0.0
 10
7.2007018208
 20
8.4734600246
 30
0.0
  0
SPLINE
  5
38C
100
AcDbEntity
  8
0
100
AcDbSpline
 62
7
  6
CONTINUOUS
 70
0
 71
3
 72
9
 73
5
 74
0
 42
0.0000001
 43
0.0000001
 44
0.0000000001
 40
0.0
 40
0.0
 40
0.0
 40
0.0
 40
0.4900799771
 40
1.0
 40
1.0
 40
1.0
 40
1.0
 10
7.2007018208
 20
8.4734600246
 30
0.0
 10
7.2013030328
 20
8.4718473974
 30
0.0
 10
7.2024208766
 20
8.4685155381
 30
0.0
 10
7.2033389514
 20
8.4651237152
 30
0.0
 10
7.2037596314
 20
8.4633831033
 30
0.0
  0
SPLINE
  5
38D
100
AcDbEntity
  8
0
100
AcDbSpline
 62
7
  6
CONTINUOUS
 70
0
 71
3
 72
11
 73
7
 74
0
 42
0.0000001
 43
0.0000001
 44
0.0000000001
 40
0.0
 40
0.0
 40
0.0
 40
0.0
 40
0.246577516
 40
0.4961081944
 40
0.7476404182
 40
1.0
 40
1.0
 40
1.0
 40
1.0
 10
7.2055706234
 20
8.4540237941
 30
0.0
 10
7.2057837661
 20
8.4525859789
 30
0.0
 10
7.2061568077
 20
8.4496845765
 30
0.0
 10
7.2065557945
 20
8.4452945122
 30
0.0
 10
7.2067957508
 20
8.4408587744
 30
0.0
 10
7.2068493288
 20
8.4378881558
 30
0.0
 10
7.2068493288
 20
8.436400544
 30
0.0
  0
SPLINE
  5
38E
100
AcDbEntity
  8
0
100
AcDbSpline
 62
7
  6
CONTINUOUS
 70
0
 71
3
 72
18
 73
14
 74
0
 42
0.0000001
 43
0.0000001
 44
0.0000000001
 40
0.0
 40
0.0
 40
0.0
 40
0.0
 40
0.0592528623
 40
0.1180977944
 40
0.176725243
 40
0.235327827
 40
0.2940983947
 40
0.3532282501
 40
0.4732418821
 40
0.5968167351
 40
0.7251701825
 40
0.8593006324
 40
1.0
 40
1.0
 40
1.0
 40
1.0
 10
7.1726359144
 20
8.4980664742
 30
0.0
 10
7.1729754479
 20
8.4981372649
 30
0.0
 10
7.1736569155
 20
8.4982567107
 30
0.0
 10
7.1746860641
 20
8.4983682017
 30
0.0
 10
7.1757165809
 20
8.4984112512
 30
0.0
 10
7.1767472278
 20
8.4983858402
 30
0.0
 10
7.1777768929
 20
8.4982919623
 30
0.0
 10
7.1791532899
 20
8.4980745329
 30
0.0
 10
7.1808732592
 20
8.497627263
 30
0.0
 10
7.1829014281
 20
8.4968219875
 30
0.0
 10
7.1848957852
 20
8.4957494307
 30
0.0
 10
7.1868477353
 20
8.4944160772
 30
0.0
 10
7.1880843456
 20
8.493382981
 30
0.0
 10
7.1886933139
 20
8.4928285082
 30
0.0
  0
SPLINE
  5
38F
100
AcDbEntity
  8
0
100
AcDbSpline
 62
7
  6
CONTINUOUS
 70
0
 71
3
 72
10
 73
6
 74
0
 42
0.0000001
 43
0.0000001
 44
0.0000000001
 40
0.0
 40
0.0
 40
0.0
 40
0.0
 40
0.4824713432
 40
0.7368048517
 40
1.0
 40
1.0
 40
1.0
 40
1.0
 10
7.1886933139
 20
8.4928285082
 30
0.0
 10
7.1896100849
 20
8.4919937774
 30
0.0
 10
7.1909296802
 20
8.4906281623
 30
0.0
 10
7.1925634924
 20
8.4886439302
 30
0.0
 10
7.1933566516
 20
8.4875754866
 30
0.0
 10
7.1937471573
 20
8.4870232475
 30
0.0
  0
SPLINE
  5
390
100
AcDbEntity
  8
0
100
AcDbSpline
 62
7
  6
CONTINUOUS
 70
0
 71
3
 72
15
 73
11
 74
0
 42
0.0000001
 43
0.0000001
 44
0.0000000001
 40
0.0
 40
0.0
 40
0.0
 40
0.0
 40
0.1426796841
 40
0.2798898562
 40
0.4117314468
 40
0.5383931799
 40
0.6601382176
 40
0.7773293617
 40
0.8904310519
 40
1.0
 40
1.0
 40
1.0
 40
1.0
 10
7.1937471574
 20
8.3857778402
 30
0.0
 10
7.1933040793
 20
8.3851512542
 30
0.0
 10
7.1924024922
 20
8.3839445486
 30
0.0
 10
7.1909760664
 20
8.3822489186
 30
0.0
 10
7.189505734
 20
8.3807079547
 30
0.0
 10
7.187995872
 20
8.3793258985
 30
0.0
 10
7.1864504153
 20
8.3781069662
 30
0.0
 10
7.1848735539
 20
8.3770548329
 30
0.0
 10
7.1832700447
 20
8.376172514
 30
0.0
 10
7.1821703443
 20
8.3756927969
 30
0.0
 10
7.1816192348
 20
8.3754840266
 30
0.0
  0
SPLINE
  5
391
100
AcDbEntity
  8
0
100
AcDbSpline
 62
7
  6
CONTINUOUS
 70
0
 71
3
 72
11
 73
7
 74
0
 42
0.0000001
 43
0.0000001
 44
0.0000000001
 40
0.0
 40
0.0
 40
0.0
 40
0.0
 40
0.2194079603
 40
0.4577505657
 40
0.7170681418
 40
1.0
 40
1.0
 40
1.0
 40
1.0
 10
7.2278693086
 20
8.4156084611
 30
0.0
 10
7.2282796322
 20
8.4170569856
 30
0.0
 10
7.2290161651
 20
8.4201135225
 30
0.0
 10
7.2298698262
 20
8.4249614299
 30
0.0
 10
7.2305317127
 20
8.4302790606
 30
0.0
 10
7.2308022913
 20
8.4339910991
 30
0.0
 10
7.2309244354
 20
8.4359286565
 30
0.0
  0
SPLINE
  5
392
100
AcDbEntity
  8
0
100
AcDbSpline
 62
7
  6
CONTINUOUS
 70
0
 71
3
 72
28
 73
24
 74
0
 42
0.0000001
 43
0.0000001
 44
0.0000000001
 40
0.0
 40
0.0
 40
0.0
 40
0.0
 40
0.0380679265
 40
0.074614441
 40
0.1099544917
 40
0.1443273395
 40
0.2102186
 40
0.2724210501
 40
0.3316058952
 40
0.3886405775
 40
0.4444225491
 40
0.4997900356
 40
0.555509474
 40
0.6122528081
 40
0.6706128816
 40
0.7310956958
 40
0.7941017753
 40
0.8266486513
 40
0.8599096396
 40
0.8938771847
 40
0.9285342276
 40
0.9638953379
 40
1.0
 40
1.0
 40
1.0
 40
1.0
 10
7.2258441992
 20
8.4846464027
 30
0.0
 10
7.2256119456
 20
8.4853520088
 30
0.0
 10
7.2251313523
 20
8.4867268341
 30
0.0
 10
7.2243495293
 20
8.4887254
 30
0.0
 10
7.2235277122
 20
8.4906295542
 30
0.0
 10
7.2224026714
 20
8.4930249163
 30
0.0
 10
7.2209034981
 20
8.4958226715
 30
0.0
 10
7.2188854156
 20
8.4988764582
 30
0.0
 10
7.2166723455
 20
8.5015730065
 30
0.0
 10
7.2142627206
 20
8.5039198401
 30
0.0
 10
7.21165828
 20
8.5059288562
 30
0.0
 10
7.2088604636
 20
8.5076088852
 30
0.0
 10
7.2058724558
 20
8.5089664362
 30
0.0
 10
7.2026973746
 20
8.5100027121
 30
0.0
 10
7.1993401789
 20
8.5107174398
 30
0.0
 10
7.1958075591
 20
8.5111061684
 30
0.0
 10
7.1927590467
 20
8.5111604074
 30
0.0
 10
7.190247358
 20
8.5110506022
 30
0.0
 10
7.1883060151
 20
8.5108977113
 30
0.0
 10
7.1863291282
 20
8.5106844157
 30
0.0
 10
7.1843169299
 20
8.5104212342
 30
0.0
 10
7.1822710147
 20
8.510099163
 30
0.0
 10
7.180900383
 20
8.5098403302
 30
0.0
 10
7.1802103949
 20
8.5096978945
 30
0.0
  0
SPLINE
  5
393
100
AcDbEntity
  8
0
100
AcDbSpline
 62
7
  6
CONTINUOUS
 70
0
 71
3
 72
11
 73
7
 74
0
 42
0.0000001
 43
0.0000001
 44
0.0000000001
 40
0.0
 40
0.0
 40
0.0
 40
0.0
 40
0.2310569967
 40
0.475671277
 40
0.732596354
 40
1.0
 40
1.0
 40
1.0
 40
1.0
 10
7.1802103949
 20
8.5096978945
 30
0.0
 10
7.1785438592
 20
8.5084041342
 30
0.0
 10
7.1752351771
 20
8.5055794728
 30
0.0
 10
7.1705587273
 20
8.5007840177
 30
0.0
 10
7.1661188857
 20
8.4953335296
 30
0.0
 10
7.1634173053
 20
8.4913733358
 30
0.0
 10
7.1621207277
 20
8.4893043807
 30
0.0
  0
SPLINE
  5
394
100
AcDbEntity
  8
0
100
AcDbSpline
 62
7
  6
CONTINUOUS
 70
0
 71
3
 72
10
 73
6
 74
0
 42
0.0000001
 43
0.0000001
 44
0.0000000001
 40
0.0
 40
0.0
 40
0.0
 40
0.0
 40
0.5133305258
 40
0.7607453747
 40
1.0
 40
1.0
 40
1.0
 40
1.0
 10
7.1635681709
 20
8.3944028933
 30
0.0
 10
7.1662043285
 20
8.3900908937
 30
0.0
 10
7.170570255
 20
8.3839659088
 30
0.0
 10
7.1770649641
 20
8.3765611912
 30
0.0
 10
7.1804606326
 20
8.3731736378
 30
0.0
 10
7.1821884309
 20
8.3715725656
 30
0.0
  0
SPLINE
  5
395
100
AcDbEntity
  8
0
100
AcDbSpline
 62
7
  6
CONTINUOUS
 70
0
 71
3
 72
12
 73
8
 74
0
 42
0.0000001
 43
0.0000001
 44
0.0000000001
 40
0.0
 40
0.0
 40
0.0
 40
0.0
 40
0.2785244109
 40
0.5408426959
 40
0.7824618849
 40
0.8944119153
 40
1.0
 40
1.0
 40
1.0
 40
1.0
 10
7.1554887113
 20
8.4536803785
 30
0.0
 10
7.1557167083
 20
8.4569771286
 30
0.0
 10
7.1564168627
 20
8.4633652366
 30
0.0
 10
7.1582492591
 20
8.4724787742
 30
0.0
 10
7.1604026522
 20
8.4794791861
 30
0.0
 10
7.1624750671
 20
8.4845206817
 30
0.0
 10
7.163613701
 20
8.4868399018
 30
0.0
 10
7.1642087814
 20
8.4879423217
 30
0.0
  0
SPLINE
  5
396
100
AcDbEntity
  8
0
100
AcDbSpline
 62
7
  6
CONTINUOUS
 70
0
 71
3
 72
14
 73
10
 74
0
 42
0.0000001
 43
0.0000001
 44
0.0000000001
 40
0.0
 40
0.0
 40
0.0
 40
0.0
 40
0.1527700401
 40
0.2968824839
 40
0.559393847
 40
0.678868076
 40
0.7913658079
 40
0.897945286
 40
1.0
 40
1.0
 40
1.0
 40
1.0
 10
7.1642087814
 20
8.4879423217
 30
0.0
 10
7.1646888507
 20
8.4888316771
 30
0.0
 10
7.1656761893
 20
8.4905319584
 30
0.0
 10
7.1677575375
 20
8.4935932981
 30
0.0
 10
7.1700466001
 20
8.4962456116
 30
0.0
 10
7.1725480271
 20
8.4983626285
 30
0.0
 10
7.1744167554
 20
8.4996075318
 30
0.0
 10
7.1763272426
 20
8.5005506427
 30
0.0
 10
7.1776447761
 20
8.5009815182
 30
0.0
 10
7.1783007807
 20
8.5011411384
 30
0.0
  0
SPLINE
  5
397
100
AcDbEntity
  8
0
100
AcDbSpline
 62
7
  6
CONTINUOUS
 70
0
 71
3
 72
18
 73
14
 74
0
 42
0.0000001
 43
0.0000001
 44
0.0000000001
 40
0.0
 40
0.0
 40
0.0
 40
0.0
 40
0.0486493478
 40
0.0982357863
 40
0.14910742
 40
0.2015724594
 40
0.255890527
 40
0.3122588598
 40
0.4316264945
 40
0.5603939396
 40
0.6984647773
 40
0.8453011468
 40
1.0
 40
1.0
 40
1.0
 40
1.0
 10
7.1947051385
 20
8.371523278
 30
0.0
 10
7.1954753763
 20
8.3716361144
 30
0.0
 10
7.1970193325
 20
8.3719498219
 30
0.0
 10
7.1992983066
 20
8.3726695342
 30
0.0
 10
7.2015497449
 20
8.3736381223
 30
0.0
 10
7.2037652121
 20
8.3748520187
 30
0.0
 10
7.2059370197
 20
8.376306559
 30
0.0
 10
7.2088204065
 20
8.3786006407
 30
0.0
 10
7.2122704739
 20
8.3820666757
 30
0.0
 10
7.2160407779
 20
8.3869803071
 30
0.0
 10
7.2194777178
 20
8.392651222
 30
0.0
 10
7.2225382258
 20
8.3989947686
 30
0.0
 10
7.2242652922
 20
8.4035064712
 30
0.0
 10
7.2250638735
 20
8.4058495216
 30
0.0
  0
SPLINE
  5
398
100
AcDbEntity
  8
0
100
AcDbSpline
 62
7
  6
CONTINUOUS
 70
0
 71
3
 72
9
 73
5
 74
0
 42
0.0000001
 43
0.0000001
 44
0.0000000001
 40
0.0
 40
0.0
 40
0.0
 40
0.0
 40
0.4904867911
 40
1.0
 40
1.0
 40
1.0
 40
1.0
 10
7.1899423425
 20
8.3718665412
 30
0.0
 10
7.188845218
 20
8.3721234763
 30
0.0
 10
7.1866462537
 20
8.3728205475
 30
0.0
 10
7.1845691834
 20
8.3738199499
 30
0.0
 10
7.1835484422
 20
8.3743928384
 30
0.0
  0
SPLINE
  5
399
100
AcDbEntity
  8
0
100
AcDbSpline
 62
7
  6
CONTINUOUS
 70
0
 71
3
 72
11
 73
7
 74
0
 42
0.0000001
 43
0.0000001
 44
0.0000000001
 40
0.0
 40
0.0
 40
0.0
 40
0.0
 40
0.2239207128
 40
0.4648490073
 40
0.7236429706
 40
1.0
 40
1.0
 40
1.0
 40
1.0
 10
7.1814919438
 20
8.3756636697
 30
0.0
 10
7.1800661418
 20
8.3766271801
 30
0.0
 10
7.1772714981
 20
8.3788782666
 30
0.0
 10
7.1734536441
 20
8.3829412033
 30
0.0
 10
7.1699077484
 20
8.3877517612
 30
0.0
 10
7.1678145244
 20
8.3913002296
 30
0.0
 10
7.1668164309
 20
8.3931748922
 30
0.0
  0
SPLINE
  5
39A
100
AcDbEntity
  8
0
100
AcDbSpline
 62
7
  6
CONTINUOUS
 70
0
 71
3
 72
14
 73
10
 74
0
 42
0.0000001
 43
0.0000001
 44
0.0000000001
 40
0.0
 40
0.0
 40
0.0
 40
0.0
 40
0.234939753
 40
0.3575253561
 40
0.4828524134
 40
0.6103979894
 40
0.7395976092
 40
0.8697292953
 40
1.0
 40
1.0
 40
1.0
 40
1.0
 10
7.1651136077
 20
8.3965783946
 30
0.0
 10
7.1637530262
 20
8.3994725568
 30
0.0
 10
7.1619404386
 20
8.4040021873
 30
0.0
 10
7.1599527296
 20
8.4102683911
 30
0.0
 10
7.1586381646
 20
8.4152093531
 30
0.0
 10
7.1575279105
 20
8.4202919367
 30
0.0
 10
7.1566296812
 20
8.4254826422
 30
0.0
 10
7.1559431914
 20
8.4307427273
 30
0.0
 10
7.1556258845
 20
8.4342742344
 30
0.0
 10
7.1555022865
 20
8.4360431799
 30
0.0
  0
SPLINE
  5
39B
100
AcDbEntity
  8
0
100
AcDbSpline
 62
7
  6
CONTINUOUS
 70
0
 71
3
 72
10
 73
6
 74
0
 42
0.0000001
 43
0.0000001
 44
0.0000000001
 40
0.0
 40
0.0
 40
0.0
 40
0.0
 40
0.5256571422
 40
0.7695573263
 40
1.0
 40
1.0
 40
1.0
 40
1.0
 10
7.2007240604
 20
8.4734839746
 30
0.0
 10
7.2000193714
 20
8.4761342284
 30
0.0
 10
7.1988034116
 20
8.4799715159
 30
0.0
 10
7.1967902693
 20
8.4847870252
 30
0.0
 10
7.1956890203
 20
8.4870058178
 30
0.0
 10
7.1951149113
 20
8.4880620929
 30
0.0
  0
SPLINE
  5
39C
100
AcDbEntity
  8
0
100
AcDbSpline
 62
7
  6
CONTINUOUS
 70
0
 71
3
 72
9
 73
5
 74
0
 42
0.0000001
 43
0.0000001
 44
0.0000000001
 40
0.0
 40
0.0
 40
0.0
 40
0.0
 40
0.5184885601
 40
1.0
 40
1.0
 40
1.0
 40
1.0
 10
7.1951149113
 20
8.4880620929
 30
0.0
 10
7.1945180392
 20
8.4891602488
 30
0.0
 10
7.1932846368
 20
8.4912350408
 30
0.0
 10
7.1918663572
 20
8.4931899723
 30
0.0
 10
7.1911339058
 20
8.4940904388
 30
0.0
  0
SPLINE
  5
39D
100
AcDbEntity
  8
0
100
AcDbSpline
 62
7
  6
CONTINUOUS
 70
0
 71
3
 72
9
 73
5
 74
0
 42
0.0000001
 43
0.0000001
 44
0.0000000001
 40
0.0
 40
0.0
 40
0.0
 40
0.0
 40
0.5231090368
 40
1.0
 40
1.0
 40
1.0
 40
1.0
 10
7.1905194335
 20
8.4948222391
 30
0.0
 10
7.1897053828
 20
8.4957609335
 30
0.0
 10
7.1880336808
 20
8.4974604699
 30
0.0
 10
7.1861102601
 20
8.498878003
 30
0.0
 10
7.1851366074
 20
8.4994568598
 30
0.0
  0
LINE
  5
39E
100
AcDbEntity
  8
0
100
AcDbLine
 62
7
  6
CONTINUOUS
 10
7.1851366074
 20
8.4994568598
 11
7.1826597614
 21
8.500655034
  0
LINE
  5
39F
100
AcDbEntity
  8
0
100
AcDbLine
 62
7
  6
CONTINUOUS
 10
7.1826597614
 20
8.500655034
 11
7.1798814303
 21
8.5013746166
  0
SPLINE
  5
3A0
100
AcDbEntity
  8
0
100
AcDbSpline
 62
7
  6
CONTINUOUS
 70
0
 71
3
 72
14
 73
10
 74
0
 42
0.0000001
 43
0.0000001
 44
0.0000000001
 40
0.0
 40
0.0
 40
0.0
 40
0.0
 40
0.1977714623
 40
0.3088792262
 40
0.4288570581
 40
0.5580299473
 40
0.6965405519
 40
0.8440493477
 40
1.0
 40
1.0
 40
1.0
 40
1.0
 10
7.2287508697
 20
8.3614210697
 30
0.0
 10
7.2263993062
 20
8.3609016588
 30
0.0
 10
7.2226245174
 20
8.3605212429
 30
0.0
 10
7.217402412
 20
8.3606796549
 30
0.0
 10
7.2130377046
 20
8.3611695346
 30
0.0
 10
7.2083941919
 20
8.3620381886
 30
0.0
 10
7.2034935437
 20
8.3632937413
 30
0.0
 10
7.1983587537
 20
8.3649127079
 30
0.0
 10
7.1948890076
 20
8.3661875274
 30
0.0
 10
7.1931193824
 20
8.3668764485
 30
0.0
  0
LINE
  5
3A1
100
AcDbEntity
  8
0
100
AcDbLine
 62
7
  6
CONTINUOUS
 10
7.1931193824
 20
8.3668764485
 11
7.1821884309
 21
8.3715725656
  0
SPLINE
  5
3A2
100
AcDbEntity
  8
0
100
AcDbSpline
 62
7
  6
CONTINUOUS
 70
0
 71
3
 72
11
 73
7
 74
0
 42
0.0000001
 43
0.0000001
 44
0.0000000001
 40
0.0
 40
0.0
 40
0.0
 40
0.0
 40
0.2572947842
 40
0.5115435673
 40
0.7599246839
 40
1.0
 40
1.0
 40
1.0
 40
1.0
 10
7.2311268028
 20
8.4400999788
 30
0.0
 10
7.2308947484
 20
8.4427132327
 30
0.0
 10
7.2304276112
 20
8.4479083056
 30
0.0
 10
7.2296823311
 20
8.4556211308
 30
0.0
 10
7.2288875521
 20
8.4631524855
 30
0.0
 10
7.2283073465
 20
8.4680994057
 30
0.0
 10
7.2279995928
 20
8.4705279399
 30
0.0
  0
SPLINE
  5
3A3
100
AcDbEntity
  8
0
100
AcDbSpline
 62
7
  6
CONTINUOUS
 70
0
 71
3
 72
11
 73
7
 74
0
 42
0.0000001
 43
0.0000001
 44
0.0000000001
 40
0.0
 40
0.0
 40
0.0
 40
0.0
 40
0.2608093718
 40
0.5146634004
 40
0.7612386704
 40
1.0
 40
1.0
 40
1.0
 40
1.0
 10
7.2279995928
 20
8.4705279399
 30
0.0
 10
7.2278434762
 20
8.4717598817
 30
0.0
 10
7.2275237849
 20
8.4741894694
 30
0.0
 10
7.2270057934
 20
8.4777768695
 30
0.0
 10
7.2264538645
 20
8.4812529523
 30
0.0
 10
7.2260538545
 20
8.4835290859
 30
0.0
 10
7.2258441992
 20
8.4846464027
 30
0.0
  0
SPLINE
  5
3A4
100
AcDbEntity
  8
0
100
AcDbSpline
 62
7
  6
CONTINUOUS
 70
0
 71
3
 72
11
 73
7
 74
0
 42
0.0000001
 43
0.0000001
 44
0.0000000001
 40
0.0
 40
0.0
 40
0.0
 40
0.0
 40
0.2485390413
 40
0.4980971757
 40
0.7486308094
 40
1.0
 40
1.0
 40
1.0
 40
1.0
 10
7.1621207277
 20
8.4893043807
 30
0.0
 10
7.1616400214
 20
8.4877750049
 30
0.0
 10
7.1607216011
 20
8.4846956191
 30
0.0
 10
7.1594855313
 20
8.4800267966
 30
0.0
 10
7.1584008655
 20
8.4753016625
 30
0.0
 10
7.1577811862
 20
8.4721235103
 30
0.0
 10
7.1574929353
 20
8.4705279399
 30
0.0
  0
SPLINE
  5
3A5
100
AcDbEntity
  8
0
100
AcDbSpline
 62
7
  6
CONTINUOUS
 70
0
 71
3
 72
11
 73
7
 74
0
 42
0.0000001
 43
0.0000001
 44
0.0000000001
 40
0.0
 40
0.0
 40
0.0
 40
0.0
 40
0.2232672963
 40
0.4632739737
 40
0.7218084024
 40
1.0
 40
1.0
 40
1.0
 40
1.0
 10
7.2287508697
 20
8.3614210697
 30
0.0
 10
7.2292874531
 20
8.3622587356
 30
0.0
 10
7.2302631477
 20
8.3640866246
 30
0.0
 10
7.2314269049
 20
8.3670907174
 30
0.0
 10
7.2323576258
 20
8.3704287159
 30
0.0
 10
7.232816814
 20
8.3727779054
 30
0.0
 10
7.2330179202
 20
8.3740009922
 30
0.0
  0
LINE
  5
3A6
100
AcDbEntity
  8
0
100
AcDbLine
 62
7
  6
CONTINUOUS
 10
7.2330179202
 20
8.3740009922
 11
7.2279349769
 21
8.4050863743
  0
SPLINE
  5
3A7
100
AcDbEntity
  8
0
100
AcDbSpline
 62
7
  6
CONTINUOUS
 70
0
 71
3
 72
23
 73
19
 74
0
 42
0.0000001
 43
0.0000001
 44
0.0000000001
 40
0.0
 40
0.0
 40
0.0
 40
0.0
 40
0.0453553982
 40
0.095050614
 40
0.1490103404
 40
0.2069687555
 40
0.2684993582
 40
0.3330130068
 40
0.3998958251
 40
0.4685219766
 40
0.5382315524
 40
0.6083261301
 40
0.6781006115
 40
0.746863645
 40
0.8139864765
 40
0.8789010804
 40
0.9410697468
 40
1.0
 40
1.0
 40
1.0
 40
1.0
 10
7.2074119967
 20
8.5083079688
 30
0.0
 10
7.2086912109
 20
8.5067082405
 30
0.0
 10
7.2111323155
 20
8.5031608042
 30
0.0
 10
7.2142993322
 20
8.4972107245
 30
0.0
 10
7.2170988218
 20
8.490459669
 30
0.0
 10
7.2194976701
 20
8.4829949337
 30
0.0
 10
7.2214590355
 20
8.4749130113
 30
0.0
 10
7.2229404003
 20
8.4663207949
 30
0.0
 10
7.2239081808
 20
8.4573337871
 30
0.0
 10
7.2243447833
 20
8.4480707936
 30
0.0
 10
7.2242409114
 20
8.4386533039
 30
0.0
 10
7.2236020277
 20
8.4292050755
 30
0.0
 10
7.2224307733
 20
8.4198507422
 30
0.0
 10
7.2207271976
 20
8.4107145368
 30
0.0
 10
7.2185035867
 20
8.4019163708
 30
0.0
 10
7.2157777251
 20
8.393572266
 30
0.0
 10
7.212585331
 20
8.3857936294
 30
0.0
 10
7.2101022252
 20
8.3809117116
 30
0.0
 10
7.2087849296
 20
8.3785992404
 30
0.0
  0
LINE
  5
3A8
100
AcDbEntity
  8
0
100
AcDbLine
 62
7
  6
CONTINUOUS
 10
7.2279349769
 20
8.4050863743
 11
7.2278693086
 21
8.4156084611
  0
SPLINE
  5
3A9
100
AcDbEntity
  8
0
100
AcDbSpline
 62
7
  6
CONTINUOUS
 70
0
 71
3
 72
19
 73
15
 74
0
 42
0.0000001
 43
0.0000001
 44
0.0000000001
 40
0.0
 40
0.0
 40
0.0
 40
0.0
 40
0.1567719466
 40
0.3050995651
 40
0.4435545817
 40
0.571698525
 40
0.6319961321
 40
0.6898757391
 40
0.7454924033
 40
0.7990727946
 40
0.8509246466
 40
0.9014110125
 40
0.9509478931
 40
1.0
 40
1.0
 40
1.0
 40
1.0
 10
7.2279349769
 20
8.4050863743
 30
0.0
 10
7.2270679327
 20
8.4026076747
 30
0.0
 10
7.2251853068
 20
8.397848698
 30
0.0
 10
7.2218292414
 20
8.391207153
 30
0.0
 10
7.2180511502
 20
8.3853567457
 30
0.0
 10
7.2145266012
 20
8.3811419229
 30
0.0
 10
7.211539687
 20
8.3782902095
 30
0.0
 10
7.2092779752
 20
8.3764519921
 30
0.0
 10
7.2069576343
 20
8.3748804779
 30
0.0
 10
7.2045868211
 20
8.3735843667
 30
0.0
 10
7.2021755722
 20
8.3725686861
 30
0.0
 10
7.1997331679
 20
8.3718383254
 30
0.0
 10
7.1972696763
 20
8.371398808
 30
0.0
 10
7.1956166465
 20
8.3713011042
 30
0.0
 10
7.1947950113
 20
8.3713010964
 30
0.0
  0
SPLINE
  5
3AA
100
AcDbEntity
  8
0
100
AcDbSpline
 62
7
  6
CONTINUOUS
 70
0
 71
3
 72
10
 73
6
 74
0
 42
0.0000001
 43
0.0000001
 44
0.0000000001
 40
0.0
 40
0.0
 40
0.0
 40
0.0
 40
0.5001645699
 40
0.7502583848
 40
1.0
 40
1.0
 40
1.0
 40
1.0
 10
7.1635681709
 20
8.3944028933
 30
0.0
 10
7.1614150556
 20
8.4011378503
 30
0.0
 10
7.1587215953
 20
8.4114289334
 30
0.0
 10
7.1564214541
 20
8.4253843885
 30
0.0
 10
7.1557366528
 20
8.4324242169
 30
0.0
 10
7.1555187894
 20
8.4359480492
 30
0.0
  0
SPLINE
  5
3AB
100
AcDbEntity
  8
0
100
AcDbSpline
 62
7
  6
CONTINUOUS
 70
0
 71
3
 72
9
 73
5
 74
0
 42
0.0000001
 43
0.0000001
 44
0.0000000001
 40
0.0
 40
0.0
 40
0.0
 40
0.0
 40
0.5156038713
 40
1.0
 40
1.0
 40
1.0
 40
1.0
 10
7.2330361622
 20
8.3740121227
 30
0.0
 10
7.2318460402
 20
8.3722235547
 30
0.0
 10
7.2293801005
 20
8.3688561365
 30
0.0
 10
7.2265758769
 20
8.3657606961
 30
0.0
 10
7.2251310009
 20
8.3643514756
 30
0.0
  0
LINE
  5
3AC
100
AcDbEntity
  8
0
100
AcDbLine
 62
7
  6
CONTINUOUS
 10
7.224655868
 20
8.3638943623
 11
7.220205788
 21
8.3601926589
  0
SPLINE
  5
3AD
100
AcDbEntity
  8
0
100
AcDbSpline
 62
7
  6
CONTINUOUS
 70
0
 71
3
 72
21
 73
17
 74
0
 42
0.0000001
 43
0.0000001
 44
0.0000000001
 40
0.0
 40
0.0
 40
0.0
 40
0.0
 40
0.0419284583
 40
0.0846948615
 40
0.1290702586
 40
0.1757269861
 40
0.2251970155
 40
0.2778761632
 40
0.3340515515
 40
0.3938899536
 40
0.4574583105
 40
0.5247637088
 40
0.5957449266
 40
0.6702740431
 40
0.8292592494
 40
1.0
 40
1.0
 40
1.0
 40
1.0
 10
7.18126147
 20
8.5015005437
 30
0.0
 10
7.1819214269
 20
8.5015005579
 30
0.0
 10
7.1832569189
 20
8.501391459
 30
0.0
 10
7.1852374536
 20
8.5009055186
 30
0.0
 10
7.1871918631
 20
8.5001013241
 30
0.0
 10
7.1891073667
 20
8.4989836086
 30
0.0
 10
7.1909744767
 20
8.4975608371
 30
0.0
 10
7.1927841093
 20
8.4958411981
 30
0.0
 10
7.1945260958
 20
8.4938324539
 30
0.0
 10
7.1961916886
 20
8.4915449665
 30
0.0
 10
7.1977725332
 20
8.4889901513
 30
0.0
 10
7.1992590024
 20
8.4861796561
 30
0.0
 10
7.2006426333
 20
8.4831269505
 30
0.0
 10
7.2023780641
 20
8.4786571808
 30
0.0
 10
7.2042175711
 20
8.4725551634
 30
0.0
 10
7.205278981
 20
8.4674683106
 30
0.0
 10
7.2057268361
 20
8.4648184184
 30
0.0
  0
SPLINE
  5
3AE
100
AcDbEntity
  8
0
100
AcDbSpline
 62
7
  6
CONTINUOUS
 70
0
 71
3
 72
11
 73
7
 74
0
 42
0.0000001
 43
0.0000001
 44
0.0000000001
 40
0.0
 40
0.0
 40
0.0
 40
0.0
 40
0.2400656844
 40
0.4883802146
 40
0.7426571793
 40
1.0
 40
1.0
 40
1.0
 40
1.0
 10
7.2057268361
 20
8.4648184184
 30
0.0
 10
7.2061070001
 20
8.4625690444
 30
0.0
 10
7.2067312183
 20
8.4579667554
 30
0.0
 10
7.2072629865
 20
8.4509257914
 30
0.0
 10
7.2073953616
 20
8.4437018644
 30
0.0
 10
7.207210083
 20
8.4388404956
 30
0.0
 10
7.207046144
 20
8.436400544
 30
0.0
  0
SPLINE
  5
3AF
100
AcDbEntity
  8
0
100
AcDbSpline
 62
7
  6
CONTINUOUS
 70
0
 71
3
 72
11
 73
7
 74
0
 42
0.0000001
 43
0.0000001
 44
0.0000000001
 40
0.0
 40
0.0
 40
0.0
 40
0.0
 40
0.234827873
 40
0.480540754
 40
0.7359893947
 40
1.0
 40
1.0
 40
1.0
 40
1.0
 10
14.680077573
 20
8.3614210378
 30
0.0
 10
14.6814135341
 20
8.3622540819
 30
0.0
 10
14.6840923177
 20
8.364048406
 30
0.0
 10
14.6880247406
 20
8.3670333608
 30
0.0
 10
14.6919347017
 20
8.3703582772
 30
0.0
 10
14.694466454
 20
8.3727525218
 30
0.0
 10
14.695721258
 20
8.3740009555
 30
0.0
  0
SPLINE
  5
3B0
100
AcDbEntity
  8
0
100
AcDbSpline
 62
7
  6
CONTINUOUS
 70
0
 71
3
 72
13
 73
9
 74
0
 42
0.0000001
 43
0.0000001
 44
0.0000000001
 40
0.0
 40
0.0
 40
0.0
 40
0.0
 40
0.2363332762
 40
0.3579416894
 40
0.4817699443
 40
0.7362307508
 40
0.8670767081
 40
1.0
 40
1.0
 40
1.0
 40
1.0
 10
14.7092056973
 20
8.4156083802
 30
0.0
 10
14.7109031015
 20
8.4172606527
 30
0.0
 10
14.7133813734
 20
8.4198615539
 30
0.0
 10
14.7164878478
 20
8.4235602264
 30
0.0
 10
14.7195358408
 20
8.4275384823
 30
0.0
 10
14.7223279924
 20
8.4318255218
 30
0.0
 10
14.724747205
 20
8.4364256666
 30
0.0
 10
14.7257987901
 20
8.4388552985
 30
0.0
 10
14.726274483
 20
8.440099787
 30
0.0
  0
SPLINE
  5
3B1
100
AcDbEntity
  8
0
100
AcDbSpline
 62
7
  6
CONTINUOUS
 70
0
 71
3
 72
13
 73
9
 74
0
 42
0.0000001
 43
0.0000001
 44
0.0000000001
 40
0.0
 40
0.0
 40
0.0
 40
0.0
 40
0.133698447
 40
0.2648796294
 40
0.3936549394
 40
0.5200156385
 40
0.7651898975
 40
1.0
 40
1.0
 40
1.0
 40
1.0
 10
14.7159688815
 20
8.4846466162
 30
0.0
 10
14.7152854621
 20
8.4854351337
 30
0.0
 10
14.7138972952
 20
8.4869679981
 30
0.0
 10
14.711746573
 20
8.4891628519
 30
0.0
 10
14.7095651022
 20
8.491244922
 30
0.0
 10
14.7066570486
 20
8.4938515201
 30
0.0
 10
14.7029841517
 20
8.4968409232
 30
0.0
 10
14.6999314633
 20
8.4990171037
 30
0.0
 10
14.6984061624
 20
8.5000329274
 30
0.0
  0
SPLINE
  5
3B2
100
AcDbEntity
  8
0
100
AcDbSpline
 62
7
  6
CONTINUOUS
 70
0
 71
3
 72
15
 73
11
 74
0
 42
0.0000001
 43
0.0000001
 44
0.0000000001
 40
0.0
 40
0.0
 40
0.0
 40
0.0
 40
0.1578402375
 40
0.3058175041
 40
0.4437298484
 40
0.5716192364
 40
0.690111907
 40
0.800160618
 40
0.9029748286
 40
1.0
 40
1.0
 40
1.0
 40
1.0
 10
14.6945968129
 20
8.5024271502
 30
0.0
 10
14.6928657467
 20
8.503451592
 30
0.0
 10
14.6894387973
 20
8.5053167261
 30
0.0
 10
14.6842734181
 20
8.5076319235
 30
0.0
 10
14.6792888731
 20
8.5093754664
 30
0.0
 10
14.6745196552
 20
8.5105269215
 30
0.0
 10
14.6700060512
 20
8.5111139861
 30
0.0
 10
14.6657732371
 20
8.5111702087
 30
0.0
 10
14.6618385504
 20
8.5107238934
 30
0.0
 10
14.6593612893
 20
8.5100913987
 30
0.0
 10
14.6581890868
 20
8.5096979541
 30
0.0
  0
SPLINE
  5
3B3
100
AcDbEntity
  8
0
100
AcDbSpline
 62
7
  6
CONTINUOUS
 70
0
 71
3
 72
22
 73
18
 74
0
 42
0.0000001
 43
0.0000001
 44
0.0000000001
 40
0.0
 40
0.0
 40
0.0
 40
0.0
 40
0.0440628267
 40
0.0896157211
 40
0.1372988938
 40
0.1875964796
 40
0.2408456253
 40
0.297218173
 40
0.3567695856
 40
0.4194346297
 40
0.4850553128
 40
0.5533969971
 40
0.6968665689
 40
0.7713054698
 40
0.8469881199
 40
0.9234184975
 40
1.0
 40
1.0
 40
1.0
 40
1.0
 10
14.6942203651
 20
8.5012787515
 30
0.0
 10
14.6930695866
 20
8.5011106614
 30
0.0
 10
14.6907533746
 20
8.5005761055
 30
0.0
 10
14.6873783433
 20
8.4992222379
 30
0.0
 10
14.6840865599
 20
8.4973238029
 30
0.0
 10
14.6809020372
 20
8.4949014807
 30
0.0
 10
14.6778482089
 20
8.4919761414
 30
0.0
 10
14.674943774
 20
8.4885760501
 30
0.0
 10
14.6722108372
 20
8.4847286778
 30
0.0
 10
14.6696670474
 20
8.4804678897
 30
0.0
 10
14.667330086
 20
8.4758294111
 30
0.0
 10
14.6644672747
 20
8.469085347
 30
0.0
 10
14.662149962
 20
8.4618743586
 30
0.0
 10
14.6603535555
 20
8.4543344195
 30
0.0
 10
14.6592578281
 20
8.4484533548
 30
0.0
 10
14.6584374224
 20
8.4424711503
 30
0.0
 10
14.6580766827
 20
8.4384469296
 30
0.0
 10
14.6579439094
 20
8.4364300105
 30
0.0
  0
SPLINE
  5
3B4
100
AcDbEntity
  8
0
100
AcDbSpline
 62
7
  6
CONTINUOUS
 70
0
 71
3
 72
19
 73
15
 74
0
 42
0.0000001
 43
0.0000001
 44
0.0000000001
 40
0.0
 40
0.0
 40
0.0
 40
0.0
 40
0.1636991942
 40
0.3192514049
 40
0.464536985
 40
0.5977407219
 40
0.6594456177
 40
0.7177331308
 40
0.7725822566
 40
0.8240419519
 40
0.8722279853
 40
0.9173632705
 40
0.9597991587
 40
1.0
 40
1.0
 40
1.0
 40
1.0
 10
14.6579411965
 20
8.4192803002
 30
0.0
 10
14.6581403781
 20
8.4163346184
 30
0.0
 10
14.658737423
 20
8.4106012534
 30
0.0
 10
14.6602581462
 20
8.4023529002
 30
0.0
 10
14.6623389366
 20
8.3947954613
 30
0.0
 10
14.6645515549
 20
8.3890580055
 30
0.0
 10
14.6665766407
 20
8.3849619716
 30
0.0
 10
14.6681601687
 20
8.3822320011
 30
0.0
 10
14.6698373684
 20
8.3797789567
 30
0.0
 10
14.6715979324
 20
8.3776145297
 30
0.0
 10
14.6734327257
 20
8.3757503969
 30
0.0
 10
14.6753325811
 20
8.37419723
 30
0.0
 10
14.6772855607
 20
8.3729627852
 30
0.0
 10
14.6786479718
 20
8.3723434173
 30
0.0
 10
14.6793292388
 20
8.3720952931
 30
0.0
  0
LINE
  5
3B5
100
AcDbEntity
  8
0
100
AcDbLine
 62
7
  6
CONTINUOUS
 10
14.6793292388
 20
8.3720952931
 11
14.6824325521
 21
8.3713693653
  0
SPLINE
  5
3B6
100
AcDbEntity
  8
0
100
AcDbSpline
 62
7
  6
CONTINUOUS
 70
0
 71
3
 72
15
 73
11
 74
0
 42
0.0000001
 43
0.0000001
 44
0.0000000001
 40
0.0
 40
0.0
 40
0.0
 40
0.0
 40
0.1567445608
 40
0.3023912775
 40
0.436958909
 40
0.5613678256
 40
0.6773759776
 40
0.7874872747
 40
0.8942429821
 40
1.0
 40
1.0
 40
1.0
 40
1.0
 10
14.680077573
 20
8.3614210378
 30
0.0
 10
14.6779806665
 20
8.3611312488
 30
0.0
 10
14.6739167687
 20
8.3606925726
 30
0.0
 10
14.6680105821
 20
8.3605195639
 30
0.0
 10
14.6625489001
 20
8.3609082573
 30
0.0
 10
14.6575638482
 20
8.3618859749
 30
0.0
 10
14.6530875784
 20
8.3634842636
 30
0.0
 10
14.6491297237
 20
8.3656574963
 30
0.0
 10
14.6456856175
 20
8.3683553498
 30
0.0
 10
14.6437187787
 20
8.3704623
 30
0.0
 10
14.6428202513
 20
8.3715724998
 30
0.0
  0
SPLINE
  5
3B7
100
AcDbEntity
  8
0
100
AcDbSpline
 62
7
  6
CONTINUOUS
 70
0
 71
3
 72
15
 73
11
 74
0
 42
0.0000001
 43
0.0000001
 44
0.0000000001
 40
0.0
 40
0.0
 40
0.0
 40
0.0
 40
0.1488100638
 40
0.2918730979
 40
0.4284307198
 40
0.5578565256
 40
0.6798342586
 40
0.794178402
 40
0.9008462731
 40
1.0
 40
1.0
 40
1.0
 40
1.0
 10
14.7045236057
 20
8.4050863238
 30
0.0
 10
14.70422095
 20
8.4035643886
 30
0.0
 10
14.7035567741
 20
8.4005927131
 30
0.0
 10
14.7023620294
 20
8.3962858733
 30
0.0
 10
14.700997733
 20
8.3922420541
 30
0.0
 10
14.6994737553
 20
8.3884916235
 30
0.0
 10
14.6978041781
 20
8.3850591312
 30
0.0
 10
14.6960014438
 20
8.3819655938
 30
0.0
 10
14.6940782803
 20
8.3792314133
 30
0.0
 10
14.692675645
 20
8.3776006739
 30
0.0
 10
14.6919568335
 20
8.3768574785
 30
0.0
  0
SPLINE
  5
3B8
100
AcDbEntity
  8
0
100
AcDbSpline
 62
7
  6
CONTINUOUS
 70
0
 71
3
 72
11
 73
7
 74
0
 42
0.0000001
 43
0.0000001
 44
0.0000000001
 40
0.0
 40
0.0
 40
0.0
 40
0.0
 40
0.2743670476
 40
0.5305115417
 40
0.7711897968
 40
1.0
 40
1.0
 40
1.0
 40
1.0
 10
14.6919568335
 20
8.3768574785
 30
0.0
 10
14.6913286665
 20
8.3762080027
 30
0.0
 10
14.6900483558
 20
8.3750128216
 30
0.0
 10
14.6879885463
 20
8.3735150475
 30
0.0
 10
14.6858733014
 20
8.3723858586
 30
0.0
 10
14.6844053023
 20
8.371875179
 30
0.0
 10
14.6836748782
 20
8.3716900244
 30
0.0
  0
SPLINE
  5
3B9
100
AcDbEntity
  8
0
100
AcDbSpline
 62
7
  6
CONTINUOUS
 70
0
 71
3
 72
11
 73
7
 74
0
 42
0.0000001
 43
0.0000001
 44
0.0000000001
 40
0.0
 40
0.0
 40
0.0
 40
0.0
 40
0.2465443956
 40
0.4979961454
 40
0.7508065026
 40
1.0
 40
1.0
 40
1.0
 40
1.0
 10
14.6412714408
 20
8.3944027998
 30
0.0
 10
14.6421475163
 20
8.4006313933
 30
0.0
 10
14.6437810591
 20
8.4132320895
 30
0.0
 10
14.6458511371
 20
8.4322758133
 30
0.0
 10
14.6475934481
 20
8.4514198143
 30
0.0
 10
14.6485906741
 20
8.4641883763
 30
0.0
 10
14.6490677346
 20
8.4705279399
 30
0.0
  0
SPLINE
  5
3BA
100
AcDbEntity
  8
0
100
AcDbSpline
 62
7
  6
CONTINUOUS
 70
0
 71
3
 72
10
 73
6
 74
0
 42
0.0000001
 43
0.0000001
 44
0.0000000001
 40
0.0
 40
0.0
 40
0.0
 40
0.0
 40
0.2675461176
 40
0.5237606729
 40
1.0
 40
1.0
 40
1.0
 40
1.0
 10
14.6504881488
 20
8.489293748
 30
0.0
 10
14.6513004608
 20
8.4909538795
 30
0.0
 10
14.6529851031
 20
8.494159574
 30
0.0
 10
14.6565862486
 20
8.5000567897
 30
0.0
 10
14.6596817081
 20
8.5040952873
 30
0.0
 10
14.6619148589
 20
8.5065111233
 30
0.0
  0
SPLINE
  5
3BB
100
AcDbEntity
  8
0
100
AcDbSpline
 62
7
  6
CONTINUOUS
 70
0
 71
3
 72
9
 73
5
 74
0
 42
0.0000001
 43
0.0000001
 44
0.0000000001
 40
0.0
 40
0.0
 40
0.0
 40
0.0
 40
0.2571700954
 40
1.0
 40
1.0
 40
1.0
 40
1.0
 10
14.6619148589
 20
8.5065111233
 30
0.0
 10
14.6622997799
 20
8.506927533
 30
0.0
 10
14.663822224
 20
8.508522644
 30
0.0
 10
14.6654498309
 20
8.510018581
 30
0.0
 10
14.6667172743
 20
8.5110561112
 30
0.0
  0
SPLINE
  5
3BC
100
AcDbEntity
  8
0
100
AcDbSpline
 62
7
  6
CONTINUOUS
 70
0
 71
3
 72
21
 73
17
 74
0
 42
0.0000001
 43
0.0000001
 44
0.0000000001
 40
0.0
 40
0.0
 40
0.0
 40
0.0
 40
0.0395069134
 40
0.080067279
 40
0.1226370575
 40
0.1679872866
 40
0.2167069292
 40
0.2691923126
 40
0.325659513
 40
0.3862110686
 40
0.4508319071
 40
0.5194051974
 40
0.591762545
 40
0.6676581591
 40
0.828753932
 40
1.0
 40
1.0
 40
1.0
 40
1.0
 10
14.6805910505
 20
8.3713011248
 30
0.0
 10
14.6798249412
 20
8.3713011666
 30
0.0
 10
14.6782685681
 20
8.3714481999
 30
0.0
 10
14.6759705309
 20
8.372105252
 30
0.0
 10
14.6737159439
 20
8.3731908795
 30
0.0
 10
14.6715213907
 20
8.3746912925
 30
0.0
 10
14.6694023012
 20
8.3765958119
 30
0.0
 10
14.6673727783
 20
8.378890265
 30
0.0
 10
14.6654451621
 20
8.3815584171
 30
0.0
 10
14.6636346568
 20
8.3845842851
 30
0.0
 10
14.6619543922
 20
8.3879482397
 30
0.0
 10
14.6604159988
 20
8.3916283385
 30
0.0
 10
14.6590330677
 20
8.3956016098
 30
0.0
 10
14.6573781047
 20
8.4013703158
 30
0.0
 10
14.6557904709
 20
8.4091393301
 30
0.0
 10
14.6550713883
 20
8.4155527284
 30
0.0
 10
14.6548354231
 20
8.4188651001
 30
0.0
  0
SPLINE
  5
3BD
100
AcDbEntity
  8
0
100
AcDbSpline
 62
7
  6
CONTINUOUS
 70
0
 71
3
 72
9
 73
5
 74
0
 42
0.0000001
 43
0.0000001
 44
0.0000000001
 40
0.0
 40
0.0
 40
0.0
 40
0.0
 40
0.5041378129
 40
1.0
 40
1.0
 40
1.0
 40
1.0
 10
14.657941973
 20
8.436400544
 30
0.0
 10
14.657753551
 20
8.4335281556
 30
0.0
 10
14.6575648751
 20
8.4278169094
 30
0.0
 10
14.6577501849
 20
8.4221051586
 30
0.0
 10
14.6579411965
 20
8.4192803002
 30
0.0
  0
SPLINE
  5
3BE
100
AcDbEntity
  8
0
100
AcDbSpline
 62
7
  6
CONTINUOUS
 70
0
 71
3
 72
23
 73
19
 74
0
 42
0.0000001
 43
0.0000001
 44
0.0000000001
 40
0.0
 40
0.0
 40
0.0
 40
0.0
 40
0.0779137629
 40
0.1555910448
 40
0.2323709036
 40
0.3077234775
 40
0.3811910222
 40
0.4523460193
 40
0.5207982257
 40
0.586221196
 40
0.6483940126
 40
0.7071830636
 40
0.7625932739
 40
0.8147623889
 40
0.8640045595
 40
0.9108141893
 40
0.9558676008
 40
1.0
 40
1.0
 40
1.0
 40
1.0
 10
14.6548348826
 20
8.4368105073
 30
0.0
 10
14.6549831137
 20
8.4389309845
 30
0.0
 10
14.6553808012
 20
8.4431591041
 30
0.0
 10
14.6562805187
 20
8.4494370226
 30
0.0
 10
14.6574856936
 20
8.4555927144
 30
0.0
 10
14.658987342
 20
8.4615646661
 30
0.0
 10
14.6607742989
 20
8.4672973277
 30
0.0
 10
14.6628337455
 20
8.472737387
 30
0.0
 10
14.6651493339
 20
8.4778339642
 30
0.0
 10
14.6677060013
 20
8.4825376113
 30
0.0
 10
14.6704814157
 20
8.486805411
 30
0.0
 10
14.673456785
 20
8.4905960533
 30
0.0
 10
14.6766076009
 20
8.4938750293
 30
0.0
 10
14.6799116885
 20
8.496609625
 30
0.0
 10
14.6833436132
 20
8.4987719111
 30
0.0
 10
14.686876669
 20
8.5003386589
 30
0.0
 10
14.6904803454
 20
8.5012869625
 30
0.0
 10
14.6929184467
 20
8.5015005149
 30
0.0
 10
14.6941224716
 20
8.5015005435
 30
0.0
  0
SPLINE
  5
3BF
100
AcDbEntity
  8
0
100
AcDbSpline
 62
7
  6
CONTINUOUS
 70
0
 71
3
 72
23
 73
19
 74
0
 42
0.0000001
 43
0.0000001
 44
0.0000000001
 40
0.0
 40
0.0
 40
0.0
 40
0.0
 40
0.0514292253
 40
0.1063225545
 40
0.1644347501
 40
0.2254226664
 40
0.2888204323
 40
0.3541302262
 40
0.4208419922
 40
0.488444668
 40
0.5564254427
 40
0.6242538618
 40
0.6913970548
 40
0.757331847
 40
0.8215564512
 40
0.8836271899
 40
0.9432062072
 40
1.0
 40
1.0
 40
1.0
 40
1.0
 10
14.6753761621
 20
8.3743220987
 30
0.0
 10
14.674426359
 20
8.3762299941
 30
0.0
 10
14.6726399211
 20
8.3802640646
 30
0.0
 10
14.6703638126
 20
8.3866928306
 30
0.0
 10
14.668436344
 20
8.3936464858
 30
0.0
 10
14.6668833569
 20
8.40105275
 30
0.0
 10
14.6657153509
 20
8.4088306271
 30
0.0
 10
14.6649478541
 20
8.4168962178
 30
0.0
 10
14.6645949226
 20
8.4251648822
 30
0.0
 10
14.6646724423
 20
8.4335515039
 30
0.0
 10
14.6651897252
 20
8.4419688272
 30
0.0
 10
14.6661352825
 20
8.4503296326
 30
0.0
 10
14.6675005834
 20
8.4585464834
 30
0.0
 10
14.6692762005
 20
8.4665319602
 30
0.0
 10
14.6714535522
 20
8.4741997441
 30
0.0
 10
14.6740242271
 20
8.4814667503
 30
0.0
 10
14.6769557352
 20
8.4882616982
 30
0.0
 10
14.6791880989
 20
8.4925429734
 30
0.0
 10
14.6803629871
 20
8.4945822966
 30
0.0
  0
SPLINE
  5
3C0
100
AcDbEntity
  8
0
100
AcDbSpline
 62
7
  6
CONTINUOUS
 70
0
 71
3
 72
15
 73
11
 74
0
 42
0.0000001
 43
0.0000001
 44
0.0000000001
 40
0.0
 40
0.0
 40
0.0
 40
0.0
 40
0.1020504939
 40
0.2108053465
 40
0.3263094042
 40
0.448493481
 40
0.5772083766
 40
0.7122499338
 40
0.8533394171
 40
1.0
 40
1.0
 40
1.0
 40
1.0
 10
14.6565060577
 20
8.3621213285
 30
0.0
 10
14.6556674827
 20
8.3630171172
 30
0.0
 10
14.6540285093
 20
8.364956272
 30
0.0
 10
14.6517593121
 20
8.3681617676
 30
0.0
 10
14.6496143532
 20
8.3717369093
 30
0.0
 10
14.6476072632
 20
8.3756621471
 30
0.0
 10
14.64575143
 20
8.37991834
 30
0.0
 10
14.6440607116
 20
8.3844857457
 30
0.0
 10
14.6425496076
 20
8.3893417591
 30
0.0
 10
14.6416814162
 20
8.3926924361
 30
0.0
 10
14.6412766396
 20
8.3944087873
 30
0.0
  0
SPLINE
  5
3C1
100
AcDbEntity
  8
0
100
AcDbSpline
 62
7
  6
CONTINUOUS
 70
0
 71
3
 72
11
 73
7
 74
0
 42
0.0000001
 43
0.0000001
 44
0.0000000001
 40
0.0
 40
0.0
 40
0.0
 40
0.0
 40
0.2165001809
 40
0.4546331658
 40
0.7156935812
 40
1.0
 40
1.0
 40
1.0
 40
1.0
 10
14.6581890868
 20
8.5096979541
 30
0.0
 10
14.6572943259
 20
8.5083933741
 30
0.0
 10
14.6556428901
 20
8.5054958572
 30
0.0
 10
14.6536123378
 20
8.5006679535
 30
0.0
 10
14.6518756362
 20
8.4952065362
 30
0.0
 10
14.6509269462
 20
8.4913336222
 30
0.0
 10
14.6504818632
 20
8.4893044737
 30
0.0
  0
LINE
  5
3C2
100
AcDbEntity
  8
0
100
AcDbLine
 62
7
  6
CONTINUOUS
 10
14.6504818632
 20
8.4893044737
 11
14.6490677346
 21
8.4705279399
  0
SPLINE
  5
3C3
100
AcDbEntity
  8
0
100
AcDbSpline
 62
7
  6
CONTINUOUS
 70
0
 71
3
 72
11
 73
7
 74
0
 42
0.0000001
 43
0.0000001
 44
0.0000000001
 40
0.0
 40
0.0
 40
0.0
 40
0.0
 40
0.2789574663
 40
0.53908824
 40
0.7796226065
 40
1.0
 40
1.0
 40
1.0
 40
1.0
 10
14.6412714408
 20
8.3944027998
 30
0.0
 10
14.6412350999
 20
8.3922714017
 30
0.0
 10
14.6412233174
 20
8.3881510334
 30
0.0
 10
14.6414356214
 20
8.3821951367
 30
0.0
 10
14.6419176138
 20
8.376703467
 30
0.0
 10
14.6424722458
 20
8.3732202072
 30
0.0
 10
14.6428202513
 20
8.3715724998
 30
0.0
  0
SPLINE
  5
3C4
100
AcDbEntity
  8
0
100
AcDbSpline
 62
7
  6
CONTINUOUS
 70
0
 71
3
 72
9
 73
5
 74
0
 42
0.0000001
 43
0.0000001
 44
0.0000000001
 40
0.0
 40
0.0
 40
0.0
 40
0.0
 40
0.5002787487
 40
1.0
 40
1.0
 40
1.0
 40
1.0
 10
14.695721258
 20
8.3740009555
 30
0.0
 10
14.6976003243
 20
8.3790557295
 30
0.0
 10
14.7010279095
 20
8.3892868172
 30
0.0
 10
14.703552008
 20
8.399787942
 30
0.0
 10
14.7045236057
 20
8.4050863238
 30
0.0
  0
SPLINE
  5
3C5
100
AcDbEntity
  8
0
100
AcDbSpline
 62
7
  6
CONTINUOUS
 70
0
 71
3
 72
9
 73
5
 74
0
 42
0.0000001
 43
0.0000001
 44
0.0000000001
 40
0.0
 40
0.0
 40
0.0
 40
0.0
 40
0.2568737664
 40
1.0
 40
1.0
 40
1.0
 40
1.0
 10
10.5664166847
 20
10.3273550266
 30
0.0
 10
10.5657189513
 20
10.3281804268
 30
0.0
 10
10.5630483687
 20
10.3314317963
 30
0.0
 10
10.5605661045
 20
10.3348394723
 30
0.0
 10
10.5588552537
 20
10.3374565771
 30
0.0
  0
SPLINE
  5
3C6
100
AcDbEntity
  8
0
100
AcDbSpline
 62
7
  6
CONTINUOUS
 70
0
 71
3
 72
34
 73
30
 74
0
 42
0.0000001
 43
0.0000001
 44
0.0000000001
 40
0.0
 40
0.0
 40
0.0
 40
0.0
 40
0.0167743409
 40
0.0337703258
 40
0.0511989155
 40
0.0692527661
 40
0.0880983281
 40
0.1078757683
 40
0.1286989687
 40
0.1506541334
 40
0.173806371
 40
0.1982009891
 40
0.2238634123
 40
0.2508062581
 40
0.2790287874
 40
0.308516875
 40
0.3392490164
 40
0.3711942584
 40
0.4043125706
 40
0.438559558
 40
0.4738835328
 40
0.5102264838
 40
0.5475277149
 40
0.5857212435
 40
0.6644984214
 40
0.7459660605
 40
0.8294827936
 40
0.9144063161
 40
1.0
 40
1.0
 40
1.0
 40
1.0
 10
11.3039421389
 20
10.3030066222
 30
0.0
 10
11.3039421377
 20
10.300661391
 30
0.0
 10
11.303642849
 20
10.2959347133
 30
0.0
 10
11.3023032581
 20
10.2888857426
 30
0.0
 10
11.3000776287
 20
10.2818767595
 30
0.0
 10
11.2969732381
 20
10.2749283001
 30
0.0
 10
11.2930027814
 20
10.2680557981
 30
0.0
 10
11.288177528
 20
10.2612749651
 30
0.0
 10
11.2825098629
 20
10.2546013596
 30
0.0
 10
11.2760156327
 20
10.2480482942
 30
0.0
 10
11.2687099818
 20
10.2416307252
 30
0.0
 10
11.2606100973
 20
10.2353635555
 30
0.0
 10
11.251736097
 20
10.229259829
 30
0.0
 10
11.2421084036
 20
10.2233344148
 30
0.0
 10
11.2317497722
 20
10.2176014087
 30
0.0
 10
11.2206853389
 20
10.2120732627
 30
0.0
 10
11.2089409835
 20
10.2067639817
 30
0.0
 10
11.1965447555
 20
10.2016862232
 30
0.0
 10
11.1835265678
 20
10.1968512732
 30
0.0
 10
11.16991723
 20
10.1922716731
 30
0.0
 10
11.1557494603
 20
10.1879582094
 30
0.0
 10
11.1410574738
 20
10.1839205972
 30
0.0
 10
11.1258762198
 20
10.180169458
 30
0.0
 10
11.104814
 20
10.1755136356
 30
0.0
 10
11.0775174247
 20
10.1704936657
 30
0.0
 10
11.0437527172
 20
10.1657941387
 30
0.0
 10
11.0089680976
 20
10.1624039735
 30
0.0
 10
10.9735019216
 20
10.1603576406
 30
0.0
 10
10.9496592499
 20
10.1599013464
 30
0.0
 10
10.9376923427
 20
10.1599013464
 30
0.0
  0
SPLINE
  5
3C7
100
AcDbEntity
  8
0
100
AcDbSpline
 62
7
  6
CONTINUOUS
 70
0
 71
3
 72
61
 73
57
 74
0
 42
0.0000001
 43
0.0000001
 44
0.0000000001
 40
0.0
 40
0.0
 40
0.0
 40
0.0
 40
0.0083836926
 40
0.0168829486
 40
0.02559951
 40
0.0346271634
 40
0.0440496161
 40
0.0539378704
 40
0.0643493907
 40
0.0753271086
 40
0.0869033414
 40
0.0991006605
 40
0.1119318419
 40
0.125403252
 40
0.1395145624
 40
0.154258686
 40
0.1696248422
 40
0.1855975589
 40
0.2021567838
 40
0.2192802845
 40
0.2369422729
 40
0.2551137942
 40
0.2737645444
 40
0.2928614517
 40
0.3322495066
 40
0.372983235
 40
0.4147439421
 40
0.4571973683
 40
0.499999751
 40
0.542802127
 40
0.5852555376
 40
0.6270162379
 40
0.6677499863
 40
0.7071380635
 40
0.7262349826
 40
0.7448857268
 40
0.7630572417
 40
0.7807192148
 40
0.7978426814
 40
0.814401885
 40
0.8303745808
 40
0.8457407112
 40
0.8604848453
 40
0.8745961751
 40
0.8880676033
 40
0.9008988425
 40
0.9130962228
 40
0.9246725081
 40
0.9356502942
 40
0.9460618713
 40
0.9559501724
 40
0.965372686
 40
0.9744004015
 40
0.9831170136
 40
0.9916162987
 40
1.0
 40
1.0
 40
1.0
 40
1.0
 10
11.2701923427
 20
10.3030066222
 30
0.0
 10
11.2701923427
 20
10.3051348576
 30
0.0
 10
11.2699203632
 20
10.3094253902
 30
0.0
 10
11.2687043569
 20
10.3158248047
 30
0.0
 10
11.2666841825
 20
10.3221891637
 30
0.0
 10
11.2638657962
 20
10.3284980619
 30
0.0
 10
11.2602610267
 20
10.3347371443
 30
0.0
 10
11.2558802711
 20
10.3408927399
 30
0.0
 10
11.2507348915
 20
10.3469512354
 30
0.0
 10
11.2448391231
 20
10.3529005127
 30
0.0
 10
11.2382067099
 20
10.3587268297
 30
0.0
 10
11.2308532073
 20
10.3644164937
 30
0.0
 10
11.222796923
 20
10.369957714
 30
0.0
 10
11.2140564001
 20
10.3753370677
 30
0.0
 10
11.2046522826
 20
10.3805417751
 30
0.0
 10
11.1946073857
 20
10.3855605205
 30
0.0
 10
11.1839452125
 20
10.3903805805
 30
0.0
 10
11.1726912268
 20
10.3949904215
 30
0.0
 10
11.1608726156
 20
10.3993798232
 30
0.0
 10
11.1485173607
 20
10.4035374232
 30
0.0
 10
11.1356551323
 20
10.4074533891
 30
0.0
 10
11.1223169612
 20
10.4111189246
 30
0.0
 10
11.1085345728
 20
10.4145243888
 30
0.0
 10
11.0894132839
 20
10.4187510949
 30
0.0
 10
11.0646322349
 20
10.4233085504
 30
0.0
 10
11.0339784777
 20
10.427575079
 30
0.0
 10
11.0024008631
 20
10.4306522269
 30
0.0
 10
10.970202663
 20
10.4325107406
 30
0.0
 10
10.9376925372
 20
10.4331324475
 30
0.0
 10
10.9051824149
 20
10.4325107584
 30
0.0
 10
10.8729842215
 20
10.4306522552
 30
0.0
 10
10.8414066064
 20
10.4275751218
 30
0.0
 10
10.8107528365
 20
10.4233086173
 30
0.0
 10
10.7859717737
 20
10.4187511622
 30
0.0
 10
10.766850473
 20
10.4145244763
 30
0.0
 10
10.7530680847
 20
10.4111190118
 30
0.0
 10
10.7397299169
 20
10.4074534913
 30
0.0
 10
10.7268676969
 20
10.4035375459
 30
0.0
 10
10.7145124594
 20
10.3993799506
 30
0.0
 10
10.7026938595
 20
10.3949905751
 30
0.0
 10
10.6914398812
 20
10.3903807607
 30
0.0
 10
10.6807777176
 20
10.385560702
 30
0.0
 10
10.6707328067
 20
10.3805419834
 30
0.0
 10
10.6613286643
 20
10.3753372946
 30
0.0
 10
10.6525881219
 20
10.3699579267
 30
0.0
 10
10.6445317893
 20
10.3644167162
 30
0.0
 10
10.6371782348
 20
10.3587270467
 30
0.0
 10
10.6305457888
 20
10.3529006975
 30
0.0
 10
10.6246499632
 20
10.3469514143
 30
0.0
 10
10.6195045338
 20
10.3408929027
 30
0.0
 10
10.6151237511
 20
10.3347372753
 30
0.0
 10
10.6115189412
 20
10.3284981667
 30
0.0
 10
10.6087005292
 20
10.3221892307
 30
0.0
 10
10.6066803467
 20
10.3158248366
 30
0.0
 10
10.6054643266
 20
10.3094254021
 30
0.0
 10
10.6051923427
 20
10.3051348598
 30
0.0
 10
10.6051923427
 20
10.3030066222
 30
0.0
  0
SPLINE
  5
3C8
100
AcDbEntity
  8
0
100
AcDbSpline
 62
7
  6
CONTINUOUS
 70
0
 71
3
 72
34
 73
30
 74
0
 42
0.0000001
 43
0.0000001
 44
0.0000000001
 40
0.0
 40
0.0
 40
0.0
 40
0.0
 40
0.0855935352
 40
0.1705165893
 40
0.2540329931
 40
0.3355004326
 40
0.4142774409
 40
0.4524709651
 40
0.4897722143
 40
0.5261152544
 40
0.5614393494
 40
0.5956864389
 40
0.6288048914
 40
0.6607502711
 40
0.6914825064
 40
0.7209706946
 40
0.7491933038
 40
0.776136195
 40
0.8017986766
 40
0.8261933406
 40
0.8493456097
 40
0.8713008256
 40
0.8921240689
 40
0.9119015433
 40
0.9307471483
 40
0.9488010314
 40
0.966229645
 40
0.9832256497
 40
1.0
 40
1.0
 40
1.0
 40
1.0
 10
10.9376923427
 20
10.1599013464
 30
0.0
 10
10.9257254563
 20
10.1599013464
 30
0.0
 10
10.9018828706
 20
10.1603576324
 30
0.0
 10
10.8664168264
 20
10.1624039563
 30
0.0
 10
10.8316323452
 20
10.1657941014
 30
0.0
 10
10.7978677285
 20
10.1704935755
 30
0.0
 10
10.7705712047
 20
10.1755135364
 30
0.0
 10
10.7495089985
 20
10.1801693198
 30
0.0
 10
10.734327731
 20
10.1839204653
 30
0.0
 10
10.719635709
 20
10.1879580674
 30
0.0
 10
10.7054678899
 20
10.1922715196
 30
0.0
 10
10.6918585053
 20
10.1968511397
 30
0.0
 10
10.6788402618
 20
10.2016860919
 30
0.0
 10
10.6664439777
 20
10.2067638513
 30
0.0
 10
10.6546995814
 20
10.2120731549
 30
0.0
 10
10.6436351067
 20
10.2176013036
 30
0.0
 10
10.6332764402
 20
10.2233343122
 30
0.0
 10
10.6236487271
 20
10.2292597435
 30
0.0
 10
10.6147747006
 20
10.2353634685
 30
0.0
 10
10.6066747937
 20
10.241630641
 30
0.0
 10
10.5993691328
 20
10.2480482258
 30
0.0
 10
10.5928748791
 20
10.2546012923
 30
0.0
 10
10.5872071956
 20
10.2612749065
 30
0.0
 10
10.5823819374
 20
10.2680557565
 30
0.0
 10
10.5784114617
 20
10.274928265
 30
0.0
 10
10.5753070622
 20
10.2818767364
 30
0.0
 10
10.5730814348
 20
10.2888857312
 30
0.0
 10
10.5717418348
 20
10.2959347074
 30
0.0
 10
10.5714425453
 20
10.3006613897
 30
0.0
 10
10.5714425466
 20
10.3030066222
 30
0.0
  0
SPLINE
  5
3C9
100
AcDbEntity
  8
0
100
AcDbSpline
 62
7
  6
CONTINUOUS
 70
0
 71
3
 72
34
 73
30
 74
0
 42
0.0000001
 43
0.0000001
 44
0.0000000001
 40
0.0
 40
0.0
 40
0.0
 40
0.0
 40
0.0167743409
 40
0.0337703258
 40
0.0511989155
 40
0.0692527661
 40
0.0880983281
 40
0.1078757683
 40
0.1286989687
 40
0.1506541334
 40
0.173806371
 40
0.1982009891
 40
0.2238634123
 40
0.2508062581
 40
0.2790287874
 40
0.308516875
 40
0.3392490164
 40
0.3711942584
 40
0.4043125706
 40
0.438559558
 40
0.4738835328
 40
0.5102264838
 40
0.5475277149
 40
0.5857212435
 40
0.6644984214
 40
0.7459660605
 40
0.8294827936
 40
0.9144063161
 40
1.0
 40
1.0
 40
1.0
 40
1.0
 10
10.5714425466
 20
10.3030066222
 30
0.0
 10
10.5714425478
 20
10.3053518534
 30
0.0
 10
10.5717418364
 20
10.3100785311
 30
0.0
 10
10.5730814274
 20
10.3171275018
 30
0.0
 10
10.5753070568
 20
10.324136485
 30
0.0
 10
10.5784114473
 20
10.3310849443
 30
0.0
 10
10.5823819041
 20
10.3379574463
 30
0.0
 10
10.5872071575
 20
10.3447382793
 30
0.0
 10
10.5928748225
 20
10.3514118848
 30
0.0
 10
10.5993690528
 20
10.3579649502
 30
0.0
 10
10.6066747037
 20
10.3643825192
 30
0.0
 10
10.6147745882
 20
10.3706496889
 30
0.0
 10
10.6236485884
 20
10.3767534154
 30
0.0
 10
10.6332762819
 20
10.3826788296
 30
0.0
 10
10.6436349132
 20
10.3884118358
 30
0.0
 10
10.6546993466
 20
10.3939399817
 30
0.0
 10
10.666443702
 20
10.3992492628
 30
0.0
 10
10.6788399299
 20
10.4043270212
 30
0.0
 10
10.6918581177
 20
10.4091619712
 30
0.0
 10
10.7054674555
 20
10.4137415713
 30
0.0
 10
10.7196352252
 20
10.4180550351
 30
0.0
 10
10.7343272117
 20
10.4220926472
 30
0.0
 10
10.7495084657
 20
10.4258437865
 30
0.0
 10
10.7705706855
 20
10.4304996089
 30
0.0
 10
10.7978672608
 20
10.4355195787
 30
0.0
 10
10.8316319683
 20
10.4402191057
 30
0.0
 10
10.8664165879
 20
10.443609271
 30
0.0
 10
10.9018827639
 20
10.4456556038
 30
0.0
 10
10.9257254356
 20
10.446111898
 30
0.0
 10
10.9376923427
 20
10.446111898
 30
0.0
  0
SPLINE
  5
3CA
100
AcDbEntity
  8
0
100
AcDbSpline
 62
7
  6
CONTINUOUS
 70
0
 71
3
 72
9
 73
5
 74
0
 42
0.0000001
 43
0.0000001
 44
0.0000000001
 40
0.0
 40
0.0
 40
0.0
 40
0.0
 40
0.4954928639
 40
1.0
 40
1.0
 40
1.0
 40
1.0
 10
11.2693516019
 20
10.3121881663
 30
0.0
 10
11.2690879707
 20
10.310741868
 30
0.0
 10
11.2684340261
 20
10.3078439936
 30
0.0
 10
11.2675497013
 20
10.3050082639
 30
0.0
 10
11.2670498411
 20
10.3035973161
 30
0.0
  0
SPLINE
  5
3CB
100
AcDbEntity
  8
0
100
AcDbSpline
 62
7
  6
CONTINUOUS
 70
0
 71
3
 72
12
 73
8
 74
0
 42
0.0000001
 43
0.0000001
 44
0.0000000001
 40
0.0
 40
0.0
 40
0.0
 40
0.0
 40
0.1112387162
 40
0.2255887908
 40
0.4653839308
 40
0.7227688274
 40
1.0
 40
1.0
 40
1.0
 40
1.0
 10
11.2670498411
 20
10.3035973161
 30
0.0
 10
11.2665197378
 20
10.3021010019
 30
0.0
 10
11.2653211505
 20
10.2991088723
 30
0.0
 10
11.2623886495
 20
10.2931444299
 30
0.0
 10
11.2576940741
 20
10.2857527219
 30
0.0
 10
11.2506380063
 20
10.2772178339
 30
0.0
 10
11.2451637307
 20
10.2718824223
 30
0.0
 10
11.2422102845
 20
10.2692501143
 30
0.0
  0
SPLINE
  5
3CC
100
AcDbEntity
  8
0
100
AcDbSpline
 62
7
  6
CONTINUOUS
 70
0
 71
3
 72
52
 73
48
 74
0
 42
0.0000001
 43
0.0000001
 44
0.0000000001
 40
0.0
 40
0.0
 40
0.0
 40
0.0
 40
0.0108411367
 40
0.0221567061
 40
0.0339538885
 40
0.0462367401
 40
0.0590061189
 40
0.0722587349
 40
0.0859889774
 40
0.1001895358
 40
0.1148503284
 40
0.1299588592
 40
0.1614610662
 40
0.194570424
 40
0.2291371788
 40
0.2649930934
 40
0.3019565697
 40
0.3398328221
 40
0.3784188449
 40
0.4175036401
 40
0.4568719593
 40
0.4963054114
 40
0.5355853471
 40
0.574494167
 40
0.6128183851
 40
0.6503496838
 40
0.6868882422
 40
0.7222444041
 40
0.7562411397
 40
0.7887181005
 40
0.8195324984
 40
0.8342800632
 40
0.8485696639
 40
0.8623906332
 40
0.8757352664
 40
0.8885975952
 40
0.9009737464
 40
0.9128638026
 40
0.9242712564
 40
0.9352026033
 40
0.9456686696
 40
0.9556858509
 40
0.9652752811
 40
0.9744635774
 40
0.9832850061
 40
0.9917810971
 40
1.0
 40
1.0
 40
1.0
 40
1.0
 10
11.2422102845
 20
10.2692501143
 30
0.0
 10
11.2403693201
 20
10.2676093243
 30
0.0
 10
11.2365125385
 20
10.2643605413
 30
0.0
 10
11.2303616302
 20
10.2596849155
 30
0.0
 10
11.2237326642
 20
10.2551104759
 30
0.0
 10
11.2166363514
 20
10.2506449011
 30
0.0
 10
11.2090838178
 20
10.246295718
 30
0.0
 10
11.2010877571
 20
10.2420693482
 30
0.0
 10
11.1926611812
 20
10.2379725843
 30
0.0
 10
11.1838174755
 20
10.2340126047
 30
0.0
 10
11.1745710717
 20
10.2301956853
 30
0.0
 10
11.1615443615
 20
10.2252359415
 30
0.0
 10
11.1443465677
 20
10.2194587057
 30
0.0
 10
11.122641118
 20
10.2132816021
 30
0.0
 10
11.0997286505
 20
10.2078081587
 30
0.0
 10
11.0757588193
 20
10.2030730156
 30
0.0
 10
11.050887356
 20
10.1991088462
 30
0.0
 10
11.0252766007
 20
10.1959402321
 30
0.0
 10
10.9990936296
 20
10.1935892884
 30
0.0
 10
10.9725094486
 20
10.1920707512
 30
0.0
 10
10.945697774
 20
10.1913948051
 30
0.0
 10
10.918833769
 20
10.1915663396
 30
0.0
 10
10.8920930105
 20
10.1925832631
 30
0.0
 10
10.8656502359
 20
10.1944402042
 30
0.0
 10
10.8396781293
 20
10.1971234551
 30
0.0
 10
10.8143463538
 20
10.2006166594
 30
0.0
 10
10.7898200806
 20
10.2048958525
 30
0.0
 10
10.7662592531
 20
10.20993325
 30
0.0
 10
10.7438170368
 20
10.215696043
 30
0.0
 10
10.722639569
 20
10.2221454477
 30
0.0
 10
10.7059225103
 20
10.2281430775
 30
0.0
 10
10.6933084931
 20
10.2332698396
 30
0.0
 10
10.6843864505
 20
10.2372028789
 30
0.0
 10
10.6758789059
 20
10.2412739794
 30
0.0
 10
10.6677993243
 20
10.2454760327
 30
0.0
 10
10.6601607967
 20
10.2498021714
 30
0.0
 10
10.6529761296
 20
10.2542460098
 30
0.0
 10
10.6462567971
 20
10.2588001569
 30
0.0
 10
10.6400133367
 20
10.2634570501
 30
0.0
 10
10.6342561274
 20
10.2682096382
 30
0.0
 10
10.6289949733
 20
10.273050869
 30
0.0
 10
10.6242378753
 20
10.2779725135
 30
0.0
 10
10.619992581
 20
10.2829668817
 30
0.0
 10
10.6162670294
 20
10.2880267978
 30
0.0
 10
10.6130675764
 20
10.2931446923
 30
0.0
 10
10.6103998267
 20
10.2983120826
 30
0.0
 10
10.6089583297
 20
10.3018372053
 30
0.0
 10
10.6083340882
 20
10.303599467
 30
0.0
  0
SPLINE
  5
3CD
100
AcDbEntity
  8
0
100
AcDbSpline
 62
7
  6
CONTINUOUS
 70
0
 71
3
 72
9
 73
5
 74
0
 42
0.0000001
 43
0.0000001
 44
0.0000000001
 40
0.0
 40
0.0
 40
0.0
 40
0.0
 40
0.5045060377
 40
1.0
 40
1.0
 40
1.0
 40
1.0
 10
10.6083340882
 20
10.303599467
 30
0.0
 10
10.6078344197
 20
10.3050100537
 30
0.0
 10
10.6069504182
 20
10.3078450484
 30
0.0
 10
10.606296674
 20
10.3107421498
 30
0.0
 10
10.6060331089
 20
10.312188063
 30
0.0
  0
SPLINE
  5
3CE
100
AcDbEntity
  8
0
100
AcDbSpline
 62
7
  6
CONTINUOUS
 70
0
 71
3
 72
58
 73
54
 74
0
 42
0.0000001
 43
0.0000001
 44
0.0000000001
 40
0.0
 40
0.0
 40
0.0
 40
0.0
 40
0.0082728981
 40
0.0166538282
 40
0.0252379302
 40
0.0341131986
 40
0.0433587716
 40
0.0530423506
 40
0.0632196479
 40
0.0739328859
 40
0.0852140457
 40
0.0970865094
 40
0.1095642709
 40
0.1226548355
 40
0.1363602091
 40
0.150675555
 40
0.1655920028
 40
0.181097247
 40
0.197174016
 40
0.2138024686
 40
0.2309605133
 40
0.2486222922
 40
0.285342437
 40
0.3237222951
 40
0.3634919046
 40
0.4043598235
 40
0.4460195941
 40
0.4881538265
 40
0.5304384369
 40
0.5725477582
 40
0.6141580905
 40
0.6549526459
 40
0.6946260803
 40
0.7328883288
 40
0.7694710783
 40
0.7870575697
 40
0.8041361894
 40
0.8206815978
 40
0.8366721859
 40
0.8520883686
 40
0.866913573
 40
0.8811361537
 40
0.8947476793
 40
0.9077442795
 40
0.9201289176
 40
0.9319098839
 40
0.9431025131
 40
0.9537315656
 40
0.9638303532
 40
0.9734430728
 40
0.9826274001
 40
0.991452813
 40
1.0
 40
1.0
 40
1.0
 40
1.0
 10
10.6051923427
 20
10.3030066222
 30
0.0
 10
10.6051923427
 20
10.300938286
 30
0.0
 10
10.6054490515
 20
10.2967702584
 30
0.0
 10
10.606597152
 20
10.2905513805
 30
0.0
 10
10.6085047641
 20
10.2843642562
 30
0.0
 10
10.6111669289
 20
10.2782277457
 30
0.0
 10
10.6145731415
 20
10.2721553541
 30
0.0
 10
10.6187137618
 20
10.266159576
 30
0.0
 10
10.6235789347
 20
10.2602531721
 30
0.0
 10
10.6291557886
 20
10.2544473979
 30
0.0
 10
10.6354316336
 20
10.2487545238
 30
0.0
 10
10.6423929607
 20
10.2431876353
 30
0.0
 10
10.6500232458
 20
10.2377576817
 30
0.0
 10
10.6583055741
 20
10.2324765293
 30
0.0
 10
10.6672218686
 20
10.2273565986
 30
0.0
 10
10.6767515566
 20
10.2224083176
 30
0.0
 10
10.6868733313
 20
10.2176429049
 30
0.0
 10
10.6975647288
 20
10.2130718843
 30
0.0
 10
10.7088012205
 20
10.208704669
 30
0.0
 10
10.7205574701
 20
10.2045512826
 30
0.0
 10
10.7328071794
 20
10.2006218235
 30
0.0
 10
10.7499835795
 20
10.1956272786
 30
0.0
 10
10.7725007421
 20
10.1900309338
 30
0.0
 10
10.8006751
 20
10.1844168526
 30
0.0
 10
10.8300909323
 20
10.1798723477
 30
0.0
 10
10.8604815254
 20
10.1764383104
 30
0.0
 10
10.8915719381
 20
10.1741462059
 30
0.0
 10
10.9230804577
 20
10.1730177544
 30
0.0
 10
10.954721458
 20
10.1730627139
 30
0.0
 10
10.9862080581
 20
10.1742805641
 30
0.0
 10
11.0172548356
 20
10.1766608265
 30
0.0
 10
11.0475804896
 20
10.1801810954
 30
0.0
 10
11.0769107177
 20
10.1848089017
 30
0.0
 10
11.1049795882
 20
10.190502651
 30
0.0
 10
11.1273955282
 20
10.1961637259
 30
0.0
 10
11.1444813411
 20
10.2012078034
 30
0.0
 10
11.1566573619
 20
10.2051720608
 30
0.0
 10
11.1683357768
 20
10.209358821
 30
0.0
 10
11.1794905244
 20
10.2137577924
 30
0.0
 10
11.1900963496
 20
10.2183591746
 30
0.0
 10
11.2001289859
 20
10.2231533175
 30
0.0
 10
11.2095662567
 20
10.2281285115
 30
0.0
 10
11.2183869062
 20
10.2332738053
 30
0.0
 10
11.2265706631
 20
10.2385785483
 30
0.0
 10
11.2340997909
 20
10.244030159
 30
0.0
 10
11.2409573458
 20
10.2496170821
 30
0.0
 10
11.2471271496
 20
10.2553281121
 30
0.0
 10
11.2525960579
 20
10.2611500244
 30
0.0
 10
11.2573512565
 20
10.2670708902
 30
0.0
 10
11.2613801582
 20
10.2730791969
 30
0.0
 10
11.2646733433
 20
10.2791624155
 30
0.0
 10
11.2672205714
 20
10.285306999
 30
0.0
 10
11.26843063
 20
10.2894901626
 30
0.0
 10
11.2689017549
 20
10.2915744933
 30
0.0
  0
SPLINE
  5
3CF
100
AcDbEntity
  8
0
100
AcDbSpline
 62
7
  6
CONTINUOUS
 70
0
 71
3
 72
9
 73
5
 74
0
 42
0.0000001
 43
0.0000001
 44
0.0000000001
 40
0.0
 40
0.0
 40
0.0
 40
0.0
 40
0.5027916834
 40
1.0
 40
1.0
 40
1.0
 40
1.0
 10
11.2689017549
 20
10.2915744933
 30
0.0
 10
11.2693275173
 20
10.293458133
 30
0.0
 10
11.2699739615
 20
10.2972530164
 30
0.0
 10
11.2701923427
 20
10.301096909
 30
0.0
 10
11.2701923427
 20
10.3030066222
 30
0.0
  0
SPLINE
  5
3D0
100
AcDbEntity
  8
0
100
AcDbSpline
 62
7
  6
CONTINUOUS
 70
0
 71
3
 72
34
 73
30
 74
0
 42
0.0000001
 43
0.0000001
 44
0.0000000001
 40
0.0
 40
0.0
 40
0.0
 40
0.0
 40
0.0855935352
 40
0.1705165893
 40
0.2540329931
 40
0.3355004326
 40
0.4142774409
 40
0.4524709651
 40
0.4897722143
 40
0.5261152544
 40
0.5614393494
 40
0.5956864389
 40
0.6288048914
 40
0.6607502711
 40
0.6914825064
 40
0.7209706946
 40
0.7491933038
 40
0.776136195
 40
0.8017986766
 40
0.8261933406
 40
0.8493456097
 40
0.8713008256
 40
0.8921240689
 40
0.9119015433
 40
0.9307471483
 40
0.9488010314
 40
0.966229645
 40
0.9832256497
 40
1.0
 40
1.0
 40
1.0
 40
1.0
 10
10.9376923427
 20
10.446111898
 30
0.0
 10
10.9496592292
 20
10.446111898
 30
0.0
 10
10.9735018148
 20
10.4456556121
 30
0.0
 10
11.0089678591
 20
10.4436092882
 30
0.0
 10
11.0437523403
 20
10.4402191431
 30
0.0
 10
11.077516957
 20
10.435519669
 30
0.0
 10
11.1048134807
 20
10.430499708
 30
0.0
 10
11.125875687
 20
10.4258439247
 30
0.0
 10
11.1410569544
 20
10.4220927792
 30
0.0
 10
11.1557489765
 20
10.4180551771
 30
0.0
 10
11.1699167956
 20
10.4137417249
 30
0.0
 10
11.1835261802
 20
10.4091621047
 30
0.0
 10
11.1965444237
 20
10.4043271525
 30
0.0
 10
11.2089407078
 20
10.3992493932
 30
0.0
 10
11.2206851041
 20
10.3939400896
 30
0.0
 10
11.2317495787
 20
10.3884119408
 30
0.0
 10
11.2421082453
 20
10.3826789323
 30
0.0
 10
11.2517359584
 20
10.3767535009
 30
0.0
 10
11.2606099848
 20
10.3706497759
 30
0.0
 10
11.2687098918
 20
10.3643826034
 30
0.0
 10
11.2760155526
 20
10.3579650186
 30
0.0
 10
11.2825098064
 20
10.3514119522
 30
0.0
 10
11.2881774899
 20
10.3447383379
 30
0.0
 10
11.2930027481
 20
10.337957488
 30
0.0
 10
11.2969732238
 20
10.3310849794
 30
0.0
 10
11.3000776232
 20
10.3241365081
 30
0.0
 10
11.3023032507
 20
10.3171275133
 30
0.0
 10
11.3036428507
 20
10.310078537
 30
0.0
 10
11.3039421402
 20
10.3053518548
 30
0.0
 10
11.3039421389
 20
10.3030066222
 30
0.0
  0
SPLINE
  5
3D1
100
AcDbEntity
  8
0
100
AcDbSpline
 62
7
  6
CONTINUOUS
 70
0
 71
3
 72
34
 73
30
 74
0
 42
0.0000001
 43
0.0000001
 44
0.0000000001
 40
0.0
 40
0.0
 40
0.0
 40
0.0
 40
0.0855935187
 40
0.1705165571
 40
0.2540329961
 40
0.3355004869
 40
0.4142775277
 40
0.4524710551
 40
0.4897723009
 40
0.5261153305
 40
0.5614394112
 40
0.5956864868
 40
0.628804926
 40
0.6607502924
 40
0.6914825143
 40
0.7209706911
 40
0.7491932896
 40
0.776136172
 40
0.8017986503
 40
0.8261933108
 40
0.8493455748
 40
0.871300789
 40
0.8921240302
 40
0.9119015046
 40
0.9307471156
 40
0.9488010049
 40
0.9662296258
 40
0.98322564
 40
1.0
 40
1.0
 40
1.0
 40
1.0
 10
10.9376923427
 20
10.4466900909
 30
0.0
 10
10.9247534045
 20
10.4466900909
 30
0.0
 10
10.8989741222
 20
10.4461967426
 30
0.0
 10
10.8606272179
 20
10.4439841973
 30
0.0
 10
10.8230172289
 20
10.4403186754
 30
0.0
 10
10.7865099396
 20
10.4352374651
 30
0.0
 10
10.7569961427
 20
10.4298097369
 30
0.0
 10
10.7342230771
 20
10.4247757673
 30
0.0
 10
10.7178086572
 20
10.4207199214
 30
0.0
 10
10.701923226
 20
10.4163543505
 30
0.0
 10
10.6866045799
 20
10.4116905228
 30
0.0
 10
10.6718897291
 20
10.4067389077
 30
0.0
 10
10.657814037
 20
10.4015112204
 30
0.0
 10
10.6444108249
 20
10.3960210033
 30
0.0
 10
10.6317124524
 20
10.390280434
 30
0.0
 10
10.6197492297
 20
10.3843032441
 30
0.0
 10
10.6085491463
 20
10.3781045535
 30
0.0
 10
10.5981393904
 20
10.3716978081
 30
0.0
 10
10.5885445396
 20
10.3650982885
 30
0.0
 10
10.5797866886
 20
10.3583220439
 30
0.0
 10
10.5718876003
 20
10.3513831677
 30
0.0
 10
10.5648658256
 20
10.3442978078
 30
0.0
 10
10.5587377631
 20
10.3370821058
 30
0.0
 10
10.5535205565
 20
10.3297504552
 30
0.0
 10
10.5492275596
 20
10.3223197026
 30
0.0
 10
10.5458709916
 20
10.3148068138
 30
0.0
 10
10.5434645796
 20
10.307228484
 30
0.0
 10
10.542016162
 20
10.2996069255
 30
0.0
 10
10.541692561
 20
10.2944962981
 30
0.0
 10
10.5416925631
 20
10.291960564
 30
0.0
  0
SPLINE
  5
3D2
100
AcDbEntity
  8
0
100
AcDbSpline
 62
7
  6
CONTINUOUS
 70
0
 71
3
 72
31
 73
27
 74
0
 42
0.0000001
 43
0.0000001
 44
0.0000000001
 40
0.0
 40
0.0
 40
0.0
 40
0.0
 40
0.0794248837
 40
0.1584136601
 40
0.2364545653
 40
0.3131140309
 40
0.3879591146
 40
0.4605655249
 40
0.5305420091
 40
0.5644319389
 40
0.5975322606
 40
0.629802815
 40
0.6612076064
 40
0.6917142692
 40
0.7212924638
 40
0.7499161659
 40
0.777565032
 40
0.8042220435
 40
0.8298750282
 40
0.8545198667
 40
0.8781581636
 40
0.9007979719
 40
0.9224578768
 40
0.9431660555
 40
0.9629602657
 40
1.0
 40
1.0
 40
1.0
 40
1.0
 10
10.9376923427
 20
10.7994529339
 30
0.0
 10
10.9248625757
 20
10.7994529339
 30
0.0
 10
10.8992715287
 20
10.7990367558
 30
0.0
 10
10.8611153035
 20
10.7971702139
 30
0.0
 10
10.8234868027
 20
10.7940718856
 30
0.0
 10
10.7866510685
 20
10.7897645597
 30
0.0
 10
10.7508593345
 20
10.7842795378
 30
0.0
 10
10.7163595966
 20
10.7776529387
 30
0.0
 10
10.6885950228
 20
10.7711518444
 30
0.0
 10
10.6672303416
 20
10.7653965385
 30
0.0
 10
10.651846327
 20
10.7608724284
 30
0.0
 10
10.63695786
 20
10.7561019116
 30
0.0
 10
10.6225905894
 20
10.7510933655
 30
0.0
 10
10.6087690969
 20
10.7458560443
 30
0.0
 10
10.5955174512
 20
10.7403985353
 30
0.0
 10
10.5828586825
 20
10.7347299094
 30
0.0
 10
10.5708141989
 20
10.7288607017
 30
0.0
 10
10.5594048025
 20
10.7228008355
 30
0.0
 10
10.5486505767
 20
10.7165599143
 30
0.0
 10
10.5385694948
 20
10.7101493471
 30
0.0
 10
10.5291786938
 20
10.7035801669
 30
0.0
 10
10.5204948781
 20
10.6968624031
 30
0.0
 10
10.512532967
 20
10.6900081448
 30
0.0
 10
10.5053049977
 20
10.6830277172
 30
0.0
 10
10.4968551251
 20
10.6737762771
 30
0.0
 10
10.4913487613
 20
10.6663742369
 30
0.0
 10
10.4881956908
 20
10.6612893322
 30
0.0
  0
SPLINE
  5
3D3
100
AcDbEntity
  8
0
100
AcDbSpline
 62
7
  6
CONTINUOUS
 70
0
 71
3
 72
13
 73
9
 74
0
 42
0.0000001
 43
0.0000001
 44
0.0000000001
 40
0.0
 40
0.0
 40
0.0
 40
0.0
 40
0.2614973204
 40
0.5132545578
 40
0.6364549928
 40
0.7583628717
 40
0.879400218
 40
1.0
 40
1.0
 40
1.0
 40
1.0
 10
10.4848776709
 20
10.6555285907
 30
0.0
 10
10.4833045916
 20
10.6525725417
 30
0.0
 10
10.4805173515
 20
10.6466034246
 30
0.0
 10
10.4779434133
 20
10.638848427
 30
0.0
 10
10.4765128711
 20
10.632645028
 30
0.0
 10
10.4757514127
 20
10.6280152554
 30
0.0
 10
10.4752945783
 20
10.6233792986
 30
0.0
 10
10.4751929819
 20
10.6202841038
 30
0.0
 10
10.4751929823
 20
10.618739787
 30
0.0
  0
SPLINE
  5
3D4
100
AcDbEntity
  8
0
100
AcDbSpline
 62
7
  6
CONTINUOUS
 70
0
 71
3
 72
34
 73
30
 74
0
 42
0.0000001
 43
0.0000001
 44
0.0000000001
 40
0.0
 40
0.0
 40
0.0
 40
0.0
 40
0.0167743493
 40
0.033770343
 40
0.0511989416
 40
0.0692528015
 40
0.0880983718
 40
0.1078758181
 40
0.1286990231
 40
0.1506541916
 40
0.1738064319
 40
0.1982010531
 40
0.2238634774
 40
0.2508063184
 40
0.2790288383
 40
0.3085169134
 40
0.3392490399
 40
0.371194265
 40
0.4043125599
 40
0.4385595306
 40
0.4738834878
 40
0.5102264257
 40
0.5475276522
 40
0.5857211826
 40
0.6644983917
 40
0.745966078
 40
0.8294828418
 40
0.9144063432
 40
1.0
 40
1.0
 40
1.0
 40
1.0
 10
11.3336921224
 20
10.291960564
 30
0.0
 10
11.3336921202
 20
10.2944962965
 30
0.0
 10
11.3333685201
 20
10.2996069184
 30
0.0
 10
11.3319201155
 20
10.3072284715
 30
0.0
 10
11.329513699
 20
10.3148067887
 30
0.0
 10
11.3261571393
 20
10.322319665
 30
0.0
 10
11.3218641643
 20
10.3297504134
 30
0.0
 10
11.3166469595
 20
10.3370820461
 30
0.0
 10
11.3105189146
 20
10.3442977401
 30
0.0
 10
11.3034971639
 20
10.3513831018
 30
0.0
 10
11.2955980827
 20
10.3583219614
 30
0.0
 10
11.2868402533
 20
10.365098204
 30
0.0
 10
11.2772454288
 20
10.3716977264
 30
0.0
 10
11.2668356921
 20
10.3781044526
 30
0.0
 10
11.2556356459
 20
10.3843031403
 30
0.0
 10
11.2436724678
 20
10.3902803266
 30
0.0
 10
11.2309741398
 20
10.39602087
 30
0.0
 10
11.2175709897
 20
10.4015110852
 30
0.0
 10
11.2034953591
 20
10.4067387692
 30
0.0
 10
11.1887805601
 20
10.4116903611
 30
0.0
 10
11.1734619686
 20
10.4163542009
 30
0.0
 10
11.1575765769
 20
10.4207197822
 30
0.0
 10
11.1411621721
 20
10.4247756204
 30
0.0
 10
11.1183890925
 20
10.4298096321
 30
0.0
 10
11.0888752407
 20
10.4352373689
 30
0.0
 10
11.0523678548
 20
10.4403186362
 30
0.0
 10
11.0147577182
 20
10.4439841792
 30
0.0
 10
10.9764106747
 20
10.4461967338
 30
0.0
 10
10.9506313018
 20
10.4466900909
 30
0.0
 10
10.9376923427
 20
10.4466900909
 30
0.0
  0
LINE
  5
3D5
100
AcDbEntity
  8
0
100
AcDbLine
 62
7
  6
CONTINUOUS
 10
10.9376923427
 20
10.1277742076
 11
10.9397484027
 21
10.1277761699
  0
SPLINE
  5
3D6
100
AcDbEntity
  8
0
100
AcDbSpline
 62
7
  6
CONTINUOUS
 70
0
 71
3
 72
32
 73
28
 74
0
 42
0.0000001
 43
0.0000001
 44
0.0000000001
 40
0.0
 40
0.0
 40
0.0
 40
0.0
 40
0.0797436482
 40
0.1589913964
 40
0.237215325
 40
0.3139629846
 40
0.3887824033
 40
0.4612402924
 40
0.5309423726
 40
0.5646506203
 40
0.597541409
 40
0.6295776693
 40
0.6607285946
 40
0.6909662581
 40
0.7202662122
 40
0.7486122983
 40
0.7759936747
 40
0.8024040058
 40
0.8278462202
 40
0.8523320279
 40
0.8758802305
 40
0.8985208656
 40
0.9202981856
 40
0.9412690201
 40
0.9614976849
 40
0.9810480579
 40
1.0
 40
1.0
 40
1.0
 40
1.0
 10
10.9397484027
 20
10.1277761699
 30
0.0
 10
10.9518566519
 20
10.1277992807
 30
0.0
 10
10.9759990663
 20
10.1282510642
 30
0.0
 10
11.0119748437
 20
10.1301413449
 30
0.0
 10
11.0474115173
 20
10.1332322511
 30
0.0
 10
11.0820485575
 20
10.1375009122
 30
0.0
 10
11.1156391773
 20
10.1429163226
 30
0.0
 10
11.147941518
 20
10.1494422141
 30
0.0
 10
11.1738782309
 20
10.1558375743
 30
0.0
 10
11.1937876538
 20
10.1614951098
 30
0.0
 10
11.2080916376
 20
10.1659389926
 30
0.0
 10
11.2219090452
 20
10.1706242796
 30
0.0
 10
11.2352164745
 20
10.1755432944
 30
0.0
 10
11.2479913788
 20
10.1806886439
 30
0.0
 10
11.2602121658
 20
10.1860534927
 30
0.0
 10
11.2718587888
 20
10.19163052
 30
0.0
 10
11.2829123997
 20
10.1974126723
 30
0.0
 10
11.2933549688
 20
10.2033935315
 30
0.0
 10
11.3031696072
 20
10.2095670266
 30
0.0
 10
11.3123405041
 20
10.2159275158
 30
0.0
 10
11.3208527542
 20
10.2224697663
 30
0.0
 10
11.3286914747
 20
10.2291904483
 30
0.0
 10
11.3358412421
 20
10.2360884847
 30
0.0
 10
11.3422863744
 20
10.2431621513
 30
0.0
 10
11.3480092312
 20
10.2504073045
 30
0.0
 10
11.3529880073
 20
10.2578165815
 30
0.0
 10
11.3558354385
 20
10.2629326069
 30
0.0
 10
11.357117973
 20
10.2655086588
 30
0.0
  0
SPLINE
  5
3D7
100
AcDbEntity
  8
0
100
AcDbSpline
 62
7
  6
CONTINUOUS
 70
0
 71
3
 72
11
 73
7
 74
0
 42
0.0000001
 43
0.0000001
 44
0.0000000001
 40
0.0
 40
0.0
 40
0.0
 40
0.0
 40
0.2499390326
 40
0.4999321826
 40
0.7499582581
 40
1.0
 40
1.0
 40
1.0
 40
1.0
 10
11.357117973
 20
10.2655086588
 30
0.0
 10
11.3641550357
 20
10.2796430454
 30
0.0
 10
11.3766174702
 20
10.3087515841
 30
0.0
 10
11.3901562878
 20
10.3542587639
 30
0.0
 10
11.3983606309
 20
10.401029867
 30
0.0
 10
11.4001923427
 20
10.4326506278
 30
0.0
 10
11.4001923427
 20
10.4484463891
 30
0.0
  0
SPLINE
  5
3D8
100
AcDbEntity
  8
0
100
AcDbSpline
 62
7
  6
CONTINUOUS
 70
0
 71
3
 72
11
 73
7
 74
0
 42
0.0000001
 43
0.0000001
 44
0.0000000001
 40
0.0
 40
0.0
 40
0.0
 40
0.0
 40
0.2500402679
 40
0.5000657274
 40
0.7500598009
 40
1.0
 40
1.0
 40
1.0
 40
1.0
 10
10.4751923427
 20
10.4484463891
 30
0.0
 10
10.4751923427
 20
10.4326507209
 30
0.0
 10
10.477024031
 20
10.4010300922
 30
0.0
 10
10.4852283294
 20
10.3542590565
 30
0.0
 10
10.4987671395
 20
10.3087517766
 30
0.0
 10
10.5112296169
 20
10.2796431113
 30
0.0
 10
10.5182667125
 20
10.2655086588
 30
0.0
  0
SPLINE
  5
3D9
100
AcDbEntity
  8
0
100
AcDbSpline
 62
7
  6
CONTINUOUS
 70
0
 71
3
 72
32
 73
28
 74
0
 42
0.0000001
 43
0.0000001
 44
0.0000000001
 40
0.0
 40
0.0
 40
0.0
 40
0.0
 40
0.0189344958
 40
0.0384692246
 40
0.0586844793
 40
0.079644503
 40
0.1014139734
 40
0.1240498488
 40
0.1475963955
 40
0.1720835175
 40
0.1975299106
 40
0.2239471402
 40
0.2513378016
 40
0.2796952914
 40
0.3090085272
 40
0.3392608991
 40
0.3704275434
 40
0.40248023
 40
0.4353877011
 40
0.4691123483
 40
0.5388449014
 40
0.6113268834
 40
0.6861603317
 40
0.7629077903
 40
0.8411145466
 40
0.9203242033
 40
1.0
 40
1.0
 40
1.0
 40
1.0
 10
10.5182667125
 20
10.2655086588
 30
0.0
 10
10.5195538492
 20
10.2629233631
 30
0.0
 10
10.5224125469
 20
10.2577890826
 30
0.0
 10
10.5274131113
 20
10.2503543978
 30
0.0
 10
10.5331628568
 20
10.2430850832
 30
0.0
 10
10.5396397837
 20
10.2359885399
 30
0.0
 10
10.5468260942
 20
10.2290689218
 30
0.0
 10
10.5547059529
 20
10.222327955
 30
0.0
 10
10.5632637627
 20
10.2157667408
 30
0.0
 10
10.5724845031
 20
10.2093887065
 30
0.0
 10
10.5823530872
 20
10.2031991481
 30
0.0
 10
10.5928535118
 20
10.1972037876
 30
0.0
 10
10.603968667
 20
10.1914087648
 30
0.0
 10
10.6156802992
 20
10.1858205846
 30
0.0
 10
10.6279693217
 20
10.1804464014
 30
0.0
 10
10.6408154045
 20
10.1752935955
 30
0.0
 10
10.65419667
 20
10.1703690807
 30
0.0
 10
10.6680902911
 20
10.1656803556
 30
0.0
 10
10.6824725434
 20
10.1612351539
 30
0.0
 10
10.7024894719
 20
10.1555788184
 30
0.0
 10
10.7285633087
 20
10.1491908357
 30
0.0
 10
10.7610316164
 20
10.1426826734
 30
0.0
 10
10.7947880023
 20
10.1372944979
 30
0.0
 10
10.829587723
 20
10.1330625475
 30
0.0
 10
10.8651810573
 20
10.1300178231
 30
0.0
 10
10.9013037365
 20
10.1281832031
 30
0.0
 10
10.9255397751
 20
10.1277742076
 30
0.0
 10
10.9376923427
 20
10.1277742076
 30
0.0
  0
SPLINE
  5
3DA
100
AcDbEntity
  8
0
100
AcDbSpline
 62
7
  6
CONTINUOUS
 70
0
 71
3
 72
14
 73
10
 74
0
 42
0.0000001
 43
0.0000001
 44
0.0000000001
 40
0.0
 40
0.0
 40
0.0
 40
0.0
 40
0.1173246054
 40
0.2354325507
 40
0.3550905735
 40
0.4770258174
 40
0.601913982
 40
0.7303740713
 40
1.0
 40
1.0
 40
1.0
 40
1.0
 10
11.4001917032
 20
10.6187397869
 30
0.0
 10
11.4001917026
 20
10.6208378599
 30
0.0
 10
11.4000036577
 20
10.6250503939
 30
0.0
 10
11.3991585291
 20
10.6313517235
 30
0.0
 10
11.3977505827
 20
10.6376363601
 30
0.0
 10
11.3957833157
 20
10.6438954247
 30
0.0
 10
11.3932598425
 20
10.6501217914
 30
0.0
 10
11.3890926677
 20
10.6585017695
 30
0.0
 10
11.3852281626
 20
10.6645147729
 30
0.0
 10
11.3823813449
 20
10.6684062593
 30
0.0
  0
SPLINE
  5
3DB
100
AcDbEntity
  8
0
100
AcDbSpline
 62
7
  6
CONTINUOUS
 70
0
 71
3
 72
29
 73
25
 74
0
 42
0.0000001
 43
0.0000001
 44
0.0000000001
 40
0.0
 40
0.0
 40
0.0
 40
0.0
 40
0.0387753395
 40
0.0594564389
 40
0.0810360653
 40
0.1035362101
 40
0.1269699174
 40
0.1513423599
 40
0.1766538427
 40
0.2028994735
 40
0.2300675362
 40
0.2581426836
 40
0.2871067675
 40
0.3169366749
 40
0.3476056351
 40
0.4113398116
 40
0.4780498047
 40
0.5474364139
 40
0.6191697974
 40
0.6928959714
 40
0.7682338217
 40
0.8448006829
 40
0.9222098549
 40
1.0
 40
1.0
 40
1.0
 40
1.0
 10
11.3791929461
 20
10.6725742852
 30
0.0
 10
11.3753958266
 20
10.6773288389
 30
0.0
 10
11.3690530362
 20
10.6842145227
 30
0.0
 10
11.3596829318
 20
10.6928155469
 30
0.0
 10
11.3518424501
 20
10.6992889602
 30
0.0
 10
11.3433537842
 20
10.7056339708
 30
0.0
 10
11.3342293795
 20
10.7118419984
 30
0.0
 10
11.3244841287
 20
10.717903848
 30
0.0
 10
11.3141327911
 20
10.7238099474
 30
0.0
 10
11.3031911801
 20
10.7295506229
 30
0.0
 10
11.2916768047
 20
10.7351177155
 30
0.0
 10
11.2796076163
 20
10.7405025763
 30
0.0
 10
11.2670020919
 20
10.7456961233
 30
0.0
 10
11.2538800344
 20
10.7506906322
 30
0.0
 10
11.2354870008
 20
10.7571574303
 30
0.0
 10
11.2113337611
 20
10.7646621709
 30
0.0
 10
11.181000394
 20
10.772647321
 30
0.0
 10
11.1491441569
 20
10.7796718773
 30
0.0
 10
11.1159644851
 20
10.7856932115
 30
0.0
 10
11.0816689807
 20
10.7906716802
 30
0.0
 10
11.0464720645
 20
10.794577537
 30
0.0
 10
11.010591016
 20
10.7973853593
 30
0.0
 10
10.974255335
 20
10.7990759252
 30
0.0
 10
10.9498993735
 20
10.7994529339
 30
0.0
 10
10.9376923427
 20
10.7994529339
 30
0.0
  0
SPLINE
  5
3DC
100
AcDbEntity
  8
0
100
AcDbSpline
 62
9
  6
CONTINUOUS
 70
0
 71
3
 72
61
 73
57
 74
0
 42
0.0000001
 43
0.0000001
 44
0.0000000001
 40
0.0
 40
0.0
 40
0.0
 40
0.0
 40
0.042821652
 40
0.0853089088
 40
0.1270945746
 40
0.1678582643
 40
0.2072799654
 40
0.2263947206
 40
0.2450643528
 40
0.2632559422
 40
0.2809391518
 40
0.2980849729
 40
0.3146675902
 40
0.3306647651
 40
0.3460564231
 40
0.3608270402
 40
0.3749657456
 40
0.3884653302
 40
0.4013252543
 40
0.4135515662
 40
0.4251566642
 40
0.4361628186
 40
0.4466020821
 40
0.4565169689
 40
0.4659637433
 40
0.4750117209
 40
0.4837433304
 40
0.4922541473
 40
0.5006490206
 40
0.5090383521
 40
0.5175328243
 40
0.5262380417
 40
0.5352506806
 40
0.5446544872
 40
0.5545201427
 40
0.5649052093
 40
0.5758534073
 40
0.5873978675
 40
0.599561775
 40
0.6123583379
 40
0.6257943137
 40
0.6398697431
 40
0.6545779474
 40
0.6699085279
 40
0.6858463383
 40
0.7023716775
 40
0.719462644
 40
0.737093675
 40
0.7552360337
 40
0.7738596296
 40
0.792931717
 40
0.832278906
 40
0.8729834023
 40
0.9147261376
 40
0.9571873534
 40
1.0
 40
1.0
 40
1.0
 40
1.0
 10
10.9376923427
 20
10.4553519692
 30
0.0
 10
10.9513345121
 20
10.4553519692
 30
0.0
 10
10.9785152202
 20
10.4548326017
 30
0.0
 10
11.0189477915
 20
10.4525033537
 30
0.0
 10
11.058605756
 20
10.448644414
 30
0.0
 10
11.0971046033
 20
10.4432949251
 30
0.0
 10
11.1282315451
 20
10.4375805663
 30
0.0
 10
11.1522522685
 20
10.4322806614
 30
0.0
 10
11.1695683165
 20
10.4280102844
 30
0.0
 10
11.1863282523
 20
10.4234136567
 30
0.0
 10
11.2024923186
 20
10.4185028157
 30
0.0
 10
11.218021581
 20
10.4132887519
 30
0.0
 10
11.2328788324
 20
10.4077837636
 30
0.0
 10
11.2470290065
 20
10.4020020682
 30
0.0
 10
11.2604380461
 20
10.3959564537
 30
0.0
 10
11.2730740398
 20
10.3896613353
 30
0.0
 10
11.2849075098
 20
10.3831325932
 30
0.0
 10
11.2959098221
 20
10.3763843544
 30
0.0
 10
11.3060550732
 20
10.3694326628
 30
0.0
 10
11.3153199704
 20
10.3622943852
 30
0.0
 10
11.3236815771
 20
10.3549843369
 30
0.0
 10
11.3311203155
 20
10.3475194814
 30
0.0
 10
11.3376188845
 20
10.3399167996
 30
0.0
 10
11.3431592187
 20
10.3321914077
 30
0.0
 10
11.3477272138
 20
10.3243610275
 30
0.0
 10
11.351309988
 20
10.3164433321
 30
0.0
 10
11.3538930609
 20
10.3084562522
 30
0.0
 10
11.3554680646
 20
10.3004213655
 30
0.0
 10
11.356028446
 20
10.2923610822
 30
0.0
 10
11.3555691464
 20
10.2842995792
 30
0.0
 10
11.3540947618
 20
10.2762611332
 30
0.0
 10
11.3516114519
 20
10.2682683301
 30
0.0
 10
11.3481273246
 20
10.260342932
 30
0.0
 10
11.3436567046
 20
10.2525030528
 30
0.0
 10
11.338212313
 20
10.2447664724
 30
0.0
 10
11.3318081355
 20
10.2371509427
 30
0.0
 10
11.3244620958
 20
10.2296716049
 30
0.0
 10
11.3161912918
 20
10.2223454663
 30
0.0
 10
11.3070151343
 20
10.2151894699
 30
0.0
 10
11.2969563641
 20
10.2082184538
 30
0.0
 10
11.2860380507
 20
10.2014493336
 30
0.0
 10
11.2742859193
 20
10.1948981503
 30
0.0
 10
11.2617284028
 20
10.1885790855
 30
0.0
 10
11.2483947725
 20
10.1825080913
 30
0.0
 10
11.2343167734
 20
10.1766995913
 30
0.0
 10
11.219528272
 20
10.1711664562
 30
0.0
 10
11.204064152
 20
10.1659229888
 30
0.0
 10
11.1879614752
 20
10.1609815
 30
0.0
 10
11.1712590102
 20
10.156353088
 30
0.0
 10
11.153996361
 20
10.1520498837
 30
0.0
 10
11.1300391399
 20
10.1467037608
 30
0.0
 10
11.0989802491
 20
10.140929945
 30
0.0
 10
11.0605483804
 20
10.1355075902
 30
0.0
 10
11.0209387894
 20
10.131573582
 30
0.0
 10
10.9805355686
 20
10.1291677746
 30
0.0
 10
10.9533670557
 20
10.128597035
 30
0.0
 10
10.9397277799
 20
10.1285710943
 30
0.0
  0
SPLINE
  5
3DD
100
AcDbEntity
  8
0
100
AcDbSpline
 62
9
  6
CONTINUOUS
 70
0
 71
3
 72
61
 73
57
 74
0
 42
0.0000001
 43
0.0000001
 44
0.0000000001
 40
0.0
 40
0.0
 40
0.0
 40
0.0
 40
0.042821652
 40
0.0853089088
 40
0.1270945746
 40
0.1678582643
 40
0.2072799654
 40
0.2263947206
 40
0.2450643528
 40
0.2632559422
 40
0.2809391518
 40
0.2980849729
 40
0.3146675902
 40
0.3306647651
 40
0.3460564231
 40
0.3608270402
 40
0.3749657456
 40
0.3884653302
 40
0.4013252543
 40
0.4135515662
 40
0.4251566642
 40
0.4361628186
 40
0.4466020821
 40
0.4565169689
 40
0.4659637433
 40
0.4750117209
 40
0.4837433304
 40
0.4922541473
 40
0.5006490206
 40
0.5090383521
 40
0.5175328243
 40
0.5262380417
 40
0.5352506806
 40
0.5446544872
 40
0.5545201427
 40
0.5649052093
 40
0.5758534073
 40
0.5873978675
 40
0.599561775
 40
0.6123583379
 40
0.6257943137
 40
0.6398697431
 40
0.6545779474
 40
0.6699085279
 40
0.6858463383
 40
0.7023716775
 40
0.719462644
 40
0.737093675
 40
0.7552360337
 40
0.7738596296
 40
0.792931717
 40
0.832278906
 40
0.8729834023
 40
0.9147261376
 40
0.9571873534
 40
1.0
 40
1.0
 40
1.0
 40
1.0
 10
10.9376923427
 20
10.1285691587
 30
0.0
 10
10.9240501734
 20
10.1285691587
 30
0.0
 10
10.8968694653
 20
10.1290885262
 30
0.0
 10
10.8564368939
 20
10.1314177743
 30
0.0
 10
10.8167789295
 20
10.135276714
 30
0.0
 10
10.7782800822
 20
10.1406262029
 30
0.0
 10
10.7471531403
 20
10.1463405617
 30
0.0
 10
10.723132417
 20
10.1516404666
 30
0.0
 10
10.7058163689
 20
10.1559108435
 30
0.0
 10
10.6890564331
 20
10.1605074713
 30
0.0
 10
10.6728923669
 20
10.1654183122
 30
0.0
 10
10.6573631045
 20
10.1706323761
 30
0.0
 10
10.642505853
 20
10.1761373643
 30
0.0
 10
10.628355679
 20
10.1819190597
 30
0.0
 10
10.6149466393
 20
10.1879646743
 30
0.0
 10
10.6023106457
 20
10.1942597927
 30
0.0
 10
10.5904771757
 20
10.2007885348
 30
0.0
 10
10.5794748634
 20
10.2075367736
 30
0.0
 10
10.5693296122
 20
10.2144884651
 30
0.0
 10
10.5600647151
 20
10.2216267428
 30
0.0
 10
10.5517031084
 20
10.228936791
 30
0.0
 10
10.54426437
 20
10.2364016466
 30
0.0
 10
10.537765801
 20
10.2440043283
 30
0.0
 10
10.5322254668
 20
10.2517297203
 30
0.0
 10
10.5276574716
 20
10.2595601005
 30
0.0
 10
10.5240746974
 20
10.2674777959
 30
0.0
 10
10.5214916246
 20
10.2754648758
 30
0.0
 10
10.5199166209
 20
10.2834997624
 30
0.0
 10
10.5193562394
 20
10.2915600458
 30
0.0
 10
10.519815539
 20
10.2996215487
 30
0.0
 10
10.5212899237
 20
10.3076599947
 30
0.0
 10
10.5237732335
 20
10.3156527978
 30
0.0
 10
10.5272573608
 20
10.3235781959
 30
0.0
 10
10.5317279809
 20
10.3314180752
 30
0.0
 10
10.5371723725
 20
10.3391546556
 30
0.0
 10
10.54357655
 20
10.3467701853
 30
0.0
 10
10.5509225897
 20
10.354249523
 30
0.0
 10
10.5591933937
 20
10.3615756617
 30
0.0
 10
10.5683695512
 20
10.3687316581
 30
0.0
 10
10.5784283214
 20
10.3757026742
 30
0.0
 10
10.5893466348
 20
10.3824717943
 30
0.0
 10
10.6010987662
 20
10.3890229777
 30
0.0
 10
10.6136562827
 20
10.3953420425
 30
0.0
 10
10.6269899129
 20
10.4014130366
 30
0.0
 10
10.6410679121
 20
10.4072215367
 30
0.0
 10
10.6558564135
 20
10.4127546718
 30
0.0
 10
10.6713205335
 20
10.4179981391
 30
0.0
 10
10.6874232102
 20
10.422939628
 30
0.0
 10
10.7041256753
 20
10.42756804
 30
0.0
 10
10.7213883245
 20
10.4318712442
 30
0.0
 10
10.7453455455
 20
10.4372173672
 30
0.0
 10
10.7764044364
 20
10.4429911829
 30
0.0
 10
10.8148363051
 20
10.4484135378
 30
0.0
 10
10.8544458961
 20
10.452347546
 30
0.0
 10
10.8948491169
 20
10.4547533534
 30
0.0
 10
10.9220176298
 20
10.455324093
 30
0.0
 10
10.9356569055
 20
10.4553500336
 30
0.0
  0
SPLINE
  5
3DE
100
AcDbEntity
  8
0
100
AcDbSpline
 62
7
  6
CONTINUOUS
 70
0
 71
3
 72
34
 73
30
 74
0
 42
0.0000001
 43
0.0000001
 44
0.0000000001
 40
0.0
 40
0.0
 40
0.0
 40
0.0
 40
0.0855935187
 40
0.1705165571
 40
0.2540329961
 40
0.3355004869
 40
0.4142775277
 40
0.4524710551
 40
0.4897723009
 40
0.5261153305
 40
0.5614394112
 40
0.5956864868
 40
0.628804926
 40
0.6607502924
 40
0.6914825143
 40
0.7209706911
 40
0.7491932896
 40
0.776136172
 40
0.8017986503
 40
0.8261933108
 40
0.8493455748
 40
0.871300789
 40
0.8921240302
 40
0.9119015046
 40
0.9307471156
 40
0.9488010049
 40
0.9662296258
 40
0.98322564
 40
1.0
 40
1.0
 40
1.0
 40
1.0
 10
10.9376923427
 20
10.1372310371
 30
0.0
 10
10.950631281
 20
10.1372310371
 30
0.0
 10
10.9764105633
 20
10.1377243853
 30
0.0
 10
11.0147574675
 20
10.1399369306
 30
0.0
 10
11.0523674566
 20
10.1436024526
 30
0.0
 10
11.0888747458
 20
10.1486836628
 30
0.0
 10
11.1183885428
 20
10.1541113911
 30
0.0
 10
11.1411616084
 20
10.1591453607
 30
0.0
 10
11.1575760283
 20
10.1632012065
 30
0.0
 10
11.1734614594
 20
10.1675667775
 30
0.0
 10
11.1887801056
 20
10.1722306052
 30
0.0
 10
11.2034949564
 20
10.1771822203
 30
0.0
 10
11.2175706485
 20
10.1824099075
 30
0.0
 10
11.2309738606
 20
10.1879001246
 30
0.0
 10
11.2436722331
 20
10.193640694
 30
0.0
 10
11.2556354558
 20
10.1996178838
 30
0.0
 10
11.2668355392
 20
10.2058165744
 30
0.0
 10
11.2772452951
 20
10.2122233198
 30
0.0
 10
11.2868401459
 20
10.2188228395
 30
0.0
 10
11.2955979969
 20
10.225599084
 30
0.0
 10
11.3034970851
 20
10.2325379602
 30
0.0
 10
11.3105188599
 20
10.2396233202
 30
0.0
 10
11.3166469224
 20
10.2468390221
 30
0.0
 10
11.321864129
 20
10.2541706728
 30
0.0
 10
11.3261571259
 20
10.2616014253
 30
0.0
 10
11.3295136939
 20
10.2691143142
 30
0.0
 10
11.3319201058
 20
10.2766926439
 30
0.0
 10
11.3333685235
 20
10.2843142024
 30
0.0
 10
11.3336921245
 20
10.2894248298
 30
0.0
 10
11.3336921224
 20
10.291960564
 30
0.0
  0
LINE
  5
3DF
100
AcDbEntity
  8
0
100
AcDbLine
 62
7
  6
CONTINUOUS
 10
10.5184917365
 20
10.7169984372
 11
10.5182681386
 21
10.7167236558
  0
SPLINE
  5
3E0
100
AcDbEntity
  8
0
100
AcDbSpline
 62
7
  6
CONTINUOUS
 70
0
 71
3
 72
9
 73
5
 74
0
 42
0.0000001
 43
0.0000001
 44
0.0000000001
 40
0.0
 40
0.0
 40
0.0
 40
0.0
 40
0.2583607825
 40
1.0
 40
1.0
 40
1.0
 40
1.0
 10
10.5182681386
 20
10.7167236558
 30
0.0
 10
10.5173306125
 20
10.7155681682
 30
0.0
 10
10.5137826631
 20
10.7110314091
 30
0.0
 10
10.5105701085
 20
10.7062279271
 30
0.0
 10
10.5084374566
 20
10.7025270833
 30
0.0
  0
SPLINE
  5
3E1
100
AcDbEntity
  8
0
100
AcDbSpline
 62
7
  6
CONTINUOUS
 70
0
 71
3
 72
11
 73
7
 74
0
 42
0.0000001
 43
0.0000001
 44
0.0000000001
 40
0.0
 40
0.0
 40
0.0
 40
0.0
 40
0.2597346536
 40
0.5119948607
 40
0.758223916
 40
1.0
 40
1.0
 40
1.0
 40
1.0
 10
10.5068953442
 20
10.6997435326
 30
0.0
 10
10.5058108147
 20
10.6977042902
 30
0.0
 10
10.5038242581
 20
10.6936013949
 30
0.0
 10
10.5013896261
 20
10.6873054285
 30
0.0
 10
10.4995518495
 20
10.6809757749
 30
0.0
 10
10.4987215504
 20
10.6767089825
 30
0.0
 10
10.498410237
 20
10.6745816378
 30
0.0
  0
LINE
  5
3E2
100
AcDbEntity
  8
0
100
AcDbLine
 62
9
  6
CONTINUOUS
 10
10.9376923427
 20
10.1285691587
 11
10.9390493038
 21
10.1285696964
  0
LINE
  5
3E3
100
AcDbEntity
  8
0
100
AcDbLine
 62
9
  6
CONTINUOUS
 10
10.9390493038
 20
10.1285696964
 11
10.9397277799
 21
10.1285710943
  0
SPLINE
  5
3E4
100
AcDbEntity
  8
0
100
AcDbSpline
 62
7
  6
CONTINUOUS
 70
0
 71
3
 72
34
 73
30
 74
0
 42
0.0000001
 43
0.0000001
 44
0.0000000001
 40
0.0
 40
0.0
 40
0.0
 40
0.0
 40
0.0167743493
 40
0.033770343
 40
0.0511989416
 40
0.0692528015
 40
0.0880983718
 40
0.1078758181
 40
0.1286990231
 40
0.1506541916
 40
0.1738064319
 40
0.1982010531
 40
0.2238634774
 40
0.2508063184
 40
0.2790288383
 40
0.3085169134
 40
0.3392490399
 40
0.371194265
 40
0.4043125599
 40
0.4385595306
 40
0.4738834878
 40
0.5102264257
 40
0.5475276522
 40
0.5857211826
 40
0.6644983917
 40
0.745966078
 40
0.8294828418
 40
0.9144063432
 40
1.0
 40
1.0
 40
1.0
 40
1.0
 10
10.5416925631
 20
10.291960564
 30
0.0
 10
10.5416925652
 20
10.2894248315
 30
0.0
 10
10.5420161654
 20
10.2843142096
 30
0.0
 10
10.5434645699
 20
10.2766926564
 30
0.0
 10
10.5458709865
 20
10.2691143392
 30
0.0
 10
10.5492275462
 20
10.261601463
 30
0.0
 10
10.5535205211
 20
10.2541707146
 30
0.0
 10
10.558737726
 20
10.2468390819
 30
0.0
 10
10.5648657709
 20
10.2396233879
 30
0.0
 10
10.5718875216
 20
10.2325380261
 30
0.0
 10
10.5797866027
 20
10.2255991666
 30
0.0
 10
10.5885444322
 20
10.218822924
 30
0.0
 10
10.5981392567
 20
10.2122234016
 30
0.0
 10
10.6085489934
 20
10.2058166753
 30
0.0
 10
10.6197490396
 20
10.1996179876
 30
0.0
 10
10.6317122177
 20
10.1936408013
 30
0.0
 10
10.6444105456
 20
10.1879002579
 30
0.0
 10
10.6578136958
 20
10.1824100427
 30
0.0
 10
10.6718893264
 20
10.1771823588
 30
0.0
 10
10.6866041253
 20
10.1722307669
 30
0.0
 10
10.7019227168
 20
10.1675669271
 30
0.0
 10
10.7178081085
 20
10.1632013458
 30
0.0
 10
10.7342225133
 20
10.1591455076
 30
0.0
 10
10.7569955929
 20
10.1541114959
 30
0.0
 10
10.7865094448
 20
10.148683759
 30
0.0
 10
10.8230168306
 20
10.1436024918
 30
0.0
 10
10.8606269673
 20
10.1399369487
 30
0.0
 10
10.8989740108
 20
10.1377243941
 30
0.0
 10
10.9247533837
 20
10.1372310371
 30
0.0
 10
10.9376923427
 20
10.1372310371
 30
0.0
  0
SPLINE
  5
3E5
100
AcDbEntity
  8
0
100
AcDbSpline
 62
9
  6
CONTINUOUS
 70
0
 71
3
 72
9
 73
5
 74
0
 42
0.0000001
 43
0.0000001
 44
0.0000000001
 40
0.0
 40
0.0
 40
0.0
 40
0.0
 40
0.2539840041
 40
1.0
 40
1.0
 40
1.0
 40
1.0
 10
11.3571179554
 20
10.2655086601
 30
0.0
 10
11.357471628
 20
10.2662190444
 30
0.0
 10
11.3588253649
 20
10.2690350739
 30
0.0
 10
11.3600204111
 20
10.2719279119
 30
0.0
 10
11.3608103177
 20
10.2741208612
 30
0.0
  0
SPLINE
  5
3E6
100
AcDbEntity
  8
0
100
AcDbSpline
 62
9
  6
CONTINUOUS
 70
0
 71
3
 72
36
 73
32
 74
0
 42
0.0000001
 43
0.0000001
 44
0.0000000001
 40
0.0
 40
0.0
 40
0.0
 40
0.0
 40
0.0179972658
 40
0.035560935
 40
0.0529558203
 40
0.0704563175
 40
0.0883307997
 40
0.1068272672
 40
0.1261631241
 40
0.1465200334
 40
0.1680431058
 40
0.1908429178
 40
0.2149991617
 40
0.2405646788
 40
0.2675692517
 40
0.2960228909
 40
0.3259188219
 40
0.3572359138
 40
0.3899406189
 40
0.4239885174
 40
0.4593257874
 40
0.4958903757
 40
0.5336129358
 40
0.5724176057
 40
0.6122228555
 40
0.6529421685
 40
0.6944846214
 40
0.7367554272
 40
0.823081615
 40
0.9111107936
 40
1.0
 40
1.0
 40
1.0
 40
1.0
 10
11.3608103177
 20
10.2741208612
 30
0.0
 10
11.3618533967
 20
10.2770166714
 30
0.0
 10
11.3635683129
 20
10.282871935
 30
0.0
 10
11.3649508323
 20
10.2918491528
 30
0.0
 10
11.3650944666
 20
10.3008483325
 30
0.0
 10
11.3639977573
 20
10.3098342456
 30
0.0
 10
11.3616673629
 20
10.3187747898
 30
0.0
 10
11.3581158068
 20
10.3276403373
 30
0.0
 10
11.3533593525
 20
10.336404872
 30
0.0
 10
11.347416391
 20
10.3450449401
 30
0.0
 10
11.3403069402
 20
10.3535385199
 30
0.0
 10
11.3320528933
 20
10.3618642146
 30
0.0
 10
11.3226782899
 20
10.3700007312
 30
0.0
 10
11.3122096976
 20
10.3779267764
 30
0.0
 10
11.3006764813
 20
10.3856211243
 30
0.0
 10
11.2881109819
 20
10.3930628525
 30
0.0
 10
11.2745484595
 20
10.4002314105
 30
0.0
 10
11.2600270452
 20
10.4071067777
 30
0.0
 10
11.2445876758
 20
10.4136695842
 30
0.0
 10
11.2282740195
 20
10.4199012993
 30
0.0
 10
11.2111322989
 20
10.4257842365
 30
0.0
 10
11.1932111447
 20
10.4313016383
 30
0.0
 10
11.1745614653
 20
10.4364377395
 30
0.0
 10
11.1552363198
 20
10.4411778974
 30
0.0
 10
11.135290717
 20
10.4455085718
 30
0.0
 10
11.114781492
 20
10.449417345
 30
0.0
 10
11.0937669674
 20
10.45289308
 30
0.0
 10
11.0649533223
 20
10.4569647915
 30
0.0
 10
11.0280999495
 20
10.4608875253
 30
0.0
 10
10.983155468
 20
10.4637143609
 30
0.0
 10
10.9528944227
 20
10.4643439391
 30
0.0
 10
10.9376923427
 20
10.4643439391
 30
0.0
  0
SPLINE
  5
3E7
100
AcDbEntity
  8
0
100
AcDbSpline
 62
7
  6
CONTINUOUS
 70
0
 71
3
 72
11
 73
7
 74
0
 42
0.0000001
 43
0.0000001
 44
0.0000000001
 40
0.0
 40
0.0
 40
0.0
 40
0.0
 40
0.2464718267
 40
0.4943582479
 40
0.7450796215
 40
1.0
 40
1.0
 40
1.0
 40
1.0
 10
11.3825425405
 20
10.6691465081
 30
0.0
 10
11.3825449306
 20
10.6710361385
 30
0.0
 10
11.3823909043
 20
10.6748283138
 30
0.0
 10
11.3816849768
 20
10.6805031272
 30
0.0
 10
11.3805053789
 20
10.6861647198
 30
0.0
 10
11.3794146245
 20
10.6898895179
 30
0.0
 10
11.3787948448
 20
10.6917430471
 30
0.0
  0
SPLINE
  5
3E8
100
AcDbEntity
  8
0
100
AcDbSpline
 62
9
  6
CONTINUOUS
 70
0
 71
3
 72
37
 73
33
 74
0
 42
0.0000001
 43
0.0000001
 44
0.0000000001
 40
0.0
 40
0.0
 40
0.0
 40
0.0
 40
0.0083771172
 40
0.0167821584
 40
0.0252427074
 40
0.0337856576
 40
0.0512140715
 40
0.0692672596
 40
0.0785844689
 40
0.0881182662
 40
0.1078956022
 40
0.1287179588
 40
0.1506728376
 40
0.1738249102
 40
0.1982186112
 40
0.2238808132
 40
0.2508233352
 40
0.2790449005
 40
0.3085327779
 40
0.3392644297
 40
0.3712087176
 40
0.4043267688
 40
0.4385729899
 40
0.4738958716
 40
0.5102385056
 40
0.5475391752
 40
0.5857319838
 40
0.664506761
 40
0.7459726307
 40
0.8294921149
 40
0.9143965906
 40
1.0
 40
1.0
 40
1.0
 40
1.0
 10
10.4751923714
 20
10.4484463891
 30
0.0
 10
10.4751923714
 20
10.4499254254
 30
0.0
 10
10.4752855799
 20
10.4528892732
 30
0.0
 10
10.4757048014
 20
10.457329024
 30
0.0
 10
10.4764032444
 20
10.4617633735
 30
0.0
 10
10.4777141446
 20
10.4677028099
 30
0.0
 10
10.4800726148
 20
10.4751291661
 30
0.0
 10
10.4833050774
 20
10.4823655459
 30
0.0
 10
10.4864134075
 20
10.4880945713
 30
0.0
 10
10.4899602511
 20
10.4939227675
 30
0.0
 10
10.4951001726
 20
10.5011451867
 30
0.0
 10
10.5022565143
 20
10.5095727121
 30
0.0
 10
10.5104577737
 20
10.517847837
 30
0.0
 10
10.5196835284
 20
10.5259516913
 30
0.0
 10
10.5299117628
 20
10.5338663665
 30
0.0
 10
10.5411181102
 20
10.5415738613
 30
0.0
 10
10.5532760529
 20
10.5490563865
 30
0.0
 10
10.5663567774
 20
10.5562964441
 30
0.0
 10
10.5803291777
 20
10.5632770395
 30
0.0
 10
10.5951600013
 20
10.5699816153
 30
0.0
 10
10.6108138998
 20
10.576394145
 30
0.0
 10
10.6272534505
 20
10.5824993302
 30
0.0
 10
10.6444393047
 20
10.5882825461
 30
0.0
 10
10.6623303115
 20
10.5937298632
 30
0.0
 10
10.6808835404
 20
10.5988281501
 30
0.0
 10
10.7000545358
 20
10.6035652573
 30
0.0
 10
10.7266518372
 20
10.609444702
 30
0.0
 10
10.7611218646
 20
10.6157838602
 30
0.0
 10
10.8037606499
 20
10.6217183476
 30
0.0
 10
10.8476844742
 20
10.6259988783
 30
0.0
 10
10.8924709255
 20
10.6285839909
 30
0.0
 10
10.9225784851
 20
10.629159536
 30
0.0
 10
10.9376923427
 20
10.629159536
 30
0.0
  0
SPLINE
  5
3E9
100
AcDbEntity
  8
0
100
AcDbSpline
 62
9
  6
CONTINUOUS
 70
0
 71
3
 72
37
 73
33
 74
0
 42
0.0000001
 43
0.0000001
 44
0.0000000001
 40
0.0
 40
0.0
 40
0.0
 40
0.0
 40
0.0856034096
 40
0.1705078852
 40
0.2540273695
 40
0.3354932391
 40
0.414268016
 40
0.4524608249
 40
0.4897614945
 40
0.5261041284
 40
0.5614270101
 40
0.5956732312
 40
0.6287912824
 40
0.6607355703
 40
0.6914672221
 40
0.7209550995
 40
0.7491766648
 40
0.7761191868
 40
0.8017813888
 40
0.8261750899
 40
0.8493271623
 40
0.8712820412
 40
0.8921043978
 40
0.9118817338
 40
0.9214155311
 40
0.9307327404
 40
0.9487859285
 40
0.9662143424
 40
0.9747572926
 40
0.9832178416
 40
0.9916228828
 40
1.0
 40
1.0
 40
1.0
 40
1.0
 10
10.9376923427
 20
10.629159536
 30
0.0
 10
10.9528062004
 20
10.629159536
 30
0.0
 10
10.9829137601
 20
10.6285839909
 30
0.0
 10
11.0277002114
 20
10.6259988783
 30
0.0
 10
11.0716240356
 20
10.6217183476
 30
0.0
 10
11.1142628209
 20
10.6157838602
 30
0.0
 10
11.1487328483
 20
10.609444702
 30
0.0
 10
11.1753301497
 20
10.6035652573
 30
0.0
 10
11.194501145
 20
10.5988281501
 30
0.0
 10
11.213054374
 20
10.5937298632
 30
0.0
 10
11.2309453807
 20
10.5882825461
 30
0.0
 10
11.2481312349
 20
10.5824993302
 30
0.0
 10
11.2645707857
 20
10.576394145
 30
0.0
 10
11.2802246842
 20
10.5699816153
 30
0.0
 10
11.2950555078
 20
10.5632770395
 30
0.0
 10
11.3090279081
 20
10.5562964441
 30
0.0
 10
11.3221086326
 20
10.5490563865
 30
0.0
 10
11.3342665752
 20
10.5415738613
 30
0.0
 10
11.3454729227
 20
10.5338663665
 30
0.0
 10
11.3557011571
 20
10.5259516913
 30
0.0
 10
11.3649269118
 20
10.517847837
 30
0.0
 10
11.3731281712
 20
10.5095727121
 30
0.0
 10
11.3802845129
 20
10.5011451867
 30
0.0
 10
11.3854244344
 20
10.4939227675
 30
0.0
 10
11.388971278
 20
10.4880945713
 30
0.0
 10
11.3920796081
 20
10.4823655459
 30
0.0
 10
11.3953120707
 20
10.4751291661
 30
0.0
 10
11.3976705409
 20
10.4677028099
 30
0.0
 10
11.3989814411
 20
10.4617633735
 30
0.0
 10
11.399679884
 20
10.457329024
 30
0.0
 10
11.4000991056
 20
10.4528892732
 30
0.0
 10
11.4001923141
 20
10.4499254254
 30
0.0
 10
11.4001923141
 20
10.4484463891
 30
0.0
  0
LINE
  5
3EA
100
AcDbEntity
  8
0
100
AcDbLine
 62
9
  6
CONTINUOUS
 10
10.9376923427
 20
10.4643439391
 11
10.9356125153
 21
10.4643419613
  0
SPLINE
  5
3EB
100
AcDbEntity
  8
0
100
AcDbSpline
 62
9
  6
CONTINUOUS
 70
0
 71
3
 72
23
 73
19
 74
0
 42
0.0000001
 43
0.0000001
 44
0.0000000001
 40
0.0
 40
0.0
 40
0.0
 40
0.0
 40
0.0749463832
 40
0.1495483453
 40
0.2234860739
 40
0.2964447434
 40
0.3681169891
 40
0.4382054586
 40
0.5064254857
 40
0.5725079418
 40
0.6362023384
 40
0.6972802986
 40
0.7555395407
 40
0.8108086002
 40
0.8629525874
 40
0.9118804012
 40
0.9575539435
 40
1.0
 40
1.0
 40
1.0
 40
1.0
 10
10.9356125153
 20
10.4643419613
 30
0.0
 10
10.9254680646
 20
10.4643226675
 30
0.0
 10
10.9052251746
 20
10.4640027561
 30
0.0
 10
10.8750000669
 20
10.4626797356
 30
0.0
 10
10.8450925435
 20
10.460520728
 30
0.0
 10
10.8156544952
 20
10.4575367549
 30
0.0
 10
10.7868349964
 20
10.4537430453
 30
0.0
 10
10.7587800212
 20
10.4491589551
 30
0.0
 10
10.7316315501
 20
10.4438078614
 30
0.0
 10
10.7055268537
 20
10.4377170305
 30
0.0
 10
10.680597752
 20
10.4309174587
 30
0.0
 10
10.6569698955
 20
10.4234436729
 30
0.0
 10
10.6347620929
 20
10.415333512
 30
0.0
 10
10.6140855672
 20
10.4066277664
 30
0.0
 10
10.5950435926
 20
10.3973700277
 30
0.0
 10
10.5777300379
 20
10.3876054265
 30
0.0
 10
10.5622320034
 20
10.3773825943
 30
0.0
 10
10.5528198233
 20
10.3700267464
 30
0.0
 10
10.5484694785
 20
10.3662739514
 30
0.0
  0
LINE
  5
3EC
100
AcDbEntity
  8
0
100
AcDbLine
 62
9
  6
CONTINUOUS
 10
10.5484694785
 20
10.3662739514
 11
10.5483027239
 21
10.3661299202
  0
SPLINE
  5
3ED
100
AcDbEntity
  8
0
100
AcDbSpline
 62
9
  6
CONTINUOUS
 70
0
 71
3
 72
21
 73
17
 74
0
 42
0.0000001
 43
0.0000001
 44
0.0000000001
 40
0.0
 40
0.0
 40
0.0
 40
0.0
 40
0.1507817597
 40
0.2219682247
 40
0.2905117464
 40
0.4203043162
 40
0.4820674488
 40
0.5420672412
 40
0.6006084524
 40
0.658027278
 40
0.7146851716
 40
0.770962455
 40
0.8272489159
 40
0.8839341088
 40
0.9413976712
 40
1.0
 40
1.0
 40
1.0
 40
1.0
 10
10.5483027239
 20
10.3661299202
 30
0.0
 10
10.5443037306
 20
10.3626715035
 30
0.0
 10
10.5386370781
 20
10.3573105773
 30
0.0
 10
10.531839834
 20
10.3497168614
 30
0.0
 10
10.5259584925
 20
10.342314756
 30
0.0
 10
10.520955779
 20
10.3346487545
 30
0.0
 10
10.5169802604
 20
10.3267668705
 30
0.0
 10
10.5145759874
 20
10.3209122084
 30
0.0
 10
10.5127047438
 20
10.3150254272
 30
0.0
 10
10.5113691943
 20
10.3091140536
 30
0.0
 10
10.5105720805
 20
10.3031861217
 30
0.0
 10
10.5103145458
 20
10.2972499464
 30
0.0
 10
10.5105974069
 20
10.2913139982
 30
0.0
 10
10.5114198361
 20
10.2853865732
 30
0.0
 10
10.51278046
 20
10.279476494
 30
0.0
 10
10.5140302969
 20
10.2755975706
 30
0.0
 10
10.5147388323
 20
10.2736687554
 30
0.0
  0
SPLINE
  5
3EE
100
AcDbEntity
  8
0
100
AcDbSpline
 62
9
  6
CONTINUOUS
 70
0
 71
3
 72
9
 73
5
 74
0
 42
0.0000001
 43
0.0000001
 44
0.0000000001
 40
0.0
 40
0.0
 40
0.0
 40
0.0
 40
0.2464546109
 40
1.0
 40
1.0
 40
1.0
 40
1.0
 10
10.5147388323
 20
10.2736687554
 30
0.0
 10
10.5149907329
 20
10.2729830173
 30
0.0
 10
10.5160526491
 20
10.2702153412
 30
0.0
 10
10.5172712322
 20
10.2675082145
 30
0.0
 10
10.5182667352
 20
10.2655086605
 30
0.0
  0
SPLINE
  5
3EF
100
AcDbEntity
  8
0
100
AcDbSpline
 62
7
  6
CONTINUOUS
 70
0
 71
3
 72
11
 73
7
 74
0
 42
0.0000001
 43
0.0000001
 44
0.0000000001
 40
0.0
 40
0.0
 40
0.0
 40
0.0
 40
0.2417769358
 40
0.4880069284
 40
0.7402671509
 40
1.0
 40
1.0
 40
1.0
 40
1.0
 10
11.3769733912
 20
10.6745888598
 30
0.0
 10
11.3766619367
 20
10.6767155976
 30
0.0
 10
11.3758314726
 20
10.680981159
 30
0.0
 10
11.3739938002
 20
10.6873089783
 30
0.0
 10
11.3715596156
 20
10.6936031262
 30
0.0
 10
11.3695735668
 20
10.6977048617
 30
0.0
 10
11.3684893413
 20
10.6997435326
 30
0.0
  0
SPLINE
  5
3F0
100
AcDbEntity
  8
0
100
AcDbSpline
 62
7
  6
CONTINUOUS
 70
0
 71
3
 72
9
 73
5
 74
0
 42
0.0000001
 43
0.0000001
 44
0.0000000001
 40
0.0
 40
0.0
 40
0.0
 40
0.0
 40
0.2420601001
 40
1.0
 40
1.0
 40
1.0
 40
1.0
 10
11.3669475313
 20
10.7025265585
 30
0.0
 10
11.3662465762
 20
10.7037429609
 30
0.0
 10
11.3632405164
 20
10.7087043318
 30
0.0
 10
11.3598135188
 20
10.71340635
 30
0.0
 10
11.3570404887
 20
10.7168173036
 30
0.0
  0
LINE
  5
3F1
100
AcDbEntity
  8
0
100
AcDbLine
 62
9
  6
CONTINUOUS
 10
10.9376923427
 20
10.4553519692
 11
10.9356569055
 21
10.4553500336
  0
SPLINE
  5
3F2
100
AcDbEntity
  8
0
100
AcDbSpline
 62
7
  6
CONTINUOUS
 70
0
 71
3
 72
23
 73
19
 74
0
 42
0.0000001
 43
0.0000001
 44
0.0000000001
 40
0.0
 40
0.0
 40
0.0
 40
0.0
 40
0.0489908068
 40
0.0984266888
 40
0.1486987512
 40
0.2001758704
 40
0.2532013669
 40
0.3080859551
 40
0.3651011703
 40
0.4244796752
 40
0.4864077116
 40
0.5510320967
 40
0.6184701162
 40
0.6888102878
 40
0.7621084031
 40
0.8383984737
 40
0.9176974905
 40
1.0
 40
1.0
 40
1.0
 40
1.0
 10
11.5001923427
 20
10.5902041365
 30
0.0
 10
11.5001923427
 20
10.5930925664
 30
0.0
 10
11.4998975021
 20
10.5988998397
 30
0.0
 10
11.4985767108
 20
10.6075806304
 30
0.0
 10
11.4963803152
 20
10.616233732
 30
0.0
 10
11.4933117447
 20
10.6248411108
 30
0.0
 10
11.4893768915
 20
10.6333876874
 30
0.0
 10
11.4845853756
 20
10.6418609112
 30
0.0
 10
11.4789456461
 20
10.6502488571
 30
0.0
 10
11.4724662253
 20
10.6585389678
 30
0.0
 10
11.4651585421
 20
10.6667198265
 30
0.0
 10
11.457034798
 20
10.674779866
 30
0.0
 10
11.4481070939
 20
10.6827067395
 30
0.0
 10
11.4383885895
 20
10.6904878556
 30
0.0
 10
11.4278952557
 20
10.6981126085
 30
0.0
 10
11.416643204
 20
10.7055696876
 30
0.0
 10
11.4046492259
 20
10.7128469994
 30
0.0
 10
11.3963242843
 20
10.7174858974
 30
0.0
 10
11.3920462881
 20
10.7197760804
 30
0.0
  0
SPLINE
  5
3F3
100
AcDbEntity
  8
0
100
AcDbSpline
 62
7
  6
CONTINUOUS
 70
0
 71
3
 72
9
 73
5
 74
0
 42
0.0000001
 43
0.0000001
 44
0.0000000001
 40
0.0
 40
0.0
 40
0.0
 40
0.0
 40
0.2432937322
 40
1.0
 40
1.0
 40
1.0
 40
1.0
 10
11.3920462881
 20
10.7197760804
 30
0.0
 10
11.3897189753
 20
10.7210219843
 30
0.0
 10
11.3801061265
 20
10.726054952
 30
0.0
 10
11.3703147934
 20
10.7307449355
 30
0.0
 10
11.3628302385
 20
10.7341204665
 30
0.0
  0
SPLINE
  5
3F4
100
AcDbEntity
  8
0
100
AcDbSpline
 62
7
  6
CONTINUOUS
 70
0
 71
3
 72
26
 73
22
 74
0
 42
0.0000001
 43
0.0000001
 44
0.0000000001
 40
0.0
 40
0.0
 40
0.0
 40
0.0
 40
0.0251747553
 40
0.0512334224
 40
0.1058683272
 40
0.16360953
 40
0.1935386423
 40
0.2241074651
 40
0.2869561441
 40
0.3517279484
 40
0.4179653315
 40
0.4851902087
 40
0.5529126279
 40
0.6206359496
 40
0.6878635439
 40
0.7541054547
 40
0.8188835735
 40
0.88174027
 40
0.9123137057
 40
0.9422478009
 40
1.0
 40
1.0
 40
1.0
 40
1.0
 10
11.3558434139
 20
10.7372123388
 30
0.0
 10
11.3498986951
 20
10.7397937731
 30
0.0
 10
11.3377083426
 20
10.7448372919
 30
0.0
 10
11.3122022425
 20
10.7544529737
 30
0.0
 10
11.2783008568
 20
10.7655113255
 30
0.0
 10
11.242909026
 20
10.7750341745
 30
0.0
 10
11.2132519434
 20
10.7819016368
 30
0.0
 10
11.1821584143
 20
10.7883586116
 30
0.0
 10
11.1420191824
 20
10.7953159788
 30
0.0
 10
11.092526276
 20
10.8018288531
 30
0.0
 10
11.041696558
 20
10.8065222002
 30
0.0
 10
10.989969296
 20
10.8093563414
 30
0.0
 10
10.937790759
 20
10.8103066142
 30
0.0
 10
10.8856113944
 20
10.8093634654
 30
0.0
 10
10.8338816444
 20
10.8065363911
 30
0.0
 10
10.7830477905
 20
10.8018499914
 30
0.0
 10
10.7335490724
 20
10.7953438812
 30
0.0
 10
10.69340402
 20
10.7883920708
 30
0.0
 10
10.6623048008
 20
10.7819393752
 30
0.0
 10
10.6326419788
 20
10.7750760985
 30
0.0
 10
10.610830182
 20
10.7692116217
 30
0.0
 10
10.5965815694
 20
10.764965715
 30
0.0
  0
SPLINE
  5
3F5
100
AcDbEntity
  8
0
100
AcDbSpline
 62
7
  6
CONTINUOUS
 70
0
 71
3
 72
11
 73
7
 74
0
 42
0.0000001
 43
0.0000001
 44
0.0000000001
 40
0.0
 40
0.0
 40
0.0
 40
0.0
 40
0.2639254145
 40
0.5188458858
 40
0.7643305669
 40
1.0
 40
1.0
 40
1.0
 40
1.0
 10
10.5965815694
 20
10.764965715
 30
0.0
 10
10.5887439501
 20
10.7626302034
 30
0.0
 10
10.5734031876
 20
10.7578093382
 30
0.0
 10
10.5510461035
 20
10.7499795833
 30
0.0
 10
10.5297899789
 20
10.7416958099
 30
0.0
 10
10.5161071254
 20
10.7357622946
 30
0.0
 10
10.509469623
 20
10.7327172934
 30
0.0
  0
SPLINE
  5
3F6
100
AcDbEntity
  8
0
100
AcDbSpline
 62
7
  6
CONTINUOUS
 70
0
 71
3
 72
13
 73
9
 74
0
 42
0.0000001
 43
0.0000001
 44
0.0000000001
 40
0.0
 40
0.0
 40
0.0
 40
0.0
 40
0.2802674616
 40
0.4126397192
 40
0.5398843133
 40
0.6620895981
 40
0.7793958497
 40
1.0
 40
1.0
 40
1.0
 40
1.0
 10
10.4701078707
 20
10.7123791542
 30
0.0
 10
10.4624985658
 20
10.7079332715
 30
0.0
 10
10.4515111162
 20
10.7009992065
 30
0.0
 10
10.4377498078
 20
10.6910508514
 30
0.0
 10
10.4283403724
 20
10.6835865493
 30
0.0
 10
10.419659227
 20
10.6759860004
 30
0.0
 10
10.4092869277
 20
10.6658945583
 30
0.0
 10
10.4022926481
 20
10.6578485581
 30
0.0
 10
10.3981165202
 20
10.652309658
 30
0.0
  0
SPLINE
  5
3F7
100
AcDbEntity
  8
0
100
AcDbSpline
 62
7
  6
CONTINUOUS
 70
0
 71
3
 72
14
 73
10
 74
0
 42
0.0000001
 43
0.0000001
 44
0.0000000001
 40
0.0
 40
0.0
 40
0.0
 40
0.0
 40
0.2699112267
 40
0.3984350967
 40
0.5233449076
 40
0.6452647991
 40
0.7648656112
 40
0.8828610109
 40
1.0
 40
1.0
 40
1.0
 40
1.0
 10
10.3972521563
 20
10.6511514992
 30
0.0
 10
10.3937282722
 20
10.6463811217
 30
0.0
 10
10.3889436293
 20
10.6390064932
 30
0.0
 10
10.3837798851
 20
10.6287221511
 30
0.0
 10
10.3806531678
 20
10.6210803181
 30
0.0
 10
10.3782171653
 20
10.6133964592
 30
0.0
 10
10.3764739259
 20
10.605681306
 30
0.0
 10
10.3754260945
 20
10.5979476428
 30
0.0
 10
10.3751923427
 20
10.5927780445
 30
0.0
 10
10.3751923427
 20
10.5902041365
 30
0.0
  0
SPLINE
  5
3F8
100
AcDbEntity
  8
0
100
AcDbSpline
 62
7
  6
CONTINUOUS
 70
0
 71
3
 72
23
 73
19
 74
0
 42
0.0000001
 43
0.0000001
 44
0.0000000001
 40
0.0
 40
0.0
 40
0.0
 40
0.0
 40
0.1247676902
 40
0.2475398657
 40
0.3086205417
 40
0.3696870752
 40
0.4309215694
 40
0.4924612437
 40
0.5543792566
 40
0.6167781443
 40
0.679671815
 40
0.7113107523
 40
0.7430785971
 40
0.774958806
 40
0.8069265127
 40
0.8710225552
 40
0.9353235903
 40
1.0
 40
1.0
 40
1.0
 40
1.0
 10
10.4158160377
 20
11.0012270668
 30
0.0
 10
10.4029422116
 20
10.9941074526
 30
0.0
 10
10.3779261764
 20
10.978997158
 30
0.0
 10
10.3485637752
 20
10.9573972126
 30
0.0
 10
10.3266927104
 20
10.9385200581
 30
0.0
 10
10.3111350559
 20
10.9234855853
 30
0.0
 10
10.2964713406
 20
10.907502745
 30
0.0
 10
10.2827937596
 20
10.8905365685
 30
0.0
 10
10.2702228549
 20
10.8725641157
 30
0.0
 10
10.2588996957
 20
10.8535927713
 30
0.0
 10
10.2506346102
 20
10.8370147599
 30
0.0
 10
10.2447905667
 20
10.8233135788
 30
0.0
 10
10.2408050904
 20
10.8128054805
 30
0.0
 10
10.2372413105
 20
10.8021059994
 30
0.0
 10
10.2330682669
 20
10.7876051955
 30
0.0
 10
10.2289859502
 20
10.7691166526
 30
0.0
 10
10.2260115311
 20
10.7465196083
 30
0.0
 10
10.2253459878
 20
10.7313033399
 30
0.0
 10
10.2253459878
 20
10.7236773402
 30
0.0
  0
SPLINE
  5
3F9
100
AcDbEntity
  8
0
100
AcDbSpline
 62
7
  6
CONTINUOUS
 70
0
 71
3
 72
36
 73
32
 74
0
 42
0.0000001
 43
0.0000001
 44
0.0000000001
 40
0.0
 40
0.0
 40
0.0
 40
0.0
 40
0.0240640635
 40
0.0493880827
 40
0.0759342174
 40
0.1036547576
 40
0.1324914355
 40
0.1623773222
 40
0.1932389422
 40
0.2249949993
 40
0.2575601786
 40
0.290842789
 40
0.3247481624
 40
0.3591774302
 40
0.3940290166
 40
0.4291993252
 40
0.5000677267
 40
0.5709337636
 40
0.6409436137
 40
0.6753677061
 40
0.709266827
 40
0.7425421681
 40
0.7750990837
 40
0.8068459439
 40
0.8376974848
 40
0.8675724502
 40
0.8963974749
 40
0.9241056624
 40
0.9506389145
 40
0.9759495751
 40
1.0
 40
1.0
 40
1.0
 40
1.0
 10
11.4593302247
 20
11.0013583758
 30
0.0
 10
11.4517851684
 20
11.0055251464
 30
0.0
 10
11.436063533
 20
11.0136537517
 30
0.0
 10
11.4113233864
 20
11.024972844
 30
0.0
 10
11.384901247
 20
11.0356976841
 30
0.0
 10
11.3568905242
 20
11.0457880697
 30
0.0
 10
11.3273901418
 20
11.0552091961
 30
0.0
 10
11.2965045289
 20
11.0639278596
 30
0.0
 10
11.2643429293
 20
11.0719116687
 30
0.0
 10
11.2310197016
 20
11.0791342598
 30
0.0
 10
11.1966528466
 20
11.0855673092
 30
0.0
 10
11.1613647453
 20
11.0911903916
 30
0.0
 10
11.125280617
 20
11.0959812342
 30
0.0
 10
11.0885290223
 20
11.0999241762
 30
0.0
 10
11.0512403864
 20
11.1030045894
 30
0.0
 10
11.0008592796
 20
11.1059536032
 30
0.0
 10
10.9374878034
 20
11.10741672
 30
0.0
 10
10.8616410251
 20
11.1056461856
 30
0.0
 10
10.7989815235
 20
11.1012330656
 30
0.0
 10
10.7497138727
 20
11.0959344504
 30
0.0
 10
10.7136375563
 20
11.0911345214
 30
0.0
 10
10.6783587887
 20
11.0855026919
 30
0.0
 10
10.6440025355
 20
11.0790610801
 30
0.0
 10
10.6106911985
 20
11.0718301978
 30
0.0
 10
10.5785427181
 20
11.0638384148
 30
0.0
 10
10.5476714288
 20
11.0551120478
 30
0.0
 10
10.5181864977
 20
11.0456836411
 30
0.0
 10
10.4901923305
 20
11.0355862627
 30
0.0
 10
10.4637877411
 20
11.0248549163
 30
0.0
 10
10.4390661122
 20
11.013529656
 30
0.0
 10
10.423357446
 20
11.0053969945
 30
0.0
 10
10.415819049
 20
11.0012282733
 30
0.0
  0
SPLINE
  5
3FA
100
AcDbEntity
  8
0
100
AcDbSpline
 62
7
  6
CONTINUOUS
 70
0
 71
3
 72
26
 73
22
 74
0
 42
0.0000001
 43
0.0000001
 44
0.0000000001
 40
0.0
 40
0.0
 40
0.0
 40
0.0
 40
0.0646964619
 40
0.1289689865
 40
0.1930371153
 40
0.2249990851
 40
0.2568785016
 40
0.2886498084
 40
0.3202902745
 40
0.3518010265
 40
0.3831883325
 40
0.4455868068
 40
0.507495369
 40
0.5690178087
 40
0.6302656018
 40
0.6913280385
 40
0.7523889294
 40
0.8136329071
 40
0.8752109972
 40
0.9372802002
 40
1.0
 40
1.0
 40
1.0
 40
1.0
 10
11.6500386977
 20
10.7236773402
 30
0.0
 10
11.6500386977
 20
10.7313130889
 30
0.0
 10
11.6493728827
 20
10.7465431532
 30
0.0
 10
11.6463927656
 20
10.769157474
 30
0.0
 10
11.6423030522
 20
10.7876556709
 30
0.0
 10
11.6381229727
 20
10.8021654053
 30
0.0
 10
11.6345530561
 20
10.8128739885
 30
0.0
 10
11.6305619529
 20
10.823391978
 30
0.0
 10
11.6261632683
 20
10.8336987689
 30
0.0
 10
11.6213774888
 20
10.8437814363
 30
0.0
 10
11.6145217601
 20
10.8568876979
 30
0.0
 10
11.6050875899
 20
10.8726781931
 30
0.0
 10
11.5925000376
 20
10.8906601957
 30
0.0
 10
11.5788007131
 20
10.9076342645
 30
0.0
 10
11.5641126127
 20
10.9236218883
 30
0.0
 10
11.5485362787
 20
10.9386647674
 30
0.0
 10
11.5321399576
 20
10.9528065615
 30
0.0
 10
11.5149783376
 20
10.9661060988
 30
0.0
 10
11.4971003782
 20
10.9786323448
 30
0.0
 10
11.4785311717
 20
10.9904347095
 30
0.0
 10
11.4657744726
 20
10.9978052472
 30
0.0
 10
11.4592939889
 20
11.0013829094
 30
0.0
  0
SPLINE
  5
3FB
100
AcDbEntity
  8
0
100
AcDbSpline
 62
7
  6
CONTINUOUS
 70
0
 71
3
 72
9
 73
5
 74
0
 42
0.0000001
 43
0.0000001
 44
0.0000000001
 40
0.0
 40
0.0
 40
0.0
 40
0.0
 40
0.4844644175
 40
1.0
 40
1.0
 40
1.0
 40
1.0
 10
11.4595656459
 20
10.4461264044
 30
0.0
 10
11.4501620844
 20
10.4409262416
 30
0.0
 10
11.4303818737
 20
10.430853823
 30
0.0
 10
11.4100541897
 20
10.4219496812
 30
0.0
 10
11.3994686019
 20
10.4176253158
 30
0.0
  0
SPLINE
  5
3FC
100
AcDbEntity
  8
0
100
AcDbSpline
 62
7
  6
CONTINUOUS
 70
0
 71
3
 72
9
 73
5
 74
0
 42
0.0000001
 43
0.0000001
 44
0.0000000001
 40
0.0
 40
0.0
 40
0.0
 40
0.0
 40
0.5154595991
 40
1.0
 40
1.0
 40
1.0
 40
1.0
 10
10.4759041051
 20
10.4176302155
 30
0.0
 10
10.4653649793
 20
10.4219358292
 30
0.0
 10
10.4451226964
 20
10.4308004384
 30
0.0
 10
10.4254226458
 20
10.4408227249
 30
0.0
 10
10.4160544704
 20
10.4459963075
 30
0.0
  0
SPLINE
  5
3FD
100
AcDbEntity
  8
0
100
AcDbSpline
 62
7
  6
CONTINUOUS
 70
0
 71
3
 72
23
 73
19
 74
0
 42
0.0000001
 43
0.0000001
 44
0.0000000001
 40
0.0
 40
0.0
 40
0.0
 40
0.0
 40
0.1247676902
 40
0.2475398657
 40
0.3086205417
 40
0.3696870752
 40
0.4309215694
 40
0.4924612437
 40
0.5543792566
 40
0.6167781443
 40
0.679671815
 40
0.7113107523
 40
0.7430785971
 40
0.774958806
 40
0.8069265127
 40
0.8710225552
 40
0.9353235903
 40
1.0
 40
1.0
 40
1.0
 40
1.0
 10
11.4595686478
 20
10.4461276137
 30
0.0
 10
11.4724424738
 20
10.4532472279
 30
0.0
 10
11.4974585091
 20
10.4683575225
 30
0.0
 10
11.5268209103
 20
10.4899574679
 30
0.0
 10
11.548691975
 20
10.5088346224
 30
0.0
 10
11.5642496296
 20
10.5238690952
 30
0.0
 10
11.5789133448
 20
10.5398519355
 30
0.0
 10
11.5925909259
 20
10.5568181119
 30
0.0
 10
11.6051618306
 20
10.5747905648
 30
0.0
 10
11.6164849898
 20
10.5937619092
 30
0.0
 10
11.6247500752
 20
10.6103399206
 30
0.0
 10
11.6305941188
 20
10.6240411017
 30
0.0
 10
11.634579595
 20
10.6345492
 30
0.0
 10
11.638143375
 20
10.6452486811
 30
0.0
 10
11.6423164185
 20
10.659749485
 30
0.0
 10
11.6463987352
 20
10.6782380279
 30
0.0
 10
11.6493731544
 20
10.7008350722
 30
0.0
 10
11.6500386977
 20
10.7160513406
 30
0.0
 10
11.6500386977
 20
10.7236773402
 30
0.0
  0
SPLINE
  5
3FE
100
AcDbEntity
  8
0
100
AcDbSpline
 62
7
  6
CONTINUOUS
 70
0
 71
3
 72
26
 73
22
 74
0
 42
0.0000001
 43
0.0000001
 44
0.0000000001
 40
0.0
 40
0.0
 40
0.0
 40
0.0
 40
0.0646964619
 40
0.1289689865
 40
0.1930371153
 40
0.2249990851
 40
0.2568785016
 40
0.2886498084
 40
0.3202902745
 40
0.3518010265
 40
0.3831883325
 40
0.4455868068
 40
0.507495369
 40
0.5690178087
 40
0.6302656018
 40
0.6913280385
 40
0.7523889294
 40
0.8136329071
 40
0.8752109972
 40
0.9372802002
 40
1.0
 40
1.0
 40
1.0
 40
1.0
 10
10.2253459878
 20
10.7236773402
 30
0.0
 10
10.2253459878
 20
10.7160415916
 30
0.0
 10
10.2260118028
 20
10.7008115273
 30
0.0
 10
10.2289919199
 20
10.6781972065
 30
0.0
 10
10.2330816333
 20
10.6596990096
 30
0.0
 10
10.2372617128
 20
10.6451892752
 30
0.0
 10
10.2408316294
 20
10.634480692
 30
0.0
 10
10.2448227326
 20
10.6239627025
 30
0.0
 10
10.2492214172
 20
10.6136559116
 30
0.0
 10
10.2540071967
 20
10.6035732441
 30
0.0
 10
10.2608629254
 20
10.5904669826
 30
0.0
 10
10.2702970955
 20
10.5746764874
 30
0.0
 10
10.2828846479
 20
10.5566944848
 30
0.0
 10
10.2965839724
 20
10.539720416
 30
0.0
 10
10.3112720727
 20
10.5237327922
 30
0.0
 10
10.3268484068
 20
10.5086899131
 30
0.0
 10
10.3432447279
 20
10.494548119
 30
0.0
 10
10.3604063479
 20
10.4812485817
 30
0.0
 10
10.3782843073
 20
10.4687223357
 30
0.0
 10
10.3968535138
 20
10.456919971
 30
0.0
 10
10.4096102129
 20
10.4495494333
 30
0.0
 10
10.4160906965
 20
10.4459717711
 30
0.0
  0
SPLINE
  5
3FF
100
AcDbEntity
  8
0
100
AcDbSpline
 62
7
  6
CONTINUOUS
 70
0
 71
3
 72
23
 73
19
 74
0
 42
0.0000001
 43
0.0000001
 44
0.0000000001
 40
0.0
 40
0.0
 40
0.0
 40
0.0
 40
0.0818659541
 40
0.1607724629
 40
0.2367182812
 40
0.3097261275
 40
0.3798362121
 40
0.4471089417
 40
0.5116351354
 40
0.573535087
 40
0.6329573866
 40
0.6900866723
 40
0.7451522115
 40
0.7984205265
 40
0.8501947508
 40
0.9008083502
 40
0.9506178213
 40
1.0
 40
1.0
 40
1.0
 40
1.0
 10
10.4160544704
 20
10.4459963075
 30
0.0
 10
10.4114039049
 20
10.4485645861
 30
0.0
 10
10.4023552701
 20
10.4537633797
 30
0.0
 10
10.3893251485
 20
10.4619062557
 30
0.0
 10
10.3771054275
 20
10.4702401231
 30
0.0
 10
10.3657134973
 20
10.478751971
 30
0.0
 10
10.3551658301
 20
10.4874295904
 30
0.0
 10
10.3454789187
 20
10.4962616064
 30
0.0
 10
10.3366668206
 20
10.5052350741
 30
0.0
 10
10.3287418966
 20
10.5143366628
 30
0.0
 10
10.3217165828
 20
10.5235538995
 30
0.0
 10
10.3156029775
 20
10.5328747476
 30
0.0
 10
10.3104100024
 20
10.5422858256
 30
0.0
 10
10.3061462671
 20
10.5517743562
 30
0.0
 10
10.3028215369
 20
10.5613269924
 30
0.0
 10
10.300442192
 20
10.5709279498
 30
0.0
 10
10.2990116036
 20
10.5805581673
 30
0.0
 10
10.2986923427
 20
10.5869995295
 30
0.0
 10
10.2986923427
 20
10.5902041365
 30
0.0
  0
SPLINE
  5
400
100
AcDbEntity
  8
0
100
AcDbSpline
 62
7
  6
CONTINUOUS
 70
0
 71
3
 72
18
 73
14
 74
0
 42
0.0000001
 43
0.0000001
 44
0.0000000001
 40
0.0
 40
0.0
 40
0.0
 40
0.0
 40
0.0527781053
 40
0.1058553651
 40
0.1594927519
 40
0.213941472
 40
0.2694404009
 40
0.3262160915
 40
0.4443588455
 40
0.5698749228
 40
0.7038507929
 40
0.8470554064
 40
1.0
 40
1.0
 40
1.0
 40
1.0
 10
10.2986923427
 20
10.5902041365
 30
0.0
 10
10.2986923427
 20
10.5927650791
 30
0.0
 10
10.2988956764
 20
10.5979037502
 30
0.0
 10
10.2998078445
 20
10.6055963306
 30
0.0
 10
10.3013259727
 20
10.6132755018
 30
0.0
 10
10.3034482437
 20
10.6209315957
 30
0.0
 10
10.3061733871
 20
10.6285561767
 30
0.0
 10
10.3106646627
 20
10.6388033152
 30
0.0
 10
10.317852474
 20
10.6515352809
 30
0.0
 10
10.3287061033
 20
10.6663435856
 30
0.0
 10
10.3418524162
 20
10.6808422492
 30
0.0
 10
10.357237153
 20
10.6949813386
 30
0.0
 10
10.3685711003
 20
10.7038405984
 30
0.0
 10
10.3745693173
 20
10.7082106256
 30
0.0
  0
LINE
  5
401
100
AcDbEntity
  8
0
100
AcDbLine
 62
7
  6
CONTINUOUS
 10
10.391703731
 20
10.7199229346
 11
10.3920050525
 21
10.7201163628
  0
SPLINE
  5
402
100
AcDbEntity
  8
0
100
AcDbSpline
 62
7
  6
CONTINUOUS
 70
0
 71
3
 72
11
 73
7
 74
0
 42
0.0000001
 43
0.0000001
 44
0.0000000001
 40
0.0
 40
0.0
 40
0.0
 40
0.0
 40
0.2332180738
 40
0.4777686201
 40
0.7334628174
 40
1.0
 40
1.0
 40
1.0
 40
1.0
 10
10.4017481643
 20
10.7261675194
 30
0.0
 10
10.4079879379
 20
10.7299224466
 30
0.0
 10
10.4209718325
 20
10.7372841847
 30
0.0
 10
10.4413982972
 20
10.747658496
 30
0.0
 10
10.4631876484
 20
10.7575992237
 30
0.0
 10
10.4782766225
 20
10.7637949589
 30
0.0
 10
10.4860295238
 20
10.7668219894
 30
0.0
  0
SPLINE
  5
403
100
AcDbEntity
  8
0
100
AcDbSpline
 62
7
  6
CONTINUOUS
 70
0
 71
3
 72
9
 73
5
 74
0
 42
0.0000001
 43
0.0000001
 44
0.0000000001
 40
0.0
 40
0.0
 40
0.0
 40
0.0
 40
0.4874996827
 40
1.0
 40
1.0
 40
1.0
 40
1.0
 10
10.5015170369
 20
10.7726684098
 30
0.0
 10
10.5145868158
 20
10.7774382838
 30
0.0
 10
10.5416639388
 20
10.7864997694
 30
0.0
 10
10.5691347176
 20
10.7942748531
 30
0.0
 10
10.5832890932
 20
10.7979609748
 30
0.0
  0
LINE
  5
404
100
AcDbEntity
  8
0
100
AcDbLine
 62
7
  6
CONTINUOUS
 10
10.5832890932
 20
10.7979609748
 11
10.584266785
 21
10.7982150814
  0
SPLINE
  5
405
100
AcDbEntity
  8
0
100
AcDbSpline
 62
7
  6
CONTINUOUS
 70
0
 71
3
 72
20
 73
16
 74
0
 42
0.0000001
 43
0.0000001
 44
0.0000000001
 40
0.0
 40
0.0
 40
0.0
 40
0.0
 40
0.0591161125
 40
0.1196430782
 40
0.1813900561
 40
0.2441580092
 40
0.3077415572
 40
0.3719310423
 40
0.50126066
 40
0.6304284839
 40
0.7577098023
 40
0.8201206636
 40
0.8814351336
 40
0.9414578595
 40
1.0
 40
1.0
 40
1.0
 40
1.0
 10
10.6362094667
 20
10.8103452174
 30
0.0
 10
10.6481738353
 20
10.8128468433
 30
0.0
 10
10.6724671177
 20
10.8175385689
 30
0.0
 10
10.7094850889
 20
10.8235918208
 30
0.0
 10
10.7474039653
 20
10.8287254404
 30
0.0
 10
10.7860735396
 20
10.8329199516
 30
0.0
 10
10.8253417563
 20
10.8361585333
 30
0.0
 10
10.8784193789
 20
10.8391913684
 30
0.0
 10
10.9451560024
 20
10.840517127
 30
0.0
 10
11.0249179108
 20
10.8382031071
 30
0.0
 10
11.0906743128
 20
10.8330211837
 30
0.0
 10
11.142218764
 20
10.8269199321
 30
0.0
 10
11.1798191223
 20
10.8214402341
 30
0.0
 10
11.2164636022
 20
10.8150509041
 30
0.0
 10
11.2404850646
 20
10.810134582
 30
0.0
 10
11.2523042209
 20
10.8075221744
 30
0.0
  0
LINE
  5
406
100
AcDbEntity
  8
0
100
AcDbLine
 62
7
  6
CONTINUOUS
 10
11.2523042209
 20
10.8075221744
 11
11.2533522419
 21
10.8072900189
  0
LINE
  5
407
100
AcDbEntity
  8
0
100
AcDbLine
 62
7
  6
CONTINUOUS
 10
11.3047051918
 20
10.7945913601
 11
11.3059964653
 21
10.794236432
  0
SPLINE
  5
408
100
AcDbEntity
  8
0
100
AcDbSpline
 62
7
  6
CONTINUOUS
 70
0
 71
3
 72
9
 73
5
 74
0
 42
0.0000001
 43
0.0000001
 44
0.0000000001
 40
0.0
 40
0.0
 40
0.0
 40
0.0
 40
0.5101345823
 40
1.0
 40
1.0
 40
1.0
 40
1.0
 10
11.30986434
 20
10.7931620466
 30
0.0
 10
11.3208123467
 20
10.7900969971
 30
0.0
 10
11.3421713654
 20
10.7837166215
 30
0.0
 10
11.363273892
 20
10.7765291545
 30
0.0
 10
11.3735312347
 20
10.772791092
 30
0.0
  0
SPLINE
  5
409
100
AcDbEntity
  8
0
100
AcDbSpline
 62
7
  6
CONTINUOUS
 70
0
 71
3
 72
11
 73
7
 74
0
 42
0.0000001
 43
0.0000001
 44
0.0000000001
 40
0.0
 40
0.0
 40
0.0
 40
0.0
 40
0.2681684422
 40
0.5244049577
 40
0.7684073015
 40
1.0
 40
1.0
 40
1.0
 40
1.0
 10
11.3956050082
 20
10.7643475966
 30
0.0
 10
11.4037664744
 20
10.7610710876
 30
0.0
 10
11.4196071562
 20
10.754360849
 30
0.0
 10
11.442382404
 20
10.7435564275
 30
0.0
 10
11.4635733793
 20
10.7322696255
 30
0.0
 10
11.4769534368
 20
10.7242364392
 30
0.0
 10
11.4833472639
 20
10.7201371096
 30
0.0
  0
SPLINE
  5
40A
100
AcDbEntity
  8
0
100
AcDbSpline
 62
7
  6
CONTINUOUS
 70
0
 71
3
 72
18
 73
14
 74
0
 42
0.0000001
 43
0.0000001
 44
0.0000000001
 40
0.0
 40
0.0
 40
0.0
 40
0.0
 40
0.1549572078
 40
0.2996058744
 40
0.4344020077
 40
0.5601011461
 40
0.6778007559
 40
0.7341434614
 40
0.7890859397
 40
0.8428744509
 40
0.8957703407
 40
0.9480495758
 40
1.0
 40
1.0
 40
1.0
 40
1.0
 10
11.4916205389
 20
10.7146777334
 30
0.0
 10
11.4983197957
 20
10.7101260102
 30
0.0
 10
11.5109821527
 20
10.7008835563
 30
0.0
 10
11.5282151913
 20
10.6860592434
 30
0.0
 10
11.5429559991
 20
10.6708076316
 30
0.0
 10
11.5551401483
 20
10.6551902661
 30
0.0
 10
11.5632278501
 20
10.6417147515
 30
0.0
 10
11.5682812248
 20
10.630855456
 30
0.0
 10
11.5713446448
 20
10.6227807338
 30
0.0
 10
11.5737307246
 20
10.614667976
 30
0.0
 10
11.5754377865
 20
10.6065272306
 30
0.0
 10
11.5764636123
 20
10.5983700283
 30
0.0
 10
11.5766923427
 20
10.5929194711
 30
0.0
 10
11.5766923427
 20
10.5902041365
 30
0.0
  0
SPLINE
  5
40B
100
AcDbEntity
  8
0
100
AcDbSpline
 62
7
  6
CONTINUOUS
 70
0
 71
3
 72
23
 73
19
 74
0
 42
0.0000001
 43
0.0000001
 44
0.0000000001
 40
0.0
 40
0.0
 40
0.0
 40
0.0
 40
0.0493992023
 40
0.0992249244
 40
0.1498533776
 40
0.2016405153
 40
0.2549193791
 40
0.3099927801
 40
0.3671270304
 40
0.4265512377
 40
0.4884499599
 40
0.5529718737
 40
0.6202374107
 40
0.690337473
 40
0.7633326828
 40
0.8392635331
 40
0.91815299
 40
1.0
 40
1.0
 40
1.0
 40
1.0
 10
11.5766923427
 20
10.5902041365
 30
0.0
 10
11.5766923427
 20
10.5870028524
 30
0.0
 10
11.5763737528
 20
10.580568238
 30
0.0
 10
11.5749461541
 20
10.5709480424
 30
0.0
 10
11.5725717668
 20
10.5613570166
 30
0.0
 10
11.5692539409
 20
10.5518141619
 30
0.0
 10
11.5649990456
 20
10.5423352039
 30
0.0
 10
11.5598167944
 20
10.5329334498
 30
0.0
 10
11.5537157526
 20
10.5236216443
 30
0.0
 10
11.5467048144
 20
10.5144131282
 30
0.0
 10
11.5387960402
 20
10.5053198977
 30
0.0
 10
11.5300018006
 20
10.4963543994
 30
0.0
 10
11.5203343949
 20
10.4875299364
 30
0.0
 10
11.5098078491
 20
10.4788593881
 30
0.0
 10
11.4984385799
 20
10.4703541049
 30
0.0
 10
11.4862429791
 20
10.4620262694
 30
0.0
 10
11.4732383658
 20
10.4538888576
 30
0.0
 10
11.4642072425
 20
10.448693204
 30
0.0
 10
11.4595656459
 20
10.4461264044
 30
0.0
  0
SPLINE
  5
40C
100
AcDbEntity
  8
0
100
AcDbSpline
 62
7
  6
CONTINUOUS
 70
0
 71
3
 72
22
 73
18
 74
0
 42
0.0000001
 43
0.0000001
 44
0.0000000001
 40
0.0
 40
0.0
 40
0.0
 40
0.0
 40
0.0497228653
 40
0.0998608292
 40
0.1507781119
 40
0.2028196523
 40
0.2563079044
 40
0.3115381965
 40
0.3687712877
 40
0.4282337494
 40
0.4901132018
 40
0.5545576737
 40
0.6216868471
 40
0.6915959262
 40
0.7643512868
 40
0.8399943622
 40
1.0
 40
1.0
 40
1.0
 40
1.0
 10
10.3751923427
 20
10.5902041365
 30
0.0
 10
10.3751923427
 20
10.5874422331
 30
0.0
 10
10.3754617373
 20
10.5818917161
 30
0.0
 10
10.3766688777
 20
10.5735919899
 30
0.0
 10
10.3786766373
 20
10.5653159743
 30
0.0
 10
10.381481968
 20
10.5570793683
 30
0.0
 10
10.3850806901
 20
10.5488957344
 30
0.0
 10
10.3894645168
 20
10.5407763197
 30
0.0
 10
10.394626066
 20
10.5327316098
 30
0.0
 10
10.4005581107
 20
10.5247724335
 30
0.0
 10
10.4072517164
 20
10.5169093356
 30
0.0
 10
10.4146961202
 20
10.5091522078
 30
0.0
 10
10.4228807763
 20
10.5015116151
 30
0.0
 10
10.4317949008
 20
10.4939988735
 30
0.0
 10
10.4414257571
 20
10.4866237636
 30
0.0
 10
10.4554665699
 20
10.4768030745
 30
0.0
 10
10.4666436734
 20
10.4699597977
 30
0.0
 10
10.4743732848
 20
10.465573036
 30
0.0
  0
SPLINE
  5
40D
100
AcDbEntity
  8
0
100
AcDbSpline
 62
7
  6
CONTINUOUS
 70
0
 71
3
 72
22
 73
18
 74
0
 42
0.0000001
 43
0.0000001
 44
0.0000000001
 40
0.0
 40
0.0
 40
0.0
 40
0.0
 40
0.1600088043
 40
0.2356533747
 40
0.3084100138
 40
0.3783200456
 40
0.4454499806
 40
0.5098949673
 40
0.5717745878
 40
0.6312368467
 40
0.6884695132
 40
0.7436991405
 40
0.7971864709
 40
0.8492268273
 40
0.9001426588
 40
0.9502789542
 40
1.0
 40
1.0
 40
1.0
 40
1.0
 10
11.4009910985
 20
10.4655615133
 30
0.0
 10
11.4087222017
 20
10.4699485236
 30
0.0
 10
11.4199014805
 20
10.4767922562
 30
0.0
 10
11.4339451265
 20
10.4866136545
 30
0.0
 10
11.4435779442
 20
10.4939893377
 30
0.0
 10
11.4524938743
 20
10.5015027276
 30
0.0
 10
11.4606802194
 20
10.5091439891
 30
0.0
 10
11.4681261842
 20
10.5169018162
 30
0.0
 10
11.4748211998
 20
10.5247656488
 30
0.0
 10
11.4807544777
 20
10.5327256082
 30
0.0
 10
11.4859171205
 20
10.5407711214
 30
0.0
 10
11.4903018875
 20
10.5488913709
 30
0.0
 10
11.493901379
 20
10.5570758676
 30
0.0
 10
11.4967072962
 20
10.5653133537
 30
0.0
 10
11.4987154864
 20
10.5735902472
 30
0.0
 10
11.4999228882
 20
10.5818908466
 30
0.0
 10
11.5001923427
 20
10.5874419475
 30
0.0
 10
11.5001923427
 20
10.5902041365
 30
0.0
  0
SPLINE
  5
40E
100
AcDbEntity
  8
0
100
AcDbSpline
 62
7
  6
CONTINUOUS
 70
0
 71
3
 72
11
 73
7
 74
0
 42
0.0000001
 43
0.0000001
 44
0.0000000001
 40
0.0
 40
0.0
 40
0.0
 40
0.0
 40
0.2303465546
 40
0.4691384362
 40
0.7237857078
 40
1.0
 40
1.0
 40
1.0
 40
1.0
 10
10.4080048304
 20
10.6350235069
 30
0.0
 10
10.4080056998
 20
10.6292951529
 30
0.0
 10
10.4092651126
 20
10.6175938527
 30
0.0
 10
10.4148592899
 20
10.6003688003
 30
0.0
 10
10.4240651058
 20
10.5834825701
 30
0.0
 10
10.4321629576
 20
10.5729888519
 30
0.0
 10
10.4366964885
 20
10.5678283846
 30
0.0
  0
SPLINE
  5
40F
100
AcDbEntity
  8
0
100
AcDbSpline
 62
7
  6
CONTINUOUS
 70
0
 71
3
 72
9
 73
5
 74
0
 42
0.0000001
 43
0.0000001
 44
0.0000000001
 40
0.0
 40
0.0
 40
0.0
 40
0.0
 40
0.2434426809
 40
1.0
 40
1.0
 40
1.0
 40
1.0
 10
10.4366964885
 20
10.5678283846
 30
0.0
 10
10.4376405133
 20
10.5667538117
 30
0.0
 10
10.4415771232
 20
10.5623915598
 30
0.0
 10
10.4457389708
 20
10.5582341151
 30
0.0
 10
10.448986602
 20
10.5551989493
 30
0.0
  0
SPLINE
  5
410
100
AcDbEntity
  8
0
100
AcDbSpline
 62
7
  6
CONTINUOUS
 70
0
 71
3
 72
9
 73
5
 74
0
 42
0.0000001
 43
0.0000001
 44
0.0000000001
 40
0.0
 40
0.0
 40
0.0
 40
0.0
 40
0.2574328779
 40
1.0
 40
1.0
 40
1.0
 40
1.0
 10
10.706627793
 20
10.7914130389
 30
0.0
 10
10.7012418456
 20
10.7902569156
 30
0.0
 10
10.6803629536
 20
10.7855705973
 30
0.0
 10
10.6596585677
 20
10.7800911411
 30
0.0
 10
10.6444451728
 20
10.7755047357
 30
0.0
  0
SPLINE
  5
411
100
AcDbEntity
  8
0
100
AcDbSpline
 62
7
  6
CONTINUOUS
 70
0
 71
3
 72
9
 73
5
 74
0
 42
0.0000001
 43
0.0000001
 44
0.0000000001
 40
0.0
 40
0.0
 40
0.0
 40
0.0
 40
0.25784433
 40
1.0
 40
1.0
 40
1.0
 40
1.0
 10
10.6444451728
 20
10.7755047357
 30
0.0
 10
10.6404815452
 20
10.7743098149
 30
0.0
 10
10.6251516217
 20
10.7695375661
 30
0.0
 10
10.6099946077
 20
10.7642020317
 30
0.0
 10
10.5988908177
 20
10.7598788518
 30
0.0
  0
SPLINE
  5
412
100
AcDbEntity
  8
0
100
AcDbSpline
 62
7
  6
CONTINUOUS
 70
0
 71
3
 72
11
 73
7
 74
0
 42
0.0000001
 43
0.0000001
 44
0.0000000001
 40
0.0
 40
0.0
 40
0.0
 40
0.0
 40
0.273724641
 40
0.531895983
 40
0.7740438421
 40
1.0
 40
1.0
 40
1.0
 40
1.0
 10
10.5988908177
 20
10.7598788518
 30
0.0
 10
10.5909448425
 20
10.7567851441
 30
0.0
 10
10.5756423607
 20
10.7504087921
 30
0.0
 10
10.5539081408
 20
10.7399355483
 30
0.0
 10
10.5341537
 20
10.7288761235
 30
0.0
 10
10.5219431575
 20
10.7208744495
 30
0.0
 10
10.5162221459
 20
10.716773667
 30
0.0
  0
SPLINE
  5
413
100
AcDbEntity
  8
0
100
AcDbSpline
 62
7
  6
CONTINUOUS
 70
0
 71
3
 72
9
 73
5
 74
0
 42
0.0000001
 43
0.0000001
 44
0.0000000001
 40
0.0
 40
0.0
 40
0.0
 40
0.0
 40
0.2560033221
 40
1.0
 40
1.0
 40
1.0
 40
1.0
 10
10.5162221459
 20
10.716773667
 30
0.0
 10
10.5150709115
 20
10.71594847
 30
0.0
 10
10.5106014009
 20
10.7126870941
 30
0.0
 10
10.5062445123
 20
10.7092704501
 30
0.0
 10
10.5030825151
 20
10.7066347539
 30
0.0
  0
SPLINE
  5
414
100
AcDbEntity
  8
0
100
AcDbSpline
 62
7
  6
CONTINUOUS
 70
0
 71
3
 72
9
 73
5
 74
0
 42
0.0000001
 43
0.0000001
 44
0.0000000001
 40
0.0
 40
0.0
 40
0.0
 40
0.0
 40
0.4922181849
 40
1.0
 40
1.0
 40
1.0
 40
1.0
 10
11.3918746919
 20
10.656926046
 30
0.0
 10
11.3916064727
 20
10.6606024837
 30
0.0
 10
11.390440961
 20
10.6680377108
 30
0.0
 10
11.3881245828
 20
10.6751926771
 30
0.0
 10
11.3867005545
 20
10.6787187459
 30
0.0
  0
SPLINE
  5
415
100
AcDbEntity
  8
0
100
AcDbSpline
 62
7
  6
CONTINUOUS
 70
0
 71
3
 72
9
 73
5
 74
0
 42
0.0000001
 43
0.0000001
 44
0.0000000001
 40
0.0
 40
0.0
 40
0.0
 40
0.0
 40
0.2422588437
 40
1.0
 40
1.0
 40
1.0
 40
1.0
 10
11.383561669
 20
10.6855786289
 30
0.0
 10
11.3829319997
 20
10.6868090924
 30
0.0
 10
11.3802146535
 20
10.6918274293
 30
0.0
 10
11.377045422
 20
10.6965963933
 30
0.0
 10
11.3744549718
 20
10.7000577037
 30
0.0
  0
SPLINE
  5
416
100
AcDbEntity
  8
0
100
AcDbSpline
 62
7
  6
CONTINUOUS
 70
0
 71
3
 72
9
 73
5
 74
0
 42
0.0000001
 43
0.0000001
 44
0.0000000001
 40
0.0
 40
0.0
 40
0.0
 40
0.0
 40
0.2426376766
 40
1.0
 40
1.0
 40
1.0
 40
1.0
 10
11.3715279947
 20
10.7038091637
 30
0.0
 10
11.3707056284
 20
10.7048216082
 30
0.0
 10
11.3672507756
 20
10.7089408211
 30
0.0
 10
11.3635455144
 20
10.7128479519
 30
0.0
 10
11.3606320154
 20
10.7156918077
 30
0.0
  0
SPLINE
  5
417
100
AcDbEntity
  8
0
100
AcDbSpline
 62
7
  6
CONTINUOUS
 70
0
 71
3
 72
9
 73
5
 74
0
 42
0.0000001
 43
0.0000001
 44
0.0000000001
 40
0.0
 40
0.0
 40
0.0
 40
0.0
 40
0.2566427853
 40
1.0
 40
1.0
 40
1.0
 40
1.0
 10
10.5029724698
 20
10.7052750768
 30
0.0
 10
10.5020482982
 20
10.7043233418
 30
0.0
 10
10.4984928517
 20
10.7005711736
 30
0.0
 10
10.4951248674
 20
10.6966398003
 30
0.0
 10
10.4927544211
 20
10.6936156251
 30
0.0
  0
SPLINE
  5
418
100
AcDbEntity
  8
0
100
AcDbSpline
 62
7
  6
CONTINUOUS
 70
0
 71
3
 72
9
 73
5
 74
0
 42
0.0000001
 43
0.0000001
 44
0.0000000001
 40
0.0
 40
0.0
 40
0.0
 40
0.0
 40
0.5134029758
 40
1.0
 40
1.0
 40
1.0
 40
1.0
 10
10.4827459726
 20
10.6786877712
 30
0.0
 10
10.4800688038
 20
10.6739033627
 30
0.0
 10
10.4755825886
 20
10.6641460191
 30
0.0
 10
10.4730024237
 20
10.6537012854
 30
0.0
 10
10.4722875679
 20
10.6485544469
 30
0.0
  0
SPLINE
  5
419
100
AcDbEntity
  8
0
100
AcDbSpline
 62
7
  6
CONTINUOUS
 70
0
 71
3
 72
9
 73
5
 74
0
 42
0.0000001
 43
0.0000001
 44
0.0000000001
 40
0.0
 40
0.0
 40
0.0
 40
0.0
 40
0.4985745815
 40
1.0
 40
1.0
 40
1.0
 40
1.0
 10
10.4717911103
 20
10.6439258453
 30
0.0
 10
10.471550608
 20
10.6407453338
 30
0.0
 10
10.4714840353
 20
10.6343276593
 30
0.0
 10
10.4722529305
 20
10.6279567698
 30
0.0
 10
10.4728355459
 20
10.624802292
 30
0.0
  0
SPLINE
  5
41A
100
AcDbEntity
  8
0
100
AcDbSpline
 62
7
  6
CONTINUOUS
 70
0
 71
3
 72
9
 73
5
 74
0
 42
0.0000001
 43
0.0000001
 44
0.0000000001
 40
0.0
 40
0.0
 40
0.0
 40
0.0
 40
0.2409191862
 40
1.0
 40
1.0
 40
1.0
 40
1.0
 10
11.3723021279
 20
10.7066347456
 30
0.0
 10
11.3706854357
 20
10.7079822933
 30
0.0
 10
11.363889407
 20
10.7134728016
 30
0.0
 10
11.356774007
 20
10.718563426
 30
0.0
 10
11.3512473721
 20
10.7222281601
 30
0.0
  0
SPLINE
  5
41B
100
AcDbEntity
  8
0
100
AcDbSpline
 62
7
  6
CONTINUOUS
 70
0
 71
3
 72
13
 73
9
 74
0
 42
0.0000001
 43
0.0000001
 44
0.0000000001
 40
0.0
 40
0.0
 40
0.0
 40
0.0
 40
0.1032145465
 40
0.2130799832
 40
0.3294981119
 40
0.4522496908
 40
0.7155148049
 40
1.0
 40
1.0
 40
1.0
 40
1.0
 10
11.3512473721
 20
10.7222281601
 30
0.0
 10
11.345630981
 20
10.7259524119
 30
0.0
 10
11.3337557807
 20
10.7332232352
 30
0.0
 10
11.3147426281
 20
10.7433127214
 30
0.0
 10
11.2940478529
 20
10.7528803791
 30
0.0
 10
11.2636242177
 20
10.7651786391
 30
0.0
 10
11.2219739736
 20
10.7788296258
 30
0.0
 10
11.1872313382
 20
10.787440362
 30
0.0
 10
11.1690721216
 20
10.7913453072
 30
0.0
  0
SPLINE
  5
41C
100
AcDbEntity
  8
0
100
AcDbSpline
 62
7
  6
CONTINUOUS
 70
0
 71
3
 72
11
 73
7
 74
0
 42
0.0000001
 43
0.0000001
 44
0.0000000001
 40
0.0
 40
0.0
 40
0.0
 40
0.0
 40
0.281328937
 40
0.5398391186
 40
0.7780062375
 40
1.0
 40
1.0
 40
1.0
 40
1.0
 10
10.4387955793
 20
10.563253182
 30
0.0
 10
10.4328844702
 20
10.5681810567
 30
0.0
 10
10.421986291
 20
10.5781960921
 30
0.0
 10
10.4080978592
 20
10.5944006861
 30
0.0
 10
10.3975079124
 20
10.6110504253
 30
0.0
 10
10.3925786398
 20
10.6227188035
 30
0.0
 10
10.3907649658
 20
10.6285143083
 30
0.0
  0
SPLINE
  5
41D
100
AcDbEntity
  8
0
100
AcDbSpline
 62
7
  6
CONTINUOUS
 70
0
 71
3
 72
11
 73
7
 74
0
 42
0.0000001
 43
0.0000001
 44
0.0000000001
 40
0.0
 40
0.0
 40
0.0
 40
0.0
 40
0.2452469256
 40
0.4917176014
 40
0.7423708161
 40
1.0
 40
1.0
 40
1.0
 40
1.0
 10
11.4778441927
 20
10.6490330805
 30
0.0
 10
11.478073381
 20
10.6458412118
 30
0.0
 10
11.4781476558
 20
10.6394071045
 30
0.0
 10
11.4770892809
 20
10.6297559583
 30
0.0
 10
11.4748668518
 20
10.6201397321
 30
0.0
 10
11.4726498304
 20
10.6138725494
 30
0.0
 10
11.4713652965
 20
10.6107659919
 30
0.0
  0
SPLINE
  5
41E
100
AcDbEntity
  8
0
100
AcDbSpline
 62
7
  6
CONTINUOUS
 70
0
 71
3
 72
9
 73
5
 74
0
 42
0.0000001
 43
0.0000001
 44
0.0000000001
 40
0.0
 40
0.0
 40
0.0
 40
0.0
 40
0.2410932029
 40
1.0
 40
1.0
 40
1.0
 40
1.0
 10
11.4713652965
 20
10.6107659919
 30
0.0
 10
11.4706002905
 20
10.6089158769
 30
0.0
 10
11.4671898284
 20
10.6013407365
 30
0.0
 10
11.4628747421
 20
10.5941863092
 30
0.0
 10
11.4592420312
 20
10.5890367292
 30
0.0
  0
SPLINE
  5
41F
100
AcDbEntity
  8
0
100
AcDbSpline
 62
7
  6
CONTINUOUS
 70
0
 71
3
 72
9
 73
5
 74
0
 42
0.0000001
 43
0.0000001
 44
0.0000000001
 40
0.0
 40
0.0
 40
0.0
 40
0.0
 40
0.2427084996
 40
1.0
 40
1.0
 40
1.0
 40
1.0
 10
11.4592420312
 20
10.5890367292
 30
0.0
 10
11.4583571006
 20
10.5877822884
 30
0.0
 10
11.4546207015
 20
10.5826777583
 30
0.0
 10
11.4505386843
 20
10.5778290641
 30
0.0
 10
11.4472990621
 20
10.5743008033
 30
0.0
  0
SPLINE
  5
420
100
AcDbEntity
  8
0
100
AcDbSpline
 62
7
  6
CONTINUOUS
 70
0
 71
3
 72
9
 73
5
 74
0
 42
0.0000001
 43
0.0000001
 44
0.0000000001
 40
0.0
 40
0.0
 40
0.0
 40
0.0
 40
0.2568860324
 40
1.0
 40
1.0
 40
1.0
 40
1.0
 10
11.4758156404
 20
10.625861265
 30
0.0
 10
11.4766073207
 20
10.6272275952
 30
0.0
 10
11.4795789204
 20
10.6326089633
 30
0.0
 10
11.4820901821
 20
10.6382488937
 30
0.0
 10
11.4836336669
 20
10.6425482691
 30
0.0
  0
LINE
  5
421
100
AcDbEntity
  8
0
100
AcDbLine
 62
7
  6
CONTINUOUS
 10
10.4122979516
 20
10.6684680022
 11
10.4121275098
 21
10.6679278705
  0
SPLINE
  5
422
100
AcDbEntity
  8
0
100
AcDbSpline
 62
7
  6
CONTINUOUS
 70
0
 71
3
 72
9
 73
5
 74
0
 42
0.0000001
 43
0.0000001
 44
0.0000000001
 40
0.0
 40
0.0
 40
0.0
 40
0.0
 40
0.5049415996
 40
1.0
 40
1.0
 40
1.0
 40
1.0
 10
10.4121275098
 20
10.6679278705
 30
0.0
 10
10.4107779989
 20
10.6636069147
 30
0.0
 10
10.4087102239
 20
10.6548456752
 30
0.0
 10
10.4080049599
 20
10.6458675415
 30
0.0
 10
10.4080041748
 20
10.641429353
 30
0.0
  0
SPLINE
  5
423
100
AcDbEntity
  8
0
100
AcDbSpline
 62
7
  6
CONTINUOUS
 70
0
 71
3
 72
9
 73
5
 74
0
 42
0.0000001
 43
0.0000001
 44
0.0000000001
 40
0.0
 40
0.0
 40
0.0
 40
0.0
 40
0.4804094919
 40
1.0
 40
1.0
 40
1.0
 40
1.0
 10
10.3953340045
 20
10.6289234051
 30
0.0
 10
10.3974787347
 20
10.6216031289
 30
0.0
 10
10.4036382585
 20
10.6068335292
 30
0.0
 10
10.4124174385
 20
10.5935031673
 30
0.0
 10
10.4174564929
 20
10.5869707603
 30
0.0
  0
SPLINE
  5
424
100
AcDbEntity
  8
0
100
AcDbSpline
 62
7
  6
CONTINUOUS
 70
0
 71
3
 72
9
 73
5
 74
0
 42
0.0000001
 43
0.0000001
 44
0.0000000001
 40
0.0
 40
0.0
 40
0.0
 40
0.0
 40
0.4807230449
 40
1.0
 40
1.0
 40
1.0
 40
1.0
 10
10.4174564929
 20
10.5869707603
 30
0.0
 10
10.4218848656
 20
10.581230014
 30
0.0
 10
10.4318893998
 20
10.5698893994
 30
0.0
 10
10.4430516484
 20
10.5597071046
 30
0.0
 10
10.4490673902
 20
10.5546923974
 30
0.0
  0
SPLINE
  5
425
100
AcDbEntity
  8
0
100
AcDbSpline
 62
7
  6
CONTINUOUS
 70
0
 71
3
 72
9
 73
5
 74
0
 42
0.0000001
 43
0.0000001
 44
0.0000000001
 40
0.0
 40
0.0
 40
0.0
 40
0.0
 40
0.2567172528
 40
1.0
 40
1.0
 40
1.0
 40
1.0
 10
10.5030825151
 20
10.7066347539
 30
0.0
 10
10.5019758078
 20
10.7057122534
 30
0.0
 10
10.4977026105
 20
10.7020738765
 30
0.0
 10
10.4935845676
 20
10.698251886
 30
0.0
 10
10.4906346172
 20
10.6953024396
 30
0.0
  0
SPLINE
  5
426
100
AcDbEntity
  8
0
100
AcDbSpline
 62
7
  6
CONTINUOUS
 70
0
 71
3
 72
9
 73
5
 74
0
 42
0.0000001
 43
0.0000001
 44
0.0000000001
 40
0.0
 40
0.0
 40
0.0
 40
0.0
 40
0.2587655935
 40
1.0
 40
1.0
 40
1.0
 40
1.0
 10
10.485286048
 20
10.6896927834
 30
0.0
 10
10.48413751
 20
10.6884269047
 30
0.0
 10
10.4797824402
 20
10.6834605111
 30
0.0
 10
10.4757734295
 20
10.6781854975
 30
0.0
 10
10.473065208
 20
10.674106497
 30
0.0
  0
SPLINE
  5
427
100
AcDbEntity
  8
0
100
AcDbSpline
 62
7
  6
CONTINUOUS
 70
0
 71
3
 72
15
 73
11
 74
0
 42
0.0000001
 43
0.0000001
 44
0.0000000001
 40
0.0
 40
0.0
 40
0.0
 40
0.0
 40
0.1332883686
 40
0.2594743143
 40
0.3806682553
 40
0.4993061909
 40
0.6180400357
 40
0.7395113151
 40
0.8661360911
 40
1.0
 40
1.0
 40
1.0
 40
1.0
 10
10.473065208
 20
10.674106497
 30
0.0
 10
10.4705728541
 20
10.6703526265
 30
0.0
 10
10.4661451069
 20
10.662747322
 30
0.0
 10
10.4612376279
 20
10.6508042762
 30
0.0
 10
10.4582991363
 20
10.6387321331
 30
0.0
 10
10.4573610162
 20
10.6265918229
 30
0.0
 10
10.4584427643
 20
10.6144542494
 30
0.0
 10
10.4615221508
 20
10.6023893757
 30
0.0
 10
10.4665685731
 20
10.590457383
 30
0.0
 10
10.4710837334
 20
10.5828641753
 30
0.0
 10
10.4736192255
 20
10.5791157929
 30
0.0
  0
SPLINE
  5
428
100
AcDbEntity
  8
0
100
AcDbSpline
 62
7
  6
CONTINUOUS
 70
0
 71
3
 72
15
 73
11
 74
0
 42
0.0000001
 43
0.0000001
 44
0.0000000001
 40
0.0
 40
0.0
 40
0.0
 40
0.0
 40
0.1490276505
 40
0.2881636653
 40
0.4184591217
 40
0.5413531029
 40
0.6586547746
 40
0.772553001
 40
0.8854970637
 40
1.0
 40
1.0
 40
1.0
 40
1.0
 10
11.4163415317
 20
10.7074164451
 30
0.0
 10
11.4205581852
 20
10.703583795
 30
0.0
 10
11.4284078048
 20
10.6958254402
 30
0.0
 10
11.438625921
 20
10.6834746747
 30
0.0
 10
11.4468234671
 20
10.6708671447
 30
0.0
 10
11.4529623881
 20
10.6580509639
 30
0.0
 10
11.456997988
 20
10.6450727803
 30
0.0
 10
11.4588898081
 20
10.6319924144
 30
0.0
 10
11.4586298943
 20
10.6188873533
 30
0.0
 10
11.4570425245
 20
10.6102928981
 30
0.0
 10
11.4559211783
 20
10.606060826
 30
0.0
  0
SPLINE
  5
429
100
AcDbEntity
  8
0
100
AcDbSpline
 62
7
  6
CONTINUOUS
 70
0
 71
3
 72
9
 73
5
 74
0
 42
0.0000001
 43
0.0000001
 44
0.0000000001
 40
0.0
 40
0.0
 40
0.0
 40
0.0
 40
0.2464468692
 40
1.0
 40
1.0
 40
1.0
 40
1.0
 10
11.4559211783
 20
10.606060826
 30
0.0
 10
11.4556510919
 20
10.6050414933
 30
0.0
 10
11.4544795391
 20
10.600925655
 30
0.0
 10
11.453009797
 20
10.5968957823
 30
0.0
 10
11.4517563915
 20
10.5939250396
 30
0.0
  0
SPLINE
  5
42A
100
AcDbEntity
  8
0
100
AcDbSpline
 62
7
  6
CONTINUOUS
 70
0
 71
3
 72
9
 73
5
 74
0
 42
0.0000001
 43
0.0000001
 44
0.0000000001
 40
0.0
 40
0.0
 40
0.0
 40
0.0
 40
0.2402585615
 40
1.0
 40
1.0
 40
1.0
 40
1.0
 10
11.4517563915
 20
10.5939250396
 30
0.0
 10
11.4509167767
 20
10.5919350375
 30
0.0
 10
11.4471481215
 20
10.5837684993
 30
0.0
 10
11.4423371643
 20
10.5761005358
 30
0.0
 10
11.4382814276
 20
10.5706051919
 30
0.0
  0
SPLINE
  5
42B
100
AcDbEntity
  8
0
100
AcDbSpline
 62
7
  6
CONTINUOUS
 70
0
 71
3
 72
9
 73
5
 74
0
 42
0.0000001
 43
0.0000001
 44
0.0000000001
 40
0.0
 40
0.0
 40
0.0
 40
0.0
 40
0.4829418698
 40
1.0
 40
1.0
 40
1.0
 40
1.0
 10
11.433500747
 20
10.5644905573
 30
0.0
 10
11.4300204369
 20
10.5602777082
 30
0.0
 10
11.4223328935
 20
10.5519458485
 30
0.0
 10
11.413917306
 20
10.5443601553
 30
0.0
 10
11.4094232882
 20
10.5406141785
 30
0.0
  0
SPLINE
  5
42C
100
AcDbEntity
  8
0
100
AcDbSpline
 62
7
  6
CONTINUOUS
 70
0
 71
3
 72
15
 73
11
 74
0
 42
0.0000001
 43
0.0000001
 44
0.0000000001
 40
0.0
 40
0.0
 40
0.0
 40
0.0
 40
0.1349058666
 40
0.2628417081
 40
0.3856260512
 40
0.5053620746
 40
0.624365905
 40
0.745017526
 40
0.8695620503
 40
1.0
 40
1.0
 40
1.0
 40
1.0
 10
11.4016673186
 20
10.5789706364
 30
0.0
 10
11.4040623474
 20
10.5824999542
 30
0.0
 10
11.4083569732
 20
10.5896414842
 30
0.0
 10
11.4132793599
 20
10.6008339023
 30
0.0
 10
11.4164690643
 20
10.612146554
 30
0.0
 10
11.4179019278
 20
10.6235315753
 30
0.0
 10
11.4175563768
 20
10.6349348141
 30
0.0
 10
11.4154399789
 20
10.6462979148
 30
0.0
 10
11.4115766346
 20
10.6575681186
 30
0.0
 10
11.4079488547
 20
10.6647962877
 30
0.0
 10
11.405884135
 20
10.668366179
 30
0.0
  0
SPLINE
  5
42D
100
AcDbEntity
  8
0
100
AcDbSpline
 62
7
  6
CONTINUOUS
 70
0
 71
3
 72
9
 73
5
 74
0
 42
0.0000001
 43
0.0000001
 44
0.0000000001
 40
0.0
 40
0.0
 40
0.0
 40
0.0
 40
0.2421132726
 40
1.0
 40
1.0
 40
1.0
 40
1.0
 10
11.405884135
 20
10.668366179
 30
0.0
 10
11.4051240169
 20
10.6696804199
 30
0.0
 10
11.4018662505
 20
10.6750399249
 30
0.0
 10
11.3981577117
 20
10.6801207889
 30
0.0
 10
11.3951593206
 20
10.6838080497
 30
0.0
  0
SPLINE
  5
42E
100
AcDbEntity
  8
0
100
AcDbSpline
 62
7
  6
CONTINUOUS
 70
0
 71
3
 72
9
 73
5
 74
0
 42
0.0000001
 43
0.0000001
 44
0.0000000001
 40
0.0
 40
0.0
 40
0.0
 40
0.0
 40
0.2401890461
 40
1.0
 40
1.0
 40
1.0
 40
1.0
 10
11.3936221363
 20
10.6856649261
 30
0.0
 10
11.3923727132
 20
10.6871478517
 30
0.0
 10
11.3870433375
 20
10.6932140566
 30
0.0
 10
11.3812364984
 20
10.6988539809
 30
0.0
 10
11.3766388888
 20
10.7029147248
 30
0.0
  0
SPLINE
  5
42F
100
AcDbEntity
  8
0
100
AcDbSpline
 62
7
  6
CONTINUOUS
 70
0
 71
3
 72
9
 73
5
 74
0
 42
0.0000001
 43
0.0000001
 44
0.0000000001
 40
0.0
 40
0.0
 40
0.0
 40
0.0
 40
0.2627036821
 40
1.0
 40
1.0
 40
1.0
 40
1.0
 10
10.4659614156
 20
10.5406141812
 30
0.0
 10
10.4637352514
 20
10.5424697697
 30
0.0
 10
10.4553996865
 20
10.549694934
 30
0.0
 10
10.4476369254
 20
10.5576017407
 30
0.0
 10
10.4424215874
 20
10.5638433687
 30
0.0
  0
SPLINE
  5
430
100
AcDbEntity
  8
0
100
AcDbSpline
 62
7
  6
CONTINUOUS
 70
0
 71
3
 72
18
 73
14
 74
0
 42
0.0000001
 43
0.0000001
 44
0.0000000001
 40
0.0
 40
0.0
 40
0.0
 40
0.0
 40
0.132451943
 40
0.2543432428
 40
0.3125132412
 40
0.3695026432
 40
0.4259119696
 40
0.4823601848
 40
0.5394651606
 40
0.5978236827
 40
0.7202795977
 40
0.8534903746
 40
1.0
 40
1.0
 40
1.0
 40
1.0
 10
10.4415608697
 20
10.5648829416
 30
0.0
 10
10.4370377216
 20
10.5703966389
 30
0.0
 10
10.4290910288
 20
10.5816338425
 30
0.0
 10
10.421958564
 20
10.5970034119
 30
0.0
 10
10.4184941083
 20
10.6093116119
 30
0.0
 10
10.4169835081
 20
10.6184450782
 30
0.0
 10
10.4165237271
 20
10.6275985165
 30
0.0
 10
10.4171152257
 20
10.6367505661
 30
0.0
 10
10.4187575754
 20
10.6458800027
 30
0.0
 10
10.4224015163
 20
10.6581844093
 30
0.0
 10
10.4297583297
 20
10.6735403839
 30
0.0
 10
10.4424933416
 20
10.6911634959
 30
0.0
 10
10.4530618057
 20
10.7019688912
 30
0.0
 10
10.4588939633
 20
10.7072806222
 30
0.0
  0
SPLINE
  5
431
100
AcDbEntity
  8
0
100
AcDbSpline
 62
7
  6
CONTINUOUS
 70
0
 71
3
 72
9
 73
5
 74
0
 42
0.0000001
 43
0.0000001
 44
0.0000000001
 40
0.0
 40
0.0
 40
0.0
 40
0.0
 40
0.507518666
 40
1.0
 40
1.0
 40
1.0
 40
1.0
 10
10.4139925699
 20
10.6660614434
 30
0.0
 10
10.4120489286
 20
10.6610545291
 30
0.0
 10
10.4090379596
 20
10.6508423181
 30
0.0
 10
10.4080040394
 20
10.6402353048
 30
0.0
 10
10.4080048304
 20
10.6350235069
 30
0.0
  0
SPLINE
  5
432
100
AcDbEntity
  8
0
100
AcDbSpline
 62
9
  6
CONTINUOUS
 70
0
 71
3
 72
17
 73
13
 74
0
 42
0.0000001
 43
0.0000001
 44
0.0000000001
 40
0.0
 40
0.0
 40
0.0
 40
0.0
 40
0.109957779
 40
0.2278549342
 40
0.351766225
 40
0.479873551
 40
0.6104641195
 40
0.7418395803
 40
0.8072834787
 40
0.8722741275
 40
0.9365874775
 40
1.0
 40
1.0
 40
1.0
 40
1.0
 10
11.5466965859
 20
10.5147602176
 30
0.0
 10
11.5596052087
 20
10.3769437983
 30
0.0
 10
11.587366587
 20
10.0914538401
 30
0.0
 10
11.6335204564
 20
9.6510425934
 30
0.0
 10
11.6858740341
 20
9.1883229002
 30
0.0
 10
11.7444291846
 20
8.7102426217
 30
0.0
 10
11.8091559144
 20
8.2234764927
 30
0.0
 10
11.8682896734
 20
7.8155701091
 30
0.0
 10
11.9189371708
 20
7.4899045961
 30
0.0
 10
11.9584249849
 20
7.2479458785
 30
0.0
 10
11.9994622294
 20
7.0088391613
 30
0.0
 10
12.0280880001
 20
6.8506180395
 30
0.0
 10
12.0426944368
 20
6.772139293
 30
0.0
  0
SPLINE
  5
433
100
AcDbEntity
  8
0
100
AcDbSpline
 62
9
  6
CONTINUOUS
 70
0
 71
3
 72
15
 73
11
 74
0
 42
0.0000001
 43
0.0000001
 44
0.0000000001
 40
0.0
 40
0.0
 40
0.0
 40
0.0
 40
0.1097937177
 40
0.2265432049
 40
0.3488584246
 40
0.4754430176
 40
0.6050438577
 40
0.7364717018
 40
0.8685286795
 40
1.0
 40
1.0
 40
1.0
 40
1.0
 10
10.3286861071
 20
10.5147389446
 30
0.0
 10
10.3179514255
 20
10.4001326423
 30
0.0
 10
10.2951038666
 20
10.1637241778
 30
0.0
 10
10.2576786639
 20
9.7998977416
 30
0.0
 10
10.2158963327
 20
9.4188309657
 30
0.0
 10
10.1697694918
 20
9.0246963017
 30
0.0
 10
10.1192915066
 20
8.6214642728
 30
0.0
 10
10.0644836099
 20
8.2130071153
 30
0.0
 10
10.0053517356
 20
7.8031711626
 30
0.0
 10
9.9628262005
 20
7.5301717736
 30
0.0
 10
9.9407254668
 20
7.3941203711
 30
0.0
  0
LINE
  5
434
100
AcDbEntity
  8
0
100
AcDbLine
 62
9
  6
CONTINUOUS
 10
9.9407254668
 20
7.3941203711
 11
9.9330927144
 21
7.3473562453
  0
ENDSEC
  0
SECTION
  2
OBJECTS
  0
DICTIONARY
  5
C
100
AcDbDictionary
280
0
281
1
  3
ACAD_GROUP
350
D
  3
ACAD_MLINESTYLE
350
17
  3
ACAD_LAYOUT
350
1A
  3
ACAD_PLOTSETTINGS
350
19
  3
ACAD_PLOTSTYLENAME
350
E
  0
DICTIONARY
  5
D
102
{ACAD_REACTORS
330
C
102
}
100
AcDbDictionary
280
0
281
1
  0
ACDBDICTIONARYWDFLT
  5
E
102
{ACAD_REACTORS
330
C
102
}
100
AcDbDictionary
281
1
  3
Normal
350
F
100
AcDbDictionaryWithDefault
340
F
  0
DICTIONARY
  5
17
102
{ACAD_REACTORS
330
C
102
}
100
AcDbDictionary
280
0
281
1
  3
Standard
350
18
  0
DICTIONARY
  5
19
102
{ACAD_REACTORS
330
C
102
}
100
AcDbDictionary
281
1
  0
DICTIONARY
  5
1A
102
{ACAD_REACTORS
330
C
102
}
100
AcDbDictionary
281
1
  3
Model
350
435
  3
Layout1
350
436
  0
ACDBPLACEHOLDER
  5
F
102
{ACAD_REACTORS
330
E
102
}
  0
MLINESTYLE
  5
18
102
{ACAD_REACTORS
330
17
102
}
100
AcDbMlineStyle
  2
STANDARD
 70
0
  3

 62
256
 51
90.0
 52
90.0
 71
2
 49
0.5
 62
256
  6
BYLAYER
 49
-0.5
 62
256
  6
BYLAYER
  0
LAYOUT
  5
435
102
{ACAD_REACTORS
330
1A
102
}
100
AcDbPlotSettings
  1

  2
none_device
  4
ANSI_C_(22.00_x_17.00_Inches)
  6

 40
0.0
 41
0.0
 42
0.0
 43
0.0
 44
558.8
 45
431.8
 46
0.0
 47
0.0
 48
0.0
 49
0.0
140
0.0
141
0.0
142
1.0
143
1.0
 70
1024
 72
0
 73
0
 74
0
  7

 75
0
147
1.0
148
0.0
149
0.0
100
AcDbLayout
  1
Model
 70
0
 71
0
 10
0.0
 20
0.0
 11
22.0
 21
17.0
 12
0.0
 22
0.0
 32
0.0
 14
0.0
 24
0.0
 34
0.0
 15
0.0
 25
0.0
 35
0.0
146
0.0
 13
0.0
 23
0.0
 33
0.0
 16
1.0
 26
0.0
 36
0.0
 17
0.0
 27
1.0
 37
0.0
 76
0
330
202
345
0
346
0
  0
LAYOUT
  5
436
102
{ACAD_REACTORS
330
1A
102
}
100
AcDbPlotSettings
  1

  2
none_device
  4
ANSI_C_(22.00_x_17.00_Inches)
  6

 40
0.0
 41
0.0
 42
0.0
 43
0.0
 44
558.8
 45
431.8
 46
0.0
 47
0.0
 48
0.0
 49
0.0
140
0.0
141
0.0
142
1.0
143
1.0
 70
0
 72
0
 73
0
 74
0
  7

 75
0
147
1.0
148
0.0
149
0.0
100
AcDbLayout
  1
Layout1
 70
0
 71
1
 10
0.0
 20
0.0
 11
22.0
 21
17.0
 12
0.0
 22
0.0
 32
0.0
 14
0.0
 24
0.0
 34
0.0
 15
0.0
 25
0.0
 35
0.0
146
0.0
 13
0.0
 23
0.0
 33
0.0
 16
1.0
 26
0.0
 36
0.0
 17
0.0
 27
1.0
 37
0.0
 76
0
330
203
345
0
346
0
  0
ENDSEC
  0
EOF
