999
DXF file: E:\BT Custom\CADOUTPUT\_RIGHT.dxf
999
Pro/ENGINEER 2018400 by Parametric Technology Corporation
  0
SECTION
  2
HEADER
  9
$ACADVER
  1
AC1018
  9
$DWGCODEPAGE
  3
ANSI_1252
  9
$EXTMAX
 10
22.0
 20
17.0
 30
0.0
  9
$EXTMIN
 10
0.0
 20
0.0
 30
0.0
  9
$LIMMIN
 10
0.0
 20
0.0
  9
$LIMMAX
 10
22.0
 20
17.0
  9
$VIEWCTR
 10
11.0
 20
8.5
  9
$VIEWSIZE
 40
17.0
  9
$CLAYER
  8
0
  9
$LTSCALE
 40
1.21
  9
$CELTYPE
  6
BYLAYER
  9
$DIMSCALE
 40
1.0
  9
$DIMASZ
 40
0.1
  9
$DIMEXO
 40
0.0625
  9
$DIMDLI
 40
0.836
  9
$DIMEXE
 40
0.125
  9
$DIMCEN
 40
0.198
  9
$DIMLFAC
 40
1.0
  9
$DIMBLK
  1
_FILLED
  9
$DIMALT
 70
1
  9
$DIMALTD
 70
2
  9
$DIMALTTD
 70
2
  9
$DIMALTF
 40
25.4
  9
$DIMTXT
 40
0.08
  9
$DIMTOL
 70
1
  9
$DIMLIM
 70
0
  9
$DIMTFAC
 40
1.0
  9
$DIMTP
 40
0.001
  9
$DIMTM
 40
0.001
  9
$DIMGAP
 40
0.09
  9
$DIMDSEP
 70
46
  9
$AUNITS
 70
0
  9
$PDMODE
 70
3
  9
$PDSIZE
 40
0.06
  9
$HANDSEED
  5
2BB
  9
$TILEMODE
 70
1
  9
$MEASUREMENT
 70
0
  9
$INSUNITS
 70
1
  0
ENDSEC
  0
SECTION
  2
CLASSES
  0
CLASS
  1
ACDBDICTIONARYWDFLT
  2
AcDbDictionaryWithDefault
  3
AutoCAD 2000
 90
0
 91
1
280
0
281
0
  0
CLASS
  1
ACDBPLACEHOLDER
  2
AcDbPlaceHolder
  3
AutoCAD 2000
 90
0
 91
1
280
0
281
0
  0
CLASS
  1
LAYOUT
  2
AcDbLayout
  3
AutoCAD 2000
 90
0
 91
0
280
0
281
0
  0
ENDSEC
  0
SECTION
  2
TABLES
  0
TABLE
  2
VPORT
  5
8
100
AcDbSymbolTable
 70
2
  0
VPORT
  5
1F4
100
AcDbSymbolTableRecord
100
AcDbViewportTableRecord
  2
*ACTIVE
 70
0
 10
0.0
 20
0.0
 11
1.0
 21
1.0
 12
11.0
 22
8.5
 13
0.0
 23
0.0
 14
1.0
 24
1.0
 15
0.0
 25
0.0
 16
0.0
 26
0.0
 36
1.0
 17
0.0
 27
0.0
 37
0.0
 40
17.0
 41
1.2941176471
 42
50.0
 43
0.0
 44
0.0
 50
0.0
 51
0.0
 71
0
 72
100
 73
1
 74
1
 75
0
 76
0
 77
0
 78
0
  0
ENDTAB
  0
TABLE
  2
LTYPE
  5
5
100
AcDbSymbolTable
 70
6
  0
LTYPE
  5
14
100
AcDbSymbolTableRecord
100
AcDbLinetypeTableRecord
  2
BYBLOCK
 70
0
  3

 72
65
 73
0
 40
0.0
  0
LTYPE
  5
15
100
AcDbSymbolTableRecord
100
AcDbLinetypeTableRecord
  2
BYLAYER
 70
0
  3

 72
65
 73
0
 40
0.0
  0
LTYPE
  5
16
100
AcDbSymbolTableRecord
100
AcDbLinetypeTableRecord
  2
CONTINUOUS
 70
64
  3
Solid line
 72
65
 73
0
 40
0.0
  0
LTYPE
  5
1F5
100
AcDbSymbolTableRecord
100
AcDbLinetypeTableRecord
  2
CENTER
 70
64
  3
____ _ ____ _ ____ _ ____ _ ____ _ ____ _ ____
 72
65
 73
4
 40
0.6
 49
0.375
 74
0
 49
-0.075
 74
0
 49
0.075
 74
0
 49
-0.075
 74
0
  0
LTYPE
  5
1F6
100
AcDbSymbolTableRecord
100
AcDbLinetypeTableRecord
  2
HIDDEN
 70
64
  3
- - - - - - - - - - - - - - - - - - - -
 72
65
 73
2
 40
0.2
 49
0.1
 74
0
 49
-0.1
 74
0
  0
LTYPE
  5
1F7
100
AcDbSymbolTableRecord
100
AcDbLinetypeTableRecord
  2
PHANTOM
 70
64
  3
_____ _ _ _____ _ _ _____ _ _ _____
 72
65
 73
6
 40
0.8
 49
0.45
 74
0
 49
-0.05
 74
0
 49
0.1
 74
0
 49
-0.05
 74
0
 49
0.1
 74
0
 49
-0.05
 74
0
  0
LTYPE
  5
1F8
100
AcDbSymbolTableRecord
100
AcDbLinetypeTableRecord
  2
DOT
 70
64
  3
. . . . . . . . . . . . . . . . . . . .
 72
65
 73
2
 40
0.2
 49
0.1
 74
0
 49
-0.1
 74
0
  0
LTYPE
  5
1F9
100
AcDbSymbolTableRecord
100
AcDbLinetypeTableRecord
  2
DASHED
 70
64
  3
- - - - - - - - - - - - - - - - - - - -
 72
65
 73
2
 40
0.2
 49
0.1
 74
0
 49
-0.1
 74
0
  0
ENDTAB
  0
TABLE
  2
LAYER
  5
2
100
AcDbSymbolTable
 70
36
  0
LAYER
  5
10
100
AcDbSymbolTableRecord
100
AcDbLayerTableRecord
  2
0
 70
0
 62
7
  6
CONTINUOUS
370
-3
390
F
  0
LAYER
  5
1FA
100
AcDbSymbolTableRecord
100
AcDbLayerTableRecord
  2
DEFAULT_1
 70
0
 62
7
  6
CENTER
370
-3
390
F
  0
LAYER
  5
1FB
100
AcDbSymbolTableRecord
100
AcDbLayerTableRecord
  2
DEFAULT_2
 70
0
 62
8
  6
HIDDEN
370
-3
390
F
  0
LAYER
  5
1FC
100
AcDbSymbolTableRecord
100
AcDbLayerTableRecord
  2
DEFAULT_3
 70
0
 62
7
  6
PHANTOM
370
-3
390
F
  0
LAYER
  5
1FD
100
AcDbSymbolTableRecord
100
AcDbLayerTableRecord
  2
ALL_FEATURES
 70
0
 62
7
  6
CONTINUOUS
370
-3
390
F
  0
LAYER
  5
1FE
100
AcDbSymbolTableRecord
100
AcDbLayerTableRecord
  2
AXES_FEATURES
 70
0
 62
7
  6
CONTINUOUS
370
-3
390
F
  0
LAYER
  5
1FF
100
AcDbSymbolTableRecord
100
AcDbLayerTableRecord
  2
DIMENSIONS
 70
0
 62
7
  6
CONTINUOUS
370
-3
390
F
  0
ENDTAB
  0
TABLE
  2
STYLE
  5
3
100
AcDbSymbolTable
 70
1
  0
STYLE
  5
11
100
AcDbSymbolTableRecord
100
AcDbTextStyleTableRecord
  2
STANDARD
 70
0
 40
0.0
 41
0.8
 50
0.0
 71
0
 42
0.2
  3
txt
  4

  0
STYLE
  5
200
100
AcDbSymbolTableRecord
100
AcDbTextStyleTableRecord
  2
TEXTSTYLE_1
 70
0
 40
0.0
 41
0.8
 50
0.0
 71
0
 42
0.2
  3
gdt
  4

  0
ENDTAB
  0
TABLE
  2
VIEW
  5
6
100
AcDbSymbolTable
 70
0
  0
ENDTAB
  0
TABLE
  2
UCS
  5
7
100
AcDbSymbolTable
 70
0
  0
ENDTAB
  0
TABLE
  2
APPID
  5
9
100
AcDbSymbolTable
 70
1
  0
APPID
  5
201
100
AcDbSymbolTableRecord
100
AcDbRegAppTableRecord
  2
ACAD
 70
0
  0
ENDTAB
  0
TABLE
  2
BLOCK_RECORD
  5
1
100
AcDbSymbolTable
 70
0
  0
BLOCK_RECORD
  5
202
100
AcDbSymbolTableRecord
100
AcDbBlockTableRecord
  2
*Model_Space
  0
BLOCK_RECORD
  5
203
100
AcDbSymbolTableRecord
100
AcDbBlockTableRecord
  2
*Paper_Space
  0
BLOCK_RECORD
  5
204
100
AcDbSymbolTableRecord
100
AcDbBlockTableRecord
  2
_FILLED
  0
ENDTAB
  0
TABLE
  2
DIMSTYLE
  5
A
100
AcDbSymbolTable
 70
1
100
AcDbDimStyleTable
 71
0
  0
DIMSTYLE
105
205
100
AcDbSymbolTableRecord
100
AcDbDimStyleTableRecord
  2
STANDARD
 70
0
  3

  4

 40
1.0
 41
0.1
 42
0.0625
 43
0.38
 44
0.125
 45
0.0
 46
0.0
 47
0.001
 48
0.001
140
0.08
141
0.09
142
0.0
143
25.4
144
1.0
145
0.0
146
1.0
147
0.09
 71
1.0
 72
0.0
 73
1
 74
1
 75
0
 76
0
 77
0
 78
4
 79
1
170
1
171
2
172
0
173
0
174
0
175
0
176
0
177
0
178
0
270
2
179
3
271
3
272
3
273
2
274
2
275
0
280
0
281
0
282
0
283
1
284
4
285
0
286
0
287
3
288
0
340
11
278
46
341
204
342
204
343
204
344
204
  0
ENDTAB
  0
ENDSEC
  0
SECTION
  2
BLOCKS
  0
BLOCK
  5
20
100
AcDbEntity
  8
0
100
AcDbBlockBegin
  2
*Model_Space
 70
0
 10
0.0
 20
0.0
 30
0.0
  3
*Model_Space
  1

  0
ENDBLK
  5
21
100
AcDbEntity
  8
0
100
AcDbBlockEnd
  0
BLOCK
  5
1C
100
AcDbEntity
  8
0
100
AcDbBlockBegin
  2
*Paper_Space
 70
0
 10
0.0
 20
0.0
 30
0.0
  3
*Paper_Space
  1

  0
ENDBLK
  5
1D
100
AcDbEntity
  8
0
100
AcDbBlockEnd
  0
BLOCK
  5
206
100
AcDbEntity
  8
0
100
AcDbBlockBegin
  2
_FILLED
 70
64
 10
0.0
 20
0.0
  3
_FILLED
  1

  0
SOLID
  5
207
100
AcDbEntity
  8
0
  6
BYBLOCK
 62
0
100
AcDbTrace
 10
0.0
 20
0.0
 11
-1.0
 21
0.2
 12
-1.0
 22
-0.2
 13
-1.0
 23
-0.2
  0
ENDBLK
  5
208
100
AcDbEntity
  8
0
  6
BYBLOCK
 62
0
100
AcDbBlockEnd
  0
ENDSEC
  0
SECTION
  2
ENTITIES
  0
LINE
  5
209
100
AcDbEntity
  8
0
100
AcDbLine
 62
7
  6
CONTINUOUS
 10
6.8859276202
 20
10.5131395853
 11
6.8257550264
 21
10.3713818379
  0
LINE
  5
20A
100
AcDbEntity
  8
0
100
AcDbLine
 62
7
  6
CONTINUOUS
 10
7.7373946097
 20
10.1517132915
 11
7.6772220159
 21
10.009955544
  0
LINE
  5
20B
100
AcDbEntity
  8
0
100
AcDbLine
 62
7
  6
CONTINUOUS
 10
11.8749849695
 20
5.9393728459
 11
14.7249613149
 21
5.9393728459
  0
LINE
  5
20C
100
AcDbEntity
  8
0
100
AcDbLine
 62
9
  6
CONTINUOUS
 10
14.4699731422
 20
5.9533728459
 11
12.1299731422
 21
5.9533728459
  0
LWPOLYLINE
  5
20D
100
AcDbEntity
  8
0
100
AcDbPolyline
 62
7
  6
CONTINUOUS
 90
21
 70
0
 10
7.9680710057
 20
10.3688414801
 10
8.1764181581
 20
10.5801507656
 10
8.4490137423
 20
10.7832651495
 10
8.7691841088
 20
10.9512274105
 10
9.1234886232
 20
11.0724532756
 10
9.4971094014
 20
11.1413847326
 10
9.8744274307
 20
11.1566729529
 10
10.2415067016
 20
11.1203117635
 10
10.592151406
 20
11.0347574561
 10
10.9222243579
 20
10.9002616845
 10
11.2276143966
 20
10.7145141525
 10
11.5034896133
 20
10.4773944387
 10
11.7489855252
 20
10.1909076911
 10
11.9617203594
 20
9.8572934673
 10
12.1381108214
 20
9.4792981633
 10
12.2730828129
 20
9.0614998828
 10
12.3610381938
 20
8.6093641582
 10
12.3997176096
 20
8.1260259545
 10
12.3870294087
 20
7.6122751094
 10
12.3195229063
 20
7.0716695709
 10
12.1949731422
 20
6.5143728459
  0
LINE
  5
20E
100
AcDbEntity
  8
0
100
AcDbLine
 62
9
  6
CONTINUOUS
 10
12.1956014318
 20
6.0633728459
 11
14.4043448526
 21
6.0633728459
  0
LINE
  5
20F
100
AcDbEntity
  8
0
100
AcDbLine
 62
9
  6
CONTINUOUS
 10
14.7249731422
 20
6.0723728459
 11
14.3917976143
 21
6.0723728459
  0
LINE
  5
210
100
AcDbEntity
  8
0
100
AcDbLine
 62
9
  6
CONTINUOUS
 10
12.2081486701
 20
6.0723728459
 11
11.8749731422
 21
6.0723728459
  0
LINE
  5
211
100
AcDbEntity
  8
0
100
AcDbLine
 62
9
  6
CONTINUOUS
 10
12.2280507726
 20
6.1143728459
 11
14.3718955118
 21
6.1143728459
  0
LINE
  5
212
100
AcDbEntity
  8
0
100
AcDbLine
 62
9
  6
CONTINUOUS
 10
12.2592272146
 20
6.1723728459
 11
14.3407190698
 21
6.1723728459
  0
LINE
  5
213
100
AcDbEntity
  8
0
100
AcDbLine
 62
9
  6
CONTINUOUS
 10
12.2835026359
 20
6.2133728459
 11
14.3164436485
 21
6.2133728459
  0
LINE
  5
214
100
AcDbEntity
  8
0
100
AcDbLine
 62
9
  6
CONTINUOUS
 10
12.3206295851
 20
6.2693728459
 11
14.2793166993
 21
6.2693728459
  0
LINE
  5
215
100
AcDbEntity
  8
0
100
AcDbLine
 62
9
  6
CONTINUOUS
 10
12.0068054765
 20
6.296244217
 11
12.3443976907
 21
6.296244217
  0
LINE
  5
216
100
AcDbEntity
  8
0
100
AcDbLine
 62
9
  6
CONTINUOUS
 10
14.2555485937
 20
6.296244217
 11
14.5931408079
 21
6.296244217
  0
LINE
  5
217
100
AcDbEntity
  8
0
100
AcDbLine
 62
9
  6
CONTINUOUS
 10
12.3480249886
 20
6.3043728459
 11
14.2519212958
 21
6.3043728459
  0
LINE
  5
218
100
AcDbEntity
  8
0
100
AcDbLine
 62
9
  6
CONTINUOUS
 10
12.358149372
 20
6.3193728459
 11
14.2417969124
 21
6.3193728459
  0
LINE
  5
219
100
AcDbEntity
  8
0
100
AcDbLine
 62
9
  6
CONTINUOUS
 10
12.0469731422
 20
6.3644550261
 11
12.4040478666
 21
6.3644550261
  0
LINE
  5
21A
100
AcDbEntity
  8
0
100
AcDbLine
 62
9
  6
CONTINUOUS
 10
14.1958984178
 20
6.3644550261
 11
14.5529731422
 21
6.3644550261
  0
LINE
  5
21B
100
AcDbEntity
  8
0
100
AcDbLine
 62
9
  6
CONTINUOUS
 10
14.5529731422
 20
6.3663728459
 11
14.1943204793
 21
6.3663728459
  0
LINE
  5
21C
100
AcDbEntity
  8
0
100
AcDbLine
 62
9
  6
CONTINUOUS
 10
12.4056258051
 20
6.3663728459
 11
12.0469731422
 21
6.3663728459
  0
LINE
  5
21D
100
AcDbEntity
  8
0
100
AcDbLine
 62
7
  6
CONTINUOUS
 10
14.4049731063
 20
6.5143728459
 11
14.1238274783
 21
6.5143728459
  0
LINE
  5
21E
100
AcDbEntity
  8
0
100
AcDbLine
 62
7
  6
CONTINUOUS
 10
12.4761188061
 20
6.5143728459
 11
12.1949737522
 21
6.5143728459
  0
LINE
  5
21F
100
AcDbEntity
  8
0
100
AcDbLine
 62
9
  6
CONTINUOUS
 10
14.1154437047
 20
6.6083728459
 11
12.4845025797
 21
6.6083728459
  0
LINE
  5
220
100
AcDbEntity
  8
0
100
AcDbLine
 62
9
  6
CONTINUOUS
 10
12.5122255787
 20
7.0133728459
 11
14.0877207057
 21
7.0133728459
  0
LINE
  5
221
100
AcDbEntity
  8
0
100
AcDbLine
 62
9
  6
CONTINUOUS
 10
12.7754780417
 20
7.5518673258
 11
13.8244682427
 21
7.5518673258
  0
LINE
  5
222
100
AcDbEntity
  8
0
100
AcDbLine
 62
9
  6
CONTINUOUS
 10
12.8653075986
 20
7.742267856
 11
13.7346386858
 21
7.742267856
  0
LINE
  5
223
100
AcDbEntity
  8
0
100
AcDbLine
 62
9
  6
CONTINUOUS
 10
13.7101297912
 20
7.8812647046
 11
12.8898164933
 21
7.8812647046
  0
LINE
  5
224
100
AcDbEntity
  8
0
100
AcDbLine
 62
7
  6
CONTINUOUS
 10
13.6313451717
 20
7.9473728459
 11
12.968602526
 21
7.9473728459
  0
LINE
  5
225
100
AcDbEntity
  8
0
100
AcDbLine
 62
7
  6
CONTINUOUS
 10
12.9474731422
 20
7.9786228459
 11
13.6524731422
 21
7.9786228459
  0
LINE
  5
226
100
AcDbEntity
  8
0
100
AcDbLine
 62
7
  6
CONTINUOUS
 10
13.6524731422
 20
8.0286228459
 11
12.9474731422
 21
8.0286228459
  0
LINE
  5
227
100
AcDbEntity
  8
0
100
AcDbLine
 62
9
  6
CONTINUOUS
 10
13.6764304152
 20
8.4319146268
 11
13.6255813848
 21
8.4319146268
  0
LINE
  5
228
100
AcDbEntity
  8
0
100
AcDbLine
 62
9
  6
CONTINUOUS
 10
12.9743648997
 20
8.4319146268
 11
12.9235158692
 21
8.4319146268
  0
LINE
  5
229
100
AcDbEntity
  8
0
100
AcDbLine
 62
7
  6
CONTINUOUS
 10
6.8001382007
 20
10.1975742711
 11
7.5699856979
 21
9.8707933962
  0
LINE
  5
22A
100
AcDbEntity
  8
0
100
AcDbLine
 62
9
  6
CONTINUOUS
 10
7.5806892993
 20
9.872656728
 11
6.7940477831
 21
10.206566241
  0
LINE
  5
22B
100
AcDbEntity
  8
0
100
AcDbLine
 62
7
  6
CONTINUOUS
 10
12.9694731422
 20
8.9406228459
 11
13.0154403211
 21
8.9406228459
  0
LINE
  5
22C
100
AcDbEntity
  8
0
100
AcDbLine
 62
7
  6
CONTINUOUS
 10
13.5845059633
 20
8.9406228459
 11
13.6304731422
 21
8.9406228459
  0
LINE
  5
22D
100
AcDbEntity
  8
0
100
AcDbLine
 62
9
  6
CONTINUOUS
 10
13.6304731422
 20
9.0116228459
 11
13.4922747087
 21
9.0116228459
  0
LINE
  5
22E
100
AcDbEntity
  8
0
100
AcDbLine
 62
9
  6
CONTINUOUS
 10
13.1076715757
 20
9.0116228459
 11
12.9694731422
 21
9.0116228459
  0
LINE
  5
22F
100
AcDbEntity
  8
0
100
AcDbLine
 62
9
  6
CONTINUOUS
 10
6.8257550264
 20
10.3713818379
 11
7.6772220159
 21
10.009955544
  0
LINE
  5
230
100
AcDbEntity
  8
0
100
AcDbLine
 62
7
  6
CONTINUOUS
 10
6.7234636051
 20
10.5821014683
 11
7.8998586248
 21
10.0827514085
  0
LINE
  5
231
100
AcDbEntity
  8
0
100
AcDbLine
 62
7
  6
CONTINUOUS
 10
13.5834731422
 20
9.0586228459
 11
13.3342632991
 21
9.0586228459
  0
LINE
  5
232
100
AcDbEntity
  8
0
100
AcDbLine
 62
7
  6
CONTINUOUS
 10
13.2656829853
 20
9.0586228459
 11
13.0164731422
 21
9.0586228459
  0
LINE
  5
233
100
AcDbEntity
  8
0
100
AcDbLine
 62
7
  6
CONTINUOUS
 10
13.5719731422
 20
9.0826228459
 11
13.0279731422
 21
9.0826228459
  0
LINE
  5
234
100
AcDbEntity
  8
0
100
AcDbLine
 62
7
  6
CONTINUOUS
 10
13.1199731422
 20
9.1386228459
 11
13.4799731422
 21
9.1386228459
  0
LINE
  5
235
100
AcDbEntity
  8
0
100
AcDbLine
 62
7
  6
CONTINUOUS
 10
13.4699731422
 20
9.1486228459
 11
13.1299731422
 21
9.1486228459
  0
LINE
  5
236
100
AcDbEntity
  8
0
100
AcDbLine
 62
7
  6
CONTINUOUS
 10
8.0131706521
 20
10.349697816
 11
6.8367756323
 21
10.8490478758
  0
LINE
  5
237
100
AcDbEntity
  8
0
100
AcDbLine
 62
7
  6
CONTINUOUS
 10
13.5049731422
 20
10.0393728459
 11
13.7649731422
 21
10.0393728459
  0
LINE
  5
238
100
AcDbEntity
  8
0
100
AcDbLine
 62
7
  6
CONTINUOUS
 10
11.8749731422
 20
6.0723728459
 11
11.8749731422
 21
5.9393728459
  0
LINE
  5
239
100
AcDbEntity
  8
0
100
AcDbLine
 62
7
  6
CONTINUOUS
 10
12.0469731422
 20
6.3663728459
 11
12.0469731422
 21
6.3644550261
  0
LINE
  5
23A
100
AcDbEntity
  8
0
100
AcDbLine
 62
7
  6
CONTINUOUS
 10
12.1299731422
 20
5.9533728459
 11
12.1299731422
 21
5.9393728459
  0
LINE
  5
23B
100
AcDbEntity
  8
0
100
AcDbLine
 62
7
  6
CONTINUOUS
 10
13.1199731422
 20
9.1386228459
 11
13.1299731422
 21
9.1486228459
  0
LINE
  5
23C
100
AcDbEntity
  8
0
100
AcDbLine
 62
9
  6
CONTINUOUS
 10
13.8691314137
 20
10.6300837572
 11
13.4008148707
 21
10.6300837572
  0
LINE
  5
23D
100
AcDbEntity
  8
0
100
AcDbLine
 62
9
  6
CONTINUOUS
 10
13.9923449556
 20
10.8051611028
 11
13.2776013288
 21
10.8051611028
  0
LINE
  5
23E
100
AcDbEntity
  8
0
100
AcDbLine
 62
9
  6
CONTINUOUS
 10
13.2619731422
 20
10.8320814913
 11
14.0079649471
 21
10.8320814913
  0
LINE
  5
23F
100
AcDbEntity
  8
0
100
AcDbLine
 62
7
  6
CONTINUOUS
 10
13.259973142
 20
10.8753728459
 11
14.0099731424
 21
10.8753728459
  0
LINE
  5
240
100
AcDbEntity
  8
0
100
AcDbLine
 62
9
  6
CONTINUOUS
 10
13.2289731422
 20
10.9063728459
 11
14.0409656132
 21
10.9063728459
  0
LINE
  5
241
100
AcDbEntity
  8
0
100
AcDbLine
 62
7
  6
CONTINUOUS
 10
14.0409731422
 20
10.9363728459
 11
13.2289731422
 21
10.9363728459
  0
LINE
  5
242
100
AcDbEntity
  8
0
100
AcDbLine
 62
7
  6
CONTINUOUS
 10
13.2289731422
 20
10.9993728459
 11
14.0409731422
 21
10.9993728459
  0
LINE
  5
243
100
AcDbEntity
  8
0
100
AcDbLine
 62
9
  6
CONTINUOUS
 10
14.0409731422
 20
11.0283728459
 11
13.2289731422
 21
11.0283728459
  0
LINE
  5
244
100
AcDbEntity
  8
0
100
AcDbLine
 62
7
  6
CONTINUOUS
 10
14.009973141
 20
11.0593728459
 11
13.2599731434
 21
11.0593728459
  0
LINE
  5
245
100
AcDbEntity
  8
0
100
AcDbLine
 62
7
  6
CONTINUOUS
 10
13.4799731422
 20
9.1386228459
 11
13.4699731422
 21
9.1486228459
  0
LINE
  5
246
100
AcDbEntity
  8
0
100
AcDbLine
 62
7
  6
CONTINUOUS
 10
12.9474731422
 20
8.0286228459
 11
12.9474731422
 21
7.9786228459
  0
LINE
  5
247
100
AcDbEntity
  8
0
100
AcDbLine
 62
7
  6
CONTINUOUS
 10
12.9694731422
 20
9.0116228459
 11
12.9694731422
 21
8.9406228459
  0
LINE
  5
248
100
AcDbEntity
  8
0
100
AcDbLine
 62
7
  6
CONTINUOUS
 10
13.0279731422
 20
9.0826228459
 11
13.0279731422
 21
9.0586228459
  0
LINE
  5
249
100
AcDbEntity
  8
0
100
AcDbLine
 62
7
  6
CONTINUOUS
 10
12.8898164925
 20
7.8812647001
 11
12.8653075986
 21
7.742267856
  0
LINE
  5
24A
100
AcDbEntity
  8
0
100
AcDbLine
 62
9
  6
CONTINUOUS
 10
14.0079731422
 20
11.0962517751
 11
13.2619731422
 21
11.0962517751
  0
LINE
  5
24B
100
AcDbEntity
  8
0
100
AcDbLine
 62
9
  6
CONTINUOUS
 10
13.9836243329
 20
11.1265298473
 11
13.2863219515
 21
11.1265298473
  0
LINE
  5
24C
100
AcDbEntity
  8
0
100
AcDbLine
 62
7
  6
CONTINUOUS
 10
13.1162240153
 20
7.9473728459
 11
13.1162240153
 21
7.9786228459
  0
LINE
  5
24D
100
AcDbEntity
  8
0
100
AcDbLine
 62
7
  6
CONTINUOUS
 10
13.121992221
 20
7.9786228459
 11
13.121992221
 21
7.9473728459
  0
LINE
  5
24E
100
AcDbEntity
  8
0
100
AcDbLine
 62
7
  6
CONTINUOUS
 10
13.1384299484
 20
7.9473728459
 11
13.1384299484
 21
7.9786228459
  0
LINE
  5
24F
100
AcDbEntity
  8
0
100
AcDbLine
 62
7
  6
CONTINUOUS
 10
13.1548564085
 20
7.9786228459
 11
13.1548564085
 21
7.9473728459
  0
LINE
  5
250
100
AcDbEntity
  8
0
100
AcDbLine
 62
7
  6
CONTINUOUS
 10
13.1777574678
 20
7.9473728459
 11
13.1777574678
 21
7.9786228459
  0
LINE
  5
251
100
AcDbEntity
  8
0
100
AcDbLine
 62
7
  6
CONTINUOUS
 10
13.1852293685
 20
7.9473728459
 11
13.1852293685
 21
7.9786228459
  0
LINE
  5
252
100
AcDbEntity
  8
0
100
AcDbLine
 62
7
  6
CONTINUOUS
 10
13.2098133033
 20
7.9786228459
 11
13.2098133033
 21
7.9473728459
  0
LINE
  5
253
100
AcDbEntity
  8
0
100
AcDbLine
 62
7
  6
CONTINUOUS
 10
13.2286228551
 20
7.9473728459
 11
13.2286228551
 21
7.9786228459
  0
LINE
  5
254
100
AcDbEntity
  8
0
100
AcDbLine
 62
7
  6
CONTINUOUS
 10
13.2289731422
 20
11.0283728459
 11
13.2289731422
 21
10.9993728459
  0
LINE
  5
255
100
AcDbEntity
  8
0
100
AcDbLine
 62
7
  6
CONTINUOUS
 10
13.2289731422
 20
10.9363728459
 11
13.2289731422
 21
10.9063728459
  0
LINE
  5
256
100
AcDbEntity
  8
0
100
AcDbLine
 62
7
  6
CONTINUOUS
 10
13.2464028527
 20
7.9786228459
 11
13.2464028527
 21
7.9473728459
  0
LINE
  5
257
100
AcDbEntity
  8
0
100
AcDbLine
 62
7
  6
CONTINUOUS
 10
13.2494974879
 20
7.9473728459
 11
13.2494974879
 21
7.9786228459
  0
LINE
  5
258
100
AcDbEntity
  8
0
100
AcDbLine
 62
7
  6
CONTINUOUS
 10
13.2619731422
 20
11.0962517751
 11
13.2619731422
 21
11.0593728459
  0
LINE
  5
259
100
AcDbEntity
  8
0
100
AcDbLine
 62
7
  6
CONTINUOUS
 10
13.2619731422
 20
10.8753728459
 11
13.2619731422
 21
10.8320814913
  0
LINE
  5
25A
100
AcDbEntity
  8
0
100
AcDbLine
 62
7
  6
CONTINUOUS
 10
13.2784962163
 20
7.9786228459
 11
13.2784962163
 21
7.9473728459
  0
LINE
  5
25B
100
AcDbEntity
  8
0
100
AcDbLine
 62
7
  6
CONTINUOUS
 10
13.2903506768
 20
7.9473728459
 11
13.2903506768
 21
7.9786228459
  0
LINE
  5
25C
100
AcDbEntity
  8
0
100
AcDbLine
 62
7
  6
CONTINUOUS
 10
13.3095956076
 20
7.9786228459
 11
13.3095956076
 21
7.9473728459
  0
LINE
  5
25D
100
AcDbEntity
  8
0
100
AcDbLine
 62
7
  6
CONTINUOUS
 10
13.3214500682
 20
7.9473728459
 11
13.3214500682
 21
7.9786228459
  0
LINE
  5
25E
100
AcDbEntity
  8
0
100
AcDbLine
 62
7
  6
CONTINUOUS
 10
13.3504487965
 20
7.9786228459
 11
13.3504487965
 21
7.9473728459
  0
LINE
  5
25F
100
AcDbEntity
  8
0
100
AcDbLine
 62
7
  6
CONTINUOUS
 10
13.3535434317
 20
7.9473728459
 11
13.3535434317
 21
7.9786228459
  0
LINE
  5
260
100
AcDbEntity
  8
0
100
AcDbLine
 62
7
  6
CONTINUOUS
 10
13.3713234293
 20
7.9786228459
 11
13.3713234293
 21
7.9473728459
  0
LINE
  5
261
100
AcDbEntity
  8
0
100
AcDbLine
 62
7
  6
CONTINUOUS
 10
13.3901329811
 20
7.9473728459
 11
13.3901329811
 21
7.9786228459
  0
LINE
  5
262
100
AcDbEntity
  8
0
100
AcDbLine
 62
7
  6
CONTINUOUS
 10
13.4147169159
 20
7.9786228459
 11
13.4147169159
 21
7.9473728459
  0
LINE
  5
263
100
AcDbEntity
  8
0
100
AcDbLine
 62
7
  6
CONTINUOUS
 10
13.4221888166
 20
7.9786228459
 11
13.4221888166
 21
7.9473728459
  0
LINE
  5
264
100
AcDbEntity
  8
0
100
AcDbLine
 62
7
  6
CONTINUOUS
 10
13.4450898759
 20
7.9473728459
 11
13.4450898759
 21
7.9786228459
  0
LINE
  5
265
100
AcDbEntity
  8
0
100
AcDbLine
 62
7
  6
CONTINUOUS
 10
13.461516336
 20
7.9786228459
 11
13.461516336
 21
7.9473728459
  0
LINE
  5
266
100
AcDbEntity
  8
0
100
AcDbLine
 62
7
  6
CONTINUOUS
 10
13.4779540634
 20
7.9473728459
 11
13.4779540634
 21
7.9786228459
  0
LINE
  5
267
100
AcDbEntity
  8
0
100
AcDbLine
 62
7
  6
CONTINUOUS
 10
13.4837222691
 20
7.9786228459
 11
13.4837222691
 21
7.9473728459
  0
LINE
  5
268
100
AcDbEntity
  8
0
100
AcDbLine
 62
7
  6
CONTINUOUS
 10
13.5412231422
 20
10.0393728459
 11
13.5412231422
 21
9.7244578563
  0
LINE
  5
269
100
AcDbEntity
  8
0
100
AcDbLine
 62
7
  6
CONTINUOUS
 10
13.5719731422
 20
9.0826228459
 11
13.5719731422
 21
9.0586228459
  0
LINE
  5
26A
100
AcDbEntity
  8
0
100
AcDbLine
 62
7
  6
CONTINUOUS
 10
13.6304731422
 20
9.0116228459
 11
13.6304731422
 21
8.9406228459
  0
LINE
  5
26B
100
AcDbEntity
  8
0
100
AcDbLine
 62
7
  6
CONTINUOUS
 10
13.6524731422
 20
8.0286228459
 11
13.6524731422
 21
7.9786228459
  0
LINE
  5
26C
100
AcDbEntity
  8
0
100
AcDbLine
 62
7
  6
CONTINUOUS
 10
13.7287231422
 20
10.0393728459
 11
13.7287231422
 21
9.4205675016
  0
LINE
  5
26D
100
AcDbEntity
  8
0
100
AcDbLine
 62
7
  6
CONTINUOUS
 10
13.8691314137
 20
10.6300837572
 11
13.7649731422
 21
10.0393728459
  0
LINE
  5
26E
100
AcDbEntity
  8
0
100
AcDbLine
 62
7
  6
CONTINUOUS
 10
13.710129792
 20
7.8812647001
 11
13.7346386858
 21
7.742267856
  0
LINE
  5
26F
100
AcDbEntity
  8
0
100
AcDbLine
 62
7
  6
CONTINUOUS
 10
13.4008148707
 20
10.6300837572
 11
13.5049731422
 21
10.0393728459
  0
LINE
  5
270
100
AcDbEntity
  8
0
100
AcDbLine
 62
7
  6
CONTINUOUS
 10
14.0079731422
 20
11.0962517751
 11
14.0079731422
 21
11.0593728459
  0
LINE
  5
271
100
AcDbEntity
  8
0
100
AcDbLine
 62
7
  6
CONTINUOUS
 10
14.0079731422
 20
10.8753728459
 11
14.0079731422
 21
10.8320814913
  0
LINE
  5
272
100
AcDbEntity
  8
0
100
AcDbLine
 62
7
  6
CONTINUOUS
 10
14.0409731422
 20
11.0283728459
 11
14.0409731422
 21
10.9993728459
  0
LINE
  5
273
100
AcDbEntity
  8
0
100
AcDbLine
 62
7
  6
CONTINUOUS
 10
14.0409731422
 20
10.9363728459
 11
14.0409731422
 21
10.9063728459
  0
LINE
  5
274
100
AcDbEntity
  8
0
100
AcDbLine
 62
7
  6
CONTINUOUS
 10
14.4699731422
 20
5.9533728459
 11
14.4699731422
 21
5.9393728459
  0
LINE
  5
275
100
AcDbEntity
  8
0
100
AcDbLine
 62
7
  6
CONTINUOUS
 10
14.5529731422
 20
6.3663728459
 11
14.5529731422
 21
6.3644550261
  0
LINE
  5
276
100
AcDbEntity
  8
0
100
AcDbLine
 62
7
  6
CONTINUOUS
 10
14.7249731422
 20
6.0723728459
 11
14.7249731422
 21
5.9393728459
  0
ARC
  5
277
100
AcDbEntity
  8
0
100
AcDbCircle
 62
7
  6
CONTINUOUS
 10
7.3090200745
 20
10.1662479954
 40
0.4
100
AcDbArc
 50
312.7790569402
 51
337.0
  0
ARC
  5
278
100
AcDbEntity
  8
0
100
AcDbCircle
 62
7
  6
CONTINUOUS
 10
7.1939569678
 20
10.2150893865
 40
0.4
100
AcDbArc
 50
157.0
 51
181.2209430598
  0
ARC
  5
279
100
AcDbEntity
  8
0
100
AcDbCircle
 62
7
  6
CONTINUOUS
 10
6.8782897251
 20
10.6739039342
 40
0.18
100
AcDbArc
 50
103.3360575146
 51
210.6639424854
  0
ARC
  5
27A
100
AcDbEntity
  8
0
100
AcDbCircle
 62
7
  6
CONTINUOUS
 10
7.858344532
 20
10.2578953501
 40
0.18
100
AcDbArc
 50
283.3360575146
 51
30.6639424854
  0
ARC
  5
27B
100
AcDbEntity
  8
0
100
AcDbCircle
 62
7
  6
CONTINUOUS
 10
6.8040455128
 20
10.2067793193
 40
0.01
100
AcDbArc
 50
181.2209411427
 51
246.9999951894
  0
ARC
  5
27C
100
AcDbEntity
  8
0
100
AcDbCircle
 62
7
  6
CONTINUOUS
 10
7.5738975684
 20
9.8799965095
 40
0.01
100
AcDbArc
 50
247.0000048106
 51
312.7790588573
  0
ARC
  5
27D
100
AcDbEntity
  8
0
100
AcDbCircle
 62
7
  6
CONTINUOUS
 10
14.0012341668
 20
6.7079986089
 40
1.52
100
AcDbArc
 50
168.4101664985
 51
183.7580464625
  0
ARC
  5
27E
100
AcDbEntity
  8
0
100
AcDbCircle
 62
7
  6
CONTINUOUS
 10
12.5987121176
 20
6.7079986089
 40
1.52
100
AcDbArc
 50
356.2419535375
 51
11.5898335015
  0
ARC
  5
27F
100
AcDbEntity
  8
0
100
AcDbCircle
 62
7
  6
CONTINUOUS
 10
12.9121876098
 20
6.772287922
 40
1.2
100
AcDbArc
 50
11.5898335015
 51
40.5151811264
  0
ARC
  5
280
100
AcDbEntity
  8
0
100
AcDbCircle
 62
7
  6
CONTINUOUS
 10
13.6877586746
 20
6.772287922
 40
1.2
100
AcDbArc
 50
139.4848188736
 51
168.4101664985
  0
ARC
  5
281
100
AcDbEntity
  8
0
100
AcDbCircle
 62
7
  6
CONTINUOUS
 10
12.4713844974
 20
7.8117271271
 40
0.4
100
AcDbArc
 50
319.4848188736
 51
350.0
  0
ARC
  5
282
100
AcDbEntity
  8
0
100
AcDbCircle
 62
7
  6
CONTINUOUS
 10
14.128561787
 20
7.8117271271
 40
0.4
100
AcDbArc
 50
190.0
 51
220.5151811264
  0
ARC
  5
283
100
AcDbEntity
  8
0
100
AcDbCircle
 62
7
  6
CONTINUOUS
 10
12.64059179
 20
8.2127502418
 40
0.3578813522
100
AcDbArc
 50
329.0364377797
 51
37.7628051894
  0
ARC
  5
284
100
AcDbEntity
  8
0
100
AcDbCircle
 62
7
  6
CONTINUOUS
 10
13.9593544944
 20
8.2127502418
 40
0.3578813522
100
AcDbArc
 50
142.2371948106
 51
210.9635622203
  0
ARC
  5
285
100
AcDbEntity
  8
0
100
AcDbCircle
 62
7
  6
CONTINUOUS
 10
14.4577061615
 20
6.585891506
 40
0.343
100
AcDbArc
 50
176.2419535375
 51
230.9887457036
  0
ARC
  5
286
100
AcDbEntity
  8
0
100
AcDbCircle
 62
7
  6
CONTINUOUS
 10
12.1422401229
 20
6.585891506
 40
0.343
100
AcDbArc
 50
309.0112542964
 51
3.7580464625
  0
ARC
  5
287
100
AcDbEntity
  8
0
100
AcDbCircle
 62
7
  6
CONTINUOUS
 10
12.1309731422
 20
6.0723728459
 40
0.256
100
AcDbArc
 50
119.0144342968
 51
180.0
  0
ARC
  5
288
100
AcDbEntity
  8
0
100
AcDbCircle
 62
7
  6
CONTINUOUS
 10
14.4689731422
 20
6.0723728459
 40
0.256
100
AcDbArc
 50
0.0
 51
60.9855657032
  0
ARC
  5
289
100
AcDbEntity
  8
0
100
AcDbCircle
 62
7
  6
CONTINUOUS
 10
14.4049731422
 20
6.3663728459
 40
0.148
100
AcDbArc
 50
0.0
 51
90.0
  0
ARC
  5
28A
100
AcDbEntity
  8
0
100
AcDbCircle
 62
7
  6
CONTINUOUS
 10
12.1949731422
 20
6.3663728459
 40
0.148
100
AcDbArc
 50
90.0
 51
180.0
  0
ARC
  5
28B
100
AcDbEntity
  8
0
100
AcDbCircle
 62
7
  6
CONTINUOUS
 10
12.2549731422
 20
5.9533728459
 40
0.125
100
AcDbArc
 50
118.3576365763
 51
180.0
  0
ARC
  5
28C
100
AcDbEntity
  8
0
100
AcDbCircle
 62
7
  6
CONTINUOUS
 10
14.3449731422
 20
5.9533728459
 40
0.125
100
AcDbArc
 50
0.0
 51
61.6423634237
  0
ARC
  5
28D
100
AcDbEntity
  8
0
100
AcDbCircle
 62
7
  6
CONTINUOUS
 10
12.9686011127
 20
7.8673728459
 40
0.08
100
AcDbArc
 50
90.0
 51
169.9999967015
  0
ARC
  5
28E
100
AcDbEntity
  8
0
100
AcDbCircle
 62
7
  6
CONTINUOUS
 10
13.6313451717
 20
7.8673728459
 40
0.08
100
AcDbArc
 50
10.0000032985
 51
90.0
  0
ARC
  5
28F
100
AcDbEntity
  8
0
100
AcDbCircle
 62
7
  6
CONTINUOUS
 10
11.9689731422
 20
6.3644550261
 40
0.078
100
AcDbArc
 50
299.0144340224
 51
360.0
  0
ARC
  5
290
100
AcDbEntity
  8
0
100
AcDbCircle
 62
7
  6
CONTINUOUS
 10
14.6309731422
 20
6.3644550261
 40
0.078
100
AcDbArc
 50
180.0
 51
240.9855659776
  0
ARC
  5
291
100
AcDbEntity
  8
0
100
AcDbCircle
 62
7
  6
CONTINUOUS
 10
12.3607375515
 20
6.2024747814
 40
0.078
100
AcDbArc
 50
120.9443106101
 51
171.96842665
  0
ARC
  5
292
100
AcDbEntity
  8
0
100
AcDbCircle
 62
7
  6
CONTINUOUS
 10
14.2392087329
 20
6.2024747814
 40
0.078
100
AcDbArc
 50
8.03157335
 51
59.0556893899
  0
ARC
  5
293
100
AcDbEntity
  8
0
100
AcDbCircle
 62
7
  6
CONTINUOUS
 10
12.3059220841
 20
6.1098941362
 40
0.078
100
AcDbArc
 50
126.7734275125
 51
176.708302835
  0
ARC
  5
294
100
AcDbEntity
  8
0
100
AcDbCircle
 62
7
  6
CONTINUOUS
 10
14.2940242003
 20
6.1098941362
 40
0.078
100
AcDbArc
 50
3.291697165
 51
53.2265724875
  0
ARC
  5
295
100
AcDbEntity
  8
0
100
AcDbCircle
 62
7
  6
CONTINUOUS
 10
14.3111973905
 20
6.3225482305
 40
0.062
100
AcDbArc
 50
197.0467181652
 51
239.05568939
  0
ARC
  5
296
100
AcDbEntity
  8
0
100
AcDbCircle
 62
7
  6
CONTINUOUS
 10
12.288748894
 20
6.3225482305
 40
0.062
100
AcDbArc
 50
300.94431061
 51
342.9532818348
  0
ARC
  5
297
100
AcDbEntity
  8
0
100
AcDbCircle
 62
7
  6
CONTINUOUS
 10
14.3778355045
 20
6.22203541
 40
0.062
100
AcDbArc
 50
188.0315733501
 51
233.2265724873
  0
ARC
  5
298
100
AcDbEntity
  8
0
100
AcDbCircle
 62
7
  6
CONTINUOUS
 10
12.2221107799
 20
6.22203541
 40
0.062
100
AcDbArc
 50
306.7734275127
 51
351.9684266499
  0
ARC
  5
299
100
AcDbEntity
  8
0
100
AcDbCircle
 62
7
  6
CONTINUOUS
 10
14.433793221
 20
6.1179328459
 40
0.062
100
AcDbArc
 50
183.291697165
 51
241.6423634236
  0
ARC
  5
29A
100
AcDbEntity
  8
0
100
AcDbCircle
 62
7
  6
CONTINUOUS
 10
12.1661530634
 20
6.1179328459
 40
0.062
100
AcDbArc
 50
298.3576365764
 51
356.708302835
  0
ARC
  5
29B
100
AcDbEntity
  8
0
100
AcDbCircle
 62
7
  6
CONTINUOUS
 10
12.3776630359
 20
6.2952851536
 40
0.031
100
AcDbArc
 50
129.0112542964
 51
162.9532818348
  0
ARC
  5
29C
100
AcDbEntity
  8
0
100
AcDbCircle
 62
7
  6
CONTINUOUS
 10
14.2222832485
 20
6.2952851536
 40
0.031
100
AcDbArc
 50
17.0467181652
 51
50.9887457036
  0
ARC
  5
29D
100
AcDbEntity
  8
0
100
AcDbCircle
 62
7
  6
CONTINUOUS
 10
13.6349731422
 20
9.5393728459
 40
1.625
100
AcDbArc
 50
77.6106032529
 51
102.3893967471
  0
CIRCLE
  5
29E
100
AcDbEntity
  8
0
100
AcDbCircle
 62
7
  6
CONTINUOUS
 10
13.2999731422
 20
8.6616228459
 40
0.4
  0
ARC
  5
29F
100
AcDbEntity
  8
0
100
AcDbCircle
 62
7
  6
CONTINUOUS
 10
13.3799731422
 20
8.6615623686
 40
0.375
100
AcDbArc
 50
322.2371948106
 51
48.0871091166
  0
ARC
  5
2A0
100
AcDbEntity
  8
0
100
AcDbCircle
 62
7
  6
CONTINUOUS
 10
13.2199731422
 20
8.6615623686
 40
0.375
100
AcDbArc
 50
131.9128908834
 51
217.7628051894
  0
CIRCLE
  5
2A1
100
AcDbEntity
  8
0
100
AcDbCircle
 62
7
  6
CONTINUOUS
 10
13.2999731422
 20
8.6616228459
 40
0.2525
  0
ARC
  5
2A2
100
AcDbEntity
  8
0
100
AcDbCircle
 62
7
  6
CONTINUOUS
 10
14.1173029674
 20
10.5863244164
 40
0.252
100
AcDbArc
 50
119.7268139317
 51
170.0
  0
ARC
  5
2A3
100
AcDbEntity
  8
0
100
AcDbCircle
 62
7
  6
CONTINUOUS
 10
13.152643317
 20
10.5863244164
 40
0.252
100
AcDbArc
 50
10.0
 51
60.2731860683
  0
CIRCLE
  5
2A4
100
AcDbEntity
  8
0
100
AcDbCircle
 62
7
  6
CONTINUOUS
 10
13.2999731422
 20
8.6616228459
 40
0.2375
  0
ARC
  5
2A5
100
AcDbEntity
  8
0
100
AcDbCircle
 62
7
  6
CONTINUOUS
 10
13.5359731422
 20
9.1386228459
 40
0.056
100
AcDbArc
 50
180.0
 51
270.0
  0
ARC
  5
2A6
100
AcDbEntity
  8
0
100
AcDbCircle
 62
7
  6
CONTINUOUS
 10
13.0639731422
 20
9.1386228459
 40
0.056
100
AcDbArc
 50
270.0
 51
360.0
  0
ARC
  5
2A7
100
AcDbEntity
  8
0
100
AcDbCircle
 62
7
  6
CONTINUOUS
 10
13.5834731422
 20
9.0116228459
 40
0.047
100
AcDbArc
 50
0.0
 51
90.0
  0
ARC
  5
2A8
100
AcDbEntity
  8
0
100
AcDbCircle
 62
7
  6
CONTINUOUS
 10
13.0164731422
 20
9.0116228459
 40
0.047
100
AcDbArc
 50
90.0
 51
180.0
  0
ARC
  5
2A9
100
AcDbEntity
  8
0
100
AcDbCircle
 62
7
  6
CONTINUOUS
 10
14.0409731422
 20
10.9678728459
 40
0.0315
100
AcDbArc
 50
270.0
 51
90.0
  0
ARC
  5
2AA
100
AcDbEntity
  8
0
100
AcDbCircle
 62
7
  6
CONTINUOUS
 10
13.2289731422
 20
10.9678728459
 40
0.0315
100
AcDbArc
 50
90.0
 51
270.0
  0
ARC
  5
2AB
100
AcDbEntity
  8
0
100
AcDbCircle
 62
7
  6
CONTINUOUS
 10
13.2929731422
 20
10.8320814919
 40
0.031
100
AcDbArc
 50
180.0
 51
240.2731977749
  0
ARC
  5
2AC
100
AcDbEntity
  8
0
100
AcDbCircle
 62
7
  6
CONTINUOUS
 10
13.9769731422
 20
10.8320814919
 40
0.031
100
AcDbArc
 50
299.7268022251
 51
360.0
  0
ARC
  5
2AD
100
AcDbEntity
  8
0
100
AcDbCircle
 62
7
  6
CONTINUOUS
 10
14.0099731422
 20
10.9063728459
 40
0.031
100
AcDbArc
 50
270.0000004024
 51
360.0
  0
ARC
  5
2AE
100
AcDbEntity
  8
0
100
AcDbCircle
 62
7
  6
CONTINUOUS
 10
13.2599731422
 20
10.9063728459
 40
0.031
100
AcDbArc
 50
180.0
 51
269.9999995976
  0
ARC
  5
2AF
100
AcDbEntity
  8
0
100
AcDbCircle
 62
7
  6
CONTINUOUS
 10
14.0099731422
 20
11.0283728459
 40
0.031
100
AcDbArc
 50
0.0
 51
90.0000022841
  0
ARC
  5
2B0
100
AcDbEntity
  8
0
100
AcDbCircle
 62
7
  6
CONTINUOUS
 10
13.2599731422
 20
11.0283728459
 40
0.031
100
AcDbArc
 50
89.9999977159
 51
180.0
  0
ARC
  5
2B1
100
AcDbEntity
  8
0
100
AcDbCircle
 62
7
  6
CONTINUOUS
 10
13.9769731422
 20
11.096251775
 40
0.031
100
AcDbArc
 50
0.0
 51
77.6106056362
  0
ARC
  5
2B2
100
AcDbEntity
  8
0
100
AcDbCircle
 62
7
  6
CONTINUOUS
 10
13.2929731422
 20
11.096251775
 40
0.031
100
AcDbArc
 50
102.3893943638
 51
180.0
  0
LINE
  5
2B3
100
AcDbEntity
  8
0
100
AcDbLine
 62
7
  6
CONTINUOUS
 10
13.5249731422
 20
9.7533762851
 11
13.5255775966
 21
9.7522932
  0
SPLINE
  5
2B4
100
AcDbEntity
  8
0
100
AcDbSpline
 62
7
  6
CONTINUOUS
 70
0
 71
3
 72
12
 73
8
 74
0
 42
0.0000001
 43
0.0000001
 44
0.0000000001
 40
0.0
 40
0.0
 40
0.0
 40
0.0
 40
0.2206924402
 40
0.5160103463
 40
0.810383974
 40
0.9372326191
 40
1.0
 40
1.0
 40
1.0
 40
1.0
 10
13.5255775966
 20
9.7522932
 30
0.0
 10
13.5405567527
 20
9.7254607166
 30
0.0
 10
13.5760736142
 20
9.6629966229
 30
0.0
 10
13.6338563519
 20
9.5660573383
 30
0.0
 10
13.6874043329
 20
9.4818466279
 30
0.0
 10
13.7249821634
 20
9.4258989832
 30
0.0
 10
13.739977869
 20
9.4041672547
 30
0.0
 10
13.7449731422
 20
9.3969952947
 30
0.0
  0
SPLINE
  5
2B5
100
AcDbEntity
  8
0
100
AcDbSpline
 62
7
  6
CONTINUOUS
 70
0
 71
3
 72
17
 73
13
 74
0
 42
0.0000001
 43
0.0000001
 44
0.0000000001
 40
0.0
 40
0.0
 40
0.0
 40
0.0
 40
0.1250354546
 40
0.2495755837
 40
0.3737309556
 40
0.4977089321
 40
0.62181723
 40
0.7464885054
 40
0.8092217851
 40
0.8723202583
 40
0.9358783132
 40
1.0
 40
1.0
 40
1.0
 40
1.0
 10
13.7449731422
 20
9.3969952947
 30
0.0
 10
13.8070756727
 20
9.2881710317
 30
0.0
 10
13.9242429914
 20
9.0669854162
 30
0.0
 10
14.0773643378
 20
8.7248989572
 30
0.0
 10
14.2057608682
 20
8.3738630335
 30
0.0
 10
14.307678925
 20
8.0146554872
 30
0.0
 10
14.3811670388
 20
7.6480144701
 30
0.0
 10
14.41701056
 20
7.3374988106
 30
0.0
 10
14.4295322395
 20
7.0867158853
 30
0.0
 10
14.4305675637
 20
6.8968648267
 30
0.0
 10
14.4229480792
 20
6.705776324
 30
0.0
 10
14.411967583
 20
6.5782465095
 30
0.0
 10
14.4049730824
 20
6.5143723002
 30
0.0
  0
SPLINE
  5
2B6
100
AcDbEntity
  8
0
100
AcDbSpline
 62
7
  6
CONTINUOUS
 70
0
 71
3
 72
50
 73
46
 74
0
 42
0.0000001
 43
0.0000001
 44
0.0000000001
 40
0.0
 40
0.0
 40
0.0
 40
0.0
 40
0.0346959528
 40
0.0690404545
 40
0.1030312645
 40
0.1198978442
 40
0.1366789
 40
0.1533778578
 40
0.1699988739
 40
0.203017415
 40
0.2194271598
 40
0.235773404
 40
0.2520594438
 40
0.2682892559
 40
0.3005936097
 40
0.3327202885
 40
0.3646861524
 40
0.396489812
 40
0.4280840026
 40
0.459422825
 40
0.4750002475
 40
0.4905171604
 40
0.5059778192
 40
0.5213889059
 40
0.5520845235
 40
0.5826279121
 40
0.6129887299
 40
0.6280940072
 40
0.6431475078
 40
0.6581494549
 40
0.6731005534
 40
0.6880072915
 40
0.7028801513
 40
0.7325574266
 40
0.7621963446
 40
0.7918417686
 40
0.8215205117
 40
0.8363767838
 40
0.8512438634
 40
0.8661201263
 40
0.8810031075
 40
0.9107779719
 40
0.9405491588
 40
0.9702961274
 40
1.0
 40
1.0
 40
1.0
 40
1.0
 10
6.8818714169
 20
10.8299000257
 30
0.0
 10
6.9434188582
 20
10.8966157923
 30
0.0
 10
7.070119699
 20
11.0255471553
 30
0.0
 10
7.2712129357
 20
11.205301316
 30
0.0
 10
7.44702542
 20
11.3426241817
 30
0.0
 10
7.5919098957
 20
11.4442640334
 30
0.0
 10
7.7023235276
 20
11.5161288158
 30
0.0
 10
7.8146314762
 20
11.583759958
 30
0.0
 10
7.9663619541
 20
11.6680617329
 30
0.0
 10
8.1217394115
 20
11.7440491724
 30
0.0
 10
8.280107441
 20
11.8114183637
 30
0.0
 10
8.3998847179
 20
11.8574793605
 30
0.0
 10
8.5207645098
 20
11.8991392996
 30
0.0
 10
8.6829618609
 20
11.9487243673
 30
0.0
 10
8.8878760043
 20
11.9998753762
 30
0.0
 10
9.1363234837
 20
12.0442133379
 30
0.0
 10
9.3858678625
 20
12.071772395
 30
0.0
 10
9.6352776933
 20
12.0828944935
 30
0.0
 10
9.883235977
 20
12.0782592164
 30
0.0
 10
10.0881041554
 20
12.0617493407
 30
0.0
 10
10.2501704113
 20
12.041283508
 30
0.0
 10
10.3705175549
 20
12.0224449403
 30
0.0
 10
10.4898291881
 20
12.0001475316
 30
0.0
 10
10.6472365159
 20
11.9659106854
 30
0.0
 10
10.8412443421
 20
11.914702195
 30
0.0
 10
11.0691153315
 20
11.840116789
 30
0.0
 10
11.2542676489
 20
11.7672400712
 30
0.0
 10
11.3988788038
 20
11.7027316546
 30
0.0
 10
11.5053082244
 20
11.6513918888
 30
0.0
 10
11.6097892337
 20
11.5970651328
 30
0.0
 10
11.7122361693
 20
11.5397759632
 30
0.0
 10
11.8126292778
 20
11.4796145147
 30
0.0
 10
11.9437016211
 20
11.3958256332
 30
0.0
 10
12.1027957687
 20
11.2844717064
 30
0.0
 10
12.2863884549
 20
11.1412844571
 30
0.0
 10
12.4629967617
 20
10.9895817176
 30
0.0
 10
12.6046979127
 20
10.8568993591
 30
0.0
 10
12.7150305413
 20
10.7474496439
 30
0.0
 10
12.7963737338
 20
10.6637913745
 30
0.0
 10
12.8762885027
 20
10.5786720818
 30
0.0
 10
12.9808906748
 20
10.463267072
 30
0.0
 10
13.107861918
 20
10.3155864055
 30
0.0
 10
13.2539195537
 20
10.1332150871
 30
0.0
 10
13.3934273741
 20
9.9460196722
 30
0.0
 10
13.4819419316
 20
9.8180838441
 30
0.0
 10
13.5249731422
 20
9.7533762851
 30
0.0
  0
SPLINE
  5
2B7
100
AcDbEntity
  8
0
100
AcDbSpline
 62
9
  6
CONTINUOUS
 70
0
 71
3
 72
44
 73
40
 74
0
 42
0.0000001
 43
0.0000001
 44
0.0000000001
 40
0.0
 40
0.0
 40
0.0
 40
0.0
 40
0.0329319592
 40
0.065492621
 40
0.0977368262
 40
0.1137589507
 40
0.1297209031
 40
0.1614869567
 40
0.1930923922
 40
0.2245807938
 40
0.2559899365
 40
0.2873532173
 40
0.3186944745
 40
0.3500274182
 40
0.3813400913
 40
0.4126019663
 40
0.4437930539
 40
0.4748991245
 40
0.5059140426
 40
0.5368266627
 40
0.5676129073
 40
0.5829566273
 40
0.5982663818
 40
0.6135435884
 40
0.6287918726
 40
0.6440222993
 40
0.6592468999
 40
0.6897145943
 40
0.7202640857
 40
0.7509358665
 40
0.7817484582
 40
0.7972090817
 40
0.8127028264
 40
0.8437766367
 40
0.8749476021
 40
0.9061867962
 40
0.9374622993
 40
0.9687421938
 40
1.0
 40
1.0
 40
1.0
 40
1.0
 10
7.4249760408
 20
10.5993760839
 30
0.0
 10
7.4765717553
 20
10.6570110647
 30
0.0
 10
7.5834900003
 20
10.7678610644
 30
0.0
 10
7.754939377
 20
10.9208428005
 30
0.0
 10
7.9058302242
 20
11.0363980621
 30
0.0
 10
8.0306210561
 20
11.1212392951
 30
0.0
 10
8.1575599065
 20
11.200735201
 30
0.0
 10
8.32094643
 20
11.2907413301
 30
0.0
 10
8.5236997295
 20
11.3836278373
 30
0.0
 10
8.7319132451
 20
11.4611618234
 30
0.0
 10
8.9446352689
 20
11.5232711997
 30
0.0
 10
9.1608707948
 20
11.5701064226
 30
0.0
 10
9.3796482459
 20
11.6018193876
 30
0.0
 10
9.5999529877
 20
11.6185470299
 30
0.0
 10
9.8206906738
 20
11.6205102096
 30
0.0
 10
10.0407417857
 20
11.6079508484
 30
0.0
 10
10.2590193905
 20
11.5811100689
 30
0.0
 10
10.4745160166
 20
11.5402190421
 30
0.0
 10
10.6862301826
 20
11.4854146247
 30
0.0
 10
10.893109281
 20
11.4168632358
 30
0.0
 10
11.0607556952
 20
11.3482907941
 30
0.0
 10
11.1912894715
 20
11.2866773977
 30
0.0
 10
11.2871767316
 20
11.2371709566
 30
0.0
 10
11.3810185274
 20
11.184344919
 30
0.0
 10
11.472696881
 20
11.1282036691
 30
0.0
 10
11.5621960948
 20
11.0688741375
 30
0.0
 10
11.6786605144
 20
10.9856762195
 30
0.0
 10
11.819013815
 20
10.8742104573
 30
0.0
 10
11.9789149285
 20
10.7297322424
 30
0.0
 10
12.1305409565
 20
10.5754750316
 30
0.0
 10
12.2500188612
 20
10.4397372487
 30
0.0
 10
12.3416681734
 20
10.3272450783
 30
0.0
 10
12.4308756085
 20
10.2120288742
 30
0.0
 10
12.5373268814
 20
10.0635672945
 30
0.0
 10
12.6566643158
 20
9.8791405491
 30
0.0
 10
12.7674855028
 20
9.6889265357
 30
0.0
 10
12.8695530519
 20
9.4935870587
 30
0.0
 10
12.9624902182
 20
9.2936967985
 30
0.0
 10
13.0181672427
 20
9.1576916242
 30
0.0
 10
13.0444216137
 20
9.0891228502
 30
0.0
  0
LINE
  5
2B8
100
AcDbEntity
  8
0
100
AcDbLine
 62
9
  6
CONTINUOUS
 10
13.0444216137
 20
9.0891228502
 11
13.0459229016
 21
9.085196784
  0
ENDSEC
  0
SECTION
  2
OBJECTS
  0
DICTIONARY
  5
C
100
AcDbDictionary
280
0
281
1
  3
ACAD_GROUP
350
D
  3
ACAD_MLINESTYLE
350
17
  3
ACAD_LAYOUT
350
1A
  3
ACAD_PLOTSETTINGS
350
19
  3
ACAD_PLOTSTYLENAME
350
E
  0
DICTIONARY
  5
D
102
{ACAD_REACTORS
330
C
102
}
100
AcDbDictionary
280
0
281
1
  0
ACDBDICTIONARYWDFLT
  5
E
102
{ACAD_REACTORS
330
C
102
}
100
AcDbDictionary
281
1
  3
Normal
350
F
100
AcDbDictionaryWithDefault
340
F
  0
DICTIONARY
  5
17
102
{ACAD_REACTORS
330
C
102
}
100
AcDbDictionary
280
0
281
1
  3
Standard
350
18
  0
DICTIONARY
  5
19
102
{ACAD_REACTORS
330
C
102
}
100
AcDbDictionary
281
1
  0
DICTIONARY
  5
1A
102
{ACAD_REACTORS
330
C
102
}
100
AcDbDictionary
281
1
  3
Model
350
2B9
  3
Layout1
350
2BA
  0
ACDBPLACEHOLDER
  5
F
102
{ACAD_REACTORS
330
E
102
}
  0
MLINESTYLE
  5
18
102
{ACAD_REACTORS
330
17
102
}
100
AcDbMlineStyle
  2
STANDARD
 70
0
  3

 62
256
 51
90.0
 52
90.0
 71
2
 49
0.5
 62
256
  6
BYLAYER
 49
-0.5
 62
256
  6
BYLAYER
  0
LAYOUT
  5
2B9
102
{ACAD_REACTORS
330
1A
102
}
100
AcDbPlotSettings
  1

  2
none_device
  4
ANSI_C_(22.00_x_17.00_Inches)
  6

 40
0.0
 41
0.0
 42
0.0
 43
0.0
 44
558.8
 45
431.8
 46
0.0
 47
0.0
 48
0.0
 49
0.0
140
0.0
141
0.0
142
1.0
143
1.0
 70
1024
 72
0
 73
0
 74
0
  7

 75
0
147
1.0
148
0.0
149
0.0
100
AcDbLayout
  1
Model
 70
0
 71
0
 10
0.0
 20
0.0
 11
22.0
 21
17.0
 12
0.0
 22
0.0
 32
0.0
 14
0.0
 24
0.0
 34
0.0
 15
0.0
 25
0.0
 35
0.0
146
0.0
 13
0.0
 23
0.0
 33
0.0
 16
1.0
 26
0.0
 36
0.0
 17
0.0
 27
1.0
 37
0.0
 76
0
330
202
345
0
346
0
  0
LAYOUT
  5
2BA
102
{ACAD_REACTORS
330
1A
102
}
100
AcDbPlotSettings
  1

  2
none_device
  4
ANSI_C_(22.00_x_17.00_Inches)
  6

 40
0.0
 41
0.0
 42
0.0
 43
0.0
 44
558.8
 45
431.8
 46
0.0
 47
0.0
 48
0.0
 49
0.0
140
0.0
141
0.0
142
1.0
143
1.0
 70
0
 72
0
 73
0
 74
0
  7

 75
0
147
1.0
148
0.0
149
0.0
100
AcDbLayout
  1
Layout1
 70
0
 71
1
 10
0.0
 20
0.0
 11
22.0
 21
17.0
 12
0.0
 22
0.0
 32
0.0
 14
0.0
 24
0.0
 34
0.0
 15
0.0
 25
0.0
 35
0.0
146
0.0
 13
0.0
 23
0.0
 33
0.0
 16
1.0
 26
0.0
 36
0.0
 17
0.0
 27
1.0
 37
0.0
 76
0
330
203
345
0
346
0
  0
ENDSEC
  0
EOF
