999
DXF file: E:\BT Custom\CADOUTPUT\_TOP.dxf
999
Pro/ENGINEER 2018400 by Parametric Technology Corporation
  0
SECTION
  2
HEADER
  9
$ACADVER
  1
AC1018
  9
$DWGCODEPAGE
  3
ANSI_1252
  9
$EXTMAX
 10
22.0
 20
17.0
 30
0.0
  9
$EXTMIN
 10
0.0
 20
0.0
 30
0.0
  9
$LIMMIN
 10
0.0
 20
0.0
  9
$LIMMAX
 10
22.0
 20
17.0
  9
$VIEWCTR
 10
11.0
 20
8.5
  9
$VIEWSIZE
 40
17.0
  9
$CLAYER
  8
0
  9
$LTSCALE
 40
1.21
  9
$CELTYPE
  6
BYLAYER
  9
$DIMSCALE
 40
1.0
  9
$DIMASZ
 40
0.1
  9
$DIMEXO
 40
0.0625
  9
$DIMDLI
 40
0.836
  9
$DIMEXE
 40
0.125
  9
$DIMCEN
 40
0.198
  9
$DIMLFAC
 40
1.0
  9
$DIMBLK
  1
_FILLED
  9
$DIMALT
 70
1
  9
$DIMALTD
 70
2
  9
$DIMALTTD
 70
2
  9
$DIMALTF
 40
25.4
  9
$DIMTXT
 40
0.08
  9
$DIMTOL
 70
1
  9
$DIMLIM
 70
0
  9
$DIMTFAC
 40
1.0
  9
$DIMTP
 40
0.001
  9
$DIMTM
 40
0.001
  9
$DIMGAP
 40
0.09
  9
$DIMDSEP
 70
46
  9
$AUNITS
 70
0
  9
$PDMODE
 70
3
  9
$PDSIZE
 40
0.06
  9
$HANDSEED
  5
28F
  9
$TILEMODE
 70
1
  9
$MEASUREMENT
 70
0
  9
$INSUNITS
 70
1
  0
ENDSEC
  0
SECTION
  2
CLASSES
  0
CLASS
  1
ACDBDICTIONARYWDFLT
  2
AcDbDictionaryWithDefault
  3
AutoCAD 2000
 90
0
 91
1
280
0
281
0
  0
CLASS
  1
ACDBPLACEHOLDER
  2
AcDbPlaceHolder
  3
AutoCAD 2000
 90
0
 91
1
280
0
281
0
  0
CLASS
  1
LAYOUT
  2
AcDbLayout
  3
AutoCAD 2000
 90
0
 91
0
280
0
281
0
  0
ENDSEC
  0
SECTION
  2
TABLES
  0
TABLE
  2
VPORT
  5
8
100
AcDbSymbolTable
 70
2
  0
VPORT
  5
1F4
100
AcDbSymbolTableRecord
100
AcDbViewportTableRecord
  2
*ACTIVE
 70
0
 10
0.0
 20
0.0
 11
1.0
 21
1.0
 12
11.0
 22
8.5
 13
0.0
 23
0.0
 14
1.0
 24
1.0
 15
0.0
 25
0.0
 16
0.0
 26
0.0
 36
1.0
 17
0.0
 27
0.0
 37
0.0
 40
17.0
 41
1.2941176471
 42
50.0
 43
0.0
 44
0.0
 50
0.0
 51
0.0
 71
0
 72
100
 73
1
 74
1
 75
0
 76
0
 77
0
 78
0
  0
ENDTAB
  0
TABLE
  2
LTYPE
  5
5
100
AcDbSymbolTable
 70
6
  0
LTYPE
  5
14
100
AcDbSymbolTableRecord
100
AcDbLinetypeTableRecord
  2
BYBLOCK
 70
0
  3

 72
65
 73
0
 40
0.0
  0
LTYPE
  5
15
100
AcDbSymbolTableRecord
100
AcDbLinetypeTableRecord
  2
BYLAYER
 70
0
  3

 72
65
 73
0
 40
0.0
  0
LTYPE
  5
16
100
AcDbSymbolTableRecord
100
AcDbLinetypeTableRecord
  2
CONTINUOUS
 70
64
  3
Solid line
 72
65
 73
0
 40
0.0
  0
LTYPE
  5
1F5
100
AcDbSymbolTableRecord
100
AcDbLinetypeTableRecord
  2
CENTER
 70
64
  3
____ _ ____ _ ____ _ ____ _ ____ _ ____ _ ____
 72
65
 73
4
 40
0.6
 49
0.375
 74
0
 49
-0.075
 74
0
 49
0.075
 74
0
 49
-0.075
 74
0
  0
LTYPE
  5
1F6
100
AcDbSymbolTableRecord
100
AcDbLinetypeTableRecord
  2
HIDDEN
 70
64
  3
- - - - - - - - - - - - - - - - - - - -
 72
65
 73
2
 40
0.2
 49
0.1
 74
0
 49
-0.1
 74
0
  0
LTYPE
  5
1F7
100
AcDbSymbolTableRecord
100
AcDbLinetypeTableRecord
  2
PHANTOM
 70
64
  3
_____ _ _ _____ _ _ _____ _ _ _____
 72
65
 73
6
 40
0.8
 49
0.45
 74
0
 49
-0.05
 74
0
 49
0.1
 74
0
 49
-0.05
 74
0
 49
0.1
 74
0
 49
-0.05
 74
0
  0
LTYPE
  5
1F8
100
AcDbSymbolTableRecord
100
AcDbLinetypeTableRecord
  2
DOT
 70
64
  3
. . . . . . . . . . . . . . . . . . . .
 72
65
 73
2
 40
0.2
 49
0.1
 74
0
 49
-0.1
 74
0
  0
LTYPE
  5
1F9
100
AcDbSymbolTableRecord
100
AcDbLinetypeTableRecord
  2
DASHED
 70
64
  3
- - - - - - - - - - - - - - - - - - - -
 72
65
 73
2
 40
0.2
 49
0.1
 74
0
 49
-0.1
 74
0
  0
ENDTAB
  0
TABLE
  2
LAYER
  5
2
100
AcDbSymbolTable
 70
36
  0
LAYER
  5
10
100
AcDbSymbolTableRecord
100
AcDbLayerTableRecord
  2
0
 70
0
 62
7
  6
CONTINUOUS
370
-3
390
F
  0
LAYER
  5
1FA
100
AcDbSymbolTableRecord
100
AcDbLayerTableRecord
  2
DEFAULT_1
 70
0
 62
7
  6
CENTER
370
-3
390
F
  0
LAYER
  5
1FB
100
AcDbSymbolTableRecord
100
AcDbLayerTableRecord
  2
DEFAULT_2
 70
0
 62
8
  6
HIDDEN
370
-3
390
F
  0
LAYER
  5
1FC
100
AcDbSymbolTableRecord
100
AcDbLayerTableRecord
  2
DEFAULT_3
 70
0
 62
7
  6
PHANTOM
370
-3
390
F
  0
LAYER
  5
1FD
100
AcDbSymbolTableRecord
100
AcDbLayerTableRecord
  2
ALL_FEATURES
 70
0
 62
7
  6
CONTINUOUS
370
-3
390
F
  0
LAYER
  5
1FE
100
AcDbSymbolTableRecord
100
AcDbLayerTableRecord
  2
AXES_FEATURES
 70
0
 62
7
  6
CONTINUOUS
370
-3
390
F
  0
LAYER
  5
1FF
100
AcDbSymbolTableRecord
100
AcDbLayerTableRecord
  2
DIMENSIONS
 70
0
 62
7
  6
CONTINUOUS
370
-3
390
F
  0
ENDTAB
  0
TABLE
  2
STYLE
  5
3
100
AcDbSymbolTable
 70
1
  0
STYLE
  5
11
100
AcDbSymbolTableRecord
100
AcDbTextStyleTableRecord
  2
STANDARD
 70
0
 40
0.0
 41
0.8
 50
0.0
 71
0
 42
0.2
  3
txt
  4

  0
STYLE
  5
200
100
AcDbSymbolTableRecord
100
AcDbTextStyleTableRecord
  2
TEXTSTYLE_1
 70
0
 40
0.0
 41
0.8
 50
0.0
 71
0
 42
0.2
  3
gdt
  4

  0
ENDTAB
  0
TABLE
  2
VIEW
  5
6
100
AcDbSymbolTable
 70
0
  0
ENDTAB
  0
TABLE
  2
UCS
  5
7
100
AcDbSymbolTable
 70
0
  0
ENDTAB
  0
TABLE
  2
APPID
  5
9
100
AcDbSymbolTable
 70
1
  0
APPID
  5
201
100
AcDbSymbolTableRecord
100
AcDbRegAppTableRecord
  2
ACAD
 70
0
  0
ENDTAB
  0
TABLE
  2
BLOCK_RECORD
  5
1
100
AcDbSymbolTable
 70
0
  0
BLOCK_RECORD
  5
202
100
AcDbSymbolTableRecord
100
AcDbBlockTableRecord
  2
*Model_Space
  0
BLOCK_RECORD
  5
203
100
AcDbSymbolTableRecord
100
AcDbBlockTableRecord
  2
*Paper_Space
  0
BLOCK_RECORD
  5
204
100
AcDbSymbolTableRecord
100
AcDbBlockTableRecord
  2
_FILLED
  0
ENDTAB
  0
TABLE
  2
DIMSTYLE
  5
A
100
AcDbSymbolTable
 70
1
100
AcDbDimStyleTable
 71
0
  0
DIMSTYLE
105
205
100
AcDbSymbolTableRecord
100
AcDbDimStyleTableRecord
  2
STANDARD
 70
0
  3

  4

 40
1.0
 41
0.1
 42
0.0625
 43
0.38
 44
0.125
 45
0.0
 46
0.0
 47
0.001
 48
0.001
140
0.08
141
0.09
142
0.0
143
25.4
144
1.0
145
0.0
146
1.0
147
0.09
 71
1.0
 72
0.0
 73
1
 74
1
 75
0
 76
0
 77
0
 78
4
 79
1
170
1
171
2
172
0
173
0
174
0
175
0
176
0
177
0
178
0
270
2
179
3
271
3
272
3
273
2
274
2
275
0
280
0
281
0
282
0
283
1
284
4
285
0
286
0
287
3
288
0
340
11
278
46
341
204
342
204
343
204
344
204
  0
ENDTAB
  0
ENDSEC
  0
SECTION
  2
BLOCKS
  0
BLOCK
  5
20
100
AcDbEntity
  8
0
100
AcDbBlockBegin
  2
*Model_Space
 70
0
 10
0.0
 20
0.0
 30
0.0
  3
*Model_Space
  1

  0
ENDBLK
  5
21
100
AcDbEntity
  8
0
100
AcDbBlockEnd
  0
BLOCK
  5
1C
100
AcDbEntity
  8
0
100
AcDbBlockBegin
  2
*Paper_Space
 70
0
 10
0.0
 20
0.0
 30
0.0
  3
*Paper_Space
  1

  0
ENDBLK
  5
1D
100
AcDbEntity
  8
0
100
AcDbBlockEnd
  0
BLOCK
  5
206
100
AcDbEntity
  8
0
100
AcDbBlockBegin
  2
_FILLED
 70
64
 10
0.0
 20
0.0
  3
_FILLED
  1

  0
SOLID
  5
207
100
AcDbEntity
  8
0
  6
BYBLOCK
 62
0
100
AcDbTrace
 10
0.0
 20
0.0
 11
-1.0
 21
0.2
 12
-1.0
 22
-0.2
 13
-1.0
 23
-0.2
  0
ENDBLK
  5
208
100
AcDbEntity
  8
0
  6
BYBLOCK
 62
0
100
AcDbBlockEnd
  0
ENDSEC
  0
SECTION
  2
ENTITIES
  0
LINE
  5
209
100
AcDbEntity
  8
0
100
AcDbLine
 62
7
  6
CONTINUOUS
 10
4.0823183383
 20
9.8348215135
 11
4.0823183383
 21
10.3098215135
  0
LINE
  5
20A
100
AcDbEntity
  8
0
100
AcDbLine
 62
9
  6
CONTINUOUS
 10
4.2123761738
 20
9.8561249851
 11
4.2123761738
 21
10.2885180418
  0
LINE
  5
20B
100
AcDbEntity
  8
0
100
AcDbLine
 62
7
  6
CONTINUOUS
 10
4.4053183383
 20
9.8538215135
 11
4.4053183383
 21
10.2908215135
  0
LINE
  5
20C
100
AcDbEntity
  8
0
100
AcDbLine
 62
9
  6
CONTINUOUS
 10
4.7490780832
 20
10.4665708219
 11
4.7490780832
 21
9.6780722051
  0
LINE
  5
20D
100
AcDbEntity
  8
0
100
AcDbLine
 62
9
  6
CONTINUOUS
 10
5.8039142553
 20
9.8831115863
 11
5.8039142553
 21
10.2615314407
  0
LINE
  5
20E
100
AcDbEntity
  8
0
100
AcDbLine
 62
7
  6
CONTINUOUS
 10
6.5973183383
 20
10.3223215135
 11
6.5973183383
 21
9.8223215135
  0
LINE
  5
20F
100
AcDbEntity
  8
0
100
AcDbLine
 62
7
  6
CONTINUOUS
 10
6.6423183383
 20
9.8223215135
 11
6.6423183383
 21
10.3223215135
  0
LINE
  5
210
100
AcDbEntity
  8
0
100
AcDbLine
 62
7
  6
CONTINUOUS
 10
6.6673183383
 20
9.8220716404
 11
6.6673183383
 21
10.3225713808
  0
LINE
  5
211
100
AcDbEntity
  8
0
100
AcDbLine
 62
7
  6
CONTINUOUS
 10
6.6673183383
 20
9.8473215135
 11
6.6423183383
 21
9.8223215135
  0
LINE
  5
212
100
AcDbEntity
  8
0
100
AcDbLine
 62
7
  6
CONTINUOUS
 10
6.6673183383
 20
10.2973215135
 11
6.6423183383
 21
10.3223215135
  0
LINE
  5
213
100
AcDbEntity
  8
0
100
AcDbLine
 62
7
  6
CONTINUOUS
 10
10.5487191279
 20
6.6615912954
 11
10.5487010954
 21
6.6296538638
  0
LWPOLYLINE
  5
214
100
AcDbEntity
  8
0
100
AcDbPolyline
 62
7
  6
CONTINUOUS
 90
10
 70
0
 10
10.5487010954
 20
6.6296538638
 10
10.5479660779
 20
6.4212847726
 10
10.5452791916
 20
6.1408695763
 10
10.5404883832
 20
5.8557074706
 10
10.5334179968
 20
5.5682140019
 10
10.5238825068
 20
5.2813572879
 10
10.5117175948
 20
4.999244279
 10
10.496794272
 20
4.7267508508
 10
10.4790452227
 20
4.4694623967
 10
10.4596493359
 20
4.245362953
  0
LINE
  5
215
100
AcDbEntity
  8
0
100
AcDbLine
 62
9
  6
CONTINUOUS
 10
11.0473183383
 20
3.6542197882
 11
11.0473183383
 21
9.9698215135
  0
LINE
  5
216
100
AcDbEntity
  8
0
100
AcDbLine
 62
9
  6
CONTINUOUS
 10
11.0473183383
 20
10.8448215135
 11
11.0473183383
 21
11.2021029352
  0
LINE
  5
217
100
AcDbEntity
  8
0
100
AcDbLine
 62
7
  6
CONTINUOUS
 10
10.4596534781
 20
4.2453626161
 11
10.4573183387
 21
4.1973215117
  0
LWPOLYLINE
  5
218
100
AcDbEntity
  8
0
100
AcDbPolyline
 62
7
  6
CONTINUOUS
 90
10
 70
0
 10
11.6349873457
 20
4.2453629013
 10
11.6156174718
 20
4.4691261708
 10
11.5978867711
 20
4.7260288118
 10
11.5829741907
 20
4.9981115041
 10
11.570812989
 20
5.2798085266
 10
11.5612748654
 20
5.5662615838
 10
11.5541964107
 20
5.8533724352
 10
11.5493928278
 20
6.1381796127
 10
11.5466890627
 20
6.41827384
 10
11.5459353741
 20
6.6298702945
  0
LINE
  5
219
100
AcDbEntity
  8
0
100
AcDbLine
 62
7
  6
CONTINUOUS
 10
11.6373183379
 20
4.1973215115
 11
11.634979875
 21
4.2453622936
  0
LINE
  5
21A
100
AcDbEntity
  8
0
100
AcDbLine
 62
7
  6
CONTINUOUS
 10
11.5459353741
 20
6.6298702945
 11
11.5459174679
 21
6.6620843575
  0
LWPOLYLINE
  5
21B
100
AcDbEntity
  8
0
100
AcDbPolyline
 62
7
  6
CONTINUOUS
 90
22
 70
0
 10
11.5459174679
 20
6.6620843575
 10
11.5459235212
 20
6.6914543134
 10
11.546950491
 20
6.9560374376
 10
11.5496439768
 20
7.2109279135
 10
11.5538919726
 20
7.4550896515
 10
11.5595932445
 20
7.6875718479
 10
11.5666555327
 20
7.9073495203
 10
11.5749921958
 20
8.1135388443
 10
11.5845001844
 20
8.3051634911
 10
11.5950677059
 20
8.4822751847
 10
11.6065788381
 20
8.6454252578
 10
11.6189118782
 20
8.7951634735
 10
11.6319377104
 20
8.9320079709
 10
11.6455173101
 20
9.0564269986
 10
11.6595200516
 20
9.1689126347
 10
11.6737674748
 20
9.2694469251
 10
11.6880140771
 20
9.3577546789
 10
11.7019358559
 20
9.4334461735
 10
11.715069759
 20
9.4958778133
 10
11.7267156318
 20
9.5440020747
 10
11.7358265277
 20
9.5764791381
 10
11.739655822
 20
9.5884490624
  0
LINE
  5
21C
100
AcDbEntity
  8
0
100
AcDbLine
 62
7
  6
CONTINUOUS
 10
15.4273183383
 20
10.2973215135
 11
15.4523183383
 21
10.3223215135
  0
LWPOLYLINE
  5
21D
100
AcDbEntity
  8
0
100
AcDbPolyline
 62
7
  6
CONTINUOUS
 90
23
 70
0
 10
10.3536787836
 20
9.5922521214
 10
10.3536404496
 20
9.5922876411
 10
10.3585307917
 20
9.5773918333
 10
10.3675329215
 20
9.5454839631
 10
10.3791224895
 20
9.4978405872
 10
10.3922355983
 20
9.4358042658
 10
10.4061589032
 20
9.3604392056
 10
10.4204207203
 20
9.2724052315
 10
10.4346922667
 20
9.1720993441
 10
10.4487248687
 20
9.0598020144
 10
10.4623368344
 20
8.9355490697
 10
10.4753970454
 20
8.7988519364
 10
10.4877658645
 20
8.6492405177
 10
10.4993135143
 20
8.4861953534
 10
10.5099177127
 20
8.3091643972
 10
10.5194619919
 20
8.1175927467
 10
10.527834105
 20
7.9114031074
 10
10.5349301569
 20
7.6915697522
 10
10.5406630802
 20
7.4589794928
 10
10.5449403555
 20
7.2146607318
 10
10.547660478
 20
6.959569887
 10
10.5487111456
 20
6.694744632
 10
10.5487191279
 20
6.6615912954
  0
LINE
  5
21E
100
AcDbEntity
  8
0
100
AcDbLine
 62
7
  6
CONTINUOUS
 10
16.2907224213
 20
10.2615314407
 11
17.3455585934
 21
10.4665708219
  0
LINE
  5
21F
100
AcDbEntity
  8
0
100
AcDbLine
 62
7
  6
CONTINUOUS
 10
5.8039142553
 20
10.2615314407
 11
4.7490780832
 21
10.4665708219
  0
LINE
  5
220
100
AcDbEntity
  8
0
100
AcDbLine
 62
7
  6
CONTINUOUS
 10
15.4973183383
 20
9.8223215135
 11
15.4523183383
 21
9.8223215135
  0
LINE
  5
221
100
AcDbEntity
  8
0
100
AcDbLine
 62
7
  6
CONTINUOUS
 10
6.5973183383
 20
9.8223215135
 11
6.6423183383
 21
9.8223215135
  0
LINE
  5
222
100
AcDbEntity
  8
0
100
AcDbLine
 62
7
  6
CONTINUOUS
 10
15.4973183383
 20
10.3223215135
 11
15.4523183383
 21
10.3223215135
  0
LINE
  5
223
100
AcDbEntity
  8
0
100
AcDbLine
 62
7
  6
CONTINUOUS
 10
6.5973183383
 20
10.3223215135
 11
6.6423183383
 21
10.3223215135
  0
LWPOLYLINE
  5
224
100
AcDbEntity
  8
0
100
AcDbPolyline
 62
7
  6
CONTINUOUS
 90
8
 70
0
 10
11.8526442703
 20
10.8289335194
 10
11.7748781331
 20
10.9055966234
 10
11.6739581686
 20
10.98850626
 10
11.559316469
 20
11.0632931842
 10
11.432402785
 20
11.125331639
 10
11.2960642169
 20
11.1705149667
 10
11.1562276022
 20
11.1960699522
 10
11.0473183383
 20
11.2021029353
  0
LINE
  5
225
100
AcDbEntity
  8
0
100
AcDbLine
 62
7
  6
CONTINUOUS
 10
5.8039142553
 20
9.8831115863
 11
4.7490780832
 21
9.6780722051
  0
LWPOLYLINE
  5
226
100
AcDbEntity
  8
0
100
AcDbPolyline
 62
7
  6
CONTINUOUS
 90
8
 70
0
 10
11.0473183383
 20
11.2021029352
 10
10.9406406506
 20
11.1963145166
 10
10.8003750594
 20
11.1709746823
 10
10.6635695624
 20
11.1258777985
 10
10.5362185756
 20
11.0638056897
 10
10.4211991388
 20
10.9888901695
 10
10.3199800783
 20
10.9057981921
 10
10.2419920726
 20
10.8289331641
  0
LINE
  5
227
100
AcDbEntity
  8
0
100
AcDbLine
 62
7
  6
CONTINUOUS
 10
16.2907224213
 20
9.8831115863
 11
17.3455585934
 21
9.6780722051
  0
LINE
  5
228
100
AcDbEntity
  8
0
100
AcDbLine
 62
7
  6
CONTINUOUS
 10
15.4273183383
 20
10.3225713866
 11
15.4273183383
 21
9.8220716461
  0
LINE
  5
229
100
AcDbEntity
  8
0
100
AcDbLine
 62
7
  6
CONTINUOUS
 10
15.4523183383
 20
10.3223215135
 11
15.4523183383
 21
9.8223215135
  0
LINE
  5
22A
100
AcDbEntity
  8
0
100
AcDbLine
 62
7
  6
CONTINUOUS
 10
15.4973183383
 20
9.8223215135
 11
15.4973183383
 21
10.3223215135
  0
LINE
  5
22B
100
AcDbEntity
  8
0
100
AcDbLine
 62
7
  6
CONTINUOUS
 10
15.4273183383
 20
9.8473215135
 11
15.4523183383
 21
9.8223215135
  0
LINE
  5
22C
100
AcDbEntity
  8
0
100
AcDbLine
 62
9
  6
CONTINUOUS
 10
16.2907224213
 20
10.2615314407
 11
16.2907224213
 21
9.8831115863
  0
LINE
  5
22D
100
AcDbEntity
  8
0
100
AcDbLine
 62
9
  6
CONTINUOUS
 10
17.3455585934
 20
9.6780722051
 11
17.3455585934
 21
10.4665708219
  0
LINE
  5
22E
100
AcDbEntity
  8
0
100
AcDbLine
 62
7
  6
CONTINUOUS
 10
17.6893183383
 20
9.8538215135
 11
17.6893183383
 21
10.2908215135
  0
LINE
  5
22F
100
AcDbEntity
  8
0
100
AcDbLine
 62
9
  6
CONTINUOUS
 10
17.8822605028
 20
10.2885180418
 11
17.8822605028
 21
9.8561249851
  0
LINE
  5
230
100
AcDbEntity
  8
0
100
AcDbLine
 62
7
  6
CONTINUOUS
 10
18.0123183383
 20
9.8348215135
 11
18.0123183383
 21
10.3098215135
  0
ARC
  5
231
100
AcDbEntity
  8
0
100
AcDbCircle
 62
7
  6
CONTINUOUS
 10
10.9784919756
 20
4.1872999375
 40
0.5720915213
100
AcDbArc
 50
151.0250943077
 51
151.2084347867
  0
ARC
  5
232
100
AcDbEntity
  8
0
100
AcDbCircle
 62
7
  6
CONTINUOUS
 10
10.9924115968
 20
4.2119115523
 40
0.53835582
100
AcDbArc
 50
209.402828196
 51
217.7986120667
  0
ARC
  5
233
100
AcDbEntity
  8
0
100
AcDbCircle
 62
7
  6
CONTINUOUS
 10
4.6893548676
 20
9.9853215135
 40
0.313
100
AcDbArc
 50
204.8426560169
 51
281.0
  0
ARC
  5
234
100
AcDbEntity
  8
0
100
AcDbCircle
 62
7
  6
CONTINUOUS
 10
4.3102183909
 20
9.9698215135
 40
0.15
100
AcDbArc
 50
229.2861651141
 51
309.3458297661
  0
ARC
  5
235
100
AcDbEntity
  8
0
100
AcDbCircle
 62
7
  6
CONTINUOUS
 10
4.1562799693
 20
9.7909389756
 40
0.086
100
AcDbArc
 50
49.2861651141
 51
149.3187124064
  0
ARC
  5
236
100
AcDbEntity
  8
0
100
AcDbCircle
 62
7
  6
CONTINUOUS
 10
4.6893548676
 20
10.1593215135
 40
0.313
100
AcDbArc
 50
79.0
 51
155.1573439831
  0
ARC
  5
237
100
AcDbEntity
  8
0
100
AcDbCircle
 62
7
  6
CONTINUOUS
 10
4.1602899953
 20
10.0723215135
 40
0.249971657
100
AcDbArc
 50
108.1750968409
 51
251.8249031591
  0
ARC
  5
238
100
AcDbEntity
  8
0
100
AcDbCircle
 62
7
  6
CONTINUOUS
 10
4.3102183909
 20
10.1748215135
 40
0.15
100
AcDbArc
 50
50.6541702339
 51
130.7138348859
  0
ARC
  5
239
100
AcDbEntity
  8
0
100
AcDbCircle
 62
7
  6
CONTINUOUS
 10
4.1562799693
 20
10.3537040514
 40
0.086
100
AcDbArc
 50
210.6812875936
 51
310.7138348859
  0
ARC
  5
23A
100
AcDbEntity
  8
0
100
AcDbCircle
 62
7
  6
CONTINUOUS
 10
6.0901277484
 20
8.4106708111
 40
1.5
100
AcDbArc
 50
70.2371945424
 51
101.0
  0
ARC
  5
23B
100
AcDbEntity
  8
0
100
AcDbCircle
 62
7
  6
CONTINUOUS
 10
6.0901277484
 20
11.7339722158
 40
1.5
100
AcDbArc
 50
259.0
 51
289.7628054576
  0
ARC
  5
23C
100
AcDbEntity
  8
0
100
AcDbCircle
 62
7
  6
CONTINUOUS
 10
7.0473183383
 20
10.0723215135
 40
1.17
100
AcDbArc
 50
188.7089464971
 51
171.2910535029
  0
ARC
  5
23D
100
AcDbEntity
  8
0
100
AcDbCircle
 62
9
  6
CONTINUOUS
 10
7.0473183383
 20
10.0723215135
 40
1.1043717104
100
AcDbArc
 50
188.7556666413
 51
171.2443333587
  0
ARC
  5
23E
100
AcDbEntity
  8
0
100
AcDbCircle
 62
9
  6
CONTINUOUS
 10
7.0473183383
 20
10.0723215135
 40
1.0719223696
100
AcDbArc
 50
188.929913143
 51
171.070086857
  0
ARC
  5
23F
100
AcDbEntity
  8
0
100
AcDbCircle
 62
9
  6
CONTINUOUS
 10
7.0473183383
 20
10.0723215135
 40
1.0407459276
100
AcDbArc
 50
189.1473896981
 51
170.8526103019
  0
ARC
  5
240
100
AcDbEntity
  8
0
100
AcDbCircle
 62
9
  6
CONTINUOUS
 10
7.0473183383
 20
10.0723215135
 40
1.0164705063
100
AcDbArc
 50
189.3259649298
 51
170.6740350702
  0
ARC
  5
241
100
AcDbEntity
  8
0
100
AcDbCircle
 62
9
  6
CONTINUOUS
 10
7.0473183383
 20
10.0723215135
 40
0.9793435571
100
AcDbArc
 50
189.6139732455
 51
170.3860267545
  0
ARC
  5
242
100
AcDbEntity
  8
0
100
AcDbCircle
 62
9
  6
CONTINUOUS
 10
7.0473183383
 20
10.0723215135
 40
0.9519481536
100
AcDbArc
 50
189.8431147776
 51
170.1568852224
  0
ARC
  5
243
100
AcDbEntity
  8
0
100
AcDbCircle
 62
9
  6
CONTINUOUS
 10
7.0473183383
 20
10.0723215135
 40
0.9418237702
100
AcDbArc
 50
189.9311710139
 51
170.0688289861
  0
ARC
  5
244
100
AcDbEntity
  8
0
100
AcDbCircle
 62
7
  6
CONTINUOUS
 10
7.0473183383
 20
10.0723215135
 40
0.8187389754
100
AcDbArc
 50
192.132967575
 51
167.867032425
  0
ARC
  5
245
100
AcDbEntity
  8
0
100
AcDbCircle
 62
9
  6
CONTINUOUS
 10
7.0473183383
 20
10.0723215135
 40
0.7877475635
100
AcDbArc
 50
192.7600112585
 51
167.2399887415
  0
ARC
  5
246
100
AcDbEntity
  8
0
100
AcDbCircle
 62
9
  6
CONTINUOUS
 10
7.0473183383
 20
10.0723215135
 40
0.5244951005
100
AcDbArc
 50
208.027361123
 51
151.9726894423
  0
ARC
  5
247
100
AcDbEntity
  8
0
100
AcDbCircle
 62
7
  6
CONTINUOUS
 10
7.0473183383
 20
10.0723215135
 40
0.455
100
AcDbArc
 50
213.3669941407
 51
146.6330058593
  0
CIRCLE
  5
248
100
AcDbEntity
  8
0
100
AcDbCircle
 62
7
  6
CONTINUOUS
 10
7.0473183383
 20
10.0723215135
 40
0.3305
  0
CIRCLE
  5
249
100
AcDbEntity
  8
0
100
AcDbCircle
 62
9
  6
CONTINUOUS
 10
7.0473183383
 20
10.0723215135
 40
0.2835
  0
CIRCLE
  5
24A
100
AcDbEntity
  8
0
100
AcDbCircle
 62
7
  6
CONTINUOUS
 10
7.0473183383
 20
10.0723215135
 40
0.272
  0
CIRCLE
  5
24B
100
AcDbEntity
  8
0
100
AcDbCircle
 62
9
  6
CONTINUOUS
 10
7.0473183383
 20
10.0723215135
 40
0.236
  0
CIRCLE
  5
24C
100
AcDbEntity
  8
0
100
AcDbCircle
 62
7
  6
CONTINUOUS
 10
7.0473183383
 20
10.0723215135
 40
0.18
  0
CIRCLE
  5
24D
100
AcDbEntity
  8
0
100
AcDbCircle
 62
7
  6
CONTINUOUS
 10
7.0473183383
 20
10.0723215135
 40
0.17
  0
ARC
  5
24E
100
AcDbEntity
  8
0
100
AcDbCircle
 62
7
  6
CONTINUOUS
 10
11.0614578502
 20
4.2551794806
 40
0.5982089586
100
AcDbArc
 50
295.9094571721
 51
308.2531570463
  0
ARC
  5
24F
100
AcDbEntity
  8
0
100
AcDbCircle
 62
7
  6
CONTINUOUS
 10
11.0737440271
 20
4.2385940198
 40
0.5775781852
100
AcDbArc
 50
308.3147158855
 51
309.1205933091
  0
ARC
  5
250
100
AcDbEntity
  8
0
100
AcDbCircle
 62
7
  6
CONTINUOUS
 10
11.1161470059
 20
4.1873007351
 40
0.5720891079
100
AcDbArc
 50
28.7930899027
 51
28.9752995768
  0
ARC
  5
251
100
AcDbEntity
  8
0
100
AcDbCircle
 62
7
  6
CONTINUOUS
 10
11.0473183383
 20
10.0723215135
 40
1.425
100
AcDbArc
 50
293.6143763796
 51
246.3856236204
  0
ARC
  5
252
100
AcDbEntity
  8
0
100
AcDbCircle
 62
9
  6
CONTINUOUS
 10
11.0473183383
 20
10.0723215135
 40
1.2931676657
100
AcDbArc
 50
296.8199767419
 51
243.1887912578
  0
ARC
  5
253
100
AcDbEntity
  8
0
100
AcDbCircle
 62
7
  6
CONTINUOUS
 10
11.0473183383
 20
10.0723215135
 40
1.253
100
AcDbArc
 50
298.0439873634
 51
241.9552197291
  0
ARC
  5
254
100
AcDbEntity
  8
0
100
AcDbCircle
 62
9
  6
CONTINUOUS
 10
11.0473183383
 20
10.0723215135
 40
1.105
100
AcDbArc
 50
136.7898736675
 51
236.5520491058
  0
ARC
  5
255
100
AcDbEntity
  8
0
100
AcDbCircle
 62
9
  6
CONTINUOUS
 10
11.0473183383
 20
10.0723215135
 40
1.105
100
AcDbArc
 50
303.5492370719
 51
43.2104710144
  0
CIRCLE
  5
256
100
AcDbEntity
  8
0
100
AcDbCircle
 62
7
  6
CONTINUOUS
 10
11.0473183383
 20
10.4073215135
 40
0.4375
  0
CIRCLE
  5
257
100
AcDbEntity
  8
0
100
AcDbCircle
 62
7
  6
CONTINUOUS
 10
11.0473183383
 20
10.4073215135
 40
0.406
  0
CIRCLE
  5
258
100
AcDbEntity
  8
0
100
AcDbCircle
 62
9
  6
CONTINUOUS
 10
11.0473183383
 20
10.4073215135
 40
0.3749999988
  0
CIRCLE
  5
259
100
AcDbEntity
  8
0
100
AcDbCircle
 62
7
  6
CONTINUOUS
 10
11.0473183383
 20
10.4073215135
 40
0.373
  0
CIRCLE
  5
25A
100
AcDbEntity
  8
0
100
AcDbCircle
 62
9
  6
CONTINUOUS
 10
11.0473183383
 20
10.4073215135
 40
0.3486511907
  0
ARC
  5
25B
100
AcDbEntity
  8
0
100
AcDbCircle
 62
7
  6
CONTINUOUS
 10
16.0045089282
 20
8.4106708111
 40
1.5
100
AcDbArc
 50
79.0
 51
109.7628054576
  0
ARC
  5
25C
100
AcDbEntity
  8
0
100
AcDbCircle
 62
7
  6
CONTINUOUS
 10
17.4052818089
 20
9.9853215135
 40
0.313
100
AcDbArc
 50
259.0
 51
335.1573439831
  0
ARC
  5
25D
100
AcDbEntity
  8
0
100
AcDbCircle
 62
7
  6
CONTINUOUS
 10
17.7844182857
 20
9.9698215135
 40
0.15
100
AcDbArc
 50
230.6541702339
 51
310.7138348859
  0
ARC
  5
25E
100
AcDbEntity
  8
0
100
AcDbCircle
 62
7
  6
CONTINUOUS
 10
17.9383567072
 20
9.7909389756
 40
0.086
100
AcDbArc
 50
30.6812875936
 51
130.7138348859
  0
ARC
  5
25F
100
AcDbEntity
  8
0
100
AcDbCircle
 62
7
  6
CONTINUOUS
 10
15.0473183383
 20
10.0723215135
 40
1.17
100
AcDbArc
 50
8.7089464971
 51
351.2910535029
  0
ARC
  5
260
100
AcDbEntity
  8
0
100
AcDbCircle
 62
9
  6
CONTINUOUS
 10
15.0473183383
 20
10.0723215135
 40
1.1043717104
100
AcDbArc
 50
8.7556666413
 51
351.2443333587
  0
ARC
  5
261
100
AcDbEntity
  8
0
100
AcDbCircle
 62
9
  6
CONTINUOUS
 10
15.0473183383
 20
10.0723215135
 40
1.0719223696
100
AcDbArc
 50
8.929913143
 51
351.070086857
  0
ARC
  5
262
100
AcDbEntity
  8
0
100
AcDbCircle
 62
9
  6
CONTINUOUS
 10
15.0473183383
 20
10.0723215135
 40
1.0407459276
100
AcDbArc
 50
9.1473896981
 51
350.8526103019
  0
ARC
  5
263
100
AcDbEntity
  8
0
100
AcDbCircle
 62
9
  6
CONTINUOUS
 10
15.0473183383
 20
10.0723215135
 40
1.0164705063
100
AcDbArc
 50
9.3259649298
 51
350.6740350702
  0
ARC
  5
264
100
AcDbEntity
  8
0
100
AcDbCircle
 62
9
  6
CONTINUOUS
 10
15.0473183383
 20
10.0723215135
 40
0.9793435571
100
AcDbArc
 50
9.6139732455
 51
350.3860267545
  0
ARC
  5
265
100
AcDbEntity
  8
0
100
AcDbCircle
 62
9
  6
CONTINUOUS
 10
15.0473183383
 20
10.0723215135
 40
0.9519481536
100
AcDbArc
 50
9.8431147776
 51
350.1568852224
  0
ARC
  5
266
100
AcDbEntity
  8
0
100
AcDbCircle
 62
9
  6
CONTINUOUS
 10
15.0473183383
 20
10.0723215135
 40
0.9418237702
100
AcDbArc
 50
9.9311710139
 51
350.0688289861
  0
ARC
  5
267
100
AcDbEntity
  8
0
100
AcDbCircle
 62
7
  6
CONTINUOUS
 10
15.0473183383
 20
10.0723215135
 40
0.8187389754
100
AcDbArc
 50
12.132967575
 51
347.867032425
  0
ARC
  5
268
100
AcDbEntity
  8
0
100
AcDbCircle
 62
9
  6
CONTINUOUS
 10
15.0473183383
 20
10.0723215135
 40
0.7877475635
100
AcDbArc
 50
12.7600112585
 51
347.2399887415
  0
ARC
  5
269
100
AcDbEntity
  8
0
100
AcDbCircle
 62
9
  6
CONTINUOUS
 10
15.0473183383
 20
10.0723215135
 40
0.5244951005
100
AcDbArc
 50
28.027361123
 51
331.9726894423
  0
ARC
  5
26A
100
AcDbEntity
  8
0
100
AcDbCircle
 62
7
  6
CONTINUOUS
 10
15.0473183383
 20
10.0723215135
 40
0.455
100
AcDbArc
 50
33.3669941407
 51
326.6330058593
  0
CIRCLE
  5
26B
100
AcDbEntity
  8
0
100
AcDbCircle
 62
7
  6
CONTINUOUS
 10
15.0473183383
 20
10.0723215135
 40
0.3305
  0
CIRCLE
  5
26C
100
AcDbEntity
  8
0
100
AcDbCircle
 62
9
  6
CONTINUOUS
 10
15.0473183383
 20
10.0723215135
 40
0.2835
  0
CIRCLE
  5
26D
100
AcDbEntity
  8
0
100
AcDbCircle
 62
7
  6
CONTINUOUS
 10
15.0473183383
 20
10.0723215135
 40
0.272
  0
CIRCLE
  5
26E
100
AcDbEntity
  8
0
100
AcDbCircle
 62
9
  6
CONTINUOUS
 10
15.0473183383
 20
10.0723215135
 40
0.236
  0
CIRCLE
  5
26F
100
AcDbEntity
  8
0
100
AcDbCircle
 62
7
  6
CONTINUOUS
 10
15.0473183383
 20
10.0723215135
 40
0.18
  0
CIRCLE
  5
270
100
AcDbEntity
  8
0
100
AcDbCircle
 62
7
  6
CONTINUOUS
 10
15.0473183383
 20
10.0723215135
 40
0.17
  0
ARC
  5
271
100
AcDbEntity
  8
0
100
AcDbCircle
 62
7
  6
CONTINUOUS
 10
16.0045089282
 20
11.7339722158
 40
1.5
100
AcDbArc
 50
250.2371945424
 51
281.0
  0
ARC
  5
272
100
AcDbEntity
  8
0
100
AcDbCircle
 62
7
  6
CONTINUOUS
 10
17.4052818089
 20
10.1593215135
 40
0.313
100
AcDbArc
 50
24.8426560169
 51
101.0
  0
ARC
  5
273
100
AcDbEntity
  8
0
100
AcDbCircle
 62
7
  6
CONTINUOUS
 10
17.9343466813
 20
10.0723215135
 40
0.249971657
100
AcDbArc
 50
288.1750968409
 51
71.8249031591
  0
ARC
  5
274
100
AcDbEntity
  8
0
100
AcDbCircle
 62
7
  6
CONTINUOUS
 10
17.7844182857
 20
10.1748215135
 40
0.15
100
AcDbArc
 50
49.2861651141
 51
129.3458297661
  0
ARC
  5
275
100
AcDbEntity
  8
0
100
AcDbCircle
 62
7
  6
CONTINUOUS
 10
17.9383567072
 20
10.3537040514
 40
0.086
100
AcDbArc
 50
229.2861651141
 51
329.3187124064
  0
SPLINE
  5
276
100
AcDbEntity
  8
0
100
AcDbSpline
 62
7
  6
CONTINUOUS
 70
0
 71
3
 72
57
 73
53
 74
0
 42
0.0000001
 43
0.0000001
 44
0.0000000001
 40
0.0
 40
0.0
 40
0.0
 40
0.0
 40
0.0305678642
 40
0.045868296
 40
0.0611759537
 40
0.076494702
 40
0.0918284833
 40
0.1225430295
 40
0.1533489204
 40
0.1687965659
 40
0.1842730702
 40
0.2153092195
 40
0.2464762948
 40
0.2621151846
 40
0.2777879964
 40
0.2934944195
 40
0.3092336805
 40
0.3407978017
 40
0.3724777809
 40
0.3883605642
 40
0.4042657435
 40
0.4361237132
 40
0.468035938
 40
0.4840083257
 40
0.4999842182
 40
0.5159601058
 40
0.5319324608
 40
0.5478978804
 40
0.5638529584
 40
0.5797944274
 40
0.5957191981
 40
0.6116242612
 40
0.6275068964
 40
0.6591865456
 40
0.6907502859
 40
0.7064893392
 40
0.7221955524
 40
0.7378681614
 40
0.753506833
 40
0.7691116572
 40
0.7846829449
 40
0.8002215128
 40
0.8157283621
 40
0.8312046682
 40
0.8466521154
 40
0.8774576507
 40
0.9081719077
 40
0.923505571
 40
0.9388242091
 40
0.9541317813
 40
0.9694321709
 40
1.0
 40
1.0
 40
1.0
 40
1.0
 10
11.7596646932
 20
4.1406654998
 30
0.0
 10
11.7596646932
 20
4.1185383678
 30
0.0
 10
11.7579114235
 20
4.0853010722
 30
0.0
 10
11.7521066778
 20
4.0413860573
 30
0.0
 10
11.74602286
 20
4.008685745
 30
0.0
 10
11.7382330638
 20
3.976325549
 30
0.0
 10
11.7255928313
 20
3.9337224927
 30
0.0
 10
11.7056247434
 20
3.8816832434
 30
0.0
 10
11.6803680765
 20
3.8319060972
 30
0.0
 10
11.6571621179
 20
3.793700401
 30
0.0
 10
11.6319562067
 20
3.7565816697
 30
0.0
 10
11.596886594
 20
3.7125001837
 30
0.0
 10
11.5575343043
 20
3.672035423
 30
0.0
 10
11.5237005923
 20
3.6420011176
 30
0.0
 10
11.4971672781
 20
3.6206632913
 30
0.0
 10
11.4695767094
 20
3.6005880216
 30
0.0
 10
11.4314369388
 20
3.5755470921
 30
0.0
 10
11.3814418551
 20
3.5476218936
 30
0.0
 10
11.3289457915
 20
3.5244904769
 30
0.0
 10
11.2856996198
 20
3.5089403658
 30
0.0
 10
11.2416541333
 20
3.4953793059
 30
0.0
 10
11.1854045962
 20
3.4822499934
 30
0.0
 10
11.1281389563
 20
3.4743387049
 30
0.0
 10
11.0820077824
 20
3.4711669183
 30
0.0
 10
11.0473133585
 20
3.4703743287
 30
0.0
 10
11.0126196827
 20
3.4711675481
 30
0.0
 10
10.9780059973
 20
3.4735474176
 30
0.0
 10
10.9435527279
 20
3.4775089609
 30
0.0
 10
10.9093391587
 20
3.4830412667
 30
0.0
 10
10.8754450403
 20
3.4901358973
 30
0.0
 10
10.8419492407
 20
3.4987763765
 30
0.0
 10
10.8089284202
 20
3.5089432318
 30
0.0
 10
10.7656834287
 20
3.5244933843
 30
0.0
 10
10.7131878846
 20
3.5476252597
 30
0.0
 10
10.6631938862
 20
3.5755508659
 30
0.0
 10
10.6250546841
 20
3.6005915245
 30
0.0
 10
10.5974645678
 20
3.6206669488
 30
0.0
 10
10.5709323826
 20
3.6420044213
 30
0.0
 10
10.5455244274
 20
3.6645591273
 30
0.0
 10
10.5213044743
 20
3.6882803985
 30
0.0
 10
10.4983311947
 20
3.7131125736
 30
0.0
 10
10.4766657469
 20
3.7390015749
 30
0.0
 10
10.4563625682
 20
3.7658858998
 30
0.0
 10
10.4374727951
 20
3.7937030341
 30
0.0
 10
10.414267708
 20
3.8319077409
 30
0.0
 10
10.3890112512
 20
3.8816847191
 30
0.0
 10
10.3690435677
 20
3.9337234159
 30
0.0
 10
10.3564034489
 20
3.9763261281
 30
0.0
 10
10.34861373
 20
4.0086861067
 30
0.0
 10
10.3425299693
 20
4.0413862547
 30
0.0
 10
10.3367252481
 20
4.0853011535
 30
0.0
 10
10.3349719833
 20
4.1185383931
 30
0.0
 10
10.3349719833
 20
4.1406654998
 30
0.0
  0
SPLINE
  5
277
100
AcDbEntity
  8
0
100
AcDbSpline
 62
7
  6
CONTINUOUS
 70
0
 71
3
 72
18
 73
14
 74
0
 42
0.0000001
 43
0.0000001
 44
0.0000000001
 40
0.0
 40
0.0
 40
0.0
 40
0.0
 40
0.1242875344
 40
0.1864866813
 40
0.2487072605
 40
0.3732150912
 40
0.4355546747
 40
0.4979547701
 40
0.6229345386
 40
0.748233436
 40
0.8110320982
 40
0.8739274805
 40
1.0
 40
1.0
 40
1.0
 40
1.0
 10
10.3349719833
 20
4.1406654998
 30
0.0
 10
10.3349719833
 20
4.1591039557
 30
0.0
 10
10.3361890515
 20
4.1867896497
 30
0.0
 10
10.3402223213
 20
4.2234736781
 30
0.0
 10
10.3458627883
 20
4.2599795812
 30
0.0
 10
10.3538970015
 20
4.2961024689
 30
0.0
 10
10.3642620251
 20
4.3316062721
 30
0.0
 10
10.3761789446
 20
4.3666949055
 30
0.0
 10
10.3939295479
 20
4.4096171874
 30
0.0
 10
10.4153211537
 20
4.4509109287
 30
0.0
 10
10.4345193508
 20
4.4828275441
 30
0.0
 10
10.455111778
 20
4.5139980594
 30
0.0
 10
10.4720341043
 20
4.5364023576
 30
0.0
 10
10.4839160248
 20
4.5508464587
 30
0.0
  0
LINE
  5
278
100
AcDbEntity
  8
0
100
AcDbLine
 62
7
  6
CONTINUOUS
 10
10.4839160248
 20
4.5508464587
 11
10.4851238269
 21
4.5523105143
  0
LINE
  5
279
100
AcDbEntity
  8
0
100
AcDbLine
 62
7
  6
CONTINUOUS
 10
11.6093800861
 20
4.5524710145
 11
11.6105922336
 21
4.5510026057
  0
SPLINE
  5
27A
100
AcDbEntity
  8
0
100
AcDbSpline
 62
7
  6
CONTINUOUS
 70
0
 71
3
 72
18
 73
14
 74
0
 42
0.0000001
 43
0.0000001
 44
0.0000000001
 40
0.0
 40
0.0
 40
0.0
 40
0.0
 40
0.1260727393
 40
0.1889681588
 40
0.2517667942
 40
0.3770655467
 40
0.5020450893
 40
0.5644451198
 40
0.6267846267
 40
0.7512922468
 40
0.8135128405
 40
0.875712149
 40
1.0
 40
1.0
 40
1.0
 40
1.0
 10
11.6105922336
 20
4.5510026057
 30
0.0
 10
11.6224839144
 20
4.536555498
 30
0.0
 10
11.6394201419
 20
4.5141456358
 30
0.0
 10
11.6600300357
 20
4.4829662896
 30
0.0
 10
11.6792445844
 20
4.4510397893
 30
0.0
 10
11.7006545724
 20
4.4097318078
 30
0.0
 10
11.7184208341
 20
4.3667931966
 30
0.0
 10
11.7303482502
 20
4.3316904096
 30
0.0
 10
11.7407225719
 20
4.2961718765
 30
0.0
 10
11.7487639909
 20
4.2600333706
 30
0.0
 10
11.7544095724
 20
4.2235112861
 30
0.0
 10
11.7584465095
 20
4.1868107245
 30
0.0
 10
11.7596646932
 20
4.1591123733
 30
0.0
 10
11.7596646932
 20
4.1406654998
 30
0.0
  0
SPLINE
  5
27B
100
AcDbEntity
  8
0
100
AcDbSpline
 62
7
  6
CONTINUOUS
 70
0
 71
3
 72
15
 73
11
 74
0
 42
0.0000001
 43
0.0000001
 44
0.0000000001
 40
0.0
 40
0.0
 40
0.0
 40
0.0
 40
0.1241956388
 40
0.2485330097
 40
0.3730143647
 40
0.497697247
 40
0.6226703883
 40
0.7480097421
 40
0.8737697575
 40
1.0
 40
1.0
 40
1.0
 40
1.0
 10
10.4083183383
 20
4.1973215135
 30
0.0
 10
10.4083183383
 20
4.2087952566
 30
0.0
 10
10.4090507869
 20
4.2317624497
 30
0.0
 10
10.4123327781
 20
4.2660886267
 30
0.0
 10
10.4177936276
 20
4.3001832569
 30
0.0
 10
10.4254129192
 20
4.33392096
 30
0.0
 10
10.4351631142
 20
4.3671880714
 30
0.0
 10
10.4470125853
 20
4.3998724944
 30
0.0
 10
10.4609161494
 20
4.4318624037
 30
0.0
 10
10.4715072212
 20
4.4526132627
 30
0.0
 10
10.4771237859
 20
4.462833324
 30
0.0
  0
SPLINE
  5
27C
100
AcDbEntity
  8
0
100
AcDbSpline
 62
7
  6
CONTINUOUS
 70
0
 71
3
 72
15
 73
11
 74
0
 42
0.0000001
 43
0.0000001
 44
0.0000000001
 40
0.0
 40
0.0
 40
0.0
 40
0.0
 40
0.1262302443
 40
0.2519902943
 40
0.3773296294
 40
0.5023027424
 40
0.6269857516
 40
0.751467331
 40
0.875804689
 40
1.0
 40
1.0
 40
1.0
 40
1.0
 10
11.6175057482
 20
4.4628463009
 30
0.0
 10
11.623122885
 20
4.4526258431
 30
0.0
 10
11.6337150193
 20
4.4318741229
 30
0.0
 10
11.6476199977
 20
4.3998827947
 30
0.0
 10
11.6594707419
 20
4.3671968565
 30
0.0
 10
11.6692219311
 20
4.3339280967
 30
0.0
 10
11.6768420553
 20
4.3001886553
 30
0.0
 10
11.6823034627
 20
4.266092212
 30
0.0
 10
11.6855858051
 20
4.2317642279
 30
0.0
 10
11.6863183383
 20
4.2087958391
 30
0.0
 10
11.6863183383
 20
4.1973215135
 30
0.0
  0
SPLINE
  5
27D
100
AcDbEntity
  8
0
100
AcDbSpline
 62
7
  6
CONTINUOUS
 70
0
 71
3
 72
34
 73
30
 74
0
 42
0.0000001
 43
0.0000001
 44
0.0000000001
 40
0.0
 40
0.0
 40
0.0
 40
0.0
 40
0.0598816957
 40
0.0898758242
 40
0.1199027765
 40
0.1499768534
 40
0.1801129866
 40
0.2103236527
 40
0.2406180205
 40
0.2710045243
 40
0.3014913845
 40
0.3320859754
 40
0.3627948085
 40
0.4245542126
 40
0.4868143282
 40
0.5181438722
 40
0.5495991893
 40
0.5811778024
 40
0.61287627
 40
0.6446901488
 40
0.6766136568
 40
0.740745215
 40
0.7729545685
 40
0.8052419911
 40
0.8699940334
 40
0.9024540957
 40
0.9349495903
 40
0.967468796
 40
1.0
 40
1.0
 40
1.0
 40
1.0
 10
11.6863183383
 20
4.1973215135
 30
0.0
 10
11.6863183383
 20
4.1780781696
 30
0.0
 10
11.6847716565
 20
4.1491651318
 30
0.0
 10
11.6796539059
 20
4.1109628405
 30
0.0
 10
11.6742862608
 20
4.0824970397
 30
0.0
 10
11.667409278
 20
4.0543124676
 30
0.0
 10
11.6590375407
 20
4.0264731501
 30
0.0
 10
11.6491910788
 20
3.999045666
 30
0.0
 10
11.637896237
 20
3.9720950185
 30
0.0
 10
11.6251770301
 20
3.9456880956
 30
0.0
 10
11.6110655629
 20
3.9198886015
 30
0.0
 10
11.5955969399
 20
3.8947568467
 30
0.0
 10
11.5731708496
 20
3.8621659595
 30
0.0
 10
11.5419055068
 20
3.8233880156
 30
0.0
 10
11.5068033431
 20
3.7877697798
 30
0.0
 10
11.4765706135
 20
3.7612785322
 30
0.0
 10
11.4528102617
 20
3.7424170127
 30
0.0
 10
11.4280751929
 20
3.7246506022
 30
0.0
 10
11.4024229348
 20
3.7080236882
 30
0.0
 10
11.3759146729
 20
3.6925758942
 30
0.0
 10
11.3394685478
 20
3.67357236
 30
0.0
 10
11.3016061472
 20
3.6571024423
 30
0.0
 10
11.2626418598
 20
3.6432687875
 30
0.0
 10
11.2228914018
 20
3.6311840524
 30
0.0
 10
11.1822716476
 20
3.6218235966
 30
0.0
 10
11.1411001062
 20
3.6152505116
 30
0.0
 10
11.1099644723
 20
3.611715572
 30
0.0
 10
11.0786795493
 20
3.6095914399
 30
0.0
 10
11.0577720715
 20
3.6091197187
 30
0.0
 10
11.0473179731
 20
3.6091197254
 30
0.0
  0
SPLINE
  5
27E
100
AcDbEntity
  8
0
100
AcDbSpline
 62
7
  6
CONTINUOUS
 70
0
 71
3
 72
34
 73
30
 74
0
 42
0.0000001
 43
0.0000001
 44
0.0000000001
 40
0.0
 40
0.0
 40
0.0
 40
0.0
 40
0.0325312027
 40
0.0650503804
 40
0.0975458238
 40
0.1300058191
 40
0.194757701
 40
0.2270450419
 40
0.2592543207
 40
0.3233857492
 40
0.355309204
 40
0.387123031
 40
0.4188214444
 40
0.4504000016
 40
0.4818552566
 40
0.5131847359
 40
0.5754447359
 40
0.6372040916
 40
0.6679129303
 40
0.6985075622
 40
0.7289944923
 40
0.7593810873
 40
0.7896755549
 40
0.8198863153
 40
0.850022544
 40
0.8800967546
 40
0.910123873
 40
0.9401181655
 40
1.0
 40
1.0
 40
1.0
 40
1.0
 10
11.0473179731
 20
3.6091197254
 30
0.0
 10
11.036863883
 20
3.6091197321
 30
0.0
 10
11.0159564316
 20
3.6095914795
 30
0.0
 10
10.9846715592
 20
3.6117156215
 30
0.0
 10
10.9535359997
 20
3.6152505886
 30
0.0
 10
10.9123645846
 20
3.6218236913
 30
0.0
 10
10.8717449613
 20
3.6311841293
 30
0.0
 10
10.831994639
 20
3.6432688512
 30
0.0
 10
10.793030469
 20
3.6571024668
 30
0.0
 10
10.7551681782
 20
3.6735723492
 30
0.0
 10
10.7187221434
 20
3.6925758243
 30
0.0
 10
10.6922139343
 20
3.7080235613
 30
0.0
 10
10.666561748
 20
3.7246504471
 30
0.0
 10
10.6418267225
 20
3.7424167822
 30
0.0
 10
10.6180664197
 20
3.7612782322
 30
0.0
 10
10.587833771
 20
3.787769407
 30
0.0
 10
10.552731638
 20
3.8233875122
 30
0.0
 10
10.5214662842
 20
3.862165335
 30
0.0
 10
10.4990401923
 20
3.894756184
 30
0.0
 10
10.4835715329
 20
3.9198879325
 30
0.0
 10
10.4694599749
 20
3.9456874262
 30
0.0
 10
10.4567407518
 20
3.9720944101
 30
0.0
 10
10.4454458368
 20
3.9990451007
 30
0.0
 10
10.4355992925
 20
4.0264726314
 30
0.0
 10
10.4272275301
 20
4.0543120269
 30
0.0
 10
10.4203504897
 20
4.0824966925
 30
0.0
 10
10.4149828047
 20
4.1109626156
 30
0.0
 10
10.4098650503
 20
4.1491650284
 30
0.0
 10
10.4083183383
 20
4.1780781398
 30
0.0
 10
10.4083183383
 20
4.1973215135
 30
0.0
  0
SPLINE
  5
27F
100
AcDbEntity
  8
0
100
AcDbSpline
 62
7
  6
CONTINUOUS
 70
0
 71
3
 72
17
 73
13
 74
0
 42
0.0000001
 43
0.0000001
 44
0.0000000001
 40
0.0
 40
0.0
 40
0.0
 40
0.0
 40
0.0501299382
 40
0.1026745969
 40
0.1574759216
 40
0.2143750452
 40
0.3338234546
 40
0.4596950177
 40
0.590636129
 40
0.7252757698
 40
0.8622243365
 40
1.0
 40
1.0
 40
1.0
 40
1.0
 10
10.4573180476
 20
4.1973184561
 30
0.0
 10
10.4611688557
 20
4.2378215128
 30
0.0
 10
10.4685961664
 20
4.3208227896
 30
0.0
 10
10.4787768215
 20
4.4482264668
 30
0.0
 10
10.4882696371
 20
4.5811916576
 30
0.0
 10
10.5002008809
 20
4.7684148874
 30
0.0
 10
10.5132276379
 20
5.013358664
 30
0.0
 10
10.5258949356
 20
5.3184767968
 30
0.0
 10
10.5358261573
 20
5.6360311937
 30
0.0
 10
10.5430164324
 20
5.962651147
 30
0.0
 10
10.5474604054
 20
6.2948668873
 30
0.0
 10
10.548593832
 20
6.5178345165
 30
0.0
 10
10.5487010954
 20
6.6296538638
 30
0.0
  0
SPLINE
  5
280
100
AcDbEntity
  8
0
100
AcDbSpline
 62
7
  6
CONTINUOUS
 70
0
 71
3
 72
18
 73
14
 74
0
 42
0.0000001
 43
0.0000001
 44
0.0000000001
 40
0.0
 40
0.0
 40
0.0
 40
0.0
 40
0.1249806706
 40
0.2499664861
 40
0.3749368306
 40
0.4374470614
 40
0.4999620126
 40
0.6249486932
 40
0.6874711764
 40
0.749988693
 40
0.81250166
 40
0.8750158796
 40
1.0
 40
1.0
 40
1.0
 40
1.0
 10
9.9423162442
 20
10.0723215175
 30
0.0
 10
9.9423161637
 20
10.0270948208
 30
0.0
 10
9.9479493528
 20
9.9365415658
 30
0.0
 10
9.9728868555
 20
9.8028589239
 30
0.0
 10
10.0070909787
 20
9.6947552266
 30
0.0
 10
10.0422926969
 20
9.611363715
 30
0.0
 10
10.0825829218
 20
9.5303076028
 30
0.0
 10
10.1302607152
 20
9.4530969336
 30
0.0
 10
10.1846586607
 20
9.3807461155
 30
0.0
 10
10.2287154898
 20
9.3290610868
 30
0.0
 10
10.2758787587
 20
9.2801954737
 30
0.0
 10
10.3426576868
 20
9.2190989779
 30
0.0
 10
10.3968982054
 20
9.1779651359
 30
0.0
 10
10.4345332728
 20
9.1528819002
 30
0.0
  0
SPLINE
  5
281
100
AcDbEntity
  8
0
100
AcDbSpline
 62
7
  6
CONTINUOUS
 70
0
 71
3
 72
18
 73
14
 74
0
 42
0.0000001
 43
0.0000001
 44
0.0000000001
 40
0.0
 40
0.0
 40
0.0
 40
0.0
 40
0.1249841236
 40
0.1874983481
 40
0.2500113152
 40
0.3125288299
 40
0.3750513127
 40
0.5000379931
 40
0.5625529487
 40
0.6250631818
 40
0.7500335203
 40
0.8750193323
 40
1.0
 40
1.0
 40
1.0
 40
1.0
 10
11.6600533305
 20
9.152848529
 30
0.0
 10
11.6976918391
 20
9.1779311178
 30
0.0
 10
11.7519374668
 20
9.2190645021
 30
0.0
 10
11.8187229198
 20
9.2801612977
 30
0.0
 10
11.8658909098
 20
9.3290275881
 30
0.0
 10
11.9099522012
 20
9.3807137592
 30
0.0
 10
11.9643557322
 20
9.4530666516
 30
0.0
 10
12.0120385279
 20
9.5302801718
 30
0.0
 10
12.0523330572
 20
9.6113397474
 30
0.0
 10
12.0875385973
 20
9.6947350909
 30
0.0
 10
12.1217464569
 20
9.8028442244
 30
0.0
 10
12.1466866995
 20
9.9365340429
 30
0.0
 10
12.1523205129
 20
10.0270923188
 30
0.0
 10
12.1523204323
 20
10.0723215179
 30
0.0
  0
SPLINE
  5
282
100
AcDbEntity
  8
0
100
AcDbSpline
 62
7
  6
CONTINUOUS
 70
0
 71
3
 72
15
 73
11
 74
0
 42
0.0000001
 43
0.0000001
 44
0.0000000001
 40
0.0
 40
0.0
 40
0.0
 40
0.0
 40
0.1250018968
 40
0.2500094204
 40
0.3750132549
 40
0.5000014915
 40
0.6249876248
 40
0.7499915562
 40
0.8750018966
 40
1.0
 40
1.0
 40
1.0
 40
1.0
 10
12.1523184211
 20
10.0723215179
 30
0.0
 10
12.1523184185
 20
10.1070335261
 30
0.0
 10
12.1490019413
 20
10.1765029836
 30
0.0
 10
12.1342618947
 20
10.2797390834
 30
0.0
 10
12.1099373584
 20
10.3811507912
 30
0.0
 10
12.0762121202
 20
10.4798309443
 30
0.0
 10
12.0332430015
 20
10.5748523562
 30
0.0
 10
11.9815108814
 20
10.6654063768
 30
0.0
 10
11.9215493253
 20
10.7507258261
 30
0.0
 10
11.8764034167
 20
10.8036283049
 30
0.0
 10
11.8526442756
 20
10.8289335138
 30
0.0
  0
SPLINE
  5
283
100
AcDbEntity
  8
0
100
AcDbSpline
 62
7
  6
CONTINUOUS
 70
0
 71
3
 72
17
 73
13
 74
0
 42
0.0000001
 43
0.0000001
 44
0.0000000001
 40
0.0
 40
0.0
 40
0.0
 40
0.0
 40
0.0501297161
 40
0.1026742987
 40
0.1574756698
 40
0.214374939
 40
0.3338238387
 40
0.4596959856
 40
0.5906375735
 40
0.7252773727
 40
0.8622255716
 40
1.0
 40
1.0
 40
1.0
 40
1.0
 10
11.6373180627
 20
4.197324412
 30
0.0
 10
11.633466961
 20
4.2378307922
 30
0.0
 10
11.6260391083
 20
4.3208390091
 30
0.0
 10
11.6158577841
 20
4.4482535101
 30
0.0
 10
11.6063644056
 20
4.5812303061
 30
0.0
 10
11.594432537
 20
4.768470299
 30
0.0
 10
11.5814052931
 20
5.0134362727
 30
0.0
 10
11.5687378446
 20
5.3185820768
 30
0.0
 10
11.5588068937
 20
5.6361649462
 30
0.0
 10
11.551617311
 20
5.9628133761
 30
0.0
 10
11.5471744551
 20
6.2950566785
 30
0.0
 10
11.5460420481
 20
6.5180422843
 30
0.0
 10
11.5459353741
 20
6.6298702945
 30
0.0
  0
SPLINE
  5
284
100
AcDbEntity
  8
0
100
AcDbSpline
 62
7
  6
CONTINUOUS
 70
0
 71
3
 72
12
 73
8
 74
0
 42
0.0000001
 43
0.0000001
 44
0.0000000001
 40
0.0
 40
0.0
 40
0.0
 40
0.0
 40
0.2484642509
 40
0.4975690054
 40
0.7478590044
 40
0.8736796295
 40
1.0
 40
1.0
 40
1.0
 40
1.0
 10
10.4573180476
 20
4.1973198167
 30
0.0
 10
10.457317988
 20
4.1757021382
 30
0.0
 10
10.4601692692
 20
4.1323589321
 30
0.0
 10
10.472788989
 20
4.0683592239
 30
0.0
 10
10.4900745651
 20
4.016608721
 30
0.0
 10
10.5078348061
 20
3.9766401492
 30
0.0
 10
10.5180082867
 20
3.9571837121
 30
0.0
 10
10.5234016169
 20
3.9476075082
 30
0.0
  0
SPLINE
  5
285
100
AcDbEntity
  8
0
100
AcDbSpline
 62
7
  6
CONTINUOUS
 70
0
 71
3
 72
17
 73
13
 74
0
 42
0.0000001
 43
0.0000001
 44
0.0000000001
 40
0.0
 40
0.0
 40
0.0
 40
0.0
 40
0.1214376682
 40
0.1826267349
 40
0.2441196309
 40
0.3679452313
 40
0.4928611356
 40
0.5557041127
 40
0.618761889
 40
0.7453878512
 40
0.8725586803
 40
1.0
 40
1.0
 40
1.0
 40
1.0
 10
10.5670190543
 20
3.8819597774
 30
0.0
 10
10.5806197505
 20
3.8644004023
 30
0.0
 10
10.6027040841
 20
3.8392003776
 30
0.0
 10
10.635031467
 20
3.8083764182
 30
0.0
 10
10.6694775314
 20
3.7792492064
 30
0.0
 10
10.7159605324
 20
3.7464766217
 30
0.0
 10
10.7660765949
 20
3.7190786452
 30
0.0
 10
10.8080570338
 20
3.7005317684
 30
0.0
 10
10.8513114224
 20
3.6842772715
 30
0.0
 10
10.9072059086
 20
3.6684864915
 30
0.0
 10
10.9760990462
 20
3.6569387967
 30
0.0
 10
11.0227015778
 20
3.6542693174
 30
0.0
 10
11.0460101748
 20
3.6542211402
 30
0.0
  0
LINE
  5
286
100
AcDbEntity
  8
0
100
AcDbLine
 62
7
  6
CONTINUOUS
 10
11.0460101748
 20
3.6542211402
 11
11.0473183382
 21
3.6542197882
  0
LINE
  5
287
100
AcDbEntity
  8
0
100
AcDbLine
 62
7
  6
CONTINUOUS
 10
11.0473183382
 20
3.6542197882
 11
11.0486265487
 21
3.6542211403
  0
SPLINE
  5
288
100
AcDbEntity
  8
0
100
AcDbSpline
 62
7
  6
CONTINUOUS
 70
0
 71
3
 72
11
 73
7
 74
0
 42
0.0000001
 43
0.0000001
 44
0.0000000001
 40
0.0
 40
0.0
 40
0.0
 40
0.0
 40
0.2513689736
 40
0.5021833331
 40
0.7518816339
 40
1.0
 40
1.0
 40
1.0
 40
1.0
 10
11.0486265487
 20
3.6542211403
 30
0.0
 10
11.0723865057
 20
3.6542702521
 30
0.0
 10
11.119889818
 20
3.6570414753
 30
0.0
 10
11.1900817805
 20
3.6690370891
 30
0.0
 10
11.2582163064
 20
3.6886726954
 30
0.0
 10
11.3017580662
 20
3.7068348145
 30
0.0
 10
11.3228454116
 20
3.7170990954
 30
0.0
  0
SPLINE
  5
289
100
AcDbEntity
  8
0
100
AcDbSpline
 62
7
  6
CONTINUOUS
 70
0
 71
3
 72
16
 73
12
 74
0
 42
0.0000001
 43
0.0000001
 44
0.0000000001
 40
0.0
 40
0.0
 40
0.0
 40
0.0
 40
0.1282360037
 40
0.2553602765
 40
0.3814168367
 40
0.5064668211
 40
0.5686748186
 40
0.630687549
 40
0.754186729
 40
0.8772189717
 40
1.0
 40
1.0
 40
1.0
 40
1.0
 10
11.4381696943
 20
3.7904974977
 30
0.0
 10
11.4536911507
 20
3.8031208733
 30
0.0
 10
11.4833072652
 20
3.8299005825
 30
0.0
 10
11.5230006858
 20
3.8743808955
 30
0.0
 10
11.5574134016
 20
3.9224563158
 30
0.0
 10
11.5814115215
 20
3.9651664962
 30
0.0
 10
11.5975403075
 20
4.0005742227
 30
0.0
 10
11.6115475937
 20
4.0366131618
 30
0.0
 10
11.6251607013
 20
4.0829032045
 30
0.0
 10
11.6350816153
 20
4.1397775046
 30
0.0
 10
11.6373186817
 20
4.1781642403
 30
0.0
 10
11.6373186289
 20
4.1973198165
 30
0.0
  0
SPLINE
  5
28A
100
AcDbEntity
  8
0
100
AcDbSpline
 62
7
  6
CONTINUOUS
 70
0
 71
3
 72
49
 73
45
 74
0
 42
0.0000001
 43
0.0000001
 44
0.0000000001
 40
0.0
 40
0.0
 40
0.0
 40
0.0
 40
0.1157224826
 40
0.2282020873
 40
0.2825613627
 40
0.3352649663
 40
0.4345814554
 40
0.4808789956
 40
0.5249604547
 40
0.5668742515
 40
0.6066701554
 40
0.6443987463
 40
0.6800925475
 40
0.7137138634
 40
0.7452103165
 40
0.7745324541
 40
0.801625047
 40
0.8264183935
 40
0.8379401316
 40
0.8488817349
 40
0.8592480402
 40
0.8690450239
 40
0.8782804594
 40
0.8869639427
 40
0.8951070983
 40
0.9027241058
 40
0.9098323811
 40
0.9164534492
 40
0.9226140471
 40
0.9283478369
 40
0.9336972053
 40
0.9387138948
 40
0.9434599795
 40
0.9480080425
 40
0.9524398086
 40
0.9568428821
 40
0.9613059615
 40
0.9659133067
 40
0.9707398188
 40
0.9758489285
 40
0.9812924845
 40
0.9871118148
 40
0.9933392984
 40
1.0
 40
1.0
 40
1.0
 40
1.0
 10
10.5487191279
 20
6.6615912954
 30
0.0
 10
10.5487437101
 20
6.8064175321
 30
0.0
 10
10.5472657775
 20
7.0920142058
 30
0.0
 10
10.5414648011
 20
7.4455997361
 30
0.0
 10
10.5343595351
 20
7.7202664785
 30
0.0
 10
10.5259250762
 20
7.9784127508
 30
0.0
 10
10.5151224343
 20
8.2263852015
 30
0.0
 10
10.5014504507
 20
8.4633976445
 30
0.0
 10
10.4902509897
 20
8.6285854827
 30
0.0
 10
10.4778669474
 20
8.7855282832
 30
0.0
 10
10.4642984377
 20
8.934391811
 30
0.0
 10
10.4495476457
 20
9.0753188256
 30
0.0
 10
10.4336337387
 20
9.2083405424
 30
0.0
 10
10.4165472381
 20
9.3333503043
 30
0.0
 10
10.3982874589
 20
9.4501308885
 30
0.0
 10
10.3788603206
 20
9.5584337944
 30
0.0
 10
10.3582782374
 20
9.6579728049
 30
0.0
 10
10.3397303416
 20
9.7351489794
 30
0.0
 10
10.3241700459
 20
9.7922109929
 30
0.0
 10
10.3124913073
 20
9.8316062479
 30
0.0
 10
10.3005176072
 20
9.8686511819
 30
0.0
 10
10.2882482879
 20
9.9033429728
 30
0.0
 10
10.2756834405
 20
9.9356801111
 30
0.0
 10
10.2628228579
 20
9.9656622078
 30
0.0
 10
10.2496659475
 20
9.9932893279
 30
0.0
 10
10.2362117016
 20
10.0185617865
 30
0.0
 10
10.2224584475
 20
10.0414800927
 30
0.0
 10
10.2084036132
 20
10.0620448494
 30
0.0
 10
10.1940428362
 20
10.0802566312
 30
0.0
 10
10.1793697507
 20
10.0961162026
 30
0.0
 10
10.1643784577
 20
10.1096259393
 30
0.0
 10
10.1490613524
 20
10.1207853813
 30
0.0
 10
10.1334123682
 20
10.1295891849
 30
0.0
 10
10.117430673
 20
10.1360274377
 30
0.0
 10
10.1011242056
 20
10.1400891978
 30
0.0
 10
10.0845095999
 20
10.1417696074
 30
0.0
 10
10.0676076902
 20
10.1410726433
 30
0.0
 10
10.0504361536
 20
10.1380237199
 30
0.0
 10
10.0330015674
 20
10.1326591156
 30
0.0
 10
10.0153025633
 20
10.1250115459
 30
0.0
 10
9.9973336089
 20
10.115109725
 30
0.0
 10
9.9790879369
 20
10.102977699
 30
0.0
 10
9.9605602269
 20
10.0886372146
 30
0.0
 10
9.9484351605
 20
10.0779844521
 30
0.0
 10
9.9423182555
 20
10.0723214371
 30
0.0
  0
SPLINE
  5
28B
100
AcDbEntity
  8
0
100
AcDbSpline
 62
7
  6
CONTINUOUS
 70
0
 71
3
 72
49
 73
45
 74
0
 42
0.0000001
 43
0.0000001
 44
0.0000000001
 40
0.0
 40
0.0
 40
0.0
 40
0.0
 40
0.1157272503
 40
0.2282094554
 40
0.2825691784
 40
0.3352726619
 40
0.4345875914
 40
0.4808842619
 40
0.5249649433
 40
0.5668780546
 40
0.6066733624
 40
0.6444014441
 40
0.6800947459
 40
0.7137155075
 40
0.7452113585
 40
0.7745328531
 40
0.8016247469
 40
0.8264173443
 40
0.8379387136
 40
0.8488799599
 40
0.8592459216
 40
0.869042577
 40
0.878277702
 40
0.8869608949
 40
0.8951037828
 40
0.9027205482
 40
0.9098286109
 40
0.9164495002
 40
0.9226099582
 40
0.9283436541
 40
0.9336929813
 40
0.9387096885
 40
0.9434558554
 40
0.9480040688
 40
0.9524360537
 40
0.9568394107
 40
0.9613028305
 40
0.9659105623
 40
0.9707374956
 40
0.9758470503
 40
0.9812910669
 40
0.9871108666
 40
0.9933388239
 40
1.0
 40
1.0
 40
1.0
 40
1.0
 10
11.5459174679
 20
6.6620843575
 30
0.0
 10
11.5458946548
 20
6.8068976477
 30
0.0
 10
11.5473758426
 20
7.0924662273
 30
0.0
 10
11.5531804578
 20
7.4460152931
 30
0.0
 10
11.5602883633
 20
7.7206497398
 30
0.0
 10
11.5687250948
 20
7.9787606482
 30
0.0
 10
11.5795298372
 20
8.2266973728
 30
0.0
 10
11.5932036152
 20
8.4636746385
 30
0.0
 10
11.6044042058
 20
8.6288378036
 30
0.0
 10
11.6167892147
 20
8.7857573205
 30
0.0
 10
11.6303585308
 20
8.9345989234
 30
0.0
 10
11.6451099478
 20
9.075505249
 30
0.0
 10
11.6610243127
 20
9.2085073225
 30
0.0
 10
11.678111126
 20
9.3334983218
 30
0.0
 10
11.6963710547
 20
9.4502609819
 30
0.0
 10
11.7157981708
 20
9.558546824
 30
0.0
 10
11.7363800699
 20
9.6580696493
 30
0.0
 10
11.7549277157
 20
9.7352328895
 30
0.0
 10
11.7704877086
 20
9.7922850676
 30
0.0
 10
11.7821661758
 20
9.8316734113
 30
0.0
 10
11.7941395644
 20
9.8687117506
 30
0.0
 10
11.8064085324
 20
9.9033972658
 30
0.0
 10
11.8189729878
 20
9.9357284499
 30
0.0
 10
11.8318331386
 20
9.9657049152
 30
0.0
 10
11.8449895777
 20
9.9933267268
 30
0.0
 10
11.8584433131
 20
10.0185941998
 30
0.0
 10
11.8721960182
 20
10.0415078432
 30
0.0
 10
11.8862502652
 20
10.0620682597
 30
0.0
 10
11.9006104189
 20
10.080276023
 30
0.0
 10
11.9152828426
 20
10.0961318994
 30
0.0
 10
11.9302734346
 20
10.1096382642
 30
0.0
 10
11.9455897975
 20
10.1207946536
 30
0.0
 10
11.9612379927
 20
10.1295957215
 30
0.0
 10
11.9772188457
 20
10.1360315566
 30
0.0
 10
11.993524412
 20
10.1400912234
 30
0.0
 10
12.0101380587
 20
10.141769873
 30
0.0
 10
12.0270389572
 20
10.1410714897
 30
0.0
 10
12.0442094422
 20
10.1380214966
 30
0.0
 10
12.0616429442
 20
10.132656161
 30
0.0
 10
12.079340834
 20
10.1250081885
 30
0.0
 10
12.0973086432
 20
10.1151062841
 30
0.0
 10
12.1155531368
 20
10.1029744867
 30
0.0
 10
12.1340796329
 20
10.0886345378
 30
0.0
 10
12.1462039229
 20
10.077982289
 30
0.0
 10
12.1523204323
 20
10.0723195751
 30
0.0
  0
SPLINE
  5
28C
100
AcDbEntity
  8
0
100
AcDbSpline
 62
7
  6
CONTINUOUS
 70
0
 71
3
 72
15
 73
11
 74
0
 42
0.0000001
 43
0.0000001
 44
0.0000000001
 40
0.0
 40
0.0
 40
0.0
 40
0.0
 40
0.1249981035
 40
0.2500084439
 40
0.3750123753
 40
0.4999985084
 40
0.6249867451
 40
0.7499905797
 40
0.8749981032
 40
1.0
 40
1.0
 40
1.0
 40
1.0
 10
10.2419920673
 20
10.8289331585
 30
0.0
 10
10.2182329514
 20
10.8036279538
 30
0.0
 10
10.1730870911
 20
10.7507254873
 30
0.0
 10
10.1131256005
 20
10.6654060667
 30
0.0
 10
10.061393538
 20
10.5748520835
 30
0.0
 10
10.0184244682
 20
10.4798307165
 30
0.0
 10
9.9846992689
 20
10.3811506145
 30
0.0
 10
9.9603747608
 20
10.2797389628
 30
0.0
 10
9.9456347313
 20
10.1765029223
 30
0.0
 10
9.9423182581
 20
10.1070335054
 30
0.0
 10
9.9423182555
 20
10.0723215175
 30
0.0
  0
ENDSEC
  0
SECTION
  2
OBJECTS
  0
DICTIONARY
  5
C
100
AcDbDictionary
280
0
281
1
  3
ACAD_GROUP
350
D
  3
ACAD_MLINESTYLE
350
17
  3
ACAD_LAYOUT
350
1A
  3
ACAD_PLOTSETTINGS
350
19
  3
ACAD_PLOTSTYLENAME
350
E
  0
DICTIONARY
  5
D
102
{ACAD_REACTORS
330
C
102
}
100
AcDbDictionary
280
0
281
1
  0
ACDBDICTIONARYWDFLT
  5
E
102
{ACAD_REACTORS
330
C
102
}
100
AcDbDictionary
281
1
  3
Normal
350
F
100
AcDbDictionaryWithDefault
340
F
  0
DICTIONARY
  5
17
102
{ACAD_REACTORS
330
C
102
}
100
AcDbDictionary
280
0
281
1
  3
Standard
350
18
  0
DICTIONARY
  5
19
102
{ACAD_REACTORS
330
C
102
}
100
AcDbDictionary
281
1
  0
DICTIONARY
  5
1A
102
{ACAD_REACTORS
330
C
102
}
100
AcDbDictionary
281
1
  3
Model
350
28D
  3
Layout1
350
28E
  0
ACDBPLACEHOLDER
  5
F
102
{ACAD_REACTORS
330
E
102
}
  0
MLINESTYLE
  5
18
102
{ACAD_REACTORS
330
17
102
}
100
AcDbMlineStyle
  2
STANDARD
 70
0
  3

 62
256
 51
90.0
 52
90.0
 71
2
 49
0.5
 62
256
  6
BYLAYER
 49
-0.5
 62
256
  6
BYLAYER
  0
LAYOUT
  5
28D
102
{ACAD_REACTORS
330
1A
102
}
100
AcDbPlotSettings
  1

  2
none_device
  4
ANSI_C_(22.00_x_17.00_Inches)
  6

 40
0.0
 41
0.0
 42
0.0
 43
0.0
 44
558.8
 45
431.8
 46
0.0
 47
0.0
 48
0.0
 49
0.0
140
0.0
141
0.0
142
1.0
143
1.0
 70
1024
 72
0
 73
0
 74
0
  7

 75
0
147
1.0
148
0.0
149
0.0
100
AcDbLayout
  1
Model
 70
0
 71
0
 10
0.0
 20
0.0
 11
22.0
 21
17.0
 12
0.0
 22
0.0
 32
0.0
 14
0.0
 24
0.0
 34
0.0
 15
0.0
 25
0.0
 35
0.0
146
0.0
 13
0.0
 23
0.0
 33
0.0
 16
1.0
 26
0.0
 36
0.0
 17
0.0
 27
1.0
 37
0.0
 76
0
330
202
345
0
346
0
  0
LAYOUT
  5
28E
102
{ACAD_REACTORS
330
1A
102
}
100
AcDbPlotSettings
  1

  2
none_device
  4
ANSI_C_(22.00_x_17.00_Inches)
  6

 40
0.0
 41
0.0
 42
0.0
 43
0.0
 44
558.8
 45
431.8
 46
0.0
 47
0.0
 48
0.0
 49
0.0
140
0.0
141
0.0
142
1.0
143
1.0
 70
0
 72
0
 73
0
 74
0
  7

 75
0
147
1.0
148
0.0
149
0.0
100
AcDbLayout
  1
Layout1
 70
0
 71
1
 10
0.0
 20
0.0
 11
22.0
 21
17.0
 12
0.0
 22
0.0
 32
0.0
 14
0.0
 24
0.0
 34
0.0
 15
0.0
 25
0.0
 35
0.0
146
0.0
 13
0.0
 23
0.0
 33
0.0
 16
1.0
 26
0.0
 36
0.0
 17
0.0
 27
1.0
 37
0.0
 76
0
330
203
345
0
346
0
  0
ENDSEC
  0
EOF
