999
DXF file: E:\BT Custom\CADOUTPUT\_TOP.dxf
999
Pro/ENGINEER 2018400 by Parametric Technology Corporation
  0
SECTION
  2
HEADER
  9
$ACADVER
  1
AC1018
  9
$DWGCODEPAGE
  3
ANSI_1252
  9
$EXTMAX
 10
22.0
 20
17.0
 30
0.0
  9
$EXTMIN
 10
0.0
 20
0.0
 30
0.0
  9
$LIMMIN
 10
0.0
 20
0.0
  9
$LIMMAX
 10
22.0
 20
17.0
  9
$VIEWCTR
 10
11.0
 20
8.5
  9
$VIEWSIZE
 40
17.0
  9
$CLAYER
  8
0
  9
$LTSCALE
 40
1.21
  9
$CELTYPE
  6
BYLAYER
  9
$DIMSCALE
 40
1.0
  9
$DIMASZ
 40
0.1
  9
$DIMEXO
 40
0.0625
  9
$DIMDLI
 40
0.836
  9
$DIMEXE
 40
0.125
  9
$DIMCEN
 40
0.198
  9
$DIMLFAC
 40
1.0
  9
$DIMBLK
  1
_FILLED
  9
$DIMALT
 70
1
  9
$DIMALTD
 70
2
  9
$DIMALTTD
 70
2
  9
$DIMALTF
 40
25.4
  9
$DIMTXT
 40
0.08
  9
$DIMTOL
 70
1
  9
$DIMLIM
 70
0
  9
$DIMTFAC
 40
1.0
  9
$DIMTP
 40
0.001
  9
$DIMTM
 40
0.001
  9
$DIMGAP
 40
0.09
  9
$DIMDSEP
 70
46
  9
$AUNITS
 70
0
  9
$PDMODE
 70
3
  9
$PDSIZE
 40
0.06
  9
$HANDSEED
  5
2B4
  9
$TILEMODE
 70
1
  9
$MEASUREMENT
 70
0
  9
$INSUNITS
 70
1
  0
ENDSEC
  0
SECTION
  2
CLASSES
  0
CLASS
  1
ACDBDICTIONARYWDFLT
  2
AcDbDictionaryWithDefault
  3
AutoCAD 2000
 90
0
 91
1
280
0
281
0
  0
CLASS
  1
ACDBPLACEHOLDER
  2
AcDbPlaceHolder
  3
AutoCAD 2000
 90
0
 91
1
280
0
281
0
  0
CLASS
  1
LAYOUT
  2
AcDbLayout
  3
AutoCAD 2000
 90
0
 91
0
280
0
281
0
  0
ENDSEC
  0
SECTION
  2
TABLES
  0
TABLE
  2
VPORT
  5
8
100
AcDbSymbolTable
 70
2
  0
VPORT
  5
1F4
100
AcDbSymbolTableRecord
100
AcDbViewportTableRecord
  2
*ACTIVE
 70
0
 10
0.0
 20
0.0
 11
1.0
 21
1.0
 12
11.0
 22
8.5
 13
0.0
 23
0.0
 14
1.0
 24
1.0
 15
0.0
 25
0.0
 16
0.0
 26
0.0
 36
1.0
 17
0.0
 27
0.0
 37
0.0
 40
17.0
 41
1.2941176471
 42
50.0
 43
0.0
 44
0.0
 50
0.0
 51
0.0
 71
0
 72
100
 73
1
 74
1
 75
0
 76
0
 77
0
 78
0
  0
ENDTAB
  0
TABLE
  2
LTYPE
  5
5
100
AcDbSymbolTable
 70
6
  0
LTYPE
  5
14
100
AcDbSymbolTableRecord
100
AcDbLinetypeTableRecord
  2
BYBLOCK
 70
0
  3

 72
65
 73
0
 40
0.0
  0
LTYPE
  5
15
100
AcDbSymbolTableRecord
100
AcDbLinetypeTableRecord
  2
BYLAYER
 70
0
  3

 72
65
 73
0
 40
0.0
  0
LTYPE
  5
16
100
AcDbSymbolTableRecord
100
AcDbLinetypeTableRecord
  2
CONTINUOUS
 70
64
  3
Solid line
 72
65
 73
0
 40
0.0
  0
LTYPE
  5
1F5
100
AcDbSymbolTableRecord
100
AcDbLinetypeTableRecord
  2
CENTER
 70
64
  3
____ _ ____ _ ____ _ ____ _ ____ _ ____ _ ____
 72
65
 73
4
 40
0.6
 49
0.375
 74
0
 49
-0.075
 74
0
 49
0.075
 74
0
 49
-0.075
 74
0
  0
LTYPE
  5
1F6
100
AcDbSymbolTableRecord
100
AcDbLinetypeTableRecord
  2
HIDDEN
 70
64
  3
- - - - - - - - - - - - - - - - - - - -
 72
65
 73
2
 40
0.2
 49
0.1
 74
0
 49
-0.1
 74
0
  0
LTYPE
  5
1F7
100
AcDbSymbolTableRecord
100
AcDbLinetypeTableRecord
  2
PHANTOM
 70
64
  3
_____ _ _ _____ _ _ _____ _ _ _____
 72
65
 73
6
 40
0.8
 49
0.45
 74
0
 49
-0.05
 74
0
 49
0.1
 74
0
 49
-0.05
 74
0
 49
0.1
 74
0
 49
-0.05
 74
0
  0
LTYPE
  5
1F8
100
AcDbSymbolTableRecord
100
AcDbLinetypeTableRecord
  2
DOT
 70
64
  3
. . . . . . . . . . . . . . . . . . . .
 72
65
 73
2
 40
0.2
 49
0.1
 74
0
 49
-0.1
 74
0
  0
LTYPE
  5
1F9
100
AcDbSymbolTableRecord
100
AcDbLinetypeTableRecord
  2
DASHED
 70
64
  3
- - - - - - - - - - - - - - - - - - - -
 72
65
 73
2
 40
0.2
 49
0.1
 74
0
 49
-0.1
 74
0
  0
ENDTAB
  0
TABLE
  2
LAYER
  5
2
100
AcDbSymbolTable
 70
36
  0
LAYER
  5
10
100
AcDbSymbolTableRecord
100
AcDbLayerTableRecord
  2
0
 70
0
 62
7
  6
CONTINUOUS
370
-3
390
F
  0
LAYER
  5
1FA
100
AcDbSymbolTableRecord
100
AcDbLayerTableRecord
  2
DEFAULT_1
 70
0
 62
7
  6
CENTER
370
-3
390
F
  0
LAYER
  5
1FB
100
AcDbSymbolTableRecord
100
AcDbLayerTableRecord
  2
DEFAULT_2
 70
0
 62
8
  6
HIDDEN
370
-3
390
F
  0
LAYER
  5
1FC
100
AcDbSymbolTableRecord
100
AcDbLayerTableRecord
  2
DEFAULT_3
 70
0
 62
7
  6
PHANTOM
370
-3
390
F
  0
LAYER
  5
1FD
100
AcDbSymbolTableRecord
100
AcDbLayerTableRecord
  2
ALL_FEATURES
 70
0
 62
7
  6
CONTINUOUS
370
-3
390
F
  0
LAYER
  5
1FE
100
AcDbSymbolTableRecord
100
AcDbLayerTableRecord
  2
AXES_FEATURES
 70
0
 62
7
  6
CONTINUOUS
370
-3
390
F
  0
LAYER
  5
1FF
100
AcDbSymbolTableRecord
100
AcDbLayerTableRecord
  2
DIMENSIONS
 70
0
 62
7
  6
CONTINUOUS
370
-3
390
F
  0
ENDTAB
  0
TABLE
  2
STYLE
  5
3
100
AcDbSymbolTable
 70
1
  0
STYLE
  5
11
100
AcDbSymbolTableRecord
100
AcDbTextStyleTableRecord
  2
STANDARD
 70
0
 40
0.0
 41
0.8
 50
0.0
 71
0
 42
0.2
  3
txt
  4

  0
STYLE
  5
200
100
AcDbSymbolTableRecord
100
AcDbTextStyleTableRecord
  2
TEXTSTYLE_1
 70
0
 40
0.0
 41
0.8
 50
0.0
 71
0
 42
0.2
  3
gdt
  4

  0
ENDTAB
  0
TABLE
  2
VIEW
  5
6
100
AcDbSymbolTable
 70
0
  0
ENDTAB
  0
TABLE
  2
UCS
  5
7
100
AcDbSymbolTable
 70
0
  0
ENDTAB
  0
TABLE
  2
APPID
  5
9
100
AcDbSymbolTable
 70
1
  0
APPID
  5
201
100
AcDbSymbolTableRecord
100
AcDbRegAppTableRecord
  2
ACAD
 70
0
  0
ENDTAB
  0
TABLE
  2
BLOCK_RECORD
  5
1
100
AcDbSymbolTable
 70
0
  0
BLOCK_RECORD
  5
202
100
AcDbSymbolTableRecord
100
AcDbBlockTableRecord
  2
*Model_Space
  0
BLOCK_RECORD
  5
203
100
AcDbSymbolTableRecord
100
AcDbBlockTableRecord
  2
*Paper_Space
  0
BLOCK_RECORD
  5
204
100
AcDbSymbolTableRecord
100
AcDbBlockTableRecord
  2
_FILLED
  0
ENDTAB
  0
TABLE
  2
DIMSTYLE
  5
A
100
AcDbSymbolTable
 70
1
100
AcDbDimStyleTable
 71
0
  0
DIMSTYLE
105
205
100
AcDbSymbolTableRecord
100
AcDbDimStyleTableRecord
  2
STANDARD
 70
0
  3

  4

 40
1.0
 41
0.1
 42
0.0625
 43
0.38
 44
0.125
 45
0.0
 46
0.0
 47
0.001
 48
0.001
140
0.08
141
0.09
142
0.0
143
25.4
144
1.0
145
0.0
146
1.0
147
0.09
 71
1.0
 72
0.0
 73
1
 74
1
 75
0
 76
0
 77
0
 78
4
 79
1
170
1
171
2
172
0
173
0
174
0
175
0
176
0
177
0
178
0
270
2
179
3
271
3
272
3
273
2
274
2
275
0
280
0
281
0
282
0
283
1
284
4
285
0
286
0
287
3
288
0
340
11
278
46
341
204
342
204
343
204
344
204
  0
ENDTAB
  0
ENDSEC
  0
SECTION
  2
BLOCKS
  0
BLOCK
  5
20
100
AcDbEntity
  8
0
100
AcDbBlockBegin
  2
*Model_Space
 70
0
 10
0.0
 20
0.0
 30
0.0
  3
*Model_Space
  1

  0
ENDBLK
  5
21
100
AcDbEntity
  8
0
100
AcDbBlockEnd
  0
BLOCK
  5
1C
100
AcDbEntity
  8
0
100
AcDbBlockBegin
  2
*Paper_Space
 70
0
 10
0.0
 20
0.0
 30
0.0
  3
*Paper_Space
  1

  0
ENDBLK
  5
1D
100
AcDbEntity
  8
0
100
AcDbBlockEnd
  0
BLOCK
  5
206
100
AcDbEntity
  8
0
100
AcDbBlockBegin
  2
_FILLED
 70
64
 10
0.0
 20
0.0
  3
_FILLED
  1

  0
SOLID
  5
207
100
AcDbEntity
  8
0
  6
BYBLOCK
 62
0
100
AcDbTrace
 10
0.0
 20
0.0
 11
-1.0
 21
0.2
 12
-1.0
 22
-0.2
 13
-1.0
 23
-0.2
  0
ENDBLK
  5
208
100
AcDbEntity
  8
0
  6
BYBLOCK
 62
0
100
AcDbBlockEnd
  0
ENDSEC
  0
SECTION
  2
ENTITIES
  0
LINE
  5
209
100
AcDbEntity
  8
0
100
AcDbLine
 62
7
  6
CONTINUOUS
 10
10.6767502453
 20
-3.0420629129
 11
10.705439388
 21
-3.0508340641
  0
LINE
  5
20A
100
AcDbEntity
  8
0
100
AcDbLine
 62
7
  6
CONTINUOUS
 10
11.3891972885
 20
-3.2598798329
 11
11.4178864312
 21
-3.2686509841
  0
LINE
  5
20B
100
AcDbEntity
  8
0
100
AcDbLine
 62
7
  6
CONTINUOUS
 10
10.7051761461
 20
-2.9734367179
 11
10.7316645738
 21
-2.9875208648
  0
LINE
  5
20C
100
AcDbEntity
  8
0
100
AcDbLine
 62
7
  6
CONTINUOUS
 10
11.3629721027
 20
-3.3231930322
 11
11.3894605305
 21
-3.3372771791
  0
LINE
  5
20D
100
AcDbEntity
  8
0
100
AcDbLine
 62
7
  6
CONTINUOUS
 10
4.1973183383
 20
9.1032149133
 11
4.1973183383
 21
8.5860711896
  0
LINE
  5
20E
100
AcDbEntity
  8
0
100
AcDbLine
 62
9
  6
CONTINUOUS
 10
4.2385263923
 20
9.1085335539
 11
4.2385263457
 21
8.5807525297
  0
LINE
  5
20F
100
AcDbEntity
  8
0
100
AcDbLine
 62
7
  6
CONTINUOUS
 10
6.4174865605
 20
9.0667424121
 11
6.6682871351
 21
9.5011417498
  0
LINE
  5
210
100
AcDbEntity
  8
0
100
AcDbLine
 62
7
  6
CONTINUOUS
 10
10.8653981077
 20
-2.8132147563
 11
10.8794822546
 21
-2.8397031841
  0
LINE
  5
211
100
AcDbEntity
  8
0
100
AcDbLine
 62
7
  6
CONTINUOUS
 10
11.215154422
 20
-3.471010713
 11
11.2292385689
 21
-3.4974991407
  0
LINE
  5
212
100
AcDbEntity
  8
0
100
AcDbLine
 62
7
  6
CONTINUOUS
 10
7.8053784061
 20
8.8446416041
 11
7.4263495415
 21
8.1881443531
  0
LINE
  5
213
100
AcDbEntity
  8
0
100
AcDbLine
 62
7
  6
CONTINUOUS
 10
6.6682871352
 20
8.1881443529
 11
6.4174865605
 21
8.6225436909
  0
LINE
  5
214
100
AcDbEntity
  8
0
100
AcDbLine
 62
7
  6
CONTINUOUS
 10
10.9340243027
 20
-2.7847888556
 11
10.9427954538
 21
-2.8134779982
  0
LINE
  5
215
100
AcDbEntity
  8
0
100
AcDbLine
 62
7
  6
CONTINUOUS
 10
11.1518412227
 20
-3.4972358988
 11
11.1606123739
 21
-3.5259250414
  0
LINE
  5
216
100
AcDbEntity
  8
0
100
AcDbLine
 62
7
  6
CONTINUOUS
 10
7.4263494697
 20
9.5011418742
 11
7.8053784061
 21
8.8446444989
  0
LINE
  5
217
100
AcDbEntity
  8
0
100
AcDbLine
 62
7
  6
CONTINUOUS
 10
15.4263476902
 20
8.1881430515
 11
14.6682889866
 21
8.1881430515
  0
LINE
  5
218
100
AcDbEntity
  8
0
100
AcDbLine
 62
7
  6
CONTINUOUS
 10
7.4263476902
 20
8.1881430515
 11
6.6682889866
 21
8.1881430515
  0
LINE
  5
219
100
AcDbEntity
  8
0
100
AcDbLine
 62
7
  6
CONTINUOUS
 10
4.2387208926
 20
8.5460957727
 11
6.6776469772
 21
8.6316721265
  0
LINE
  5
21A
100
AcDbEntity
  8
0
100
AcDbLine
 62
7
  6
CONTINUOUS
 10
17.8559156933
 20
9.1431903271
 11
15.4169896994
 21
9.0576139764
  0
LINE
  5
21B
100
AcDbEntity
  8
0
100
AcDbLine
 62
9
  6
CONTINUOUS
 10
15.5039568242
 20
8.8446430497
 11
15.4473179675
 21
8.8446430449
  0
LINE
  5
21C
100
AcDbEntity
  8
0
100
AcDbLine
 62
9
  6
CONTINUOUS
 10
6.5906798524
 20
8.8446430533
 11
6.647318709
 21
8.8446430581
  0
LINE
  5
21D
100
AcDbEntity
  8
0
100
AcDbLine
 62
7
  6
CONTINUOUS
 10
17.8559157851
 20
8.5460957727
 11
15.4169896994
 21
8.6316721265
  0
LINE
  5
21E
100
AcDbEntity
  8
0
100
AcDbLine
 62
7
  6
CONTINUOUS
 10
4.2387209833
 20
9.1431903271
 11
6.6776469771
 21
9.0576139764
  0
LINE
  5
21F
100
AcDbEntity
  8
0
100
AcDbLine
 62
7
  6
CONTINUOUS
 10
14.2892580864
 20
8.8446441801
 11
14.6682871351
 21
9.5011417498
  0
LINE
  5
220
100
AcDbEntity
  8
0
100
AcDbLine
 62
7
  6
CONTINUOUS
 10
6.6682889864
 20
9.5011430515
 11
7.4263474303
 21
9.5011430515
  0
LINE
  5
221
100
AcDbEntity
  8
0
100
AcDbLine
 62
7
  6
CONTINUOUS
 10
14.6682889864
 20
9.5011430515
 11
15.4263474303
 21
9.5011430515
  0
LINE
  5
222
100
AcDbEntity
  8
0
100
AcDbLine
 62
7
  6
CONTINUOUS
 10
10.9340243027
 20
-3.5259250414
 11
10.9427954538
 21
-3.4972358988
  0
LINE
  5
223
100
AcDbEntity
  8
0
100
AcDbLine
 62
7
  6
CONTINUOUS
 10
11.1518412227
 20
-2.8134779982
 11
11.1606123739
 21
-2.7847888556
  0
LINE
  5
224
100
AcDbEntity
  8
0
100
AcDbLine
 62
7
  6
CONTINUOUS
 10
15.6771501161
 20
8.6225436909
 11
15.4263495415
 21
8.1881443531
  0
LINE
  5
225
100
AcDbEntity
  8
0
100
AcDbLine
 62
7
  6
CONTINUOUS
 10
14.6682871352
 20
8.1881443529
 11
14.2892580864
 21
8.8446419229
  0
LINE
  5
226
100
AcDbEntity
  8
0
100
AcDbLine
 62
7
  6
CONTINUOUS
 10
10.8653981077
 20
-3.4974991407
 11
10.8794822546
 21
-3.4710107129
  0
LINE
  5
227
100
AcDbEntity
  8
0
100
AcDbLine
 62
7
  6
CONTINUOUS
 10
11.215154422
 20
-2.8397031841
 11
11.2292385689
 21
-2.8132147563
  0
LINE
  5
228
100
AcDbEntity
  8
0
100
AcDbLine
 62
7
  6
CONTINUOUS
 10
15.4263494697
 20
9.5011418742
 11
15.6771501161
 21
9.0667424121
  0
LINE
  5
229
100
AcDbEntity
  8
0
100
AcDbLine
 62
9
  6
CONTINUOUS
 10
17.8561102843
 20
8.5807525491
 11
17.8561103309
 21
9.1085335733
  0
LINE
  5
22A
100
AcDbEntity
  8
0
100
AcDbLine
 62
7
  6
CONTINUOUS
 10
17.8973183383
 20
8.5860711897
 11
17.8973183383
 21
9.1032149134
  0
LINE
  5
22B
100
AcDbEntity
  8
0
100
AcDbLine
 62
7
  6
CONTINUOUS
 10
10.7051761461
 20
-3.3372771791
 11
10.7316645738
 21
-3.3231930322
  0
LINE
  5
22C
100
AcDbEntity
  8
0
100
AcDbLine
 62
7
  6
CONTINUOUS
 10
11.3629721027
 20
-2.9875208648
 11
11.3894605305
 21
-2.9734367179
  0
LINE
  5
22D
100
AcDbEntity
  8
0
100
AcDbLine
 62
7
  6
CONTINUOUS
 10
10.6767502453
 20
-3.2686509841
 11
10.705439388
 21
-3.2598798329
  0
LINE
  5
22E
100
AcDbEntity
  8
0
100
AcDbLine
 62
7
  6
CONTINUOUS
 10
11.3891972885
 20
-3.0508340641
 11
11.4178864312
 21
-3.0420629129
  0
ARC
  5
22F
100
AcDbEntity
  8
0
100
AcDbCircle
 62
7
  6
CONTINUOUS
 10
4.2373183383
 20
8.5860711757
 40
0.04
100
AcDbArc
 50
180.0
 51
272.0094879445
  0
ARC
  5
230
100
AcDbEntity
  8
0
100
AcDbCircle
 62
7
  6
CONTINUOUS
 10
4.2373183383
 20
9.1032149273
 40
0.04
100
AcDbArc
 50
87.9905128562
 51
180.0
  0
ARC
  5
231
100
AcDbEntity
  8
0
100
AcDbCircle
 62
7
  6
CONTINUOUS
 10
6.6795756148
 20
8.5767059519
 40
0.055
100
AcDbArc
 50
36.0763715983
 51
92.009553813
  0
ARC
  5
232
100
AcDbEntity
  8
0
100
AcDbCircle
 62
7
  6
CONTINUOUS
 10
6.6795756148
 20
9.1125801511
 40
0.055
100
AcDbArc
 50
267.990446187
 51
323.923269445
  0
ARC
  5
233
100
AcDbEntity
  8
0
100
AcDbCircle
 62
7
  6
CONTINUOUS
 10
7.0473183383
 20
8.8446430515
 40
1.18
100
AcDbArc
 50
191.7875842837
 51
168.2128050576
  0
ARC
  5
234
100
AcDbEntity
  8
0
100
AcDbCircle
 62
7
  6
CONTINUOUS
 10
7.0473183383
 20
8.8446430515
 40
1.0000026738
100
AcDbArc
 50
193.5752673692
 51
166.4247326308
  0
ARC
  5
235
100
AcDbEntity
  8
0
100
AcDbCircle
 62
9
  6
CONTINUOUS
 10
7.0473183383
 20
8.8446430515
 40
0.8130026738
100
AcDbArc
 50
196.285440618
 51
163.7185026036
  0
ARC
  5
236
100
AcDbEntity
  8
0
100
AcDbCircle
 62
7
  6
CONTINUOUS
 10
7.0473183383
 20
8.8446430515
 40
0.741
100
AcDbArc
 50
197.7046178091
 51
237.6295013938
  0
ARC
  5
237
100
AcDbEntity
  8
0
100
AcDbCircle
 62
7
  6
CONTINUOUS
 10
7.0473183383
 20
8.8446430515
 40
0.741
100
AcDbArc
 50
62.3704986062
 51
117.6295013938
  0
ARC
  5
238
100
AcDbEntity
  8
0
100
AcDbCircle
 62
7
  6
CONTINUOUS
 10
7.0473183383
 20
8.8446430515
 40
0.741
100
AcDbArc
 50
122.3704986062
 51
162.2953821909
  0
ARC
  5
239
100
AcDbEntity
  8
0
100
AcDbCircle
 62
7
  6
CONTINUOUS
 10
7.0473183383
 20
8.8446430515
 40
0.741
100
AcDbArc
 50
2.3704986062
 51
57.6295013938
  0
ARC
  5
23A
100
AcDbEntity
  8
0
100
AcDbCircle
 62
7
  6
CONTINUOUS
 10
7.0473183383
 20
8.8446430515
 40
0.741
100
AcDbArc
 50
302.3704986062
 51
357.6295013938
  0
ARC
  5
23B
100
AcDbEntity
  8
0
100
AcDbCircle
 62
7
  6
CONTINUOUS
 10
7.0473183383
 20
8.8446430515
 40
0.741
100
AcDbArc
 50
242.3704986062
 51
297.6295013938
  0
ARC
  5
23C
100
AcDbEntity
  8
0
100
AcDbCircle
 62
7
  6
CONTINUOUS
 10
7.0473183383
 20
8.8446430515
 40
0.6515
100
AcDbArc
 50
199.878521394
 51
160.121478606
  0
ARC
  5
23D
100
AcDbEntity
  8
0
100
AcDbCircle
 62
9
  6
CONTINUOUS
 10
7.0473183383
 20
8.8446430515
 40
0.6146339942
100
AcDbArc
 50
201.0181837255
 51
158.9818162745
  0
ARC
  5
23E
100
AcDbEntity
  8
0
100
AcDbCircle
 62
9
  6
CONTINUOUS
 10
7.0473183383
 20
8.8446430515
 40
0.5405
100
AcDbArc
 50
203.7911019561
 51
156.208898044
  0
ARC
  5
23F
100
AcDbEntity
  8
0
100
AcDbCircle
 62
9
  6
CONTINUOUS
 10
7.0249782472
 20
8.8448573238
 40
0.4343031785
100
AcDbArc
 50
180.028268342
 51
204.2278688573
  0
ARC
  5
240
100
AcDbEntity
  8
0
100
AcDbCircle
 62
9
  6
CONTINUOUS
 10
7.0473183383
 20
8.8446430515
 40
0.4297397276
100
AcDbArc
 50
209.93537254
 51
150.0605512209
  0
CIRCLE
  5
241
100
AcDbEntity
  8
0
100
AcDbCircle
 62
7
  6
CONTINUOUS
 10
7.0473183383
 20
8.8446430515
 40
0.4
  0
CIRCLE
  5
242
100
AcDbEntity
  8
0
100
AcDbCircle
 62
9
  6
CONTINUOUS
 10
7.0473183383
 20
8.8446430515
 40
0.3875
  0
CIRCLE
  5
243
100
AcDbEntity
  8
0
100
AcDbCircle
 62
7
  6
CONTINUOUS
 10
7.0473183383
 20
8.8446430515
 40
0.3125
  0
CIRCLE
  5
244
100
AcDbEntity
  8
0
100
AcDbCircle
 62
9
  6
CONTINUOUS
 10
7.0473183383
 20
8.8446430515
 40
0.2825
  0
CIRCLE
  5
245
100
AcDbEntity
  8
0
100
AcDbCircle
 62
7
  6
CONTINUOUS
 10
7.0473183383
 20
8.8446430515
 40
0.2625
  0
ARC
  5
246
100
AcDbEntity
  8
0
100
AcDbCircle
 62
7
  6
CONTINUOUS
 10
10.1987902009
 20
18.6931711889
 40
0.21
100
AcDbArc
 50
264.870833936
 51
5.1291660639
  0
ARC
  5
247
100
AcDbEntity
  8
0
100
AcDbCircle
 62
7
  6
CONTINUOUS
 10
10.1987902009
 20
16.9961149141
 40
0.21
100
AcDbArc
 50
354.8708339361
 51
95.129166064
  0
ARC
  5
248
100
AcDbEntity
  8
0
100
AcDbCircle
 62
7
  6
CONTINUOUS
 10
9.8473183383
 20
17.8446430515
 40
0.21
100
AcDbArc
 50
309.8708339358
 51
50.1291660642
  0
CIRCLE
  5
249
100
AcDbEntity
  8
0
100
AcDbCircle
 62
7
  6
CONTINUOUS
 10
11.0473183383
 20
-3.1553569485
 40
0.79
  0
CIRCLE
  5
24A
100
AcDbEntity
  8
0
100
AcDbCircle
 62
7
  6
CONTINUOUS
 10
11.0473183383
 20
0.8446430515
 40
0.656
  0
CIRCLE
  5
24B
100
AcDbEntity
  8
0
100
AcDbCircle
 62
7
  6
CONTINUOUS
 10
11.0473183383
 20
0.8446430515
 40
0.58
  0
CIRCLE
  5
24C
100
AcDbEntity
  8
0
100
AcDbCircle
 62
7
  6
CONTINUOUS
 10
11.0473183383
 20
-3.1553569485
 40
0.495
  0
CIRCLE
  5
24D
100
AcDbEntity
  8
0
100
AcDbCircle
 62
9
  6
CONTINUOUS
 10
11.0473183383
 20
-3.1553569485
 40
0.49
  0
CIRCLE
  5
24E
100
AcDbEntity
  8
0
100
AcDbCircle
 62
7
  6
CONTINUOUS
 10
11.0473183383
 20
-3.1553569485
 40
0.47
  0
CIRCLE
  5
24F
100
AcDbEntity
  8
0
100
AcDbCircle
 62
7
  6
CONTINUOUS
 10
11.0473183383
 20
-3.1553569485
 40
0.4625
  0
CIRCLE
  5
250
100
AcDbEntity
  8
0
100
AcDbCircle
 62
9
  6
CONTINUOUS
 10
11.0473183383
 20
-3.1553569485
 40
0.4272880871
  0
CIRCLE
  5
251
100
AcDbEntity
  8
0
100
AcDbCircle
 62
9
  6
CONTINUOUS
 10
11.0473183383
 20
-3.1553569485
 40
0.4181683849
  0
CIRCLE
  5
252
100
AcDbEntity
  8
0
100
AcDbCircle
 62
7
  6
CONTINUOUS
 10
11.0473183383
 20
-3.1553569485
 40
0.396
  0
CIRCLE
  5
253
100
AcDbEntity
  8
0
100
AcDbCircle
 62
7
  6
CONTINUOUS
 10
11.0473183383
 20
-3.1553569485
 40
0.395
  0
CIRCLE
  5
254
100
AcDbEntity
  8
0
100
AcDbCircle
 62
7
  6
CONTINUOUS
 10
11.0473183383
 20
-3.1553569485
 40
0.3875
  0
ARC
  5
255
100
AcDbEntity
  8
0
100
AcDbCircle
 62
7
  6
CONTINUOUS
 10
11.0473183383
 20
-3.1553569485
 40
0.375
100
AcDbArc
 50
196.9999999999
 51
208.0000000005
  0
ARC
  5
256
100
AcDbEntity
  8
0
100
AcDbCircle
 62
7
  6
CONTINUOUS
 10
11.0473183383
 20
-3.1553569485
 40
0.375
100
AcDbArc
 50
106.9999999998
 51
117.9999999998
  0
ARC
  5
257
100
AcDbEntity
  8
0
100
AcDbCircle
 62
7
  6
CONTINUOUS
 10
11.0473183383
 20
-3.1553569485
 40
0.375
100
AcDbArc
 50
152.0000000006
 51
162.9999999998
  0
ARC
  5
258
100
AcDbEntity
  8
0
100
AcDbCircle
 62
7
  6
CONTINUOUS
 10
11.0473183383
 20
-3.1553569485
 40
0.375
100
AcDbArc
 50
286.9999999998
 51
297.9999999998
  0
ARC
  5
259
100
AcDbEntity
  8
0
100
AcDbCircle
 62
7
  6
CONTINUOUS
 10
11.0473183383
 20
-3.1553569485
 40
0.375
100
AcDbArc
 50
16.9999999999
 51
28.0000000005
  0
ARC
  5
25A
100
AcDbEntity
  8
0
100
AcDbCircle
 62
7
  6
CONTINUOUS
 10
11.0473183383
 20
-3.1553569485
 40
0.375
100
AcDbArc
 50
241.9999999999
 51
253.0000000001
  0
ARC
  5
25B
100
AcDbEntity
  8
0
100
AcDbCircle
 62
7
  6
CONTINUOUS
 10
11.0473183383
 20
-3.1553569485
 40
0.375
100
AcDbArc
 50
332.0000000006
 51
342.9999999998
  0
ARC
  5
25C
100
AcDbEntity
  8
0
100
AcDbCircle
 62
7
  6
CONTINUOUS
 10
11.0473183383
 20
-3.1553569485
 40
0.375
100
AcDbArc
 50
61.9999999999
 51
73.0000000001
  0
ARC
  5
25D
100
AcDbEntity
  8
0
100
AcDbCircle
 62
7
  6
CONTINUOUS
 10
11.0473183383
 20
-3.1553569485
 40
0.3575
100
AcDbArc
 50
342.9999999998
 51
16.9999999998
  0
ARC
  5
25E
100
AcDbEntity
  8
0
100
AcDbCircle
 62
7
  6
CONTINUOUS
 10
11.0473183383
 20
-3.1553569485
 40
0.3575
100
AcDbArc
 50
297.9999999998
 51
332.0000000007
  0
ARC
  5
25F
100
AcDbEntity
  8
0
100
AcDbCircle
 62
7
  6
CONTINUOUS
 10
11.0473183383
 20
-3.1553569485
 40
0.3575
100
AcDbArc
 50
253.0000000001
 51
286.9999999998
  0
ARC
  5
260
100
AcDbEntity
  8
0
100
AcDbCircle
 62
7
  6
CONTINUOUS
 10
11.0473183383
 20
-3.1553569485
 40
0.3575
100
AcDbArc
 50
208.0000000006
 51
241.9999999998
  0
ARC
  5
261
100
AcDbEntity
  8
0
100
AcDbCircle
 62
7
  6
CONTINUOUS
 10
11.0473183383
 20
-3.1553569485
 40
0.3575
100
AcDbArc
 50
162.9999999998
 51
196.9999999998
  0
ARC
  5
262
100
AcDbEntity
  8
0
100
AcDbCircle
 62
7
  6
CONTINUOUS
 10
11.0473183383
 20
-3.1553569485
 40
0.3575
100
AcDbArc
 50
117.9999999998
 51
152.0000000007
  0
ARC
  5
263
100
AcDbEntity
  8
0
100
AcDbCircle
 62
7
  6
CONTINUOUS
 10
11.0473183383
 20
-3.1553569485
 40
0.3575
100
AcDbArc
 50
73.0000000001
 51
106.9999999998
  0
ARC
  5
264
100
AcDbEntity
  8
0
100
AcDbCircle
 62
7
  6
CONTINUOUS
 10
11.0473183383
 20
-3.1553569485
 40
0.3575
100
AcDbArc
 50
28.0000000006
 51
61.9999999998
  0
CIRCLE
  5
265
100
AcDbEntity
  8
0
100
AcDbCircle
 62
7
  6
CONTINUOUS
 10
11.0473183383
 20
-3.1553569485
 40
0.3125
  0
ARC
  5
266
100
AcDbEntity
  8
0
100
AcDbCircle
 62
7
  6
CONTINUOUS
 10
11.0473183383
 20
17.8446430515
 40
1.0775
100
AcDbArc
 50
143.6026297633
 51
171.3973702366
  0
ARC
  5
267
100
AcDbEntity
  8
0
100
AcDbCircle
 62
7
  6
CONTINUOUS
 10
11.0473183383
 20
17.8446430515
 40
1.0775
100
AcDbArc
 50
98.6026297633
 51
126.3973702367
  0
ARC
  5
268
100
AcDbEntity
  8
0
100
AcDbCircle
 62
7
  6
CONTINUOUS
 10
11.0473183383
 20
17.8446430515
 40
1.0775
100
AcDbArc
 50
53.6026297633
 51
81.3973702367
  0
ARC
  5
269
100
AcDbEntity
  8
0
100
AcDbCircle
 62
7
  6
CONTINUOUS
 10
11.0473183383
 20
17.8446430515
 40
1.0775
100
AcDbArc
 50
8.6026297634
 51
36.3973702367
  0
ARC
  5
26A
100
AcDbEntity
  8
0
100
AcDbCircle
 62
7
  6
CONTINUOUS
 10
11.0473183383
 20
17.8446430515
 40
1.0775
100
AcDbArc
 50
278.6026297634
 51
306.3973702367
  0
ARC
  5
26B
100
AcDbEntity
  8
0
100
AcDbCircle
 62
7
  6
CONTINUOUS
 10
11.0473183383
 20
17.8446430515
 40
1.0775
100
AcDbArc
 50
233.6026297633
 51
261.3973702366
  0
ARC
  5
26C
100
AcDbEntity
  8
0
100
AcDbCircle
 62
7
  6
CONTINUOUS
 10
11.0473183383
 20
17.8446430515
 40
1.0775
100
AcDbArc
 50
188.6026297634
 51
216.3973702367
  0
ARC
  5
26D
100
AcDbEntity
  8
0
100
AcDbCircle
 62
7
  6
CONTINUOUS
 10
11.0473183383
 20
17.8446430515
 40
1.0775
100
AcDbArc
 50
323.6026297633
 51
351.3973702366
  0
ARC
  5
26E
100
AcDbEntity
  8
0
100
AcDbCircle
 62
7
  6
CONTINUOUS
 10
11.0473183383
 20
17.8446430515
 40
1.0125
100
AcDbArc
 50
310.3973230526
 51
319.6117730258
  0
ARC
  5
26F
100
AcDbEntity
  8
0
100
AcDbCircle
 62
7
  6
CONTINUOUS
 10
11.0473183383
 20
17.8446430515
 40
1.0125
100
AcDbArc
 50
265.1734325195
 51
274.8507121143
  0
ARC
  5
270
100
AcDbEntity
  8
0
100
AcDbCircle
 62
7
  6
CONTINUOUS
 10
11.0473183383
 20
17.8446430515
 40
1.0125
100
AcDbArc
 50
220.4263419138
 51
229.6352922597
  0
ARC
  5
271
100
AcDbEntity
  8
0
100
AcDbCircle
 62
7
  6
CONTINUOUS
 10
11.0473183383
 20
17.8446430515
 40
1.0125
100
AcDbArc
 50
175.4739221177
 51
184.4873382469
  0
ARC
  5
272
100
AcDbEntity
  8
0
100
AcDbCircle
 62
7
  6
CONTINUOUS
 10
11.0473183383
 20
17.8446430515
 40
1.0125
100
AcDbArc
 50
130.3973230526
 51
139.6117730258
  0
ARC
  5
273
100
AcDbEntity
  8
0
100
AcDbCircle
 62
7
  6
CONTINUOUS
 10
11.0473183383
 20
17.8446430515
 40
1.0125
100
AcDbArc
 50
85.1734325194
 51
94.8507121144
  0
ARC
  5
274
100
AcDbEntity
  8
0
100
AcDbCircle
 62
7
  6
CONTINUOUS
 10
11.0473183383
 20
17.8446430515
 40
1.0125
100
AcDbArc
 50
40.4263419138
 51
49.6352922597
  0
ARC
  5
275
100
AcDbEntity
  8
0
100
AcDbCircle
 62
7
  6
CONTINUOUS
 10
11.0473183383
 20
17.8446430515
 40
1.0125
100
AcDbArc
 50
355.4739221177
 51
4.4873382469
  0
CIRCLE
  5
276
100
AcDbEntity
  8
0
100
AcDbCircle
 62
7
  6
CONTINUOUS
 10
11.0473183383
 20
17.8446430515
 40
0.935
  0
CIRCLE
  5
277
100
AcDbEntity
  8
0
100
AcDbCircle
 62
9
  6
CONTINUOUS
 10
11.0473183383
 20
17.8446430515
 40
0.909136433
  0
ARC
  5
278
100
AcDbEntity
  8
0
100
AcDbCircle
 62
7
  6
CONTINUOUS
 10
11.0473183383
 20
19.0446430515
 40
0.21
100
AcDbArc
 50
219.8708339353
 51
320.1291660647
  0
ARC
  5
279
100
AcDbEntity
  8
0
100
AcDbCircle
 62
7
  6
CONTINUOUS
 10
11.8958464757
 20
18.6931711889
 40
0.21
100
AcDbArc
 50
174.8708339361
 51
275.129166064
  0
ARC
  5
27A
100
AcDbEntity
  8
0
100
AcDbCircle
 62
7
  6
CONTINUOUS
 10
11.8958464757
 20
16.9961149141
 40
0.21
100
AcDbArc
 50
84.870833936
 51
185.1291660639
  0
ARC
  5
27B
100
AcDbEntity
  8
0
100
AcDbCircle
 62
7
  6
CONTINUOUS
 10
11.0473183383
 20
16.6446430515
 40
0.21
100
AcDbArc
 50
39.8708339359
 51
140.1291660641
  0
ARC
  5
27C
100
AcDbEntity
  8
0
100
AcDbCircle
 62
7
  6
CONTINUOUS
 10
12.2473183383
 20
17.8446430515
 40
0.21
100
AcDbArc
 50
129.8708339358
 51
230.1291660642
  0
ARC
  5
27D
100
AcDbEntity
  8
0
100
AcDbCircle
 62
9
  6
CONTINUOUS
 10
15.0696584304
 20
8.8444287825
 40
0.4343031785
100
AcDbArc
 50
0.0282679136
 51
24.2278685238
  0
ARC
  5
27E
100
AcDbEntity
  8
0
100
AcDbCircle
 62
7
  6
CONTINUOUS
 10
15.4150610617
 20
8.5767059519
 40
0.055
100
AcDbArc
 50
87.990446187
 51
143.923269445
  0
ARC
  5
27F
100
AcDbEntity
  8
0
100
AcDbCircle
 62
7
  6
CONTINUOUS
 10
15.0473183383
 20
8.8446430515
 40
1.18
100
AcDbArc
 50
11.7875842837
 51
348.2128050576
  0
ARC
  5
280
100
AcDbEntity
  8
0
100
AcDbCircle
 62
7
  6
CONTINUOUS
 10
15.0473183383
 20
8.8446430515
 40
1.0000026738
100
AcDbArc
 50
13.5752673692
 51
346.4247326308
  0
ARC
  5
281
100
AcDbEntity
  8
0
100
AcDbCircle
 62
9
  6
CONTINUOUS
 10
15.0473183383
 20
8.8446430515
 40
0.8130026738
100
AcDbArc
 50
16.285440618
 51
343.7185026036
  0
ARC
  5
282
100
AcDbEntity
  8
0
100
AcDbCircle
 62
7
  6
CONTINUOUS
 10
15.0473183383
 20
8.8446430515
 40
0.741
100
AcDbArc
 50
182.3704986062
 51
237.6295013938
  0
ARC
  5
283
100
AcDbEntity
  8
0
100
AcDbCircle
 62
7
  6
CONTINUOUS
 10
15.0473183383
 20
8.8446430515
 40
0.741
100
AcDbArc
 50
62.3704986062
 51
117.6295013938
  0
ARC
  5
284
100
AcDbEntity
  8
0
100
AcDbCircle
 62
7
  6
CONTINUOUS
 10
15.0473183383
 20
8.8446430515
 40
0.741
100
AcDbArc
 50
122.3704986062
 51
177.6295013938
  0
ARC
  5
285
100
AcDbEntity
  8
0
100
AcDbCircle
 62
7
  6
CONTINUOUS
 10
15.0473183383
 20
8.8446430515
 40
0.741
100
AcDbArc
 50
17.7046178091
 51
57.6295013938
  0
ARC
  5
286
100
AcDbEntity
  8
0
100
AcDbCircle
 62
7
  6
CONTINUOUS
 10
15.0473183383
 20
8.8446430515
 40
0.741
100
AcDbArc
 50
302.3704986062
 51
342.2953821909
  0
ARC
  5
287
100
AcDbEntity
  8
0
100
AcDbCircle
 62
7
  6
CONTINUOUS
 10
15.0473183383
 20
8.8446430515
 40
0.741
100
AcDbArc
 50
242.3704986062
 51
297.6295013938
  0
ARC
  5
288
100
AcDbEntity
  8
0
100
AcDbCircle
 62
7
  6
CONTINUOUS
 10
15.0473183383
 20
8.8446430515
 40
0.6515
100
AcDbArc
 50
19.878521394
 51
340.121478606
  0
ARC
  5
289
100
AcDbEntity
  8
0
100
AcDbCircle
 62
9
  6
CONTINUOUS
 10
15.0473183383
 20
8.8446430515
 40
0.6146339942
100
AcDbArc
 50
21.0181837255
 51
338.9818162745
  0
ARC
  5
28A
100
AcDbEntity
  8
0
100
AcDbCircle
 62
9
  6
CONTINUOUS
 10
15.0473183383
 20
8.8446430515
 40
0.5405
100
AcDbArc
 50
23.7911019561
 51
336.2088980439
  0
ARC
  5
28B
100
AcDbEntity
  8
0
100
AcDbCircle
 62
9
  6
CONTINUOUS
 10
15.0473183383
 20
8.8446430515
 40
0.4297397276
100
AcDbArc
 50
29.93537254
 51
330.0605512209
  0
CIRCLE
  5
28C
100
AcDbEntity
  8
0
100
AcDbCircle
 62
7
  6
CONTINUOUS
 10
15.0473183383
 20
8.8446430515
 40
0.4
  0
CIRCLE
  5
28D
100
AcDbEntity
  8
0
100
AcDbCircle
 62
9
  6
CONTINUOUS
 10
15.0473183383
 20
8.8446430515
 40
0.3875
  0
CIRCLE
  5
28E
100
AcDbEntity
  8
0
100
AcDbCircle
 62
7
  6
CONTINUOUS
 10
15.0473183383
 20
8.8446430515
 40
0.3125
  0
CIRCLE
  5
28F
100
AcDbEntity
  8
0
100
AcDbCircle
 62
9
  6
CONTINUOUS
 10
15.0473183383
 20
8.8446430515
 40
0.2825
  0
CIRCLE
  5
290
100
AcDbEntity
  8
0
100
AcDbCircle
 62
7
  6
CONTINUOUS
 10
15.0473183383
 20
8.8446430515
 40
0.2625
  0
ARC
  5
291
100
AcDbEntity
  8
0
100
AcDbCircle
 62
7
  6
CONTINUOUS
 10
15.4150610617
 20
9.1125801511
 40
0.055
100
AcDbArc
 50
216.0763715983
 51
272.009553813
  0
ARC
  5
292
100
AcDbEntity
  8
0
100
AcDbCircle
 62
7
  6
CONTINUOUS
 10
17.8573183383
 20
8.5860711757
 40
0.04
100
AcDbArc
 50
267.9905128562
 51
360.0
  0
ARC
  5
293
100
AcDbEntity
  8
0
100
AcDbCircle
 62
7
  6
CONTINUOUS
 10
17.8573183383
 20
9.1032149273
 40
0.04
100
AcDbArc
 50
0.0
 51
92.0094879445
  0
SPLINE
  5
294
100
AcDbEntity
  8
0
100
AcDbSpline
 62
9
  6
CONTINUOUS
 70
0
 71
3
 72
17
 73
13
 74
0
 42
0.0000001
 43
0.0000001
 44
0.0000000001
 40
0.0
 40
0.0
 40
0.0
 40
0.0
 40
0.037380452
 40
0.0765709401
 40
0.1637307182
 40
0.2135211589
 40
0.2678754909
 40
0.3901563197
 40
0.5293175923
 40
0.6810153728
 40
0.8397376973
 40
1.0
 40
1.0
 40
1.0
 40
1.0
 10
15.4169901944
 20
8.6316723681
 30
0.0
 10
15.4174332028
 20
8.6316567978
 30
0.0
 10
15.4183459119
 20
8.6317131309
 30
0.0
 10
15.4202379601
 20
8.6321880213
 30
0.0
 10
15.4220940829
 20
8.6332312406
 30
0.0
 10
15.4238167349
 20
8.6347108992
 30
0.0
 10
15.4256479572
 20
8.6366822896
 30
0.0
 10
15.4277756592
 20
8.6397880976
 30
0.0
 10
15.4299395235
 20
8.6441962086
 30
0.0
 10
15.4317693932
 20
8.6492128932
 30
0.0
 10
15.4332051315
 20
8.6546128844
 30
0.0
 10
15.4339071808
 20
8.6583334021
 30
0.0
 10
15.4341975464
 20
8.6602115851
 30
0.0
  0
SPLINE
  5
295
100
AcDbEntity
  8
0
100
AcDbSpline
 62
9
  6
CONTINUOUS
 70
0
 71
3
 72
24
 73
20
 74
0
 42
0.0000001
 43
0.0000001
 44
0.0000000001
 40
0.0
 40
0.0
 40
0.0
 40
0.0
 40
0.1888642922
 40
0.3768280766
 40
0.4674954878
 40
0.5542732522
 40
0.6358630053
 40
0.7109667356
 40
0.778416041
 40
0.8375610997
 40
0.8878829808
 40
0.9288647792
 40
0.9601526834
 40
0.9722429748
 40
0.9820418426
 40
0.9896119678
 40
0.9950256469
 40
0.9983879084
 40
1.0
 40
1.0
 40
1.0
 40
1.0
 10
17.8561109047
 20
9.1085335687
 30
0.0
 10
17.8560419022
 20
9.1107169732
 30
0.0
 10
17.8559137456
 20
9.1150736776
 30
0.0
 10
17.8557801434
 20
9.1204793309
 30
0.0
 10
17.8556947797
 20
9.1247049698
 30
0.0
 10
17.8556440785
 20
9.1277006684
 30
0.0
 10
17.8556068826
 20
9.1305165353
 30
0.0
 10
17.8555841131
 20
9.1331089873
 30
0.0
 10
17.8555767462
 20
9.1354419311
 30
0.0
 10
17.8555842764
 20
9.1374882221
 30
0.0
 10
17.8556059145
 20
9.1392283156
 30
0.0
 10
17.8556407246
 20
9.140645789
 30
0.0
 10
17.8556828409
 20
9.141620942
 30
0.0
 10
17.8557252445
 20
9.1422343098
 30
0.0
 10
17.8557575006
 20
9.1425741527
 30
0.0
 10
17.8557898751
 20
9.1428342032
 30
0.0
 10
17.8558281767
 20
9.1430232814
 30
0.0
 10
17.855857726
 20
9.1431326228
 30
0.0
 10
17.8558976716
 20
9.1431896793
 30
0.0
 10
17.8559163058
 20
9.1431903466
 30
0.0
  0
SPLINE
  5
296
100
AcDbEntity
  8
0
100
AcDbSpline
 62
9
  6
CONTINUOUS
 70
0
 71
3
 72
24
 73
20
 74
0
 42
0.0000001
 43
0.0000001
 44
0.0000000001
 40
0.0
 40
0.0
 40
0.0
 40
0.0
 40
0.0016014645
 40
0.0049190217
 40
0.0102639246
 40
0.0177504598
 40
0.0274596651
 40
0.0394627839
 40
0.0706177034
 40
0.11156815
 40
0.1619753268
 40
0.2213258116
 40
0.2891041262
 40
0.3646489913
 40
0.4467189857
 40
0.5339271836
 40
0.6248862912
 40
0.8126970489
 40
1.0
 40
1.0
 40
1.0
 40
1.0
 10
15.465492073
 20
8.6299702953
 30
0.0
 10
15.4654724889
 20
8.6299709803
 30
0.0
 10
15.4654300282
 20
8.6300298781
 30
0.0
 10
15.4653984626
 20
8.6301443474
 30
0.0
 10
15.465357648
 20
8.6303416239
 30
0.0
 10
15.4653230255
 20
8.6306138075
 30
0.0
 10
15.4652884808
 20
8.6309700548
 30
0.0
 10
15.4652429072
 20
8.631615116
 30
0.0
 10
15.4651975211
 20
8.6326436245
 30
0.0
 10
15.4651598872
 20
8.6341422119
 30
0.0
 10
15.4651363842
 20
8.6359862529
 30
0.0
 10
15.4651281495
 20
8.6381586427
 30
0.0
 10
15.4651361598
 20
8.6406386413
 30
0.0
 10
15.4651610638
 20
8.6433965347
 30
0.0
 10
15.4652017667
 20
8.6463920132
 30
0.0
 10
15.4652572425
 20
8.6495758974
 30
0.0
 10
15.4653504785
 20
8.6540531783
 30
0.0
 10
15.4654960863
 20
8.6597543925
 30
0.0
 10
15.4656359585
 20
8.6643423105
 30
0.0
 10
15.4657111718
 20
8.6666329848
 30
0.0
  0
SPLINE
  5
297
100
AcDbEntity
  8
0
100
AcDbSpline
 62
9
  6
CONTINUOUS
 70
0
 71
3
 72
9
 73
5
 74
0
 42
0.0000001
 43
0.0000001
 44
0.0000000001
 40
0.0
 40
0.0
 40
0.0
 40
0.0
 40
0.4999843841
 40
1.0
 40
1.0
 40
1.0
 40
1.0
 10
15.4657111707
 20
9.0226531206
 30
0.0
 10
15.8641019756
 20
9.036872092
 30
0.0
 10
16.6608784098
 20
9.0661423771
 30
0.0
 10
17.4576797732
 20
9.0947368139
 30
0.0
 10
17.8561103046
 20
9.1085345833
 30
0.0
  0
SPLINE
  5
298
100
AcDbEntity
  8
0
100
AcDbSpline
 62
9
  6
CONTINUOUS
 70
0
 71
3
 72
9
 73
5
 74
0
 42
0.0000001
 43
0.0000001
 44
0.0000000001
 40
0.0
 40
0.0
 40
0.0
 40
0.0
 40
0.500015616
 40
1.0
 40
1.0
 40
1.0
 40
1.0
 10
17.8561103084
 20
8.5807515258
 30
0.0
 10
17.4576797795
 20
8.594549298
 30
0.0
 10
16.6608784216
 20
8.6231437516
 30
0.0
 10
15.8641019896
 20
8.6524139589
 30
0.0
 10
15.4657111892
 20
8.6666329842
 30
0.0
  0
SPLINE
  5
299
100
AcDbEntity
  8
0
100
AcDbSpline
 62
9
  6
CONTINUOUS
 70
0
 71
3
 72
12
 73
8
 74
0
 42
0.0000001
 43
0.0000001
 44
0.0000000001
 40
0.0
 40
0.0
 40
0.0
 40
0.0
 40
0.2495312749
 40
0.3745047722
 40
0.4995314041
 40
0.7497164866
 40
1.0
 40
1.0
 40
1.0
 40
1.0
 10
15.465711175
 20
8.6666325769
 30
0.0
 10
15.4719523641
 20
8.6805488445
 30
0.0
 10
15.4802543404
 20
8.7019386604
 30
0.0
 10
15.4890337756
 20
8.7311920233
 30
0.0
 10
15.4962594764
 20
8.7609116567
 30
0.0
 10
15.502326793
 20
8.7987329255
 30
0.0
 10
15.5039568747
 20
8.8293453541
 30
0.0
 10
15.5039568222
 20
8.8446430515
 30
0.0
  0
SPLINE
  5
29A
100
AcDbEntity
  8
0
100
AcDbSpline
 62
9
  6
CONTINUOUS
 70
0
 71
3
 72
14
 73
10
 74
0
 42
0.0000001
 43
0.0000001
 44
0.0000000001
 40
0.0
 40
0.0
 40
0.0
 40
0.0
 40
0.2572098818
 40
0.3847761737
 40
0.5112584417
 40
0.636417664
 40
0.7597808726
 40
0.881112819
 40
1.0
 40
1.0
 40
1.0
 40
1.0
 10
15.3706079922
 20
9.0801927022
 30
0.0
 10
15.3748073222
 20
9.0744295079
 30
0.0
 10
15.3814829252
 20
9.0660781165
 30
0.0
 10
15.3912350303
 20
9.0557828194
 30
0.0
 10
15.3989339471
 20
9.0486127261
 30
0.0
 10
15.4070247051
 20
9.0420667048
 30
0.0
 10
15.4155743979
 20
9.0363718239
 30
0.0
 10
15.424584328
 20
9.0317917156
 30
0.0
 10
15.4309703949
 20
9.0297454656
 30
0.0
 10
15.4341973956
 20
9.0290745672
 30
0.0
  0
LINE
  5
29B
100
AcDbEntity
  8
0
100
AcDbLine
 62
9
  6
CONTINUOUS
 10
15.4341972681
 20
9.0290742221
 11
15.4657110756
 21
9.0226532918
  0
SPLINE
  5
29C
100
AcDbEntity
  8
0
100
AcDbSpline
 62
9
  6
CONTINUOUS
 70
0
 71
3
 72
24
 73
20
 74
0
 42
0.0000001
 43
0.0000001
 44
0.0000000001
 40
0.0
 40
0.0
 40
0.0
 40
0.0
 40
0.1873029432
 40
0.3751136911
 40
0.4660727937
 40
0.5532809871
 40
0.6353509779
 40
0.7108958407
 40
0.7786741544
 40
0.8380246399
 40
0.8884318192
 40
0.9293822698
 40
0.9605371949
 40
0.972540317
 40
0.9822495258
 40
0.9897360648
 40
0.9950809716
 40
0.9983985328
 40
1.0
 40
1.0
 40
1.0
 40
1.0
 10
15.4657111616
 20
9.0226531202
 30
0.0
 10
15.4656359483
 20
9.0249437942
 30
0.0
 10
15.4654960761
 20
9.0295317116
 30
0.0
 10
15.4653504684
 20
9.035232925
 30
0.0
 10
15.4652572324
 20
9.0397102053
 30
0.0
 10
15.4652017566
 20
9.042894089
 30
0.0
 10
15.4651610537
 20
9.0458895671
 30
0.0
 10
15.4651361498
 20
9.0486474602
 30
0.0
 10
15.4651281394
 20
9.0511274585
 30
0.0
 10
15.4651363741
 20
9.0532998482
 30
0.0
 10
15.4651598771
 20
9.055143889
 30
0.0
 10
15.4651975111
 20
9.0566424765
 30
0.0
 10
15.4652428971
 20
9.0576709851
 30
0.0
 10
15.4652884707
 20
9.0583160464
 30
0.0
 10
15.4653230154
 20
9.0586722937
 30
0.0
 10
15.4653576379
 20
9.0589444775
 30
0.0
 10
15.4653984525
 20
9.0591417541
 30
0.0
 10
15.4654300182
 20
9.0592562235
 30
0.0
 10
15.4654724787
 20
9.0593151214
 30
0.0
 10
15.4654920629
 20
9.0593158065
 30
0.0
  0
SPLINE
  5
29D
100
AcDbEntity
  8
0
100
AcDbSpline
 62
9
  6
CONTINUOUS
 70
0
 71
3
 72
14
 73
10
 74
0
 42
0.0000001
 43
0.0000001
 44
0.0000000001
 40
0.0
 40
0.0
 40
0.0
 40
0.0
 40
0.1188838351
 40
0.2402226149
 40
0.3635869513
 40
0.4887450001
 40
0.6152290678
 40
0.7427978992
 40
1.0
 40
1.0
 40
1.0
 40
1.0
 10
15.4341973659
 20
8.6602116562
 30
0.0
 10
15.4309704691
 20
8.6595407066
 30
0.0
 10
15.4245843697
 20
8.6574942938
 30
0.0
 10
15.4155741922
 20
8.6529143915
 30
0.0
 10
15.4070243383
 20
8.6472193764
 30
0.0
 10
15.3989336917
 20
8.6406731356
 30
0.0
 10
15.3912347583
 20
8.6335029304
 30
0.0
 10
15.381482664
 20
8.6232077529
 30
0.0
 10
15.3748070649
 20
8.6148565228
 30
0.0
 10
15.3706080052
 20
8.6090933948
 30
0.0
  0
SPLINE
  5
29E
100
AcDbEntity
  8
0
100
AcDbSpline
 62
9
  6
CONTINUOUS
 70
0
 71
3
 72
24
 73
20
 74
0
 42
0.0000001
 43
0.0000001
 44
0.0000000001
 40
0.0
 40
0.0
 40
0.0
 40
0.0
 40
0.0016116834
 40
0.0049733688
 40
0.010386468
 40
0.0179560322
 40
0.0277543653
 40
0.0398441522
 40
0.0711311497
 40
0.1121122385
 40
0.1624336501
 40
0.2215784678
 40
0.2890277487
 40
0.3641316808
 40
0.4457218534
 40
0.5325002159
 40
0.6231683646
 40
0.8111338818
 40
1.0
 40
1.0
 40
1.0
 40
1.0
 10
17.8559163416
 20
8.5460957549
 30
0.0
 10
17.8558977116
 20
8.546096412
 30
0.0
 10
17.8558577531
 20
8.5461534515
 30
0.0
 10
17.8558282127
 20
8.5462627764
 30
0.0
 10
17.8557899053
 20
8.5464518336
 30
0.0
 10
17.8557575322
 20
8.546711865
 30
0.0
 10
17.8557252743
 20
8.5470516894
 30
0.0
 10
17.8556828695
 20
8.5476650352
 30
0.0
 10
17.8556407511
 20
8.5486401644
 30
0.0
 10
17.8556059394
 20
8.5500576149
 30
0.0
 10
17.8555842996
 20
8.5517976935
 30
0.0
 10
17.855576768
 20
8.5538439779
 30
0.0
 10
17.8555841336
 20
8.556176923
 30
0.0
 10
17.8556069023
 20
8.5587693843
 30
0.0
 10
17.8556440977
 20
8.5615852678
 30
0.0
 10
17.8556947988
 20
8.5645809895
 30
0.0
 10
17.8557801628
 20
8.5688066676
 30
0.0
 10
17.855913766
 20
8.5742123755
 30
0.0
 10
17.8560419239
 20
8.578569125
 30
0.0
 10
17.8561109271
 20
8.5807525526
 30
0.0
  0
SPLINE
  5
29F
100
AcDbEntity
  8
0
100
AcDbSpline
 62
9
  6
CONTINUOUS
 70
0
 71
3
 72
22
 73
18
 74
0
 42
0.0000001
 43
0.0000001
 44
0.0000000001
 40
0.0
 40
0.0
 40
0.0
 40
0.0
 40
0.188669709
 40
0.3714390576
 40
0.5405499432
 40
0.6179789323
 40
0.6896739854
 40
0.75497069
 40
0.8132210353
 40
0.8639024639
 40
0.9066665361
 40
0.9412504514
 40
0.9676388492
 40
0.9779364235
 40
0.9865049481
 40
0.9936701867
 40
1.0
 40
1.0
 40
1.0
 40
1.0
 10
17.8561102893
 20
8.5807525709
 30
0.0
 10
17.858765589
 20
8.5807452274
 30
0.0
 10
17.8639936145
 20
8.5807997376
 30
0.0
 10
17.8715968996
 20
8.5810806816
 30
0.0
 10
17.8776268232
 20
8.5814823462
 30
0.0
 10
17.8820859195
 20
8.5819046926
 30
0.0
 10
17.885083797
 20
8.5822525489
 30
0.0
 10
17.8878049991
 20
8.5826362775
 30
0.0
 10
17.890222078
 20
8.5830521001
 30
0.0
 10
17.8923109533
 20
8.583495885
 30
0.0
 10
17.8940532006
 20
8.5839613891
 30
0.0
 10
17.895432207
 20
8.5844437048
 30
0.0
 10
17.8963394673
 20
8.5848848719
 30
0.0
 10
17.8968562797
 20
8.585260269
 30
0.0
 10
17.8971155975
 20
8.5855222231
 30
0.0
 10
17.8972789343
 20
8.5857909971
 30
0.0
 10
17.8973183658
 20
8.5859821049
 30
0.0
 10
17.8973183382
 20
8.5860711897
 30
0.0
  0
SPLINE
  5
2A0
100
AcDbEntity
  8
0
100
AcDbSpline
 62
9
  6
CONTINUOUS
 70
0
 71
3
 72
22
 73
18
 74
0
 42
0.0000001
 43
0.0000001
 44
0.0000000001
 40
0.0
 40
0.0
 40
0.0
 40
0.0
 40
0.1886690701
 40
0.3714372791
 40
0.5405467964
 40
0.6179753489
 40
0.689670265
 40
0.754966903
 40
0.8132171026
 40
0.8638988908
 40
0.9066635678
 40
0.9412479036
 40
0.9676369789
 40
0.9779350206
 40
0.9865040353
 40
0.9936697477
 40
1.0
 40
1.0
 40
1.0
 40
1.0
 10
17.8561103309
 20
9.1085335733
 30
0.0
 10
17.8587656471
 20
9.1085406631
 30
0.0
 10
17.8639936894
 20
9.1084861997
 30
0.0
 10
17.8715970163
 20
9.1082055722
 30
0.0
 10
17.8776269509
 20
9.1078038226
 30
0.0
 10
17.8820860577
 20
9.1073814385
 30
0.0
 10
17.8850839538
 20
9.1070335782
 30
0.0
 10
17.887805178
 20
9.1066498594
 30
0.0
 10
17.8902222841
 20
9.1062340487
 30
0.0
 10
17.8923111949
 20
9.1057902804
 30
0.0
 10
17.8940534838
 20
9.105324791
 30
0.0
 10
17.895432528
 20
9.1048424676
 30
0.0
 10
17.8963398144
 20
9.1044012823
 30
0.0
 10
17.8968566503
 20
9.1040258684
 30
0.0
 10
17.8971159858
 20
9.1037638985
 30
0.0
 10
17.8972793372
 20
9.1034951069
 30
0.0
 10
17.8973187751
 20
9.1033039852
 30
0.0
 10
17.8973187492
 20
9.1032148933
 30
0.0
  0
SPLINE
  5
2A1
100
AcDbEntity
  8
0
100
AcDbSpline
 62
9
  6
CONTINUOUS
 70
0
 71
3
 72
17
 73
13
 74
0
 42
0.0000001
 43
0.0000001
 44
0.0000000001
 40
0.0
 40
0.0
 40
0.0
 40
0.0
 40
0.1602628903
 40
0.3189857365
 40
0.4706838828
 40
0.6098452851
 40
0.7321259561
 40
0.7864801099
 40
0.8362703177
 40
0.923429538
 40
0.9626197636
 40
1.0
 40
1.0
 40
1.0
 40
1.0
 10
15.4341976666
 20
9.0290745292
 30
0.0
 10
15.433907299
 20
9.0309527178
 30
0.0
 10
15.4332052457
 20
9.0346732458
 30
0.0
 10
15.4317695016
 20
9.0400732504
 30
0.0
 10
15.4299396269
 20
9.0450899427
 30
0.0
 10
15.4277757597
 20
9.0494980536
 30
0.0
 10
15.4256480562
 20
9.0526038554
 30
0.0
 10
15.423816834
 20
9.0545752347
 30
0.0
 10
15.4220941857
 20
9.0560548779
 30
0.0
 10
15.4202380667
 20
9.0570980781
 30
0.0
 10
15.4183460259
 20
9.0575729439
 30
0.0
 10
15.417433322
 20
9.0576292639
 30
0.0
 10
15.4169903167
 20
9.057613687
 30
0.0
  0
LINE
  5
2A2
100
AcDbEntity
  8
0
100
AcDbLine
 62
9
  6
CONTINUOUS
 10
15.4657111386
 20
8.6666326427
 11
15.4341972312
 21
8.6602117194
  0
SPLINE
  5
2A3
100
AcDbEntity
  8
0
100
AcDbSpline
 62
9
  6
CONTINUOUS
 70
0
 71
3
 72
17
 73
13
 74
0
 42
0.0000001
 43
0.0000001
 44
0.0000000001
 40
0.0
 40
0.0
 40
0.0
 40
0.0
 40
0.037380452
 40
0.0765709401
 40
0.1637307182
 40
0.2135211589
 40
0.2678754909
 40
0.3901563197
 40
0.5293175923
 40
0.6810153728
 40
0.8397376973
 40
1.0
 40
1.0
 40
1.0
 40
1.0
 10
6.6776464822
 20
9.0576137349
 30
0.0
 10
6.6772034738
 20
9.0576293052
 30
0.0
 10
6.6762907647
 20
9.0575729721
 30
0.0
 10
6.6743987165
 20
9.0570980817
 30
0.0
 10
6.6725425937
 20
9.0560548624
 30
0.0
 10
6.6708199416
 20
9.0545752038
 30
0.0
 10
6.6689887194
 20
9.0526038134
 30
0.0
 10
6.6668610174
 20
9.0494980053
 30
0.0
 10
6.6646971531
 20
9.0450898944
 30
0.0
 10
6.6628672834
 20
9.0400732098
 30
0.0
 10
6.6614315451
 20
9.0346732186
 30
0.0
 10
6.6607294957
 20
9.0309527009
 30
0.0
 10
6.6604391301
 20
9.0290745179
 30
0.0
  0
SPLINE
  5
2A4
100
AcDbEntity
  8
0
100
AcDbSpline
 62
9
  6
CONTINUOUS
 70
0
 71
3
 72
24
 73
20
 74
0
 42
0.0000001
 43
0.0000001
 44
0.0000000001
 40
0.0
 40
0.0
 40
0.0
 40
0.0
 40
0.1888642922
 40
0.3768280766
 40
0.4674954878
 40
0.5542732522
 40
0.6358630053
 40
0.7109667356
 40
0.778416041
 40
0.8375610997
 40
0.8878829808
 40
0.9288647792
 40
0.9601526834
 40
0.9722429748
 40
0.9820418426
 40
0.9896119678
 40
0.9950256469
 40
0.9983879084
 40
1.0
 40
1.0
 40
1.0
 40
1.0
 10
4.2385257719
 20
8.5807525343
 30
0.0
 10
4.2385947743
 20
8.5785691298
 30
0.0
 10
4.2387229309
 20
8.5742124254
 30
0.0
 10
4.2388565331
 20
8.5688067721
 30
0.0
 10
4.2389418969
 20
8.5645811332
 30
0.0
 10
4.2389925981
 20
8.5615854346
 30
0.0
 10
4.239029794
 20
8.5587695677
 30
0.0
 10
4.2390525635
 20
8.5561771157
 30
0.0
 10
4.2390599304
 20
8.5538441719
 30
0.0
 10
4.2390524002
 20
8.5517978809
 30
0.0
 10
4.239030762
 20
8.5500577874
 30
0.0
 10
4.238995952
 20
8.548640314
 30
0.0
 10
4.2389538357
 20
8.547665161
 30
0.0
 10
4.238911432
 20
8.5470517932
 30
0.0
 10
4.238879176
 20
8.5467119503
 30
0.0
 10
4.2388468015
 20
8.5464518998
 30
0.0
 10
4.2388084998
 20
8.5462628216
 30
0.0
 10
4.2387789506
 20
8.5461534802
 30
0.0
 10
4.238739005
 20
8.5460964237
 30
0.0
 10
4.2387203707
 20
8.5460957564
 30
0.0
  0
SPLINE
  5
2A5
100
AcDbEntity
  8
0
100
AcDbSpline
 62
9
  6
CONTINUOUS
 70
0
 71
3
 72
24
 73
20
 74
0
 42
0.0000001
 43
0.0000001
 44
0.0000000001
 40
0.0
 40
0.0
 40
0.0
 40
0.0
 40
0.0016014645
 40
0.0049190217
 40
0.0102639246
 40
0.0177504598
 40
0.0274596651
 40
0.0394627839
 40
0.0706177034
 40
0.11156815
 40
0.1619753268
 40
0.2213258116
 40
0.2891041262
 40
0.3646489913
 40
0.4467189857
 40
0.5339271836
 40
0.6248862912
 40
0.8126970489
 40
1.0
 40
1.0
 40
1.0
 40
1.0
 10
6.6291446035
 20
9.0593158077
 30
0.0
 10
6.6291641877
 20
9.0593151227
 30
0.0
 10
6.6292066483
 20
9.0592562249
 30
0.0
 10
6.6292382139
 20
9.0591417556
 30
0.0
 10
6.6292790286
 20
9.0589444791
 30
0.0
 10
6.6293136511
 20
9.0586722955
 30
0.0
 10
6.6293481958
 20
9.0583160482
 30
0.0
 10
6.6293937694
 20
9.057670987
 30
0.0
 10
6.6294391554
 20
9.0566424785
 30
0.0
 10
6.6294767894
 20
9.055143891
 30
0.0
 10
6.6295002924
 20
9.0532998501
 30
0.0
 10
6.6295085271
 20
9.0511274603
 30
0.0
 10
6.6295005167
 20
9.0486474617
 30
0.0
 10
6.6294756128
 20
9.0458895683
 30
0.0
 10
6.6294349098
 20
9.0428940898
 30
0.0
 10
6.6293794341
 20
9.0397102056
 30
0.0
 10
6.629286198
 20
9.0352329247
 30
0.0
 10
6.6291405903
 20
9.0295317105
 30
0.0
 10
6.6290007181
 20
9.0249437925
 30
0.0
 10
6.6289255048
 20
9.0226531182
 30
0.0
  0
SPLINE
  5
2A6
100
AcDbEntity
  8
0
100
AcDbSpline
 62
9
  6
CONTINUOUS
 70
0
 71
3
 72
9
 73
5
 74
0
 42
0.0000001
 43
0.0000001
 44
0.0000000001
 40
0.0
 40
0.0
 40
0.0
 40
0.0
 40
0.4999843841
 40
1.0
 40
1.0
 40
1.0
 40
1.0
 10
6.6289255058
 20
8.6666329824
 30
0.0
 10
6.230534701
 20
8.652414011
 30
0.0
 10
5.4337582668
 20
8.6231437259
 30
0.0
 10
4.6369569034
 20
8.5945492891
 30
0.0
 10
4.2385263719
 20
8.5807515197
 30
0.0
  0
SPLINE
  5
2A7
100
AcDbEntity
  8
0
100
AcDbSpline
 62
9
  6
CONTINUOUS
 70
0
 71
3
 72
9
 73
5
 74
0
 42
0.0000001
 43
0.0000001
 44
0.0000000001
 40
0.0
 40
0.0
 40
0.0
 40
0.0
 40
0.500015616
 40
1.0
 40
1.0
 40
1.0
 40
1.0
 10
4.2385263681
 20
9.1085345772
 30
0.0
 10
4.6369568971
 20
9.094736805
 30
0.0
 10
5.4337582549
 20
9.0661423514
 30
0.0
 10
6.230534687
 20
9.0368721441
 30
0.0
 10
6.6289254873
 20
9.0226531188
 30
0.0
  0
SPLINE
  5
2A8
100
AcDbEntity
  8
0
100
AcDbSpline
 62
9
  6
CONTINUOUS
 70
0
 71
3
 72
12
 73
8
 74
0
 42
0.0000001
 43
0.0000001
 44
0.0000000001
 40
0.0
 40
0.0
 40
0.0
 40
0.0
 40
0.2495312749
 40
0.3745047722
 40
0.4995314041
 40
0.7497164866
 40
1.0
 40
1.0
 40
1.0
 40
1.0
 10
6.6289255016
 20
9.0226535261
 30
0.0
 10
6.6226843124
 20
9.0087372585
 30
0.0
 10
6.6143823362
 20
8.9873474426
 30
0.0
 10
6.605602901
 20
8.9580940797
 30
0.0
 10
6.5983772002
 20
8.9283744463
 30
0.0
 10
6.5923098836
 20
8.8905531775
 30
0.0
 10
6.5906798018
 20
8.8599407489
 30
0.0
 10
6.5906798543
 20
8.8446430515
 30
0.0
  0
SPLINE
  5
2A9
100
AcDbEntity
  8
0
100
AcDbSpline
 62
9
  6
CONTINUOUS
 70
0
 71
3
 72
14
 73
10
 74
0
 42
0.0000001
 43
0.0000001
 44
0.0000000001
 40
0.0
 40
0.0
 40
0.0
 40
0.0
 40
0.2572098862
 40
0.3847761803
 40
0.5112584504
 40
0.636417674
 40
0.7597808825
 40
0.881112826
 40
1.0
 40
1.0
 40
1.0
 40
1.0
 10
6.7240286882
 20
8.6090933954
 30
0.0
 10
6.7198293574
 20
8.6148565893
 30
0.0
 10
6.7131537534
 20
8.6232079798
 30
0.0
 10
6.7034016469
 20
8.6335032757
 30
0.0
 10
6.6957027293
 20
8.6406733682
 30
0.0
 10
6.6876119706
 20
8.6472193886
 30
0.0
 10
6.6790622775
 20
8.6529142686
 30
0.0
 10
6.6700523473
 20
8.657494376
 30
0.0
 10
6.6636662807
 20
8.6595406256
 30
0.0
 10
6.6604392801
 20
8.6602115237
 30
0.0
  0
LINE
  5
2AA
100
AcDbEntity
  8
0
100
AcDbLine
 62
9
  6
CONTINUOUS
 10
6.6604394084
 20
8.6602118809
 11
6.6289256009
 21
8.6666328112
  0
SPLINE
  5
2AB
100
AcDbEntity
  8
0
100
AcDbSpline
 62
9
  6
CONTINUOUS
 70
0
 71
3
 72
24
 73
20
 74
0
 42
0.0000001
 43
0.0000001
 44
0.0000000001
 40
0.0
 40
0.0
 40
0.0
 40
0.0
 40
0.1873029432
 40
0.3751136911
 40
0.4660727937
 40
0.5532809871
 40
0.6353509779
 40
0.7108958407
 40
0.7786741544
 40
0.8380246399
 40
0.8884318192
 40
0.9293822698
 40
0.9605371949
 40
0.972540317
 40
0.9822495258
 40
0.9897360648
 40
0.9950809716
 40
0.9983985328
 40
1.0
 40
1.0
 40
1.0
 40
1.0
 10
6.628925515
 20
8.6666329828
 30
0.0
 10
6.6290007283
 20
8.6643423087
 30
0.0
 10
6.6291406005
 20
8.6597543914
 30
0.0
 10
6.6292862082
 20
8.654053178
 30
0.0
 10
6.6293794442
 20
8.6495758977
 30
0.0
 10
6.6294349199
 20
8.646392014
 30
0.0
 10
6.6294756229
 20
8.6433965359
 30
0.0
 10
6.6295005268
 20
8.6406386428
 30
0.0
 10
6.6295085372
 20
8.6381586445
 30
0.0
 10
6.6295003025
 20
8.6359862548
 30
0.0
 10
6.6294767994
 20
8.634142214
 30
0.0
 10
6.6294391655
 20
8.6326436265
 30
0.0
 10
6.6293937795
 20
8.6316151179
 30
0.0
 10
6.6293482059
 20
8.6309700566
 30
0.0
 10
6.6293136612
 20
8.6306138092
 30
0.0
 10
6.6292790387
 20
8.6303416255
 30
0.0
 10
6.6292382241
 20
8.6301443489
 30
0.0
 10
6.6292066584
 20
8.6300298795
 30
0.0
 10
6.6291641978
 20
8.6299709816
 30
0.0
 10
6.6291446137
 20
8.6299702965
 30
0.0
  0
SPLINE
  5
2AC
100
AcDbEntity
  8
0
100
AcDbSpline
 62
9
  6
CONTINUOUS
 70
0
 71
3
 72
14
 73
10
 74
0
 42
0.0000001
 43
0.0000001
 44
0.0000000001
 40
0.0
 40
0.0
 40
0.0
 40
0.0
 40
0.1188838289
 40
0.2402226061
 40
0.3635869424
 40
0.4887449924
 40
0.615229062
 40
0.7427978954
 40
1.0
 40
1.0
 40
1.0
 40
1.0
 10
6.66043931
 20
9.0290744575
 30
0.0
 10
6.6636662065
 20
9.0297454069
 30
0.0
 10
6.6700523058
 20
9.0317918192
 30
0.0
 10
6.6790624833
 20
9.0363717208
 30
0.0
 10
6.6876123375
 20
9.042066735
 30
0.0
 10
6.6957029846
 20
9.048612975
 30
0.0
 10
6.7034019188
 20
9.0557831794
 30
0.0
 10
6.7131540143
 20
9.0660783559
 30
0.0
 10
6.7198296143
 20
9.0744295852
 30
0.0
 10
6.7240286747
 20
9.0801927128
 30
0.0
  0
SPLINE
  5
2AD
100
AcDbEntity
  8
0
100
AcDbSpline
 62
9
  6
CONTINUOUS
 70
0
 71
3
 72
24
 73
20
 74
0
 42
0.0000001
 43
0.0000001
 44
0.0000000001
 40
0.0
 40
0.0
 40
0.0
 40
0.0
 40
0.0016116834
 40
0.0049733688
 40
0.010386468
 40
0.0179560322
 40
0.0277543653
 40
0.0398441522
 40
0.0711311497
 40
0.1121122385
 40
0.1624336501
 40
0.2215784678
 40
0.2890277487
 40
0.3641316808
 40
0.4457218534
 40
0.5325002159
 40
0.6231683646
 40
0.8111338818
 40
1.0
 40
1.0
 40
1.0
 40
1.0
 10
4.238720335
 20
9.1431903481
 30
0.0
 10
4.2387389649
 20
9.143189691
 30
0.0
 10
4.2387789235
 20
9.1431326515
 30
0.0
 10
4.2388084639
 20
9.1430233266
 30
0.0
 10
4.2388467712
 20
9.1428342694
 30
0.0
 10
4.2388791443
 20
9.142574238
 30
0.0
 10
4.2389114022
 20
9.1422344136
 30
0.0
 10
4.2389538071
 20
9.1416210678
 30
0.0
 10
4.2389959254
 20
9.1406459386
 30
0.0
 10
4.2390307372
 20
9.1392284881
 30
0.0
 10
4.239052377
 20
9.1374884095
 30
0.0
 10
4.2390599086
 20
9.1354421251
 30
0.0
 10
4.2390525429
 20
9.13310918
 30
0.0
 10
4.2390297743
 20
9.1305167187
 30
0.0
 10
4.2389925788
 20
9.1277008352
 30
0.0
 10
4.2389418778
 20
9.1247051135
 30
0.0
 10
4.2388565138
 20
9.1204794354
 30
0.0
 10
4.2387229106
 20
9.1150737275
 30
0.0
 10
4.2385947527
 20
9.110716978
 30
0.0
 10
4.2385257495
 20
9.1085335504
 30
0.0
  0
SPLINE
  5
2AE
100
AcDbEntity
  8
0
100
AcDbSpline
 62
9
  6
CONTINUOUS
 70
0
 71
3
 72
22
 73
18
 74
0
 42
0.0000001
 43
0.0000001
 44
0.0000000001
 40
0.0
 40
0.0
 40
0.0
 40
0.0
 40
0.188669709
 40
0.3714390576
 40
0.5405499432
 40
0.6179789323
 40
0.6896739854
 40
0.75497069
 40
0.8132210353
 40
0.8639024639
 40
0.9066665361
 40
0.9412504514
 40
0.9676388492
 40
0.9779364235
 40
0.9865049481
 40
0.9936701867
 40
1.0
 40
1.0
 40
1.0
 40
1.0
 10
4.2385263873
 20
9.1085335321
 30
0.0
 10
4.2358710875
 20
9.1085408756
 30
0.0
 10
4.2306430621
 20
9.1084863654
 30
0.0
 10
4.2230397769
 20
9.1082054213
 30
0.0
 10
4.2170098534
 20
9.1078037568
 30
0.0
 10
4.212550757
 20
9.1073814104
 30
0.0
 10
4.2095528795
 20
9.1070335541
 30
0.0
 10
4.2068316775
 20
9.1066498255
 30
0.0
 10
4.2044145986
 20
9.1062340029
 30
0.0
 10
4.2023257232
 20
9.105790218
 30
0.0
 10
4.2005834759
 20
9.1053247139
 30
0.0
 10
4.1992044696
 20
9.1048423982
 30
0.0
 10
4.1982972092
 20
9.1044012311
 30
0.0
 10
4.1977803969
 20
9.104025834
 30
0.0
 10
4.197521079
 20
9.1037638799
 30
0.0
 10
4.1973577423
 20
9.1034951059
 30
0.0
 10
4.1973183108
 20
9.1033039981
 30
0.0
 10
4.1973183383
 20
9.1032149133
 30
0.0
  0
SPLINE
  5
2AF
100
AcDbEntity
  8
0
100
AcDbSpline
 62
9
  6
CONTINUOUS
 70
0
 71
3
 72
22
 73
18
 74
0
 42
0.0000001
 43
0.0000001
 44
0.0000000001
 40
0.0
 40
0.0
 40
0.0
 40
0.0
 40
0.1886690701
 40
0.3714372791
 40
0.5405467964
 40
0.6179753489
 40
0.689670265
 40
0.754966903
 40
0.8132171026
 40
0.8638988908
 40
0.9066635678
 40
0.9412479036
 40
0.9676369789
 40
0.9779350206
 40
0.9865040353
 40
0.9936697477
 40
1.0
 40
1.0
 40
1.0
 40
1.0
 10
4.2385263457
 20
8.5807525297
 30
0.0
 10
4.2358710295
 20
8.5807454399
 30
0.0
 10
4.2306429871
 20
8.5807999033
 30
0.0
 10
4.2230396603
 20
8.5810805308
 30
0.0
 10
4.2170097257
 20
8.5814822804
 30
0.0
 10
4.2125506189
 20
8.5819046645
 30
0.0
 10
4.2095527228
 20
8.5822525248
 30
0.0
 10
4.2068314986
 20
8.5826362435
 30
0.0
 10
4.2044143925
 20
8.5830520543
 30
0.0
 10
4.2023254817
 20
8.5834958226
 30
0.0
 10
4.2005831928
 20
8.583961312
 30
0.0
 10
4.1992041486
 20
8.5844436354
 30
0.0
 10
4.1982968621
 20
8.5848848207
 30
0.0
 10
4.1977800263
 20
8.5852602346
 30
0.0
 10
4.1975206907
 20
8.5855222044
 30
0.0
 10
4.1973573394
 20
8.5857909961
 30
0.0
 10
4.1973179014
 20
8.5859821178
 30
0.0
 10
4.1973179274
 20
8.5860712096
 30
0.0
  0
SPLINE
  5
2B0
100
AcDbEntity
  8
0
100
AcDbSpline
 62
9
  6
CONTINUOUS
 70
0
 71
3
 72
17
 73
13
 74
0
 42
0.0000001
 43
0.0000001
 44
0.0000000001
 40
0.0
 40
0.0
 40
0.0
 40
0.0
 40
0.1602628903
 40
0.3189857365
 40
0.4706838828
 40
0.6098452851
 40
0.7321259561
 40
0.7864801099
 40
0.8362703177
 40
0.923429538
 40
0.9626197636
 40
1.0
 40
1.0
 40
1.0
 40
1.0
 10
6.6604390099
 20
8.6602115738
 30
0.0
 10
6.6607293776
 20
8.6583333852
 30
0.0
 10
6.6614314309
 20
8.6546128572
 30
0.0
 10
6.662867175
 20
8.6492128526
 30
0.0
 10
6.6646970497
 20
8.6441961603
 30
0.0
 10
6.6668609169
 20
8.6397880494
 30
0.0
 10
6.6689886204
 20
8.6366822476
 30
0.0
 10
6.6708198425
 20
8.6347108683
 30
0.0
 10
6.6725424909
 20
8.6332312251
 30
0.0
 10
6.6743986099
 20
8.6321880249
 30
0.0
 10
6.6762906507
 20
8.6317131591
 30
0.0
 10
6.6772033546
 20
8.6316568391
 30
0.0
 10
6.6776463599
 20
8.631672416
 30
0.0
  0
LINE
  5
2B1
100
AcDbEntity
  8
0
100
AcDbLine
 62
9
  6
CONTINUOUS
 10
6.6289255379
 20
9.0226534603
 11
6.6604394454
 21
9.0290743836
  0
ENDSEC
  0
SECTION
  2
OBJECTS
  0
DICTIONARY
  5
C
100
AcDbDictionary
280
0
281
1
  3
ACAD_GROUP
350
D
  3
ACAD_MLINESTYLE
350
17
  3
ACAD_LAYOUT
350
1A
  3
ACAD_PLOTSETTINGS
350
19
  3
ACAD_PLOTSTYLENAME
350
E
  0
DICTIONARY
  5
D
102
{ACAD_REACTORS
330
C
102
}
100
AcDbDictionary
280
0
281
1
  0
ACDBDICTIONARYWDFLT
  5
E
102
{ACAD_REACTORS
330
C
102
}
100
AcDbDictionary
281
1
  3
Normal
350
F
100
AcDbDictionaryWithDefault
340
F
  0
DICTIONARY
  5
17
102
{ACAD_REACTORS
330
C
102
}
100
AcDbDictionary
280
0
281
1
  3
Standard
350
18
  0
DICTIONARY
  5
19
102
{ACAD_REACTORS
330
C
102
}
100
AcDbDictionary
281
1
  0
DICTIONARY
  5
1A
102
{ACAD_REACTORS
330
C
102
}
100
AcDbDictionary
281
1
  3
Model
350
2B2
  3
Layout1
350
2B3
  0
ACDBPLACEHOLDER
  5
F
102
{ACAD_REACTORS
330
E
102
}
  0
MLINESTYLE
  5
18
102
{ACAD_REACTORS
330
17
102
}
100
AcDbMlineStyle
  2
STANDARD
 70
0
  3

 62
256
 51
90.0
 52
90.0
 71
2
 49
0.5
 62
256
  6
BYLAYER
 49
-0.5
 62
256
  6
BYLAYER
  0
LAYOUT
  5
2B2
102
{ACAD_REACTORS
330
1A
102
}
100
AcDbPlotSettings
  1

  2
none_device
  4
ANSI_C_(22.00_x_17.00_Inches)
  6

 40
0.0
 41
0.0
 42
0.0
 43
0.0
 44
558.8
 45
431.8
 46
0.0
 47
0.0
 48
0.0
 49
0.0
140
0.0
141
0.0
142
1.0
143
1.0
 70
1024
 72
0
 73
0
 74
0
  7

 75
0
147
1.0
148
0.0
149
0.0
100
AcDbLayout
  1
Model
 70
0
 71
0
 10
0.0
 20
0.0
 11
22.0
 21
17.0
 12
0.0
 22
0.0
 32
0.0
 14
0.0
 24
0.0
 34
0.0
 15
0.0
 25
0.0
 35
0.0
146
0.0
 13
0.0
 23
0.0
 33
0.0
 16
1.0
 26
0.0
 36
0.0
 17
0.0
 27
1.0
 37
0.0
 76
0
330
202
345
0
346
0
  0
LAYOUT
  5
2B3
102
{ACAD_REACTORS
330
1A
102
}
100
AcDbPlotSettings
  1

  2
none_device
  4
ANSI_C_(22.00_x_17.00_Inches)
  6

 40
0.0
 41
0.0
 42
0.0
 43
0.0
 44
558.8
 45
431.8
 46
0.0
 47
0.0
 48
0.0
 49
0.0
140
0.0
141
0.0
142
1.0
143
1.0
 70
0
 72
0
 73
0
 74
0
  7

 75
0
147
1.0
148
0.0
149
0.0
100
AcDbLayout
  1
Layout1
 70
0
 71
1
 10
0.0
 20
0.0
 11
22.0
 21
17.0
 12
0.0
 22
0.0
 32
0.0
 14
0.0
 24
0.0
 34
0.0
 15
0.0
 25
0.0
 35
0.0
146
0.0
 13
0.0
 23
0.0
 33
0.0
 16
1.0
 26
0.0
 36
0.0
 17
0.0
 27
1.0
 37
0.0
 76
0
330
203
345
0
346
0
  0
ENDSEC
  0
EOF
