999
DXF file: 920-2400_front.dxf
999
Pro/ENGINEER 2019352 by Parametric Technology Corporation
  0
SECTION
  2
HEADER
  9
$ACADVER
  1
AC1032
  9
$DWGCODEPAGE
  3
ANSI_1252
  9
$EXTMAX
 10
11.0
 20
8.5
 30
0.0
  9
$EXTMIN
 10
0.0
 20
0.0
 30
0.0
  9
$LIMMIN
 10
0.0
 20
0.0
  9
$LIMMAX
 10
11.0
 20
8.5
  9
$VIEWCTR
 10
5.5
 20
4.25
  9
$VIEWSIZE
 40
8.5
  9
$CLAYER
  8
0
  9
$LTSCALE
 40
0.605
  9
$CELTYPE
  6
BYLAYER
  9
$DIMSCALE
 40
1.0
  9
$DIMASZ
 40
0.1
  9
$DIMEXO
 40
0.0625
  9
$DIMDLI
 40
0.418
  9
$DIMEXE
 40
0.125
  9
$DIMCEN
 40
0.099
  9
$DIMLFAC
 40
1.0
  9
$DIMBLK
  1
_FILLED
  9
$DIMALT
 70
1
  9
$DIMALTD
 70
2
  9
$DIMALTTD
 70
2
  9
$DIMALTF
 40
25.4
  9
$DIMTXT
 40
0.08
  9
$DIMTOL
 70
1
  9
$DIMLIM
 70
0
  9
$DIMTFAC
 40
1.0
  9
$DIMTP
 40
0.001
  9
$DIMTM
 40
0.001
  9
$DIMGAP
 40
0.09
  9
$DIMDSEP
 70
46
  9
$AUNITS
 70
0
  9
$PDMODE
 70
3
  9
$PDSIZE
 40
0.3125
  9
$HANDSEED
  5
25A
  9
$TILEMODE
 70
1
  9
$MEASUREMENT
 70
0
  9
$INSUNITS
 70
1
  0
ENDSEC
  0
SECTION
  2
CLASSES
  0
CLASS
  1
ACDBDICTIONARYWDFLT
  2
AcDbDictionaryWithDefault
  3
AutoCAD 2000
 90
0
 91
1
280
0
281
0
  0
CLASS
  1
ACDBPLACEHOLDER
  2
AcDbPlaceHolder
  3
AutoCAD 2000
 90
0
 91
1
280
0
281
0
  0
CLASS
  1
LAYOUT
  2
AcDbLayout
  3
AutoCAD 2000
 90
0
 91
0
280
0
281
0
  0
ENDSEC
  0
SECTION
  2
TABLES
  0
TABLE
  2
VPORT
  5
8
100
AcDbSymbolTable
 70
2
  0
VPORT
  5
1F4
100
AcDbSymbolTableRecord
100
AcDbViewportTableRecord
  2
*ACTIVE
 70
0
 10
0.0
 20
0.0
 11
1.0
 21
1.0
 12
5.5
 22
4.25
 13
0.0
 23
0.0
 14
1.0
 24
1.0
 15
0.0
 25
0.0
 16
0.0
 26
0.0
 36
1.0
 17
0.0
 27
0.0
 37
0.0
 40
8.5
 41
1.2941176471
 42
50.0
 43
0.0
 44
0.0
 50
0.0
 51
0.0
 71
0
 72
100
 73
1
 74
1
 75
0
 76
0
 77
0
 78
0
  0
ENDTAB
  0
TABLE
  2
LTYPE
  5
5
100
AcDbSymbolTable
 70
6
  0
LTYPE
  5
14
100
AcDbSymbolTableRecord
100
AcDbLinetypeTableRecord
  2
BYBLOCK
 70
0
  3

 72
65
 73
0
 40
0.0
  0
LTYPE
  5
15
100
AcDbSymbolTableRecord
100
AcDbLinetypeTableRecord
  2
BYLAYER
 70
0
  3

 72
65
 73
0
 40
0.0
  0
LTYPE
  5
16
100
AcDbSymbolTableRecord
100
AcDbLinetypeTableRecord
  2
CONTINUOUS
 70
64
  3
Solid line
 72
65
 73
0
 40
0.0
  0
LTYPE
  5
1F5
100
AcDbSymbolTableRecord
100
AcDbLinetypeTableRecord
  2
CENTER
 70
64
  3
____ _ ____ _ ____ _ ____ _ ____ _ ____ _ ____
 72
65
 73
4
 40
0.6
 49
0.375
 74
0
 49
-0.075
 74
0
 49
0.075
 74
0
 49
-0.075
 74
0
  0
LTYPE
  5
1F6
100
AcDbSymbolTableRecord
100
AcDbLinetypeTableRecord
  2
HIDDEN
 70
64
  3
- - - - - - - - - - - - - - - - - - - -
 72
65
 73
2
 40
0.2
 49
0.1
 74
0
 49
-0.1
 74
0
  0
LTYPE
  5
1F7
100
AcDbSymbolTableRecord
100
AcDbLinetypeTableRecord
  2
PHANTOM
 70
64
  3
_____ _ _ _____ _ _ _____ _ _ _____
 72
65
 73
6
 40
0.8
 49
0.45
 74
0
 49
-0.05
 74
0
 49
0.1
 74
0
 49
-0.05
 74
0
 49
0.1
 74
0
 49
-0.05
 74
0
  0
LTYPE
  5
1F8
100
AcDbSymbolTableRecord
100
AcDbLinetypeTableRecord
  2
DOT
 70
64
  3
. . . . . . . . . . . . . . . . . . . .
 72
65
 73
2
 40
0.2
 49
0.1
 74
0
 49
-0.1
 74
0
  0
LTYPE
  5
1F9
100
AcDbSymbolTableRecord
100
AcDbLinetypeTableRecord
  2
DASHED
 70
64
  3
- - - - - - - - - - - - - - - - - - - -
 72
65
 73
2
 40
0.2
 49
0.1
 74
0
 49
-0.1
 74
0
  0
ENDTAB
  0
TABLE
  2
LAYER
  5
2
100
AcDbSymbolTable
 70
36
  0
LAYER
  5
10
100
AcDbSymbolTableRecord
100
AcDbLayerTableRecord
  2
0
 70
0
 62
7
  6
CONTINUOUS
370
-3
390
F
  0
LAYER
  5
1FA
100
AcDbSymbolTableRecord
100
AcDbLayerTableRecord
  2
DEFAULT_1
 70
0
 62
7
  6
CENTER
370
-3
390
F
  0
LAYER
  5
1FB
100
AcDbSymbolTableRecord
100
AcDbLayerTableRecord
  2
DEFAULT_2
 70
0
 62
8
  6
HIDDEN
370
-3
390
F
  0
LAYER
  5
1FC
100
AcDbSymbolTableRecord
100
AcDbLayerTableRecord
  2
DEFAULT_3
 70
0
 62
7
  6
PHANTOM
370
-3
390
F
  0
LAYER
  5
1FD
100
AcDbSymbolTableRecord
100
AcDbLayerTableRecord
  2
_  SHELL
 70
0
 62
7
  6
CONTINUOUS
370
-3
390
F
  0
LAYER
  5
1FE
100
AcDbSymbolTableRecord
100
AcDbLayerTableRecord
  2
06___PRT_ALL_SURFS
 70
0
 62
7
  6
CONTINUOUS
370
-3
390
F
  0
LAYER
  5
1FF
100
AcDbSymbolTableRecord
100
AcDbLayerTableRecord
  2
ALL_FEATURES
 70
0
 62
7
  6
CONTINUOUS
370
-3
390
F
  0
LAYER
  5
200
100
AcDbSymbolTableRecord
100
AcDbLayerTableRecord
  2
AXES_FEATURES
 70
0
 62
7
  6
CONTINUOUS
370
-3
390
F
  0
LAYER
  5
201
100
AcDbSymbolTableRecord
100
AcDbLayerTableRecord
  2
DEFAULT_COORDINATE_SYSTEM
 70
0
 62
7
  6
CONTINUOUS
370
-3
390
F
  0
LAYER
  5
202
100
AcDbSymbolTableRecord
100
AcDbLayerTableRecord
  2
DEFAULT_DATUM_AXES
 70
0
 62
7
  6
CONTINUOUS
370
-3
390
F
  0
LAYER
  5
203
100
AcDbSymbolTableRecord
100
AcDbLayerTableRecord
  2
DEFAULT_DATUM_CURVES
 70
0
 62
7
  6
CONTINUOUS
370
-3
390
F
  0
LAYER
  5
204
100
AcDbSymbolTableRecord
100
AcDbLayerTableRecord
  2
DEFAULT_DATUM_PLANES
 70
0
 62
7
  6
CONTINUOUS
370
-3
390
F
  0
LAYER
  5
205
100
AcDbSymbolTableRecord
100
AcDbLayerTableRecord
  2
DEFAULT_SURFACES
 70
0
 62
7
  6
CONTINUOUS
370
-3
390
F
  0
LAYER
  5
206
100
AcDbSymbolTableRecord
100
AcDbLayerTableRecord
  2
DIMENSIONS
 70
0
 62
7
  6
CONTINUOUS
370
-3
390
F
  0
LAYER
  5
207
100
AcDbSymbolTableRecord
100
AcDbLayerTableRecord
  2
INTF_BLANK
 70
0
 62
7
  6
CONTINUOUS
370
-3
390
F
  0
LAYER
  5
208
100
AcDbSymbolTableRecord
100
AcDbLayerTableRecord
  2
PLATED_SURFACE_AREA
 70
0
 62
7
  6
CONTINUOUS
370
-3
390
F
  0
LAYER
  5
209
100
AcDbSymbolTableRecord
100
AcDbLayerTableRecord
  2
SHELL
 70
0
 62
7
  6
CONTINUOUS
370
-3
390
F
  0
LAYER
  5
20A
100
AcDbSymbolTableRecord
100
AcDbLayerTableRecord
  2
XSEC_DATUMS
 70
0
 62
7
  6
CONTINUOUS
370
-3
390
F
  0
LAYER
  5
20B
100
AcDbSymbolTableRecord
100
AcDbLayerTableRecord
  2
___SHELL
 70
0
 62
7
  6
CONTINUOUS
370
-3
390
F
  0
ENDTAB
  0
TABLE
  2
STYLE
  5
3
100
AcDbSymbolTable
 70
1
  0
STYLE
  5
11
100
AcDbSymbolTableRecord
100
AcDbTextStyleTableRecord
  2
STANDARD
 70
0
 40
0.0
 41
0.8
 50
0.0
 71
0
 42
0.2
  3
txt
  4

  0
STYLE
  5
20C
100
AcDbSymbolTableRecord
100
AcDbTextStyleTableRecord
  2
TEXTSTYLE_1
 70
0
 40
0.0
 41
0.8
 50
0.0
 71
0
 42
0.2
  3
gdt
  4

  0
ENDTAB
  0
TABLE
  2
VIEW
  5
6
100
AcDbSymbolTable
 70
0
  0
ENDTAB
  0
TABLE
  2
UCS
  5
7
100
AcDbSymbolTable
 70
0
  0
ENDTAB
  0
TABLE
  2
APPID
  5
9
100
AcDbSymbolTable
 70
1
  0
APPID
  5
20D
100
AcDbSymbolTableRecord
100
AcDbRegAppTableRecord
  2
ACAD
 70
0
  0
ENDTAB
  0
TABLE
  2
BLOCK_RECORD
  5
1
100
AcDbSymbolTable
 70
0
  0
BLOCK_RECORD
  5
20E
100
AcDbSymbolTableRecord
100
AcDbBlockTableRecord
  2
*Model_Space
  0
BLOCK_RECORD
  5
20F
100
AcDbSymbolTableRecord
100
AcDbBlockTableRecord
  2
*Paper_Space
  0
BLOCK_RECORD
  5
210
100
AcDbSymbolTableRecord
100
AcDbBlockTableRecord
  2
_FILLED
  0
ENDTAB
  0
TABLE
  2
DIMSTYLE
  5
A
100
AcDbSymbolTable
 70
1
100
AcDbDimStyleTable
 71
0
  0
DIMSTYLE
105
211
100
AcDbSymbolTableRecord
100
AcDbDimStyleTableRecord
  2
STANDARD
 70
0
  3

  4

 40
1.0
 41
0.1
 42
0.0625
 43
0.38
 44
0.125
 45
0.0
 46
0.0
 47
0.001
 48
0.001
140
0.08
141
0.09
142
0.0
143
25.4
144
1.0
145
0.0
146
1.0
147
0.09
 71
1.0
 72
0.0
 73
1
 74
1
 75
0
 76
0
 77
0
 78
4
 79
1
170
1
171
2
172
0
173
0
174
0
175
0
176
0
177
0
178
0
270
2
179
3
271
3
272
3
273
2
274
2
275
0
280
0
281
0
282
0
283
1
284
4
285
0
286
0
287
3
288
0
340
11
278
46
341
210
342
210
343
210
344
210
  0
ENDTAB
  0
ENDSEC
  0
SECTION
  2
BLOCKS
  0
BLOCK
  5
20
100
AcDbEntity
  8
0
100
AcDbBlockBegin
  2
*Model_Space
 70
0
 10
0.0
 20
0.0
 30
0.0
  3
*Model_Space
  1

  0
ENDBLK
  5
21
100
AcDbEntity
  8
0
100
AcDbBlockEnd
  0
BLOCK
  5
1C
100
AcDbEntity
  8
0
100
AcDbBlockBegin
  2
*Paper_Space
 70
0
 10
0.0
 20
0.0
 30
0.0
  3
*Paper_Space
  1

  0
ENDBLK
  5
1D
100
AcDbEntity
  8
0
100
AcDbBlockEnd
  0
BLOCK
  5
212
100
AcDbEntity
  8
0
100
AcDbBlockBegin
  2
_FILLED
 70
64
 10
0.0
 20
0.0
  3
_FILLED
  1

  0
SOLID
  5
213
100
AcDbEntity
  8
0
  6
BYBLOCK
 62
0
100
AcDbTrace
 10
0.0
 20
0.0
 11
-1.0
 21
0.2
 12
-1.0
 22
-0.2
 13
-1.0
 23
-0.2
  0
ENDBLK
  5
214
100
AcDbEntity
  8
0
  6
BYBLOCK
 62
0
100
AcDbBlockEnd
  0
ENDSEC
  0
SECTION
  2
ENTITIES
  0
MTEXT
  5
215
100
AcDbEntity
  8
0
100
AcDbMText
 62
2
  6
CONTINUOUS
  7
STANDARD
 71
3
 72
1
 10
5.2612727415
 20
2.9985343476
 30
0.0
 11
1.0
 21
0.0
 31
0.0
 73
2
 44
0.9
  1
SCALE 1.000
 40
0.08
 41
0.704
  0
LINE
  5
216
100
AcDbEntity
  8
0
100
AcDbLine
 62
7
  6
CONTINUOUS
 10
0.0
 20
0.0
 11
0.0
 21
8.5
  0
LINE
  5
217
100
AcDbEntity
  8
0
100
AcDbLine
 62
7
  6
CONTINUOUS
 10
0.0
 20
0.0
 11
11.0
 21
0.0
  0
LINE
  5
218
100
AcDbEntity
  8
0
100
AcDbLine
 62
7
  6
CONTINUOUS
 10
0.0
 20
8.5
 11
11.0
 21
8.5
  0
LINE
  5
219
100
AcDbEntity
  8
0
100
AcDbLine
 62
7
  6
CONTINUOUS
 10
11.0
 20
0.0
 11
11.0
 21
8.5
  0
ARC
  5
21A
100
AcDbEntity
  8
0
100
AcDbCircle
 62
7
  6
CONTINUOUS
 10
2.2612749526
 20
4.5935323469
 40
0.6251023144
100
AcDbArc
 50
86.4844995972
 51
176.3760726518
  0
ARC
  5
21B
100
AcDbEntity
  8
0
100
AcDbCircle
 62
7
  6
CONTINUOUS
 10
1.9492974269
 20
4.2717990493
 40
0.4271907305
100
AcDbArc
 50
223.4430698095
 51
224.5958506923
  0
ARC
  5
21C
100
AcDbEntity
  8
0
100
AcDbCircle
 62
7
  6
CONTINUOUS
 10
1.8946392798
 20
4.2179722531
 40
0.3504780565
100
AcDbArc
 50
224.6034930921
 51
225.7895888401
  0
ARC
  5
21D
100
AcDbEntity
  8
0
100
AcDbCircle
 62
7
  6
CONTINUOUS
 10
2.2612727415
 20
3.5060343476
 40
0.2055
100
AcDbArc
 50
81.6011698571
 51
98.3988303573
  0
ARC
  5
21E
100
AcDbEntity
  8
0
100
AcDbCircle
 62
7
  6
CONTINUOUS
 10
1.1737727415
 20
4.5935343476
 40
0.2055
100
AcDbArc
 50
351.4332462748
 51
8.5666259219
  0
CIRCLE
  5
21F
100
AcDbEntity
  8
0
100
AcDbCircle
 62
7
  6
CONTINUOUS
 10
2.2612727415
 20
4.5935343476
 40
1.5
  0
CIRCLE
  5
220
100
AcDbEntity
  8
0
100
AcDbCircle
 62
7
  6
CONTINUOUS
 10
2.2612727415
 20
4.5935343476
 40
1.4800000012
  0
CIRCLE
  5
221
100
AcDbEntity
  8
0
100
AcDbCircle
 62
7
  6
CONTINUOUS
 10
2.2612727415
 20
4.5935343476
 40
1.4179999998
  0
CIRCLE
  5
222
100
AcDbEntity
  8
0
100
AcDbCircle
 62
7
  6
CONTINUOUS
 10
2.2612727415
 20
4.5935343476
 40
1.3
  0
CIRCLE
  5
223
100
AcDbEntity
  8
0
100
AcDbCircle
 62
7
  6
CONTINUOUS
 10
2.2612727415
 20
4.5935343476
 40
1.2800000009
  0
CIRCLE
  5
224
100
AcDbEntity
  8
0
100
AcDbCircle
 62
7
  6
CONTINUOUS
 10
2.2612727415
 20
4.5935343476
 40
1.2179999994
  0
CIRCLE
  5
225
100
AcDbEntity
  8
0
100
AcDbCircle
 62
7
  6
CONTINUOUS
 10
2.2612727415
 20
4.5935343476
 40
1.1
  0
CIRCLE
  5
226
100
AcDbEntity
  8
0
100
AcDbCircle
 62
7
  6
CONTINUOUS
 10
2.2612727415
 20
4.5935343476
 40
1.0800000004
  0
CIRCLE
  5
227
100
AcDbEntity
  8
0
100
AcDbCircle
 62
7
  6
CONTINUOUS
 10
2.2612727415
 20
4.5935343476
 40
0.885
  0
CIRCLE
  5
228
100
AcDbEntity
  8
0
100
AcDbCircle
 62
7
  6
CONTINUOUS
 10
2.2612727415
 20
4.5935343476
 40
0.875
  0
CIRCLE
  5
229
100
AcDbEntity
  8
0
100
AcDbCircle
 62
7
  6
CONTINUOUS
 10
2.2612727415
 20
4.5935343476
 40
0.8149999989
  0
CIRCLE
  5
22A
100
AcDbEntity
  8
0
100
AcDbCircle
 62
7
  6
CONTINUOUS
 10
2.2612727415
 20
4.5935343476
 40
0.63
  0
CIRCLE
  5
22B
100
AcDbEntity
  8
0
100
AcDbCircle
 62
7
  6
CONTINUOUS
 10
2.2612727415
 20
4.5935343476
 40
0.58
  0
ARC
  5
22C
100
AcDbEntity
  8
0
100
AcDbCircle
 62
7
  6
CONTINUOUS
 10
3.3487727415
 20
4.5935343476
 40
0.2055
100
AcDbArc
 50
171.4332462748
 51
188.5666259219
  0
ARC
  5
22D
100
AcDbEntity
  8
0
100
AcDbCircle
 62
7
  6
CONTINUOUS
 10
2.2612727415
 20
5.6810343476
 40
0.2055
100
AcDbArc
 50
261.6011698571
 51
278.3988303573
  0
ARC
  5
22E
100
AcDbEntity
  8
0
100
AcDbCircle
 62
7
  6
CONTINUOUS
 10
8.2612749526
 20
4.5935323469
 40
0.6251023144
100
AcDbArc
 50
86.4844995969
 51
176.3760726516
  0
ARC
  5
22F
100
AcDbEntity
  8
0
100
AcDbCircle
 62
7
  6
CONTINUOUS
 10
7.9492974269
 20
4.2717990493
 40
0.4271907305
100
AcDbArc
 50
223.4430698095
 51
224.5958506923
  0
ARC
  5
230
100
AcDbEntity
  8
0
100
AcDbCircle
 62
7
  6
CONTINUOUS
 10
7.8946392798
 20
4.2179722531
 40
0.3504780565
100
AcDbArc
 50
224.6034930922
 51
225.7895888401
  0
ARC
  5
231
100
AcDbEntity
  8
0
100
AcDbCircle
 62
7
  6
CONTINUOUS
 10
8.2612727415
 20
3.5060343476
 40
0.2055
100
AcDbArc
 50
81.6011698571
 51
98.3988303573
  0
ARC
  5
232
100
AcDbEntity
  8
0
100
AcDbCircle
 62
7
  6
CONTINUOUS
 10
7.1737727415
 20
4.5935343476
 40
0.2055
100
AcDbArc
 50
351.4332462748
 51
8.5666259219
  0
CIRCLE
  5
233
100
AcDbEntity
  8
0
100
AcDbCircle
 62
7
  6
CONTINUOUS
 10
8.2612727415
 20
4.5935343476
 40
1.5
  0
CIRCLE
  5
234
100
AcDbEntity
  8
0
100
AcDbCircle
 62
7
  6
CONTINUOUS
 10
8.2612727415
 20
4.5935343476
 40
1.4800000012
  0
CIRCLE
  5
235
100
AcDbEntity
  8
0
100
AcDbCircle
 62
7
  6
CONTINUOUS
 10
8.2612727415
 20
4.5935343476
 40
1.4179999998
  0
CIRCLE
  5
236
100
AcDbEntity
  8
0
100
AcDbCircle
 62
7
  6
CONTINUOUS
 10
8.2612727415
 20
4.5935343476
 40
1.3
  0
CIRCLE
  5
237
100
AcDbEntity
  8
0
100
AcDbCircle
 62
7
  6
CONTINUOUS
 10
8.2612727415
 20
4.5935343476
 40
1.2800000009
  0
CIRCLE
  5
238
100
AcDbEntity
  8
0
100
AcDbCircle
 62
7
  6
CONTINUOUS
 10
8.2612727415
 20
4.5935343476
 40
1.2179999994
  0
CIRCLE
  5
239
100
AcDbEntity
  8
0
100
AcDbCircle
 62
7
  6
CONTINUOUS
 10
8.2612727415
 20
4.5935343476
 40
1.1
  0
CIRCLE
  5
23A
100
AcDbEntity
  8
0
100
AcDbCircle
 62
7
  6
CONTINUOUS
 10
8.2612727415
 20
4.5935343476
 40
1.0800000004
  0
CIRCLE
  5
23B
100
AcDbEntity
  8
0
100
AcDbCircle
 62
7
  6
CONTINUOUS
 10
8.2612727415
 20
4.5935343476
 40
0.885
  0
CIRCLE
  5
23C
100
AcDbEntity
  8
0
100
AcDbCircle
 62
7
  6
CONTINUOUS
 10
8.2612727415
 20
4.5935343476
 40
0.875
  0
CIRCLE
  5
23D
100
AcDbEntity
  8
0
100
AcDbCircle
 62
7
  6
CONTINUOUS
 10
8.2612727415
 20
4.5935343476
 40
0.8149999989
  0
CIRCLE
  5
23E
100
AcDbEntity
  8
0
100
AcDbCircle
 62
7
  6
CONTINUOUS
 10
8.2612727415
 20
4.5935343476
 40
0.63
  0
CIRCLE
  5
23F
100
AcDbEntity
  8
0
100
AcDbCircle
 62
7
  6
CONTINUOUS
 10
8.2612727415
 20
4.5935343476
 40
0.58
  0
ARC
  5
240
100
AcDbEntity
  8
0
100
AcDbCircle
 62
7
  6
CONTINUOUS
 10
9.3487727415
 20
4.5935343476
 40
0.2055
100
AcDbArc
 50
171.4332462748
 51
188.5666259219
  0
ARC
  5
241
100
AcDbEntity
  8
0
100
AcDbCircle
 62
7
  6
CONTINUOUS
 10
8.2612727415
 20
5.6810343476
 40
0.2055
100
AcDbArc
 50
261.6011698571
 51
278.3988303573
  0
SPLINE
  5
242
100
AcDbEntity
  8
0
100
AcDbSpline
 62
7
  6
CONTINUOUS
 70
0
 71
3
 72
33
 73
29
 74
0
 42
0.0000001
 43
0.0000001
 44
0.0000000001
 40
0.0
 40
0.0
 40
0.0
 40
0.0
 40
0.0312457672
 40
0.0625034809
 40
0.093757131
 40
0.1250074867
 40
0.1874835999
 40
0.2499600496
 40
0.2812124677
 40
0.3124647161
 40
0.3437165919
 40
0.3749684395
 40
0.4374459645
 40
0.4999316675
 40
0.5311934837
 40
0.562457929
 40
0.5937231257
 40
0.624988037
 40
0.6562515359
 40
0.6875127068
 40
0.7187715158
 40
0.7500280364
 40
0.8125064577
 40
0.874982428
 40
0.9062346332
 40
0.9374911816
 40
0.9687527792
 40
1.0
 40
1.0
 40
1.0
 40
1.0
 10
2.2996053022
 20
5.2174579204
 30
0.0
 10
2.3118766334
 20
5.216250487
 30
0.0
 10
2.336358531
 20
5.2131058858
 30
0.0
 10
2.3727331079
 20
5.2062229925
 30
0.0
 10
2.4086378186
 20
5.197185756
 30
0.0
 10
2.4556884479
 20
5.1823124675
 30
0.0
 10
2.5127106698
 20
5.1584863727
 30
0.0
 10
2.5664688925
 20
5.1279971906
 30
0.0
 10
2.6070182796
 20
5.0998752099
 30
0.0
 10
2.6361124487
 20
5.0769796582
 30
0.0
 10
2.6637657527
 20
5.0523632678
 30
0.0
 10
2.6985680708
 20
5.0173786414
 30
0.0
 10
2.7379850855
 20
4.9697674571
 30
0.0
 10
2.7712994228
 20
4.9176962471
 30
0.0
 10
2.7939632435
 20
4.8738471388
 30
0.0
 10
2.8089117339
 20
4.8399602152
 30
0.0
 10
2.8217445356
 20
4.8052167295
 30
0.0
 10
2.8324001347
 20
4.7697448577
 30
0.0
 10
2.840839206
 20
4.7336829412
 30
0.0
 10
2.8470205641
 20
4.6971687901
 30
0.0
 10
2.850914593
 20
4.6603417882
 30
0.0
 10
2.8530340381
 20
4.6110339823
 30
0.0
 10
2.8498857141
 20
4.5492958613
 30
0.0
 10
2.8390097535
 20
4.4884412931
 30
0.0
 10
2.8257676791
 20
4.4409006345
 30
0.0
 10
2.8135931503
 20
4.4059280253
 30
0.0
 10
2.799221558
 20
4.3718046843
 30
0.0
 10
2.7882131551
 20
4.3497070887
 30
0.0
 10
2.7823643946
 20
4.3388512325
 30
0.0
  0
SPLINE
  5
243
100
AcDbEntity
  8
0
100
AcDbSpline
 62
7
  6
CONTINUOUS
 70
0
 71
3
 72
39
 73
35
 74
0
 42
0.0000001
 43
0.0000001
 44
0.0000000001
 40
0.0
 40
0.0
 40
0.0
 40
0.0
 40
0.0312342528
 40
0.0624926902
 40
0.0937524063
 40
0.1250035806
 40
0.1562513185
 40
0.1875003002
 40
0.2187513037
 40
0.2500023642
 40
0.2812523882
 40
0.3125022338
 40
0.3437521481
 40
0.3750025883
 40
0.406253256
 40
0.437503545
 40
0.4687538474
 40
0.5000038658
 40
0.5312535914
 40
0.5625034235
 40
0.593753044
 40
0.6250027707
 40
0.6562525482
 40
0.6875020189
 40
0.7187518356
 40
0.7500020841
 40
0.7812526365
 40
0.812502577
 40
0.8437500978
 40
0.8749970464
 40
0.906248781
 40
0.9375088605
 40
0.9687660463
 40
1.0
 40
1.0
 40
1.0
 40
1.0
 10
2.4492172746
 20
4.0448296433
 30
0.0
 10
2.4377214266
 20
4.0403765175
 30
0.0
 10
2.4144285675
 20
4.0322015977
 30
0.0
 10
2.3787819712
 20
4.0221825223
 30
0.0
 10
2.3425631967
 20
4.0144443284
 30
0.0
 10
2.3059310978
 20
4.0090213062
 30
0.0
 10
2.2690340457
 20
4.0059210208
 30
0.0
 10
2.232015048
 20
4.0051559707
 30
0.0
 10
2.1950200252
 20
4.0067173408
 30
0.0
 10
2.1581950562
 20
4.0105935299
 30
0.0
 10
2.121686156
 20
4.0167707007
 30
0.0
 10
2.0856337302
 20
4.0252106495
 30
0.0
 10
2.0501771189
 20
4.0358807964
 30
0.0
 10
2.0154520704
 20
4.0487337848
 30
0.0
 10
1.9815884451
 20
4.0637101447
 30
0.0
 10
1.948717578
 20
4.0807551973
 30
0.0
 10
1.9169599113
 20
4.0997930742
 30
0.0
 10
1.8864330725
 20
4.1207475044
 30
0.0
 10
1.857252776
 20
4.1435391666
 30
0.0
 10
1.829520577
 20
4.16807183
 30
0.0
 10
1.8033404419
 20
4.1942544286
 30
0.0
 10
1.7788061518
 20
4.2219848637
 30
0.0
 10
1.7560007456
 20
4.2511535862
 30
0.0
 10
1.7350105685
 20
4.2816546012
 30
0.0
 10
1.7159039468
 20
4.3133694743
 30
0.0
 10
1.6987464959
 20
4.3461803327
 30
0.0
 10
1.6836017003
 20
4.3799672766
 30
0.0
 10
1.6705124308
 20
4.4146010747
 30
0.0
 10
1.6595250478
 20
4.4499564592
 30
0.0
 10
1.6506757214
 20
4.4859072024
 30
0.0
 10
1.6439863825
 20
4.5223266616
 30
0.0
 10
1.6394844188
 20
4.5590850335
 30
0.0
 10
1.6371743795
 20
4.596037278
 30
0.0
 10
1.6370955567
 20
4.6207196204
 30
0.0
 10
1.637422562
 20
4.6330433782
 30
0.0
  0
SPLINE
  5
244
100
AcDbEntity
  8
0
100
AcDbSpline
 62
7
  6
CONTINUOUS
 70
0
 71
3
 72
15
 73
11
 74
0
 42
0.0000001
 43
0.0000001
 44
0.0000000001
 40
0.0
 40
0.0
 40
0.0
 40
0.0
 40
0.1316319447
 40
0.2612465537
 40
0.3884709104
 40
0.5131047384
 40
0.6352768984
 40
0.7556581153
 40
0.8758603677
 40
1.0
 40
1.0
 40
1.0
 40
1.0
 10
1.3773139125
 20
4.634395023
 30
0.0
 10
1.3778948724
 20
4.6328139048
 30
0.0
 10
1.3790440695
 20
4.6296744798
 30
0.0
 10
1.3807035764
 20
4.6249882636
 30
0.0
 10
1.3822382378
 20
4.6203535438
 30
0.0
 10
1.3835937282
 20
4.6157618285
 30
0.0
 10
1.3847161161
 20
4.6111967868
 30
0.0
 10
1.3855573456
 20
4.6066282638
 30
0.0
 10
1.3860846894
 20
4.601986719
 30
0.0
 10
1.3862119316
 20
4.5988601501
 30
0.0
 10
1.3862398718
 20
4.5972718008
 30
0.0
  0
SPLINE
  5
245
100
AcDbEntity
  8
0
100
AcDbSpline
 62
7
  6
CONTINUOUS
 70
0
 71
3
 72
15
 73
11
 74
0
 42
0.0000001
 43
0.0000001
 44
0.0000000001
 40
0.0
 40
0.0
 40
0.0
 40
0.0
 40
0.1241011555
 40
0.2442713766
 40
0.3646414338
 40
0.4868161397
 40
0.6114649118
 40
0.7387113056
 40
0.8683490872
 40
1.0
 40
1.0
 40
1.0
 40
1.0
 10
2.2575352883
 20
5.4685672173
 30
0.0
 10
2.2559418909
 20
5.4685952463
 30
0.0
 10
2.2528053106
 20
5.4687231764
 30
0.0
 10
2.2481487795
 20
5.4692539302
 30
0.0
 10
2.2435652669
 20
5.47010044
 30
0.0
 10
2.2389849137
 20
5.4712295975
 30
0.0
 10
2.2343774907
 20
5.4725926549
 30
0.0
 10
2.2297266408
 20
5.4741352324
 30
0.0
 10
2.2250238266
 20
5.4758022875
 30
0.0
 10
2.2218731446
 20
5.4769562371
 30
0.0
 10
2.2202862983
 20
5.4775393553
 30
0.0
  0
SPLINE
  5
246
100
AcDbEntity
  8
0
100
AcDbSpline
 62
7
  6
CONTINUOUS
 70
0
 71
3
 72
15
 73
11
 74
0
 42
0.0000001
 43
0.0000001
 44
0.0000000001
 40
0.0
 40
0.0
 40
0.0
 40
0.0
 40
0.1316506555
 40
0.2612877078
 40
0.3885333085
 40
0.5131813919
 40
0.6353554085
 40
0.7557229509
 40
0.8758954521
 40
1.0
 40
1.0
 40
1.0
 40
1.0
 10
2.3022623354
 20
5.4775405507
 30
0.0
 10
2.3006753735
 20
5.4769573278
 30
0.0
 10
2.2975244172
 20
5.47580331
 30
0.0
 10
2.2928212458
 20
5.474136024
 30
0.0
 10
2.288170019
 20
5.4725933116
 30
0.0
 10
2.2835622493
 20
5.4712300436
 30
0.0
 10
2.2789815617
 20
5.4701007274
 30
0.0
 10
2.2743976791
 20
5.4692540393
 30
0.0
 10
2.269740703
 20
5.468723193
 30
0.0
 10
2.2666037751
 20
5.4685952495
 30
0.0
 10
2.2650101947
 20
5.4685672173
 30
0.0
  0
SPLINE
  5
247
100
AcDbEntity
  8
0
100
AcDbSpline
 62
7
  6
CONTINUOUS
 70
0
 71
3
 72
15
 73
11
 74
0
 42
0.0000001
 43
0.0000001
 44
0.0000000001
 40
0.0
 40
0.0
 40
0.0
 40
0.0
 40
0.1241358733
 40
0.2443354337
 40
0.3647190973
 40
0.4868919358
 40
0.6115266338
 40
0.7387520391
 40
0.8683676026
 40
1.0
 40
1.0
 40
1.0
 40
1.0
 10
3.1363056113
 20
4.5972718008
 30
0.0
 10
3.1363335493
 20
4.5988600226
 30
0.0
 10
3.1364607838
 20
4.6019863525
 30
0.0
 10
3.1369880749
 20
4.606627615
 30
0.0
 10
3.1378291823
 20
4.61119593
 30
0.0
 10
3.1389514853
 20
4.6157608033
 30
0.0
 10
3.1403068481
 20
4.6203523418
 30
0.0
 10
3.1418414618
 20
4.624986859
 30
0.0
 10
3.1435008072
 20
4.629672902
 30
0.0
 10
3.1446500109
 20
4.6328121658
 30
0.0
 10
3.1452308809
 20
4.6343932336
 30
0.0
  0
SPLINE
  5
248
100
AcDbEntity
  8
0
100
AcDbSpline
 62
7
  6
CONTINUOUS
 70
0
 71
3
 72
15
 73
11
 74
0
 42
0.0000001
 43
0.0000001
 44
0.0000000001
 40
0.0
 40
0.0
 40
0.0
 40
0.0
 40
0.1316319447
 40
0.2612465537
 40
0.3884709104
 40
0.5131047384
 40
0.6352768984
 40
0.7556581153
 40
0.8758603677
 40
1.0
 40
1.0
 40
1.0
 40
1.0
 10
3.1452315706
 20
4.5526736721
 30
0.0
 10
3.1446506107
 20
4.5542547903
 30
0.0
 10
3.1435014136
 20
4.5573942153
 30
0.0
 10
3.1418419066
 20
4.5620804315
 30
0.0
 10
3.1403072453
 20
4.5667151513
 30
0.0
 10
3.1389517549
 20
4.5713068666
 30
0.0
 10
3.137829367
 20
4.5758719083
 30
0.0
 10
3.1369881375
 20
4.5804404313
 30
0.0
 10
3.1364607936
 20
4.5850819761
 30
0.0
 10
3.1363335515
 20
4.588208545
 30
0.0
 10
3.1363056113
 20
4.5897968943
 30
0.0
  0
SPLINE
  5
249
100
AcDbEntity
  8
0
100
AcDbSpline
 62
7
  6
CONTINUOUS
 70
0
 71
3
 72
15
 73
11
 74
0
 42
0.0000001
 43
0.0000001
 44
0.0000000001
 40
0.0
 40
0.0
 40
0.0
 40
0.0
 40
0.1241011555
 40
0.2442713766
 40
0.3646414338
 40
0.4868161397
 40
0.6114649119
 40
0.7387113056
 40
0.8683490872
 40
1.0
 40
1.0
 40
1.0
 40
1.0
 10
2.2650101947
 20
3.7185014778
 30
0.0
 10
2.2666035921
 20
3.7184734488
 30
0.0
 10
2.2697401724
 20
3.7183455187
 30
0.0
 10
2.2743967036
 20
3.7178147649
 30
0.0
 10
2.2789802162
 20
3.7169682551
 30
0.0
 10
2.2835605693
 20
3.7158390976
 30
0.0
 10
2.2881679924
 20
3.7144760402
 30
0.0
 10
2.2928188423
 20
3.7129334628
 30
0.0
 10
2.2975216564
 20
3.7112664076
 30
0.0
 10
2.3006723385
 20
3.710112458
 30
0.0
 10
2.3022591848
 20
3.7095293398
 30
0.0
  0
SPLINE
  5
24A
100
AcDbEntity
  8
0
100
AcDbSpline
 62
7
  6
CONTINUOUS
 70
0
 71
3
 72
15
 73
11
 74
0
 42
0.0000001
 43
0.0000001
 44
0.0000000001
 40
0.0
 40
0.0
 40
0.0
 40
0.0
 40
0.1316506555
 40
0.2612877078
 40
0.3885333085
 40
0.5131813919
 40
0.6353554086
 40
0.7557229509
 40
0.8758954521
 40
1.0
 40
1.0
 40
1.0
 40
1.0
 10
2.2202831476
 20
3.7095281444
 30
0.0
 10
2.2218701096
 20
3.7101113673
 30
0.0
 10
2.2250210658
 20
3.7112653851
 30
0.0
 10
2.2297242372
 20
3.7129326711
 30
0.0
 10
2.234375464
 20
3.7144753835
 30
0.0
 10
2.2389832338
 20
3.7158386515
 30
0.0
 10
2.2435639214
 20
3.7169679677
 30
0.0
 10
2.2481478039
 20
3.7178146558
 30
0.0
 10
2.25280478
 20
3.7183455022
 30
0.0
 10
2.2559417079
 20
3.7184734456
 30
0.0
 10
2.2575352883
 20
3.7185014778
 30
0.0
  0
SPLINE
  5
24B
100
AcDbEntity
  8
0
100
AcDbSpline
 62
7
  6
CONTINUOUS
 70
0
 71
3
 72
15
 73
11
 74
0
 42
0.0000001
 43
0.0000001
 44
0.0000000001
 40
0.0
 40
0.0
 40
0.0
 40
0.0
 40
0.1241358733
 40
0.2443354337
 40
0.3647190973
 40
0.4868919358
 40
0.6115266338
 40
0.7387520391
 40
0.8683676026
 40
1.0
 40
1.0
 40
1.0
 40
1.0
 10
1.3862398718
 20
4.5897968943
 30
0.0
 10
1.3862119338
 20
4.5882086725
 30
0.0
 10
1.3860846993
 20
4.5850823426
 30
0.0
 10
1.3855574081
 20
4.5804410801
 30
0.0
 10
1.3847163008
 20
4.5758727651
 30
0.0
 10
1.3835939978
 20
4.5713078918
 30
0.0
 10
1.382238635
 20
4.5667163533
 30
0.0
 10
1.3807040213
 20
4.5620818361
 30
0.0
 10
1.3790446758
 20
4.5573957931
 30
0.0
 10
1.3778954721
 20
4.5542565293
 30
0.0
 10
1.3773146022
 20
4.5526754615
 30
0.0
  0
LINE
  5
24C
100
AcDbEntity
  8
0
100
AcDbLine
 62
7
  6
CONTINUOUS
 10
1.63913219
 20
3.9780483963
 11
1.6330935665
 21
3.9844216461
  0
SPLINE
  5
24D
100
AcDbEntity
  8
0
100
AcDbSpline
 62
7
  6
CONTINUOUS
 70
0
 71
3
 72
33
 73
29
 74
0
 42
0.0000001
 43
0.0000001
 44
0.0000000001
 40
0.0
 40
0.0
 40
0.0
 40
0.0
 40
0.0312457672
 40
0.0625034809
 40
0.093757131
 40
0.1250074867
 40
0.1874835999
 40
0.2499600496
 40
0.2812124677
 40
0.3124647161
 40
0.3437165919
 40
0.3749684395
 40
0.4374459645
 40
0.4999316675
 40
0.5311934837
 40
0.562457929
 40
0.5937231257
 40
0.624988037
 40
0.6562515359
 40
0.6875127068
 40
0.7187715158
 40
0.7500280364
 40
0.8125064577
 40
0.874982428
 40
0.9062346332
 40
0.9374911816
 40
0.9687527792
 40
1.0
 40
1.0
 40
1.0
 40
1.0
 10
8.2996053022
 20
5.2174579204
 30
0.0
 10
8.3118766334
 20
5.216250487
 30
0.0
 10
8.336358531
 20
5.2131058858
 30
0.0
 10
8.3727331079
 20
5.2062229925
 30
0.0
 10
8.4086378186
 20
5.197185756
 30
0.0
 10
8.4556884479
 20
5.1823124675
 30
0.0
 10
8.5127106698
 20
5.1584863727
 30
0.0
 10
8.5664688925
 20
5.1279971906
 30
0.0
 10
8.6070182796
 20
5.0998752099
 30
0.0
 10
8.6361124487
 20
5.0769796582
 30
0.0
 10
8.6637657527
 20
5.0523632678
 30
0.0
 10
8.6985680708
 20
5.0173786414
 30
0.0
 10
8.7379850855
 20
4.9697674571
 30
0.0
 10
8.7712994228
 20
4.9176962471
 30
0.0
 10
8.7939632435
 20
4.8738471388
 30
0.0
 10
8.8089117339
 20
4.8399602152
 30
0.0
 10
8.8217445356
 20
4.8052167295
 30
0.0
 10
8.8324001347
 20
4.7697448577
 30
0.0
 10
8.840839206
 20
4.7336829412
 30
0.0
 10
8.8470205641
 20
4.6971687901
 30
0.0
 10
8.850914593
 20
4.6603417882
 30
0.0
 10
8.8530340381
 20
4.6110339823
 30
0.0
 10
8.8498857141
 20
4.5492958613
 30
0.0
 10
8.8390097535
 20
4.4884412931
 30
0.0
 10
8.8257676791
 20
4.4409006345
 30
0.0
 10
8.8135931503
 20
4.4059280253
 30
0.0
 10
8.799221558
 20
4.3718046843
 30
0.0
 10
8.7882131551
 20
4.3497070887
 30
0.0
 10
8.7823643946
 20
4.3388512325
 30
0.0
  0
SPLINE
  5
24E
100
AcDbEntity
  8
0
100
AcDbSpline
 62
7
  6
CONTINUOUS
 70
0
 71
3
 72
39
 73
35
 74
0
 42
0.0000001
 43
0.0000001
 44
0.0000000001
 40
0.0
 40
0.0
 40
0.0
 40
0.0
 40
0.0312342528
 40
0.0624926902
 40
0.0937524063
 40
0.1250035806
 40
0.1562513185
 40
0.1875003002
 40
0.2187513037
 40
0.2500023642
 40
0.2812523882
 40
0.3125022338
 40
0.3437521481
 40
0.3750025883
 40
0.406253256
 40
0.437503545
 40
0.4687538474
 40
0.5000038658
 40
0.5312535914
 40
0.5625034235
 40
0.593753044
 40
0.6250027707
 40
0.6562525482
 40
0.6875020189
 40
0.7187518356
 40
0.7500020841
 40
0.7812526365
 40
0.812502577
 40
0.8437500978
 40
0.8749970464
 40
0.906248781
 40
0.9375088605
 40
0.9687660463
 40
1.0
 40
1.0
 40
1.0
 40
1.0
 10
8.4492172746
 20
4.0448296433
 30
0.0
 10
8.4377214266
 20
4.0403765175
 30
0.0
 10
8.4144285675
 20
4.0322015977
 30
0.0
 10
8.3787819712
 20
4.0221825223
 30
0.0
 10
8.3425631967
 20
4.0144443284
 30
0.0
 10
8.3059310978
 20
4.0090213062
 30
0.0
 10
8.2690340457
 20
4.0059210208
 30
0.0
 10
8.232015048
 20
4.0051559707
 30
0.0
 10
8.1950200252
 20
4.0067173408
 30
0.0
 10
8.1581950562
 20
4.0105935299
 30
0.0
 10
8.121686156
 20
4.0167707007
 30
0.0
 10
8.0856337302
 20
4.0252106495
 30
0.0
 10
8.0501771189
 20
4.0358807964
 30
0.0
 10
8.0154520704
 20
4.0487337848
 30
0.0
 10
7.9815884451
 20
4.0637101447
 30
0.0
 10
7.948717578
 20
4.0807551973
 30
0.0
 10
7.9169599113
 20
4.0997930742
 30
0.0
 10
7.8864330725
 20
4.1207475044
 30
0.0
 10
7.857252776
 20
4.1435391666
 30
0.0
 10
7.829520577
 20
4.16807183
 30
0.0
 10
7.8033404419
 20
4.1942544286
 30
0.0
 10
7.7788061518
 20
4.2219848637
 30
0.0
 10
7.7560007456
 20
4.2511535862
 30
0.0
 10
7.7350105685
 20
4.2816546012
 30
0.0
 10
7.7159039468
 20
4.3133694743
 30
0.0
 10
7.6987464959
 20
4.3461803327
 30
0.0
 10
7.6836017003
 20
4.3799672766
 30
0.0
 10
7.6705124308
 20
4.4146010747
 30
0.0
 10
7.6595250478
 20
4.4499564592
 30
0.0
 10
7.6506757214
 20
4.4859072024
 30
0.0
 10
7.6439863825
 20
4.5223266616
 30
0.0
 10
7.6394844188
 20
4.5590850335
 30
0.0
 10
7.6371743795
 20
4.596037278
 30
0.0
 10
7.6370955567
 20
4.6207196204
 30
0.0
 10
7.637422562
 20
4.6330433782
 30
0.0
  0
SPLINE
  5
24F
100
AcDbEntity
  8
0
100
AcDbSpline
 62
7
  6
CONTINUOUS
 70
0
 71
3
 72
15
 73
11
 74
0
 42
0.0000001
 43
0.0000001
 44
0.0000000001
 40
0.0
 40
0.0
 40
0.0
 40
0.0
 40
0.1316319447
 40
0.2612465537
 40
0.3884709104
 40
0.5131047384
 40
0.6352768984
 40
0.7556581153
 40
0.8758603677
 40
1.0
 40
1.0
 40
1.0
 40
1.0
 10
7.3773139125
 20
4.634395023
 30
0.0
 10
7.3778948724
 20
4.6328139048
 30
0.0
 10
7.3790440695
 20
4.6296744798
 30
0.0
 10
7.3807035764
 20
4.6249882636
 30
0.0
 10
7.3822382378
 20
4.6203535438
 30
0.0
 10
7.3835937282
 20
4.6157618285
 30
0.0
 10
7.3847161161
 20
4.6111967868
 30
0.0
 10
7.3855573456
 20
4.6066282638
 30
0.0
 10
7.3860846894
 20
4.601986719
 30
0.0
 10
7.3862119316
 20
4.5988601501
 30
0.0
 10
7.3862398718
 20
4.5972718008
 30
0.0
  0
SPLINE
  5
250
100
AcDbEntity
  8
0
100
AcDbSpline
 62
7
  6
CONTINUOUS
 70
0
 71
3
 72
15
 73
11
 74
0
 42
0.0000001
 43
0.0000001
 44
0.0000000001
 40
0.0
 40
0.0
 40
0.0
 40
0.0
 40
0.1241011555
 40
0.2442713766
 40
0.3646414338
 40
0.4868161397
 40
0.6114649118
 40
0.7387113056
 40
0.8683490872
 40
1.0
 40
1.0
 40
1.0
 40
1.0
 10
8.2575352883
 20
5.4685672173
 30
0.0
 10
8.2559418909
 20
5.4685952463
 30
0.0
 10
8.2528053106
 20
5.4687231764
 30
0.0
 10
8.2481487795
 20
5.4692539302
 30
0.0
 10
8.2435652669
 20
5.47010044
 30
0.0
 10
8.2389849137
 20
5.4712295975
 30
0.0
 10
8.2343774907
 20
5.4725926549
 30
0.0
 10
8.2297266408
 20
5.4741352324
 30
0.0
 10
8.2250238266
 20
5.4758022875
 30
0.0
 10
8.2218731446
 20
5.4769562371
 30
0.0
 10
8.2202862983
 20
5.4775393553
 30
0.0
  0
SPLINE
  5
251
100
AcDbEntity
  8
0
100
AcDbSpline
 62
7
  6
CONTINUOUS
 70
0
 71
3
 72
15
 73
11
 74
0
 42
0.0000001
 43
0.0000001
 44
0.0000000001
 40
0.0
 40
0.0
 40
0.0
 40
0.0
 40
0.1316506555
 40
0.2612877078
 40
0.3885333085
 40
0.5131813919
 40
0.6353554085
 40
0.7557229509
 40
0.8758954521
 40
1.0
 40
1.0
 40
1.0
 40
1.0
 10
8.3022623354
 20
5.4775405507
 30
0.0
 10
8.3006753735
 20
5.4769573278
 30
0.0
 10
8.2975244172
 20
5.47580331
 30
0.0
 10
8.2928212458
 20
5.474136024
 30
0.0
 10
8.288170019
 20
5.4725933116
 30
0.0
 10
8.2835622493
 20
5.4712300436
 30
0.0
 10
8.2789815617
 20
5.4701007274
 30
0.0
 10
8.2743976791
 20
5.4692540393
 30
0.0
 10
8.269740703
 20
5.468723193
 30
0.0
 10
8.2666037751
 20
5.4685952495
 30
0.0
 10
8.2650101947
 20
5.4685672173
 30
0.0
  0
SPLINE
  5
252
100
AcDbEntity
  8
0
100
AcDbSpline
 62
7
  6
CONTINUOUS
 70
0
 71
3
 72
15
 73
11
 74
0
 42
0.0000001
 43
0.0000001
 44
0.0000000001
 40
0.0
 40
0.0
 40
0.0
 40
0.0
 40
0.1241358733
 40
0.2443354337
 40
0.3647190973
 40
0.4868919358
 40
0.6115266338
 40
0.7387520391
 40
0.8683676026
 40
1.0
 40
1.0
 40
1.0
 40
1.0
 10
9.1363056113
 20
4.5972718008
 30
0.0
 10
9.1363335493
 20
4.5988600226
 30
0.0
 10
9.1364607838
 20
4.6019863525
 30
0.0
 10
9.1369880749
 20
4.606627615
 30
0.0
 10
9.1378291823
 20
4.61119593
 30
0.0
 10
9.1389514853
 20
4.6157608033
 30
0.0
 10
9.1403068481
 20
4.6203523418
 30
0.0
 10
9.1418414618
 20
4.624986859
 30
0.0
 10
9.1435008072
 20
4.629672902
 30
0.0
 10
9.1446500109
 20
4.6328121658
 30
0.0
 10
9.1452308809
 20
4.6343932336
 30
0.0
  0
SPLINE
  5
253
100
AcDbEntity
  8
0
100
AcDbSpline
 62
7
  6
CONTINUOUS
 70
0
 71
3
 72
15
 73
11
 74
0
 42
0.0000001
 43
0.0000001
 44
0.0000000001
 40
0.0
 40
0.0
 40
0.0
 40
0.0
 40
0.1316319447
 40
0.2612465537
 40
0.3884709104
 40
0.5131047384
 40
0.6352768984
 40
0.7556581153
 40
0.8758603677
 40
1.0
 40
1.0
 40
1.0
 40
1.0
 10
9.1452315706
 20
4.5526736721
 30
0.0
 10
9.1446506107
 20
4.5542547903
 30
0.0
 10
9.1435014136
 20
4.5573942153
 30
0.0
 10
9.1418419066
 20
4.5620804315
 30
0.0
 10
9.1403072453
 20
4.5667151513
 30
0.0
 10
9.1389517549
 20
4.5713068666
 30
0.0
 10
9.137829367
 20
4.5758719083
 30
0.0
 10
9.1369881375
 20
4.5804404313
 30
0.0
 10
9.1364607936
 20
4.5850819761
 30
0.0
 10
9.1363335515
 20
4.588208545
 30
0.0
 10
9.1363056113
 20
4.5897968943
 30
0.0
  0
SPLINE
  5
254
100
AcDbEntity
  8
0
100
AcDbSpline
 62
7
  6
CONTINUOUS
 70
0
 71
3
 72
15
 73
11
 74
0
 42
0.0000001
 43
0.0000001
 44
0.0000000001
 40
0.0
 40
0.0
 40
0.0
 40
0.0
 40
0.1241011555
 40
0.2442713766
 40
0.3646414338
 40
0.4868161397
 40
0.6114649119
 40
0.7387113056
 40
0.8683490872
 40
1.0
 40
1.0
 40
1.0
 40
1.0
 10
8.2650101947
 20
3.7185014778
 30
0.0
 10
8.2666035921
 20
3.7184734488
 30
0.0
 10
8.2697401724
 20
3.7183455187
 30
0.0
 10
8.2743967036
 20
3.7178147649
 30
0.0
 10
8.2789802162
 20
3.7169682551
 30
0.0
 10
8.2835605693
 20
3.7158390976
 30
0.0
 10
8.2881679924
 20
3.7144760402
 30
0.0
 10
8.2928188423
 20
3.7129334628
 30
0.0
 10
8.2975216564
 20
3.7112664076
 30
0.0
 10
8.3006723385
 20
3.710112458
 30
0.0
 10
8.3022591848
 20
3.7095293398
 30
0.0
  0
SPLINE
  5
255
100
AcDbEntity
  8
0
100
AcDbSpline
 62
7
  6
CONTINUOUS
 70
0
 71
3
 72
15
 73
11
 74
0
 42
0.0000001
 43
0.0000001
 44
0.0000000001
 40
0.0
 40
0.0
 40
0.0
 40
0.0
 40
0.1316506555
 40
0.2612877078
 40
0.3885333085
 40
0.5131813919
 40
0.6353554086
 40
0.7557229509
 40
0.8758954521
 40
1.0
 40
1.0
 40
1.0
 40
1.0
 10
8.2202831476
 20
3.7095281444
 30
0.0
 10
8.2218701096
 20
3.7101113673
 30
0.0
 10
8.2250210658
 20
3.7112653851
 30
0.0
 10
8.2297242372
 20
3.7129326711
 30
0.0
 10
8.234375464
 20
3.7144753835
 30
0.0
 10
8.2389832338
 20
3.7158386515
 30
0.0
 10
8.2435639214
 20
3.7169679677
 30
0.0
 10
8.2481478039
 20
3.7178146558
 30
0.0
 10
8.25280478
 20
3.7183455022
 30
0.0
 10
8.2559417079
 20
3.7184734456
 30
0.0
 10
8.2575352883
 20
3.7185014778
 30
0.0
  0
SPLINE
  5
256
100
AcDbEntity
  8
0
100
AcDbSpline
 62
7
  6
CONTINUOUS
 70
0
 71
3
 72
15
 73
11
 74
0
 42
0.0000001
 43
0.0000001
 44
0.0000000001
 40
0.0
 40
0.0
 40
0.0
 40
0.0
 40
0.1241358733
 40
0.2443354337
 40
0.3647190973
 40
0.4868919358
 40
0.6115266338
 40
0.7387520391
 40
0.8683676026
 40
1.0
 40
1.0
 40
1.0
 40
1.0
 10
7.3862398718
 20
4.5897968943
 30
0.0
 10
7.3862119338
 20
4.5882086725
 30
0.0
 10
7.3860846993
 20
4.5850823426
 30
0.0
 10
7.3855574081
 20
4.5804410801
 30
0.0
 10
7.3847163008
 20
4.5758727651
 30
0.0
 10
7.3835939978
 20
4.5713078918
 30
0.0
 10
7.382238635
 20
4.5667163533
 30
0.0
 10
7.3807040213
 20
4.5620818361
 30
0.0
 10
7.3790446758
 20
4.5573957931
 30
0.0
 10
7.3778954721
 20
4.5542565293
 30
0.0
 10
7.3773146022
 20
4.5526754615
 30
0.0
  0
LINE
  5
257
100
AcDbEntity
  8
0
100
AcDbLine
 62
7
  6
CONTINUOUS
 10
7.63913219
 20
3.9780483963
 11
7.6330935665
 21
3.9844216461
  0
ENDSEC
  0
SECTION
  2
OBJECTS
  0
DICTIONARY
  5
C
100
AcDbDictionary
280
0
281
1
  3
ACAD_GROUP
350
D
  3
ACAD_MLINESTYLE
350
17
  3
ACAD_LAYOUT
350
1A
  3
ACAD_PLOTSETTINGS
350
19
  3
ACAD_PLOTSTYLENAME
350
E
  0
DICTIONARY
  5
D
102
{ACAD_REACTORS
330
C
102
}
100
AcDbDictionary
280
0
281
1
  0
ACDBDICTIONARYWDFLT
  5
E
102
{ACAD_REACTORS
330
C
102
}
100
AcDbDictionary
281
1
  3
Normal
350
F
100
AcDbDictionaryWithDefault
340
F
  0
DICTIONARY
  5
17
102
{ACAD_REACTORS
330
C
102
}
100
AcDbDictionary
280
0
281
1
  3
Standard
350
18
  0
DICTIONARY
  5
19
102
{ACAD_REACTORS
330
C
102
}
100
AcDbDictionary
281
1
  0
DICTIONARY
  5
1A
102
{ACAD_REACTORS
330
C
102
}
100
AcDbDictionary
281
1
  3
Model
350
258
  3
Layout1
350
259
  0
ACDBPLACEHOLDER
  5
F
102
{ACAD_REACTORS
330
E
102
}
  0
MLINESTYLE
  5
18
102
{ACAD_REACTORS
330
17
102
}
100
AcDbMlineStyle
  2
STANDARD
 70
0
  3

 62
256
 51
90.0
 52
90.0
 71
2
 49
0.5
 62
256
  6
BYLAYER
 49
-0.5
 62
256
  6
BYLAYER
  0
LAYOUT
  5
258
102
{ACAD_REACTORS
330
1A
102
}
100
AcDbPlotSettings
  1

  2
none_device
  4
ANSI_A_(11.00_x_8.50_Inches)
  6

 40
0.0
 41
0.0
 42
0.0
 43
0.0
 44
279.4
 45
215.9
 46
0.0
 47
0.0
 48
0.0
 49
0.0
140
0.0
141
0.0
142
1.0
143
1.0
 70
1024
 72
0
 73
0
 74
0
  7

 75
0
147
1.0
148
0.0
149
0.0
100
AcDbLayout
  1
Model
 70
0
 71
0
 10
0.0
 20
0.0
 11
11.0
 21
8.5
 12
0.0
 22
0.0
 32
0.0
 14
0.0
 24
0.0
 34
0.0
 15
0.0
 25
0.0
 35
0.0
146
0.0
 13
0.0
 23
0.0
 33
0.0
 16
1.0
 26
0.0
 36
0.0
 17
0.0
 27
1.0
 37
0.0
 76
0
330
20E
345
0
346
0
  0
LAYOUT
  5
259
102
{ACAD_REACTORS
330
1A
102
}
100
AcDbPlotSettings
  1

  2
none_device
  4
ANSI_A_(11.00_x_8.50_Inches)
  6

 40
0.0
 41
0.0
 42
0.0
 43
0.0
 44
279.4
 45
215.9
 46
0.0
 47
0.0
 48
0.0
 49
0.0
140
0.0
141
0.0
142
1.0
143
1.0
 70
0
 72
0
 73
0
 74
0
  7

 75
0
147
1.0
148
0.0
149
0.0
100
AcDbLayout
  1
Layout1
 70
0
 71
1
 10
0.0
 20
0.0
 11
11.0
 21
8.5
 12
0.0
 22
0.0
 32
0.0
 14
0.0
 24
0.0
 34
0.0
 15
0.0
 25
0.0
 35
0.0
146
0.0
 13
0.0
 23
0.0
 33
0.0
 16
1.0
 26
0.0
 36
0.0
 17
0.0
 27
1.0
 37
0.0
 76
0
330
20F
345
0
346
0
  0
ENDSEC
  0
EOF
