999
DXF file: 920-3918_front.dxf
999
Pro/ENGINEER 2013150 by Parametric Technology Corporation
  0
SECTION
  2
HEADER
  9
$ACADVER
  1
AC1021
  9
$DWGCODEPAGE
  3
ANSI_1252
  9
$EXTMAX
 10
11.0
 20
8.5
 30
0.0
  9
$EXTMIN
 10
0.0
 20
0.0
 30
0.0
  9
$LIMMIN
 10
0.0
 20
0.0
  9
$LIMMAX
 10
11.0
 20
8.5
  9
$VIEWCTR
 10
5.5
 20
4.25
  9
$VIEWSIZE
 40
8.5
  9
$CLAYER
  8
0
  9
$LTSCALE
 40
0.605
  9
$CELTYPE
  6
BYLAYER
  9
$DIMSCALE
 40
1.0
  9
$DIMASZ
 40
0.1
  9
$DIMEXO
 40
0.0625
  9
$DIMDLI
 40
0.418
  9
$DIMEXE
 40
0.125
  9
$DIMCEN
 40
0.099
  9
$DIMLFAC
 40
1.0
  9
$DIMBLK
  1
_FILLED
  9
$DIMTXT
 40
0.08
  9
$DIMTOL
 70
1
  9
$DIMLIM
 70
0
  9
$DIMTFAC
 40
1.0
  9
$DIMTP
 40
0.001
  9
$DIMTM
 40
0.001
  9
$DIMGAP
 40
0.09
  9
$DIMDSEP
 70
46
  9
$PDMODE
 70
3
  9
$PDSIZE
 40
0.3125
  9
$HANDSEED
  5
259
  9
$TILEMODE
 70
1
  9
$MEASUREMENT
 70
0
  9
$INSUNITS
 70
1
  0
ENDSEC
  0
SECTION
  2
CLASSES
  0
CLASS
  1
ACDBDICTIONARYWDFLT
  2
AcDbDictionaryWithDefault
  3
AutoCAD 2000
 90
0
 91
1
280
0
281
0
  0
CLASS
  1
ACDBPLACEHOLDER
  2
AcDbPlaceHolder
  3
AutoCAD 2000
 90
0
 91
1
280
0
281
0
  0
CLASS
  1
LAYOUT
  2
AcDbLayout
  3
AutoCAD 2000
 90
0
 91
0
280
0
281
0
  0
ENDSEC
  0
SECTION
  2
TABLES
  0
TABLE
  2
VPORT
  5
8
100
AcDbSymbolTable
 70
2
  0
VPORT
  5
1F4
100
AcDbSymbolTableRecord
100
AcDbViewportTableRecord
  2
*ACTIVE
 70
0
 10
0.0
 20
0.0
 11
1.0
 21
1.0
 12
5.5
 22
4.25
 13
0.0
 23
0.0
 14
1.0
 24
1.0
 15
0.0
 25
0.0
 16
0.0
 26
0.0
 36
1.0
 17
0.0
 27
0.0
 37
0.0
 40
8.5
 41
1.2941176471
 42
50.0
 43
0.0
 44
0.0
 50
0.0
 51
0.0
 71
0
 72
100
 73
1
 74
1
 75
0
 76
0
 77
0
 78
0
  0
ENDTAB
  0
TABLE
  2
LTYPE
  5
5
100
AcDbSymbolTable
 70
6
  0
LTYPE
  5
14
100
AcDbSymbolTableRecord
100
AcDbLinetypeTableRecord
  2
BYBLOCK
 70
0
  3

 72
65
 73
0
 40
0.0
  0
LTYPE
  5
15
100
AcDbSymbolTableRecord
100
AcDbLinetypeTableRecord
  2
BYLAYER
 70
0
  3

 72
65
 73
0
 40
0.0
  0
LTYPE
  5
16
100
AcDbSymbolTableRecord
100
AcDbLinetypeTableRecord
  2
CONTINUOUS
 70
64
  3
Solid line
 72
65
 73
0
 40
0.0
  0
LTYPE
  5
1F5
100
AcDbSymbolTableRecord
100
AcDbLinetypeTableRecord
  2
CENTER
 70
64
  3
____ _ ____ _ ____ _ ____ _ ____ _ ____ _ ____
 72
65
 73
4
 40
0.6
 49
0.375
 74
0
 49
-0.075
 74
0
 49
0.075
 74
0
 49
-0.075
 74
0
  0
LTYPE
  5
1F6
100
AcDbSymbolTableRecord
100
AcDbLinetypeTableRecord
  2
HIDDEN
 70
64
  3
- - - - - - - - - - - - - - - - - - - -
 72
65
 73
2
 40
0.2
 49
0.1
 74
0
 49
-0.1
 74
0
  0
LTYPE
  5
1F7
100
AcDbSymbolTableRecord
100
AcDbLinetypeTableRecord
  2
PHANTOM
 70
64
  3
_____ _ _ _____ _ _ _____ _ _ _____
 72
65
 73
6
 40
0.8
 49
0.45
 74
0
 49
-0.05
 74
0
 49
0.1
 74
0
 49
-0.05
 74
0
 49
0.1
 74
0
 49
-0.05
 74
0
  0
LTYPE
  5
1F8
100
AcDbSymbolTableRecord
100
AcDbLinetypeTableRecord
  2
DOT
 70
64
  3
. . . . . . . . . . . . . . . . . . . .
 72
65
 73
2
 40
0.2
 49
0.1
 74
0
 49
-0.1
 74
0
  0
LTYPE
  5
1F9
100
AcDbSymbolTableRecord
100
AcDbLinetypeTableRecord
  2
DASHED
 70
64
  3
- - - - - - - - - - - - - - - - - - - -
 72
65
 73
2
 40
0.2
 49
0.1
 74
0
 49
-0.1
 74
0
  0
ENDTAB
  0
TABLE
  2
LAYER
  5
2
100
AcDbSymbolTable
 70
36
  0
LAYER
  5
10
100
AcDbSymbolTableRecord
100
AcDbLayerTableRecord
  2
0
 70
0
 62
7
  6
CONTINUOUS
370
-3
390
F
  0
LAYER
  5
1FA
100
AcDbSymbolTableRecord
100
AcDbLayerTableRecord
  2
DEFAULT_1
 70
0
 62
7
  6
CENTER
370
-3
390
F
  0
LAYER
  5
1FB
100
AcDbSymbolTableRecord
100
AcDbLayerTableRecord
  2
DEFAULT_2
 70
0
 62
8
  6
HIDDEN
370
-3
390
F
  0
LAYER
  5
1FC
100
AcDbSymbolTableRecord
100
AcDbLayerTableRecord
  2
DEFAULT_3
 70
0
 62
7
  6
PHANTOM
370
-3
390
F
  0
LAYER
  5
1FD
100
AcDbSymbolTableRecord
100
AcDbLayerTableRecord
  2
_  SHELL
 70
0
 62
7
  6
CONTINUOUS
370
-3
390
F
  0
LAYER
  5
1FE
100
AcDbSymbolTableRecord
100
AcDbLayerTableRecord
  2
06___PRT_ALL_SURFS
 70
0
 62
7
  6
CONTINUOUS
370
-3
390
F
  0
LAYER
  5
1FF
100
AcDbSymbolTableRecord
100
AcDbLayerTableRecord
  2
ALL_FEATURES
 70
0
 62
7
  6
CONTINUOUS
370
-3
390
F
  0
LAYER
  5
200
100
AcDbSymbolTableRecord
100
AcDbLayerTableRecord
  2
AXES_FEATURES
 70
0
 62
7
  6
CONTINUOUS
370
-3
390
F
  0
LAYER
  5
201
100
AcDbSymbolTableRecord
100
AcDbLayerTableRecord
  2
DEFAULT_COORDINATE_SYSTEM
 70
0
 62
7
  6
CONTINUOUS
370
-3
390
F
  0
LAYER
  5
202
100
AcDbSymbolTableRecord
100
AcDbLayerTableRecord
  2
DEFAULT_DATUM_AXES
 70
0
 62
7
  6
CONTINUOUS
370
-3
390
F
  0
LAYER
  5
203
100
AcDbSymbolTableRecord
100
AcDbLayerTableRecord
  2
DEFAULT_DATUM_CURVES
 70
0
 62
7
  6
CONTINUOUS
370
-3
390
F
  0
LAYER
  5
204
100
AcDbSymbolTableRecord
100
AcDbLayerTableRecord
  2
DEFAULT_DATUM_PLANES
 70
0
 62
7
  6
CONTINUOUS
370
-3
390
F
  0
LAYER
  5
205
100
AcDbSymbolTableRecord
100
AcDbLayerTableRecord
  2
DEFAULT_SURFACES
 70
0
 62
7
  6
CONTINUOUS
370
-3
390
F
  0
LAYER
  5
206
100
AcDbSymbolTableRecord
100
AcDbLayerTableRecord
  2
DIMENSIONS
 70
0
 62
7
  6
CONTINUOUS
370
-3
390
F
  0
LAYER
  5
207
100
AcDbSymbolTableRecord
100
AcDbLayerTableRecord
  2
INTF_BLANK
 70
0
 62
7
  6
CONTINUOUS
370
-3
390
F
  0
LAYER
  5
208
100
AcDbSymbolTableRecord
100
AcDbLayerTableRecord
  2
PLATED_SURFACE_AREA
 70
0
 62
7
  6
CONTINUOUS
370
-3
390
F
  0
LAYER
  5
209
100
AcDbSymbolTableRecord
100
AcDbLayerTableRecord
  2
SHELL
 70
0
 62
7
  6
CONTINUOUS
370
-3
390
F
  0
LAYER
  5
20A
100
AcDbSymbolTableRecord
100
AcDbLayerTableRecord
  2
XSEC_DATUMS
 70
0
 62
7
  6
CONTINUOUS
370
-3
390
F
  0
LAYER
  5
20B
100
AcDbSymbolTableRecord
100
AcDbLayerTableRecord
  2
___SHELL
 70
0
 62
7
  6
CONTINUOUS
370
-3
390
F
  0
ENDTAB
  0
TABLE
  2
STYLE
  5
3
100
AcDbSymbolTable
 70
1
  0
STYLE
  5
11
100
AcDbSymbolTableRecord
100
AcDbTextStyleTableRecord
  2
STANDARD
 70
0
 40
0.0
 41
0.8
 50
0.0
 71
0
 42
0.2
  3
txt
  4

  0
STYLE
  5
20C
100
AcDbSymbolTableRecord
100
AcDbTextStyleTableRecord
  2
TEXTSTYLE_1
 70
0
 40
0.0
 41
0.8
 50
0.0
 71
0
 42
0.2
  3
gdt
  4

  0
ENDTAB
  0
TABLE
  2
VIEW
  5
6
100
AcDbSymbolTable
 70
0
  0
ENDTAB
  0
TABLE
  2
UCS
  5
7
100
AcDbSymbolTable
 70
0
  0
ENDTAB
  0
TABLE
  2
APPID
  5
9
100
AcDbSymbolTable
 70
1
  0
APPID
  5
20D
100
AcDbSymbolTableRecord
100
AcDbRegAppTableRecord
  2
ACAD
 70
0
  0
ENDTAB
  0
TABLE
  2
BLOCK_RECORD
  5
1
100
AcDbSymbolTable
 70
0
  0
BLOCK_RECORD
  5
20E
100
AcDbSymbolTableRecord
100
AcDbBlockTableRecord
  2
*Model_Space
  0
BLOCK_RECORD
  5
20F
100
AcDbSymbolTableRecord
100
AcDbBlockTableRecord
  2
*Paper_Space
  0
ENDTAB
  0
TABLE
  2
DIMSTYLE
  5
A
100
AcDbSymbolTable
 70
1
100
AcDbDimStyleTable
 71
0
  0
DIMSTYLE
105
210
100
AcDbSymbolTableRecord
100
AcDbDimStyleTableRecord
  2
STANDARD
 70
0
  3

  4

 40
1.0
 41
0.1
 42
0.0625
 43
0.38
 44
0.125
 45
0.0
 46
0.0
 47
0.001
 48
0.001
140
0.08
141
0.09
142
0.0
143
25.4
144
1.0
145
0.0
146
1.0
147
0.09
 71
1.0
 72
0.0
 73
1
 74
1
 75
0
 76
0
 77
0
 78
4
170
0
171
2
172
0
173
0
174
0
175
0
176
0
177
0
178
0
270
2
271
3
272
3
273
2
274
2
275
0
280
0
281
0
282
0
283
1
284
4
285
0
286
0
287
3
288
0
340
11
278
46
  0
ENDTAB
  0
ENDSEC
  0
SECTION
  2
BLOCKS
  0
BLOCK
  5
20
100
AcDbEntity
  8
0
100
AcDbBlockBegin
  2
*Model_Space
 70
0
 10
0.0
 20
0.0
 30
0.0
  3
*Model_Space
  1

  0
ENDBLK
  5
21
100
AcDbEntity
  8
0
100
AcDbBlockEnd
  0
BLOCK
  5
1C
100
AcDbEntity
  8
0
100
AcDbBlockBegin
  2
*Paper_Space
 70
0
 10
0.0
 20
0.0
 30
0.0
  3
*Paper_Space
  1

  0
ENDBLK
  5
1D
100
AcDbEntity
  8
0
100
AcDbBlockEnd
  0
ENDSEC
  0
SECTION
  2
ENTITIES
  0
LINE
  5
211
100
AcDbEntity
  8
0
100
AcDbLine
 62
7
  6
CONTINUOUS
 10
0.0
 20
0.0
 11
0.0
 21
8.5
  0
LINE
  5
212
100
AcDbEntity
  8
0
100
AcDbLine
 62
7
  6
CONTINUOUS
 10
0.0
 20
0.0
 11
11.0
 21
0.0
  0
LINE
  5
213
100
AcDbEntity
  8
0
100
AcDbLine
 62
7
  6
CONTINUOUS
 10
0.0
 20
8.5
 11
11.0
 21
8.5
  0
LINE
  5
214
100
AcDbEntity
  8
0
100
AcDbLine
 62
7
  6
CONTINUOUS
 10
11.0
 20
0.0
 11
11.0
 21
8.5
  0
LINE
  5
215
100
AcDbEntity
  8
0
100
AcDbLine
 62
7
  6
CONTINUOUS
 10
1.7606816067
 20
4.5279544045
 11
1.7606816067
 21
3.9029544045
  0
LINE
  5
216
100
AcDbEntity
  8
0
100
AcDbLine
 62
7
  6
CONTINUOUS
 10
0.9481816067
 20
3.9029544045
 11
9.9481816067
 21
3.9029544045
  0
LINE
  5
217
100
AcDbEntity
  8
0
100
AcDbLine
 62
7
  6
CONTINUOUS
 10
0.9481816067
 20
4.5279544045
 11
9.9481816067
 21
4.5279544045
  0
LINE
  5
218
100
AcDbEntity
  8
0
100
AcDbLine
 62
7
  6
CONTINUOUS
 10
9.1356816067
 20
4.5279544045
 11
9.1356816067
 21
3.9029544045
  0
ARC
  5
219
100
AcDbEntity
  8
0
100
AcDbCircle
 62
7
  6
CONTINUOUS
 10
0.9481805259
 20
4.2151517448
 40
0.3128524097
100
AcDbArc
 50
89.1811246251
 51
90.6061769344
  0
ARC
  5
21A
100
AcDbEntity
  8
0
100
AcDbCircle
 62
7
  6
CONTINUOUS
 10
0.9481815491
 20
4.2152258003
 40
0.3127783472
100
AcDbArc
 50
88.5353016742
 51
89.1811181574
  0
ARC
  5
21B
100
AcDbEntity
  8
0
100
AcDbCircle
 62
7
  6
CONTINUOUS
 10
0.7921939494
 20
4.0545867553
 40
0.2135953653
100
AcDbArc
 50
223.4430698095
 51
224.5958506923
  0
ARC
  5
21C
100
AcDbEntity
  8
0
100
AcDbCircle
 62
7
  6
CONTINUOUS
 10
0.7648648758
 20
4.0276733572
 40
0.1752390282
100
AcDbArc
 50
224.6034930922
 51
225.7895888401
  0
ARC
  5
21D
100
AcDbEntity
  8
0
100
AcDbCircle
 62
7
  6
CONTINUOUS
 10
0.9481816067
 20
3.6717044045
 40
0.10275
100
AcDbArc
 50
81.6011698571
 51
98.3988303573
  0
ARC
  5
21E
100
AcDbEntity
  8
0
100
AcDbCircle
 62
7
  6
CONTINUOUS
 10
0.4044316067
 20
4.2154544045
 40
0.10275
100
AcDbArc
 50
351.4332462748
 51
8.5666259219
  0
ARC
  5
21F
100
AcDbEntity
  8
0
100
AcDbCircle
 62
7
  6
CONTINUOUS
 10
0.9481816067
 20
4.2154544045
 40
0.75
100
AcDbArc
 50
24.6260872507
 51
335.3738522825
  0
ARC
  5
220
100
AcDbEntity
  8
0
100
AcDbCircle
 62
7
  6
CONTINUOUS
 10
0.9481816067
 20
4.2154544045
 40
0.7400000006
100
AcDbArc
 50
24.9799123573
 51
335.0199464103
  0
ARC
  5
221
100
AcDbEntity
  8
0
100
AcDbCircle
 62
7
  6
CONTINUOUS
 10
0.9481816067
 20
4.2154544045
 40
0.7089999999
100
AcDbArc
 50
26.1535085696
 51
333.8464972603
  0
ARC
  5
222
100
AcDbEntity
  8
0
100
AcDbCircle
 62
7
  6
CONTINUOUS
 10
0.9481816067
 20
4.2154544045
 40
0.65
100
AcDbArc
 50
28.7386958252
 51
331.2621079868
  0
ARC
  5
223
100
AcDbEntity
  8
0
100
AcDbCircle
 62
7
  6
CONTINUOUS
 10
0.9481816067
 20
4.2154544045
 40
0.6400000004
100
AcDbArc
 50
29.2289491258
 51
330.7708846671
  0
ARC
  5
224
100
AcDbEntity
  8
0
100
AcDbCircle
 62
7
  6
CONTINUOUS
 10
0.9481816067
 20
4.2154544045
 40
0.6089999997
100
AcDbArc
 50
30.8737443198
 51
329.1262425396
  0
ARC
  5
225
100
AcDbEntity
  8
0
100
AcDbCircle
 62
7
  6
CONTINUOUS
 10
0.9481816067
 20
4.2154544045
 40
0.55
100
AcDbArc
 50
34.6267516553
 51
325.3732309236
  0
ARC
  5
226
100
AcDbEntity
  8
0
100
AcDbCircle
 62
7
  6
CONTINUOUS
 10
0.9481816067
 20
4.2154544045
 40
0.5400000002
100
AcDbArc
 50
35.3598636041
 51
324.6404675458
  0
ARC
  5
227
100
AcDbEntity
  8
0
100
AcDbCircle
 62
7
  6
CONTINUOUS
 10
0.9481816067
 20
4.2154544045
 40
0.4425
100
AcDbArc
 50
44.9358675687
 51
315.0641324313
  0
ARC
  5
228
100
AcDbEntity
  8
0
100
AcDbCircle
 62
7
  6
CONTINUOUS
 10
0.9481816067
 20
4.2154544045
 40
0.4375
100
AcDbArc
 50
45.5865880924
 51
314.4131874768
  0
ARC
  5
229
100
AcDbEntity
  8
0
100
AcDbCircle
 62
7
  6
CONTINUOUS
 10
0.9481816067
 20
4.2154544045
 40
0.4074999995
100
AcDbArc
 50
50.0804485035
 51
309.9194554667
  0
ARC
  5
22A
100
AcDbEntity
  8
0
100
AcDbCircle
 62
7
  6
CONTINUOUS
 10
0.9481816067
 20
4.2154544045
 40
0.315
100
AcDbArc
 50
82.9145677466
 51
277.0854322534
  0
ARC
  5
22B
100
AcDbEntity
  8
0
100
AcDbCircle
 62
7
  6
CONTINUOUS
 10
0.9481812982
 20
4.2154563324
 40
0.3125479862
100
AcDbArc
 50
99.9758521913
 51
175.2201028959
  0
ARC
  5
22C
100
AcDbEntity
  8
0
100
AcDbCircle
 62
7
  6
CONTINUOUS
 10
0.9481767158
 20
4.2154965996
 40
0.3125075339
100
AcDbArc
 50
90.6061473268
 51
99.9763036732
  0
ARC
  5
22D
100
AcDbEntity
  8
0
100
AcDbCircle
 62
7
  6
CONTINUOUS
 10
0.9481816067
 20
4.2154544045
 40
0.3125
100
AcDbArc
 50
90.0
 51
270.0
  0
ARC
  5
22E
100
AcDbEntity
  8
0
100
AcDbCircle
 62
7
  6
CONTINUOUS
 10
0.9476154673
 20
4.215484397
 40
0.3119831295
100
AcDbArc
 50
175.2168903069
 51
175.5454133351
  0
ARC
  5
22F
100
AcDbEntity
  8
0
100
AcDbCircle
 62
7
  6
CONTINUOUS
 10
0.9475480383
 20
4.2154886647
 40
0.311915565
100
AcDbArc
 50
175.2397605948
 51
175.560684284
  0
ARC
  5
230
100
AcDbEntity
  8
0
100
AcDbCircle
 62
7
  6
CONTINUOUS
 10
0.9472242108
 20
4.215514281
 40
0.3115907338
100
AcDbArc
 50
175.5453039699
 51
176.3761040663
  0
ARC
  5
231
100
AcDbEntity
  8
0
100
AcDbCircle
 62
7
  6
CONTINUOUS
 10
0.9471490033
 20
4.2155190464
 40
0.3115153756
100
AcDbArc
 50
175.560574672
 51
176.3761044828
  0
ARC
  5
232
100
AcDbEntity
  8
0
100
AcDbCircle
 62
7
  6
CONTINUOUS
 10
0.9481816067
 20
4.7592044045
 40
0.10275
100
AcDbArc
 50
261.6011698571
 51
278.3988303573
  0
ARC
  5
233
100
AcDbEntity
  8
0
100
AcDbCircle
 62
7
  6
CONTINUOUS
 10
9.9481804346
 20
4.2151583983
 40
0.3128457557
100
AcDbArc
 50
88.5354131599
 51
90.6061731008
  0
ARC
  5
234
100
AcDbEntity
  8
0
100
AcDbCircle
 62
7
  6
CONTINUOUS
 10
9.9481799392
 20
4.2152225336
 40
0.3127816187
100
AcDbArc
 50
90.6062066484
 51
90.9325260036
  0
ARC
  5
235
100
AcDbEntity
  8
0
100
AcDbCircle
 62
7
  6
CONTINUOUS
 10
9.9481412787
 20
4.2152505332
 40
0.3127562952
100
AcDbArc
 50
83.0746634646
 51
85.1057972824
  0
ARC
  5
236
100
AcDbEntity
  8
0
100
AcDbCircle
 62
7
  6
CONTINUOUS
 10
9.7636082651
 20
4.0263885297
 40
0.1734418557
100
AcDbArc
 50
225.3714151757
 51
225.7911791434
  0
ARC
  5
237
100
AcDbEntity
  8
0
100
AcDbCircle
 62
7
  6
CONTINUOUS
 10
9.9481816067
 20
3.6717044045
 40
0.10275
100
AcDbArc
 50
81.6011698571
 51
98.3988303573
  0
ARC
  5
238
100
AcDbEntity
  8
0
100
AcDbCircle
 62
7
  6
CONTINUOUS
 10
9.9481816067
 20
4.2154544045
 40
0.75
100
AcDbArc
 50
204.6260872507
 51
155.3738522825
  0
ARC
  5
239
100
AcDbEntity
  8
0
100
AcDbCircle
 62
7
  6
CONTINUOUS
 10
9.9481816067
 20
4.2154544045
 40
0.7400000006
100
AcDbArc
 50
204.9799123573
 51
155.0199464103
  0
ARC
  5
23A
100
AcDbEntity
  8
0
100
AcDbCircle
 62
7
  6
CONTINUOUS
 10
9.9481816067
 20
4.2154544045
 40
0.7089999999
100
AcDbArc
 50
206.1535085696
 51
153.8464972603
  0
ARC
  5
23B
100
AcDbEntity
  8
0
100
AcDbCircle
 62
7
  6
CONTINUOUS
 10
9.9481816067
 20
4.2154544045
 40
0.65
100
AcDbArc
 50
208.7378913
 51
151.2612887985
  0
ARC
  5
23C
100
AcDbEntity
  8
0
100
AcDbCircle
 62
7
  6
CONTINUOUS
 10
9.9481816067
 20
4.2154544045
 40
0.6400000004
100
AcDbArc
 50
209.2289491258
 51
150.7708846671
  0
ARC
  5
23D
100
AcDbEntity
  8
0
100
AcDbCircle
 62
7
  6
CONTINUOUS
 10
9.9481816067
 20
4.2154544045
 40
0.6089999997
100
AcDbArc
 50
210.8737443198
 51
149.1262425396
  0
ARC
  5
23E
100
AcDbEntity
  8
0
100
AcDbCircle
 62
7
  6
CONTINUOUS
 10
9.9481816067
 20
4.2154544045
 40
0.55
100
AcDbArc
 50
214.6267670281
 51
145.3732328801
  0
ARC
  5
23F
100
AcDbEntity
  8
0
100
AcDbCircle
 62
7
  6
CONTINUOUS
 10
9.9481816067
 20
4.2154544045
 40
0.5400000002
100
AcDbArc
 50
215.3598636041
 51
144.6404675458
  0
ARC
  5
240
100
AcDbEntity
  8
0
100
AcDbCircle
 62
7
  6
CONTINUOUS
 10
9.9481816067
 20
4.2154544045
 40
0.4425
100
AcDbArc
 50
224.9358675687
 51
135.0641324313
  0
ARC
  5
241
100
AcDbEntity
  8
0
100
AcDbCircle
 62
7
  6
CONTINUOUS
 10
9.9481816067
 20
4.2154544045
 40
0.4375
100
AcDbArc
 50
225.5865880924
 51
134.4131874768
  0
ARC
  5
242
100
AcDbEntity
  8
0
100
AcDbCircle
 62
7
  6
CONTINUOUS
 10
9.9481816067
 20
4.2154544045
 40
0.4074999995
100
AcDbArc
 50
230.0804485035
 51
129.9194554667
  0
ARC
  5
243
100
AcDbEntity
  8
0
100
AcDbCircle
 62
7
  6
CONTINUOUS
 10
9.9481816067
 20
4.2154544045
 40
0.315
100
AcDbArc
 50
262.9145677466
 51
97.0854322534
  0
ARC
  5
244
100
AcDbEntity
  8
0
100
AcDbCircle
 62
7
  6
CONTINUOUS
 10
9.9481816067
 20
4.2154544045
 40
0.3125
100
AcDbArc
 50
270.0
 51
90.0
  0
ARC
  5
245
100
AcDbEntity
  8
0
100
AcDbCircle
 62
7
  6
CONTINUOUS
 10
9.9481903781
 20
4.215537923
 40
0.3124661008
100
AcDbArc
 50
86.4849522997
 51
88.5354571603
  0
ARC
  5
246
100
AcDbEntity
  8
0
100
AcDbCircle
 62
7
  6
CONTINUOUS
 10
9.9482302503
 20
4.2162734567
 40
0.3117295063
100
AcDbArc
 50
85.2349827866
 51
86.483978373
  0
ARC
  5
247
100
AcDbEntity
  8
0
100
AcDbCircle
 62
7
  6
CONTINUOUS
 10
9.9481816067
 20
4.7592044045
 40
0.10275
100
AcDbArc
 50
261.6011698571
 51
278.3988303573
  0
ARC
  5
248
100
AcDbEntity
  8
0
100
AcDbCircle
 62
7
  6
CONTINUOUS
 10
10.4919316067
 20
4.2154544045
 40
0.10275
100
AcDbArc
 50
171.4332462748
 51
188.5666259219
  0
LINE
  5
249
100
AcDbEntity
  8
0
100
AcDbLine
 62
7
  6
CONTINUOUS
 10
9.9748244295
 20
4.5268664982
 11
9.9741254347
 21
4.5269255523
  0
SPLINE
  5
24A
100
AcDbEntity
  8
0
100
AcDbSpline
 62
7
  6
CONTINUOUS
 70
0
 71
3
 72
13
 73
9
 74
0
 42
0.0000001
 43
0.0000001
 44
0.0000000001
 40
0.0
 40
0.0
 40
0.0
 40
0.0
 40
0.2612938002
 40
0.513163029
 40
0.6353416541
 40
0.7557137367
 40
0.8758907709
 40
1.0
 40
1.0
 40
1.0
 40
1.0
 10
9.9276868097
 20
3.7734513029
 30
0.0
 10
9.9292616127
 20
3.7740300572
 30
0.0
 10
9.9323560588
 20
3.775161598
 30
0.0
 10
9.9362433811
 20
3.7764107563
 30
0.0
 10
9.9393271947
 20
3.7771712466
 30
0.0
 10
9.9416191384
 20
3.7775945501
 30
0.0
 10
9.9439476258
 20
3.7778599843
 30
0.0
 10
9.9455160899
 20
3.7779239535
 30
0.0
 10
9.9463128801
 20
3.7779379696
 30
0.0
  0
SPLINE
  5
24B
100
AcDbEntity
  8
0
100
AcDbSpline
 62
7
  6
CONTINUOUS
 70
0
 71
3
 72
13
 73
9
 74
0
 42
0.0000001
 43
0.0000001
 44
0.0000000001
 40
0.0
 40
0.0
 40
0.0
 40
0.0
 40
0.1241058391
 40
0.2442805955
 40
0.3646551956
 40
0.4868345124
 40
0.738705209
 40
1.0
 40
1.0
 40
1.0
 40
1.0
 10
9.9463128801
 20
4.6529708393
 30
0.0
 10
9.9455161814
 20
4.6529848538
 30
0.0
 10
9.9439478911
 20
4.6530488164
 30
0.0
 10
9.9416196261
 20
4.6533142042
 30
0.0
 10
9.9393278676
 20
4.6537374193
 30
0.0
 10
9.9362442817
 20
4.6544977977
 30
0.0
 10
9.9323572589
 20
4.6557467903
 30
0.0
 10
9.9292630761
 20
4.6568782568
 30
0.0
 10
9.9276883851
 20
4.6574569084
 30
0.0
  0
SPLINE
  5
24C
100
AcDbEntity
  8
0
100
AcDbSpline
 62
7
  6
CONTINUOUS
 70
0
 71
3
 72
13
 73
9
 74
0
 42
0.0000001
 43
0.0000001
 44
0.0000000001
 40
0.0
 40
0.0
 40
0.0
 40
0.0
 40
0.2612938002
 40
0.513163029
 40
0.6353416541
 40
0.7557137367
 40
0.8758907709
 40
1.0
 40
1.0
 40
1.0
 40
1.0
 10
9.9686764037
 20
4.657457506
 30
0.0
 10
9.9671016007
 20
4.6568787517
 30
0.0
 10
9.9640071546
 20
4.6557472109
 30
0.0
 10
9.9601198322
 20
4.6544980526
 30
0.0
 10
9.9570360187
 20
4.6537375624
 30
0.0
 10
9.954744075
 20
4.6533142589
 30
0.0
 10
9.9524155876
 20
4.6530488246
 30
0.0
 10
9.9508471235
 20
4.6529848555
 30
0.0
 10
9.9500503333
 20
4.6529708393
 30
0.0
  0
SPLINE
  5
24D
100
AcDbEntity
  8
0
100
AcDbSpline
 62
7
  6
CONTINUOUS
 70
0
 71
3
 72
13
 73
9
 74
0
 42
0.0000001
 43
0.0000001
 44
0.0000000001
 40
0.0
 40
0.0
 40
0.0
 40
0.0
 40
0.1241405988
 40
0.2443447348
 40
0.364732981
 40
0.4869104703
 40
0.7387459813
 40
1.0
 40
1.0
 40
1.0
 40
1.0
 10
10.3856980416
 20
4.2173231311
 30
0.0
 10
10.3857120106
 20
4.218117242
 30
0.0
 10
10.3857756254
 20
4.2196804071
 30
0.0
 10
10.3860392816
 20
4.2220010378
 30
0.0
 10
10.3864597964
 20
4.2242851974
 30
0.0
 10
10.3872155244
 20
4.2273582355
 30
0.0
 10
10.3884577153
 20
4.2312318144
 30
0.0
 10
10.389584265
 20
4.2343149154
 30
0.0
 10
10.3901606764
 20
4.2358838475
 30
0.0
  0
SPLINE
  5
24E
100
AcDbEntity
  8
0
100
AcDbSpline
 62
7
  6
CONTINUOUS
 70
0
 71
3
 72
13
 73
9
 74
0
 42
0.0000001
 43
0.0000001
 44
0.0000000001
 40
0.0
 40
0.0
 40
0.0
 40
0.0
 40
0.2612526081
 40
0.5130862124
 40
0.635263021
 40
0.7556488183
 40
0.8758556443
 40
1.0
 40
1.0
 40
1.0
 40
1.0
 10
10.3901610212
 20
4.1950240667
 30
0.0
 10
10.3895845217
 20
4.1965930459
 30
0.0
 10
10.3884579669
 20
4.1996762975
 30
0.0
 10
10.3872156772
 20
4.2035500302
 30
0.0
 10
10.3864598882
 20
4.206623183
 30
0.0
 10
10.386039313
 20
4.2089074468
 30
0.0
 10
10.3857756303
 20
4.2112282186
 30
0.0
 10
10.3857120117
 20
4.2127915032
 30
0.0
 10
10.3856980416
 20
4.2135856779
 30
0.0
  0
SPLINE
  5
24F
100
AcDbEntity
  8
0
100
AcDbSpline
 62
7
  6
CONTINUOUS
 70
0
 71
3
 72
13
 73
9
 74
0
 42
0.0000001
 43
0.0000001
 44
0.0000000001
 40
0.0
 40
0.0
 40
0.0
 40
0.0
 40
0.1241058391
 40
0.2442805955
 40
0.3646551956
 40
0.4868345124
 40
0.7387052091
 40
1.0
 40
1.0
 40
1.0
 40
1.0
 10
9.9500503333
 20
3.7779379696
 30
0.0
 10
9.950847032
 20
3.7779239551
 30
0.0
 10
9.9524153223
 20
3.7778599925
 30
0.0
 10
9.9547435873
 20
3.7775946048
 30
0.0
 10
9.9570353458
 20
3.7771713896
 30
0.0
 10
9.9601189317
 20
3.7764110112
 30
0.0
 10
9.9640059545
 20
3.7751620186
 30
0.0
 10
9.9671001373
 20
3.7740305521
 30
0.0
 10
9.9686748283
 20
3.7734519006
 30
0.0
  0
SPLINE
  5
250
100
AcDbEntity
  8
0
100
AcDbSpline
 62
7
  6
CONTINUOUS
 70
0
 71
3
 72
13
 73
9
 74
0
 42
0.0000001
 43
0.0000001
 44
0.0000000001
 40
0.0
 40
0.0
 40
0.0
 40
0.0
 40
0.2612938002
 40
0.513163029
 40
0.6353416541
 40
0.7557137367
 40
0.8758907709
 40
1.0
 40
1.0
 40
1.0
 40
1.0
 10
0.9276868097
 20
3.7734513029
 30
0.0
 10
0.9292616127
 20
3.7740300572
 30
0.0
 10
0.9323560588
 20
3.775161598
 30
0.0
 10
0.9362433811
 20
3.7764107563
 30
0.0
 10
0.9393271947
 20
3.7771712466
 30
0.0
 10
0.9416191384
 20
3.7775945501
 30
0.0
 10
0.9439476258
 20
3.7778599843
 30
0.0
 10
0.9455160899
 20
3.7779239535
 30
0.0
 10
0.9463128801
 20
3.7779379696
 30
0.0
  0
SPLINE
  5
251
100
AcDbEntity
  8
0
100
AcDbSpline
 62
7
  6
CONTINUOUS
 70
0
 71
3
 72
13
 73
9
 74
0
 42
0.0000001
 43
0.0000001
 44
0.0000000001
 40
0.0
 40
0.0
 40
0.0
 40
0.0
 40
0.1241405988
 40
0.2443447348
 40
0.364732981
 40
0.4869104703
 40
0.7387459813
 40
1.0
 40
1.0
 40
1.0
 40
1.0
 10
0.5106651718
 20
4.2135856779
 30
0.0
 10
0.5106512028
 20
4.2127915669
 30
0.0
 10
0.510587588
 20
4.2112284019
 30
0.0
 10
0.5103239318
 20
4.2089077712
 30
0.0
 10
0.509903417
 20
4.2066236116
 30
0.0
 10
0.509147689
 20
4.2035505734
 30
0.0
 10
0.5079054981
 20
4.1996769945
 30
0.0
 10
0.5067789484
 20
4.1965938935
 30
0.0
 10
0.506202537
 20
4.1950249615
 30
0.0
  0
LINE
  5
252
100
AcDbEntity
  8
0
100
AcDbLine
 62
7
  6
CONTINUOUS
 10
0.6371113309
 20
3.9077114288
 11
0.6340920192
 21
3.9108980538
  0
SPLINE
  5
253
100
AcDbEntity
  8
0
100
AcDbSpline
 62
7
  6
CONTINUOUS
 70
0
 71
3
 72
13
 73
9
 74
0
 42
0.0000001
 43
0.0000001
 44
0.0000000001
 40
0.0
 40
0.0
 40
0.0
 40
0.0
 40
0.2612526081
 40
0.5130862124
 40
0.635263021
 40
0.7556488183
 40
0.8758556443
 40
1.0
 40
1.0
 40
1.0
 40
1.0
 10
0.5062021922
 20
4.2358847422
 30
0.0
 10
0.5067786917
 20
4.2343157631
 30
0.0
 10
0.5079052465
 20
4.2312325114
 30
0.0
 10
0.5091475362
 20
4.2273587787
 30
0.0
 10
0.5099033252
 20
4.2242856259
 30
0.0
 10
0.5103239004
 20
4.2220013621
 30
0.0
 10
0.5105875831
 20
4.2196805903
 30
0.0
 10
0.5106512017
 20
4.2181173057
 30
0.0
 10
0.5106651718
 20
4.2173231311
 30
0.0
  0
SPLINE
  5
254
100
AcDbEntity
  8
0
100
AcDbSpline
 62
7
  6
CONTINUOUS
 70
0
 71
3
 72
13
 73
9
 74
0
 42
0.0000001
 43
0.0000001
 44
0.0000000001
 40
0.0
 40
0.0
 40
0.0
 40
0.0
 40
0.1241058391
 40
0.2442805955
 40
0.3646551956
 40
0.4868345124
 40
0.738705209
 40
1.0
 40
1.0
 40
1.0
 40
1.0
 10
0.9463128801
 20
4.6529708393
 30
0.0
 10
0.9455161814
 20
4.6529848538
 30
0.0
 10
0.9439478911
 20
4.6530488164
 30
0.0
 10
0.9416196261
 20
4.6533142042
 30
0.0
 10
0.9393278676
 20
4.6537374193
 30
0.0
 10
0.9362442817
 20
4.6544977977
 30
0.0
 10
0.9323572589
 20
4.6557467903
 30
0.0
 10
0.9292630761
 20
4.6568782568
 30
0.0
 10
0.9276883851
 20
4.6574569084
 30
0.0
  0
SPLINE
  5
255
100
AcDbEntity
  8
0
100
AcDbSpline
 62
7
  6
CONTINUOUS
 70
0
 71
3
 72
13
 73
9
 74
0
 42
0.0000001
 43
0.0000001
 44
0.0000000001
 40
0.0
 40
0.0
 40
0.0
 40
0.0
 40
0.2612938002
 40
0.513163029
 40
0.6353416541
 40
0.7557137367
 40
0.8758907709
 40
1.0
 40
1.0
 40
1.0
 40
1.0
 10
0.9686764037
 20
4.657457506
 30
0.0
 10
0.9671016007
 20
4.6568787517
 30
0.0
 10
0.9640071546
 20
4.6557472109
 30
0.0
 10
0.9601198322
 20
4.6544980526
 30
0.0
 10
0.9570360187
 20
4.6537375624
 30
0.0
 10
0.954744075
 20
4.6533142589
 30
0.0
 10
0.9524155876
 20
4.6530488246
 30
0.0
 10
0.9508471235
 20
4.6529848555
 30
0.0
 10
0.9500503333
 20
4.6529708393
 30
0.0
  0
SPLINE
  5
256
100
AcDbEntity
  8
0
100
AcDbSpline
 62
7
  6
CONTINUOUS
 70
0
 71
3
 72
13
 73
9
 74
0
 42
0.0000001
 43
0.0000001
 44
0.0000000001
 40
0.0
 40
0.0
 40
0.0
 40
0.0
 40
0.1241058391
 40
0.2442805955
 40
0.3646551956
 40
0.4868345124
 40
0.7387052091
 40
1.0
 40
1.0
 40
1.0
 40
1.0
 10
0.9500503333
 20
3.7779379696
 30
0.0
 10
0.950847032
 20
3.7779239551
 30
0.0
 10
0.9524153223
 20
3.7778599925
 30
0.0
 10
0.9547435873
 20
3.7775946048
 30
0.0
 10
0.9570353458
 20
3.7771713896
 30
0.0
 10
0.9601189317
 20
3.7764110112
 30
0.0
 10
0.9640059545
 20
3.7751620186
 30
0.0
 10
0.9671001373
 20
3.7740305521
 30
0.0
 10
0.9686748283
 20
3.7734519006
 30
0.0
  0
ENDSEC
  0
SECTION
  2
OBJECTS
  0
DICTIONARY
  5
C
100
AcDbDictionary
280
0
281
1
  3
ACAD_GROUP
350
D
  3
ACAD_MLINESTYLE
350
17
  3
ACAD_LAYOUT
350
1A
  3
ACAD_PLOTSETTINGS
350
19
  3
ACAD_PLOTSTYLENAME
350
E
  0
DICTIONARY
  5
D
102
{ACAD_REACTORS
330
C
102
}
100
AcDbDictionary
280
0
281
1
  0
ACDBDICTIONARYWDFLT
  5
E
102
{ACAD_REACTORS
330
C
102
}
100
AcDbDictionary
281
1
  3
Normal
350
F
100
AcDbDictionaryWithDefault
340
F
  0
DICTIONARY
  5
17
102
{ACAD_REACTORS
330
C
102
}
100
AcDbDictionary
280
0
281
1
  3
Standard
350
18
  0
DICTIONARY
  5
19
102
{ACAD_REACTORS
330
C
102
}
100
AcDbDictionary
281
1
  0
DICTIONARY
  5
1A
102
{ACAD_REACTORS
330
C
102
}
100
AcDbDictionary
281
1
  3
Model
350
257
  3
Layout1
350
258
  0
ACDBPLACEHOLDER
  5
F
102
{ACAD_REACTORS
330
E
102
}
  0
MLINESTYLE
  5
18
102
{ACAD_REACTORS
330
17
102
}
100
AcDbMlineStyle
  2
STANDARD
 70
0
  3

 62
256
 51
90.0
 52
90.0
 71
2
 49
0.5
 62
256
  6
BYLAYER
 49
-0.5
 62
256
  6
BYLAYER
  0
LAYOUT
  5
257
102
{ACAD_REACTORS
330
1A
102
}
100
AcDbPlotSettings
  1

  2
none_device
  4
ANSI_A_(11.00_x_8.50_Inches)
  6

 40
0.0
 41
0.0
 42
0.0
 43
0.0
 44
279.4
 45
215.9
 46
0.0
 47
0.0
 48
0.0
 49
0.0
140
0.0
141
0.0
142
1.0
143
1.0
 70
1024
 72
0
 73
0
 74
0
  7

 75
0
147
1.0
148
0.0
149
0.0
100
AcDbLayout
  1
Model
 70
0
 71
0
 10
0.0
 20
0.0
 11
11.0
 21
8.5
 12
0.0
 22
0.0
 32
0.0
 14
0.0
 24
0.0
 34
0.0
 15
0.0
 25
0.0
 35
0.0
146
0.0
 13
0.0
 23
0.0
 33
0.0
 16
1.0
 26
0.0
 36
0.0
 17
0.0
 27
1.0
 37
0.0
 76
0
330
20E
345
0
346
0
  0
LAYOUT
  5
258
102
{ACAD_REACTORS
330
1A
102
}
100
AcDbPlotSettings
  1

  2
none_device
  4
ANSI_A_(11.00_x_8.50_Inches)
  6

 40
0.0
 41
0.0
 42
0.0
 43
0.0
 44
279.4
 45
215.9
 46
0.0
 47
0.0
 48
0.0
 49
0.0
140
0.0
141
0.0
142
1.0
143
1.0
 70
0
 72
0
 73
0
 74
0
  7

 75
0
147
1.0
148
0.0
149
0.0
100
AcDbLayout
  1
Layout1
 70
0
 71
1
 10
0.0
 20
0.0
 11
11.0
 21
8.5
 12
0.0
 22
0.0
 32
0.0
 14
0.0
 24
0.0
 34
0.0
 15
0.0
 25
0.0
 35
0.0
146
0.0
 13
0.0
 23
0.0
 33
0.0
 16
1.0
 26
0.0
 36
0.0
 17
0.0
 27
1.0
 37
0.0
 76
0
330
20F
345
0
346
0
  0
ENDSEC
  0
EOF
