999
DXF file: 920-3932_front.dxf
999
Pro/ENGINEER 2013150 by Parametric Technology Corporation
  0
SECTION
  2
HEADER
  9
$ACADVER
  1
AC1021
  9
$DWGCODEPAGE
  3
ANSI_1252
  9
$EXTMAX
 10
11.0
 20
8.5
 30
0.0
  9
$EXTMIN
 10
0.0
 20
0.0
 30
0.0
  9
$LIMMIN
 10
0.0
 20
0.0
  9
$LIMMAX
 10
11.0
 20
8.5
  9
$VIEWCTR
 10
5.5
 20
4.25
  9
$VIEWSIZE
 40
8.5
  9
$CLAYER
  8
0
  9
$LTSCALE
 40
0.605
  9
$CELTYPE
  6
BYLAYER
  9
$DIMSCALE
 40
1.0
  9
$DIMASZ
 40
0.1
  9
$DIMEXO
 40
0.0625
  9
$DIMDLI
 40
0.418
  9
$DIMEXE
 40
0.125
  9
$DIMCEN
 40
0.099
  9
$DIMLFAC
 40
1.0
  9
$DIMBLK
  1
_FILLED
  9
$DIMTXT
 40
0.08
  9
$DIMTOL
 70
1
  9
$DIMLIM
 70
0
  9
$DIMTFAC
 40
1.0
  9
$DIMTP
 40
0.001
  9
$DIMTM
 40
0.001
  9
$DIMGAP
 40
0.09
  9
$DIMDSEP
 70
46
  9
$PDMODE
 70
3
  9
$PDSIZE
 40
0.3125
  9
$HANDSEED
  5
25D
  9
$TILEMODE
 70
1
  9
$MEASUREMENT
 70
0
  9
$INSUNITS
 70
1
  0
ENDSEC
  0
SECTION
  2
CLASSES
  0
CLASS
  1
ACDBDICTIONARYWDFLT
  2
AcDbDictionaryWithDefault
  3
AutoCAD 2000
 90
0
 91
1
280
0
281
0
  0
CLASS
  1
ACDBPLACEHOLDER
  2
AcDbPlaceHolder
  3
AutoCAD 2000
 90
0
 91
1
280
0
281
0
  0
CLASS
  1
LAYOUT
  2
AcDbLayout
  3
AutoCAD 2000
 90
0
 91
0
280
0
281
0
  0
ENDSEC
  0
SECTION
  2
TABLES
  0
TABLE
  2
VPORT
  5
8
100
AcDbSymbolTable
 70
2
  0
VPORT
  5
1F4
100
AcDbSymbolTableRecord
100
AcDbViewportTableRecord
  2
*ACTIVE
 70
0
 10
0.0
 20
0.0
 11
1.0
 21
1.0
 12
5.5
 22
4.25
 13
0.0
 23
0.0
 14
1.0
 24
1.0
 15
0.0
 25
0.0
 16
0.0
 26
0.0
 36
1.0
 17
0.0
 27
0.0
 37
0.0
 40
8.5
 41
1.2941176471
 42
50.0
 43
0.0
 44
0.0
 50
0.0
 51
0.0
 71
0
 72
100
 73
1
 74
1
 75
0
 76
0
 77
0
 78
0
  0
ENDTAB
  0
TABLE
  2
LTYPE
  5
5
100
AcDbSymbolTable
 70
6
  0
LTYPE
  5
14
100
AcDbSymbolTableRecord
100
AcDbLinetypeTableRecord
  2
BYBLOCK
 70
0
  3

 72
65
 73
0
 40
0.0
  0
LTYPE
  5
15
100
AcDbSymbolTableRecord
100
AcDbLinetypeTableRecord
  2
BYLAYER
 70
0
  3

 72
65
 73
0
 40
0.0
  0
LTYPE
  5
16
100
AcDbSymbolTableRecord
100
AcDbLinetypeTableRecord
  2
CONTINUOUS
 70
64
  3
Solid line
 72
65
 73
0
 40
0.0
  0
LTYPE
  5
1F5
100
AcDbSymbolTableRecord
100
AcDbLinetypeTableRecord
  2
CENTER
 70
64
  3
____ _ ____ _ ____ _ ____ _ ____ _ ____ _ ____
 72
65
 73
4
 40
0.6
 49
0.375
 74
0
 49
-0.075
 74
0
 49
0.075
 74
0
 49
-0.075
 74
0
  0
LTYPE
  5
1F6
100
AcDbSymbolTableRecord
100
AcDbLinetypeTableRecord
  2
HIDDEN
 70
64
  3
- - - - - - - - - - - - - - - - - - - -
 72
65
 73
2
 40
0.2
 49
0.1
 74
0
 49
-0.1
 74
0
  0
LTYPE
  5
1F7
100
AcDbSymbolTableRecord
100
AcDbLinetypeTableRecord
  2
PHANTOM
 70
64
  3
_____ _ _ _____ _ _ _____ _ _ _____
 72
65
 73
6
 40
0.8
 49
0.45
 74
0
 49
-0.05
 74
0
 49
0.1
 74
0
 49
-0.05
 74
0
 49
0.1
 74
0
 49
-0.05
 74
0
  0
LTYPE
  5
1F8
100
AcDbSymbolTableRecord
100
AcDbLinetypeTableRecord
  2
DOT
 70
64
  3
. . . . . . . . . . . . . . . . . . . .
 72
65
 73
2
 40
0.2
 49
0.1
 74
0
 49
-0.1
 74
0
  0
LTYPE
  5
1F9
100
AcDbSymbolTableRecord
100
AcDbLinetypeTableRecord
  2
DASHED
 70
64
  3
- - - - - - - - - - - - - - - - - - - -
 72
65
 73
2
 40
0.2
 49
0.1
 74
0
 49
-0.1
 74
0
  0
ENDTAB
  0
TABLE
  2
LAYER
  5
2
100
AcDbSymbolTable
 70
36
  0
LAYER
  5
10
100
AcDbSymbolTableRecord
100
AcDbLayerTableRecord
  2
0
 70
0
 62
7
  6
CONTINUOUS
370
-3
390
F
  0
LAYER
  5
1FA
100
AcDbSymbolTableRecord
100
AcDbLayerTableRecord
  2
DEFAULT_1
 70
0
 62
7
  6
CENTER
370
-3
390
F
  0
LAYER
  5
1FB
100
AcDbSymbolTableRecord
100
AcDbLayerTableRecord
  2
DEFAULT_2
 70
0
 62
8
  6
HIDDEN
370
-3
390
F
  0
LAYER
  5
1FC
100
AcDbSymbolTableRecord
100
AcDbLayerTableRecord
  2
DEFAULT_3
 70
0
 62
7
  6
PHANTOM
370
-3
390
F
  0
LAYER
  5
1FD
100
AcDbSymbolTableRecord
100
AcDbLayerTableRecord
  2
_  SHELL
 70
0
 62
7
  6
CONTINUOUS
370
-3
390
F
  0
LAYER
  5
1FE
100
AcDbSymbolTableRecord
100
AcDbLayerTableRecord
  2
06___PRT_ALL_SURFS
 70
0
 62
7
  6
CONTINUOUS
370
-3
390
F
  0
LAYER
  5
1FF
100
AcDbSymbolTableRecord
100
AcDbLayerTableRecord
  2
ALL_FEATURES
 70
0
 62
7
  6
CONTINUOUS
370
-3
390
F
  0
LAYER
  5
200
100
AcDbSymbolTableRecord
100
AcDbLayerTableRecord
  2
AXES_FEATURES
 70
0
 62
7
  6
CONTINUOUS
370
-3
390
F
  0
LAYER
  5
201
100
AcDbSymbolTableRecord
100
AcDbLayerTableRecord
  2
DEFAULT_COORDINATE_SYSTEM
 70
0
 62
7
  6
CONTINUOUS
370
-3
390
F
  0
LAYER
  5
202
100
AcDbSymbolTableRecord
100
AcDbLayerTableRecord
  2
DEFAULT_DATUM_AXES
 70
0
 62
7
  6
CONTINUOUS
370
-3
390
F
  0
LAYER
  5
203
100
AcDbSymbolTableRecord
100
AcDbLayerTableRecord
  2
DEFAULT_DATUM_CURVES
 70
0
 62
7
  6
CONTINUOUS
370
-3
390
F
  0
LAYER
  5
204
100
AcDbSymbolTableRecord
100
AcDbLayerTableRecord
  2
DEFAULT_DATUM_PLANES
 70
0
 62
7
  6
CONTINUOUS
370
-3
390
F
  0
LAYER
  5
205
100
AcDbSymbolTableRecord
100
AcDbLayerTableRecord
  2
DEFAULT_SURFACES
 70
0
 62
7
  6
CONTINUOUS
370
-3
390
F
  0
LAYER
  5
206
100
AcDbSymbolTableRecord
100
AcDbLayerTableRecord
  2
DIMENSIONS
 70
0
 62
7
  6
CONTINUOUS
370
-3
390
F
  0
LAYER
  5
207
100
AcDbSymbolTableRecord
100
AcDbLayerTableRecord
  2
INTF_BLANK
 70
0
 62
7
  6
CONTINUOUS
370
-3
390
F
  0
LAYER
  5
208
100
AcDbSymbolTableRecord
100
AcDbLayerTableRecord
  2
PLATED_SURFACE_AREA
 70
0
 62
7
  6
CONTINUOUS
370
-3
390
F
  0
LAYER
  5
209
100
AcDbSymbolTableRecord
100
AcDbLayerTableRecord
  2
SHELL
 70
0
 62
7
  6
CONTINUOUS
370
-3
390
F
  0
LAYER
  5
20A
100
AcDbSymbolTableRecord
100
AcDbLayerTableRecord
  2
XSEC_DATUMS
 70
0
 62
7
  6
CONTINUOUS
370
-3
390
F
  0
LAYER
  5
20B
100
AcDbSymbolTableRecord
100
AcDbLayerTableRecord
  2
___SHELL
 70
0
 62
7
  6
CONTINUOUS
370
-3
390
F
  0
ENDTAB
  0
TABLE
  2
STYLE
  5
3
100
AcDbSymbolTable
 70
1
  0
STYLE
  5
11
100
AcDbSymbolTableRecord
100
AcDbTextStyleTableRecord
  2
STANDARD
 70
0
 40
0.0
 41
0.8
 50
0.0
 71
0
 42
0.2
  3
txt
  4

  0
STYLE
  5
20C
100
AcDbSymbolTableRecord
100
AcDbTextStyleTableRecord
  2
TEXTSTYLE_1
 70
0
 40
0.0
 41
0.8
 50
0.0
 71
0
 42
0.2
  3
gdt
  4

  0
ENDTAB
  0
TABLE
  2
VIEW
  5
6
100
AcDbSymbolTable
 70
0
  0
ENDTAB
  0
TABLE
  2
UCS
  5
7
100
AcDbSymbolTable
 70
0
  0
ENDTAB
  0
TABLE
  2
APPID
  5
9
100
AcDbSymbolTable
 70
1
  0
APPID
  5
20D
100
AcDbSymbolTableRecord
100
AcDbRegAppTableRecord
  2
ACAD
 70
0
  0
ENDTAB
  0
TABLE
  2
BLOCK_RECORD
  5
1
100
AcDbSymbolTable
 70
0
  0
BLOCK_RECORD
  5
20E
100
AcDbSymbolTableRecord
100
AcDbBlockTableRecord
  2
*Model_Space
  0
BLOCK_RECORD
  5
20F
100
AcDbSymbolTableRecord
100
AcDbBlockTableRecord
  2
*Paper_Space
  0
ENDTAB
  0
TABLE
  2
DIMSTYLE
  5
A
100
AcDbSymbolTable
 70
1
100
AcDbDimStyleTable
 71
0
  0
DIMSTYLE
105
210
100
AcDbSymbolTableRecord
100
AcDbDimStyleTableRecord
  2
STANDARD
 70
0
  3

  4

 40
1.0
 41
0.1
 42
0.0625
 43
0.38
 44
0.125
 45
0.0
 46
0.0
 47
0.001
 48
0.001
140
0.08
141
0.09
142
0.0
143
25.4
144
1.0
145
0.0
146
1.0
147
0.09
 71
1.0
 72
0.0
 73
1
 74
1
 75
0
 76
0
 77
0
 78
4
170
0
171
2
172
0
173
0
174
0
175
0
176
0
177
0
178
0
270
2
271
3
272
3
273
2
274
2
275
0
280
0
281
0
282
0
283
1
284
4
285
0
286
0
287
3
288
0
340
11
278
46
  0
ENDTAB
  0
ENDSEC
  0
SECTION
  2
BLOCKS
  0
BLOCK
  5
20
100
AcDbEntity
  8
0
100
AcDbBlockBegin
  2
*Model_Space
 70
0
 10
0.0
 20
0.0
 30
0.0
  3
*Model_Space
  1

  0
ENDBLK
  5
21
100
AcDbEntity
  8
0
100
AcDbBlockEnd
  0
BLOCK
  5
1C
100
AcDbEntity
  8
0
100
AcDbBlockBegin
  2
*Paper_Space
 70
0
 10
0.0
 20
0.0
 30
0.0
  3
*Paper_Space
  1

  0
ENDBLK
  5
1D
100
AcDbEntity
  8
0
100
AcDbBlockEnd
  0
ENDSEC
  0
SECTION
  2
ENTITIES
  0
LINE
  5
211
100
AcDbEntity
  8
0
100
AcDbLine
 62
7
  6
CONTINUOUS
 10
0.0
 20
0.0
 11
0.0
 21
8.5
  0
LINE
  5
212
100
AcDbEntity
  8
0
100
AcDbLine
 62
7
  6
CONTINUOUS
 10
0.0
 20
0.0
 11
11.0
 21
0.0
  0
LINE
  5
213
100
AcDbEntity
  8
0
100
AcDbLine
 62
7
  6
CONTINUOUS
 10
0.0
 20
8.5
 11
11.0
 21
8.5
  0
LINE
  5
214
100
AcDbEntity
  8
0
100
AcDbLine
 62
7
  6
CONTINUOUS
 10
11.0
 20
0.0
 11
11.0
 21
8.5
  0
LINE
  5
215
100
AcDbEntity
  8
0
100
AcDbLine
 62
7
  6
CONTINUOUS
 10
1.5435212469
 20
4.383219603
 11
1.5435212469
 21
4.070719603
  0
LINE
  5
216
100
AcDbEntity
  8
0
100
AcDbLine
 62
7
  6
CONTINUOUS
 10
1.1372712469
 20
4.070719603
 11
9.1372712469
 21
4.070719603
  0
LINE
  5
217
100
AcDbEntity
  8
0
100
AcDbLine
 62
7
  6
CONTINUOUS
 10
1.1372712469
 20
4.383219603
 11
9.1372712469
 21
4.383219603
  0
LINE
  5
218
100
AcDbEntity
  8
0
100
AcDbLine
 62
7
  6
CONTINUOUS
 10
8.7310212469
 20
4.383219603
 11
8.7310212469
 21
4.070719603
  0
ARC
  5
219
100
AcDbEntity
  8
0
100
AcDbCircle
 62
7
  6
CONTINUOUS
 10
1.1372709292
 20
4.226873058
 40
0.1563714225
100
AcDbArc
 50
89.180919324
 51
92.7038761632
  0
ARC
  5
21A
100
AcDbEntity
  8
0
100
AcDbCircle
 62
7
  6
CONTINUOUS
 10
1.1372941772
 20
4.2269077872
 40
0.1563408138
100
AcDbArc
 50
107.9384873392
 51
109.0766626995
  0
ARC
  5
21B
100
AcDbEntity
  8
0
100
AcDbCircle
 62
7
  6
CONTINUOUS
 10
1.1372922155
 20
4.2269571723
 40
0.1562968422
100
AcDbArc
 50
174.0842969753
 51
174.4109829242
  0
ARC
  5
21C
100
AcDbEntity
  8
0
100
AcDbCircle
 62
7
  6
CONTINUOUS
 10
1.1372718358
 20
4.2269676198
 40
0.1562770088
100
AcDbArc
 50
92.7058436567
 51
107.9374507995
  0
ARC
  5
21D
100
AcDbEntity
  8
0
100
AcDbCircle
 62
7
  6
CONTINUOUS
 10
1.1372251523
 20
4.2269628891
 40
0.1562295223
100
AcDbArc
 50
174.1400376811
 51
174.7954995876
  0
ARC
  5
21E
100
AcDbEntity
  8
0
100
AcDbCircle
 62
7
  6
CONTINUOUS
 10
1.0592774182
 20
4.1465357784
 40
0.1067976826
100
AcDbArc
 50
223.4430698095
 51
224.5958506924
  0
ARC
  5
21F
100
AcDbEntity
  8
0
100
AcDbCircle
 62
7
  6
CONTINUOUS
 10
1.0462463809
 20
4.13371694
 40
0.0885184591
100
AcDbArc
 50
224.6095159731
 51
225.7835659591
  0
ARC
  5
220
100
AcDbEntity
  8
0
100
AcDbCircle
 62
7
  6
CONTINUOUS
 10
1.1372712469
 20
3.955094603
 40
0.051375
100
AcDbArc
 50
81.6011698571
 51
98.3988303573
  0
ARC
  5
221
100
AcDbEntity
  8
0
100
AcDbCircle
 62
7
  6
CONTINUOUS
 10
0.8653962469
 20
4.226969603
 40
0.051375
100
AcDbArc
 50
351.4332462748
 51
8.5666259219
  0
ARC
  5
222
100
AcDbEntity
  8
0
100
AcDbCircle
 62
7
  6
CONTINUOUS
 10
1.1372712469
 20
4.226969603
 40
0.375
100
AcDbArc
 50
24.6260872507
 51
335.3738522825
  0
ARC
  5
223
100
AcDbEntity
  8
0
100
AcDbCircle
 62
7
  6
CONTINUOUS
 10
1.1372712469
 20
4.226969603
 40
0.3700000003
100
AcDbArc
 50
24.9799123573
 51
335.0199464103
  0
ARC
  5
224
100
AcDbEntity
  8
0
100
AcDbCircle
 62
7
  6
CONTINUOUS
 10
1.1372712469
 20
4.226969603
 40
0.3544999999
100
AcDbArc
 50
26.1535085696
 51
333.8464972603
  0
ARC
  5
225
100
AcDbEntity
  8
0
100
AcDbCircle
 62
7
  6
CONTINUOUS
 10
1.1372712469
 20
4.226969603
 40
0.325
100
AcDbArc
 50
28.7378913
 51
331.2621079868
  0
ARC
  5
226
100
AcDbEntity
  8
0
100
AcDbCircle
 62
7
  6
CONTINUOUS
 10
1.1372712469
 20
4.226969603
 40
0.3200000002
100
AcDbArc
 50
29.2289491258
 51
330.7708846671
  0
ARC
  5
227
100
AcDbEntity
  8
0
100
AcDbCircle
 62
7
  6
CONTINUOUS
 10
1.1372712469
 20
4.226969603
 40
0.3044999998
100
AcDbArc
 50
30.8737443198
 51
329.1262425396
  0
ARC
  5
228
100
AcDbEntity
  8
0
100
AcDbCircle
 62
7
  6
CONTINUOUS
 10
1.1372712469
 20
4.226969603
 40
0.275
100
AcDbArc
 50
34.6267670281
 51
325.3732328801
  0
ARC
  5
229
100
AcDbEntity
  8
0
100
AcDbCircle
 62
7
  6
CONTINUOUS
 10
1.1372712469
 20
4.226969603
 40
0.2700000001
100
AcDbArc
 50
35.3598636041
 51
324.6404675458
  0
ARC
  5
22A
100
AcDbEntity
  8
0
100
AcDbCircle
 62
7
  6
CONTINUOUS
 10
1.1372712469
 20
4.226969603
 40
0.22125
100
AcDbArc
 50
44.9358675687
 51
315.0641324313
  0
ARC
  5
22B
100
AcDbEntity
  8
0
100
AcDbCircle
 62
7
  6
CONTINUOUS
 10
1.1372712469
 20
4.226969603
 40
0.21875
100
AcDbArc
 50
45.5865880924
 51
314.4131874768
  0
ARC
  5
22C
100
AcDbEntity
  8
0
100
AcDbCircle
 62
7
  6
CONTINUOUS
 10
1.1372712469
 20
4.226969603
 40
0.2037499997
100
AcDbArc
 50
50.0804485035
 51
309.9194554667
  0
ARC
  5
22D
100
AcDbEntity
  8
0
100
AcDbCircle
 62
7
  6
CONTINUOUS
 10
1.1372712469
 20
4.226969603
 40
0.1575
100
AcDbArc
 50
82.9145677466
 51
277.0854322534
  0
ARC
  5
22E
100
AcDbEntity
  8
0
100
AcDbCircle
 62
7
  6
CONTINUOUS
 10
1.1372708274
 20
4.2269699682
 40
0.1562743806
100
AcDbArc
 50
109.0760230297
 51
174.0881552182
  0
ARC
  5
22F
100
AcDbEntity
  8
0
100
AcDbCircle
 62
7
  6
CONTINUOUS
 10
1.1372712469
 20
4.226969603
 40
0.15625
100
AcDbArc
 50
90.0
 51
270.0
  0
ARC
  5
230
100
AcDbEntity
  8
0
100
AcDbCircle
 62
7
  6
CONTINUOUS
 10
1.1370331194
 20
4.2269810852
 40
0.1560366435
100
AcDbArc
 50
174.7605424979
 51
175.7079657568
  0
ARC
  5
231
100
AcDbEntity
  8
0
100
AcDbCircle
 62
7
  6
CONTINUOUS
 10
1.1369987842
 20
4.2269832914
 40
0.1560022368
100
AcDbArc
 50
174.7954203044
 51
175.7282526216
  0
ARC
  5
232
100
AcDbEntity
  8
0
100
AcDbCircle
 62
7
  6
CONTINUOUS
 10
1.1367630602
 20
4.2270015401
 40
0.1557658108
100
AcDbArc
 50
175.7080342924
 51
176.376152238
  0
ARC
  5
233
100
AcDbEntity
  8
0
100
AcDbCircle
 62
7
  6
CONTINUOUS
 10
1.1367234306
 20
4.2270040567
 40
0.1557261014
100
AcDbArc
 50
175.7283252249
 51
176.3761547046
  0
ARC
  5
234
100
AcDbEntity
  8
0
100
AcDbCircle
 62
7
  6
CONTINUOUS
 10
1.1372712469
 20
4.498844603
 40
0.051375
100
AcDbArc
 50
261.6011698571
 51
278.3988303573
  0
ARC
  5
235
100
AcDbEntity
  8
0
100
AcDbCircle
 62
7
  6
CONTINUOUS
 10
9.1372241355
 20
4.2266471201
 40
0.1566003389
100
AcDbArc
 50
81.6153798396
 51
82.0464126992
  0
ARC
  5
236
100
AcDbEntity
  8
0
100
AcDbCircle
 62
7
  6
CONTINUOUS
 10
9.137234476
 20
4.226724159
 40
0.1565226103
100
AcDbArc
 50
82.0462593777
 51
83.966729081
  0
ARC
  5
237
100
AcDbEntity
  8
0
100
AcDbCircle
 62
7
  6
CONTINUOUS
 10
9.1372707273
 20
4.2268194719
 40
0.1564250055
100
AcDbArc
 50
88.9662549574
 51
90.9324372215
  0
ARC
  5
238
100
AcDbEntity
  8
0
100
AcDbCircle
 62
7
  6
CONTINUOUS
 10
9.0449845761
 20
4.1324366656
 40
0.0867209278
100
AcDbArc
 50
225.3714151757
 51
225.7911791435
  0
ARC
  5
239
100
AcDbEntity
  8
0
100
AcDbCircle
 62
7
  6
CONTINUOUS
 10
9.1372712469
 20
3.955094603
 40
0.051375
100
AcDbArc
 50
81.6011698571
 51
98.3988303573
  0
ARC
  5
23A
100
AcDbEntity
  8
0
100
AcDbCircle
 62
7
  6
CONTINUOUS
 10
9.1372712469
 20
4.226969603
 40
0.375
100
AcDbArc
 50
204.6260872507
 51
155.3738522825
  0
ARC
  5
23B
100
AcDbEntity
  8
0
100
AcDbCircle
 62
7
  6
CONTINUOUS
 10
9.1372712469
 20
4.226969603
 40
0.3700000003
100
AcDbArc
 50
204.9799123573
 51
155.0199464103
  0
ARC
  5
23C
100
AcDbEntity
  8
0
100
AcDbCircle
 62
7
  6
CONTINUOUS
 10
9.1372712469
 20
4.226969603
 40
0.3544999999
100
AcDbArc
 50
206.1535085696
 51
153.8464972603
  0
ARC
  5
23D
100
AcDbEntity
  8
0
100
AcDbCircle
 62
7
  6
CONTINUOUS
 10
9.1372712469
 20
4.226969603
 40
0.325
100
AcDbArc
 50
208.7378913
 51
151.2612887985
  0
ARC
  5
23E
100
AcDbEntity
  8
0
100
AcDbCircle
 62
7
  6
CONTINUOUS
 10
9.1372712469
 20
4.226969603
 40
0.3200000002
100
AcDbArc
 50
209.2289491258
 51
150.7708846671
  0
ARC
  5
23F
100
AcDbEntity
  8
0
100
AcDbCircle
 62
7
  6
CONTINUOUS
 10
9.1372712469
 20
4.226969603
 40
0.3044999998
100
AcDbArc
 50
210.8737443198
 51
149.1262425396
  0
ARC
  5
240
100
AcDbEntity
  8
0
100
AcDbCircle
 62
7
  6
CONTINUOUS
 10
9.1372712469
 20
4.226969603
 40
0.275
100
AcDbArc
 50
214.6267516553
 51
145.3732309236
  0
ARC
  5
241
100
AcDbEntity
  8
0
100
AcDbCircle
 62
7
  6
CONTINUOUS
 10
9.1372712469
 20
4.226969603
 40
0.2700000001
100
AcDbArc
 50
215.3598636041
 51
144.6404675458
  0
ARC
  5
242
100
AcDbEntity
  8
0
100
AcDbCircle
 62
7
  6
CONTINUOUS
 10
9.1372712469
 20
4.226969603
 40
0.22125
100
AcDbArc
 50
224.9358675687
 51
135.0641324313
  0
ARC
  5
243
100
AcDbEntity
  8
0
100
AcDbCircle
 62
7
  6
CONTINUOUS
 10
9.1372712469
 20
4.226969603
 40
0.21875
100
AcDbArc
 50
225.5865880924
 51
134.4131874768
  0
ARC
  5
244
100
AcDbEntity
  8
0
100
AcDbCircle
 62
7
  6
CONTINUOUS
 10
9.1372712469
 20
4.226969603
 40
0.2037499997
100
AcDbArc
 50
230.0804485035
 51
129.9194554667
  0
ARC
  5
245
100
AcDbEntity
  8
0
100
AcDbCircle
 62
7
  6
CONTINUOUS
 10
9.1372712469
 20
4.226969603
 40
0.1575
100
AcDbArc
 50
262.9145677466
 51
97.0854322534
  0
ARC
  5
246
100
AcDbEntity
  8
0
100
AcDbCircle
 62
7
  6
CONTINUOUS
 10
9.1372712469
 20
4.226969603
 40
0.15625
100
AcDbArc
 50
270.0
 51
90.0
  0
ARC
  5
247
100
AcDbEntity
  8
0
100
AcDbCircle
 62
7
  6
CONTINUOUS
 10
9.1372749453
 20
4.226998467
 40
0.1562459635
100
AcDbArc
 50
86.4849906778
 51
88.9666172723
  0
ARC
  5
248
100
AcDbEntity
  8
0
100
AcDbCircle
 62
7
  6
CONTINUOUS
 10
9.1372641382
 20
4.2270025356
 40
0.1562426572
100
AcDbArc
 50
84.0540563926
 51
85.106347812
  0
ARC
  5
249
100
AcDbEntity
  8
0
100
AcDbCircle
 62
7
  6
CONTINUOUS
 10
9.1372899683
 20
4.2273053296
 40
0.1559387635
100
AcDbArc
 50
85.106313129
 51
86.1756505963
  0
ARC
  5
24A
100
AcDbEntity
  8
0
100
AcDbCircle
 62
7
  6
CONTINUOUS
 10
9.1373068559
 20
4.2275500754
 40
0.1556934364
100
AcDbArc
 50
86.1758441639
 51
86.4842662414
  0
ARC
  5
24B
100
AcDbEntity
  8
0
100
AcDbCircle
 62
7
  6
CONTINUOUS
 10
9.1372712469
 20
4.498844603
 40
0.051375
100
AcDbArc
 50
261.6011698571
 51
278.3988303573
  0
ARC
  5
24C
100
AcDbEntity
  8
0
100
AcDbCircle
 62
7
  6
CONTINUOUS
 10
9.4091462469
 20
4.226969603
 40
0.051375
100
AcDbArc
 50
171.4332462748
 51
188.5666259219
  0
SPLINE
  5
24D
100
AcDbEntity
  8
0
100
AcDbSpline
 62
7
  6
CONTINUOUS
 70
0
 71
3
 72
12
 73
8
 74
0
 42
0.0000001
 43
0.0000001
 44
0.0000000001
 40
0.0
 40
0.0
 40
0.0
 40
0.0
 40
0.124153443
 40
0.244370016
 40
0.4868573832
 40
0.7387189505
 40
1.0
 40
1.0
 40
1.0
 40
1.0
 10
0.9185130295
 20
4.2260352397
 30
0.0
 10
0.918506045
 20
4.2256381842
 30
0.0
 10
0.9184741895
 20
4.2248566021
 30
0.0
 10
0.9182985205
 20
4.2233079335
 30
0.0
 10
0.9178721921
 20
4.2213836685
 30
0.0
 10
0.9171331012
 20
4.2190811217
 30
0.0
 10
0.9165699178
 20
4.2175393475
 30
0.0
 10
0.9162817121
 20
4.2167548815
 30
0.0
  0
LINE
  5
24E
100
AcDbEntity
  8
0
100
AcDbLine
 62
7
  6
CONTINUOUS
 10
0.981736109
 20
4.0730981152
 11
0.9802264531
 21
4.0746914276
  0
SPLINE
  5
24F
100
AcDbEntity
  8
0
100
AcDbSpline
 62
7
  6
CONTINUOUS
 70
0
 71
3
 72
12
 73
8
 74
0
 42
0.0000001
 43
0.0000001
 44
0.0000000001
 40
0.0
 40
0.0
 40
0.0
 40
0.0
 40
0.2612796357
 40
0.5131392932
 40
0.7556235392
 40
0.8758428011
 40
1.0
 40
1.0
 40
1.0
 40
1.0
 10
0.9162815396
 20
4.2371847718
 30
0.0
 10
0.9165697894
 20
4.2364002823
 30
0.0
 10
0.9171329764
 20
4.2348584329
 30
0.0
 10
0.9178721202
 20
4.232555799
 30
0.0
 10
0.9182984995
 20
4.2306314515
 30
0.0
 10
0.9184741874
 20
4.2290826956
 30
0.0
 10
0.9185060444
 20
4.2283010536
 30
0.0
 10
0.9185130295
 20
4.2279039663
 30
0.0
  0
SPLINE
  5
250
100
AcDbEntity
  8
0
100
AcDbSpline
 62
7
  6
CONTINUOUS
 70
0
 71
3
 72
12
 73
8
 74
0
 42
0.0000001
 43
0.0000001
 44
0.0000000001
 40
0.0
 40
0.0
 40
0.0
 40
0.0
 40
0.1241187137
 40
0.2443059368
 40
0.4867812775
 40
0.7386781028
 40
1.0
 40
1.0
 40
1.0
 40
1.0
 10
1.1363368836
 20
4.4457278204
 30
0.0
 10
1.1359385343
 20
4.4457348277
 30
0.0
 10
1.1351543897
 20
4.4457668572
 30
0.0
 10
1.1336005373
 20
4.4459436908
 30
0.0
 10
1.1316697441
 20
4.4463727798
 30
0.0
 10
1.1293592987
 20
4.4471158873
 30
0.0
 10
1.1278119816
 20
4.4476815291
 30
0.0
 10
1.1270246361
 20
4.4479708549
 30
0.0
  0
SPLINE
  5
251
100
AcDbEntity
  8
0
100
AcDbSpline
 62
7
  6
CONTINUOUS
 70
0
 71
3
 72
12
 73
8
 74
0
 42
0.0000001
 43
0.0000001
 44
0.0000000001
 40
0.0
 40
0.0
 40
0.0
 40
0.0
 40
0.2613209042
 40
0.5132162595
 40
0.7556883969
 40
0.875877897
 40
1.0
 40
1.0
 40
1.0
 40
1.0
 10
1.1475186454
 20
4.4479711538
 30
0.0
 10
1.1467312439
 20
4.4476817766
 30
0.0
 10
1.1451837953
 20
4.4471160967
 30
0.0
 10
1.142873177
 20
4.4463728962
 30
0.0
 10
1.1409422319
 20
4.4459437267
 30
0.0
 10
1.1393882368
 20
4.445766861
 30
0.0
 10
1.1386040053
 20
4.4457348285
 30
0.0
 10
1.1382056102
 20
4.4457278204
 30
0.0
  0
SPLINE
  5
252
100
AcDbEntity
  8
0
100
AcDbSpline
 62
7
  6
CONTINUOUS
 70
0
 71
3
 72
12
 73
8
 74
0
 42
0.0000001
 43
0.0000001
 44
0.0000000001
 40
0.0
 40
0.0
 40
0.0
 40
0.0
 40
0.1241187137
 40
0.2443059368
 40
0.4867812775
 40
0.7386781028
 40
1.0
 40
1.0
 40
1.0
 40
1.0
 10
1.1382056102
 20
4.0082113855
 30
0.0
 10
1.1386039595
 20
4.0082043783
 30
0.0
 10
1.1393881041
 20
4.0081723488
 30
0.0
 10
1.1409419565
 20
4.0079955151
 30
0.0
 10
1.1428727497
 20
4.0075664262
 30
0.0
 10
1.1451831951
 20
4.0068233187
 30
0.0
 10
1.1467305122
 20
4.0062576768
 30
0.0
 10
1.1475178577
 20
4.005968351
 30
0.0
  0
SPLINE
  5
253
100
AcDbEntity
  8
0
100
AcDbSpline
 62
7
  6
CONTINUOUS
 70
0
 71
3
 72
12
 73
8
 74
0
 42
0.0000001
 43
0.0000001
 44
0.0000000001
 40
0.0
 40
0.0
 40
0.0
 40
0.0
 40
0.2613209042
 40
0.5132162595
 40
0.7556883969
 40
0.875877897
 40
1.0
 40
1.0
 40
1.0
 40
1.0
 10
1.1270238484
 20
4.0059680522
 30
0.0
 10
1.1278112499
 20
4.0062574294
 30
0.0
 10
1.1293586985
 20
4.0068231092
 30
0.0
 10
1.1316693168
 20
4.0075663098
 30
0.0
 10
1.1336002619
 20
4.0079954792
 30
0.0
 10
1.135154257
 20
4.008172345
 30
0.0
 10
1.1359384885
 20
4.0082043775
 30
0.0
 10
1.1363368836
 20
4.0082113855
 30
0.0
  0
LINE
  5
254
100
AcDbEntity
  8
0
100
AcDbLine
 62
7
  6
CONTINUOUS
 10
9.1536859339
 20
4.3823797952
 11
9.1534493343
 21
4.3824046185
  0
SPLINE
  5
255
100
AcDbEntity
  8
0
100
AcDbSpline
 62
7
  6
CONTINUOUS
 70
0
 71
3
 72
12
 73
8
 74
0
 42
0.0000001
 43
0.0000001
 44
0.0000000001
 40
0.0
 40
0.0
 40
0.0
 40
0.0
 40
0.1241187137
 40
0.2443059368
 40
0.4867812775
 40
0.7386781028
 40
1.0
 40
1.0
 40
1.0
 40
1.0
 10
9.1363368836
 20
4.4457278204
 30
0.0
 10
9.1359385343
 20
4.4457348277
 30
0.0
 10
9.1351543897
 20
4.4457668572
 30
0.0
 10
9.1336005373
 20
4.4459436908
 30
0.0
 10
9.1316697441
 20
4.4463727798
 30
0.0
 10
9.1293592987
 20
4.4471158873
 30
0.0
 10
9.1278119816
 20
4.4476815291
 30
0.0
 10
9.1270246361
 20
4.4479708549
 30
0.0
  0
SPLINE
  5
256
100
AcDbEntity
  8
0
100
AcDbSpline
 62
7
  6
CONTINUOUS
 70
0
 71
3
 72
12
 73
8
 74
0
 42
0.0000001
 43
0.0000001
 44
0.0000000001
 40
0.0
 40
0.0
 40
0.0
 40
0.0
 40
0.2613209042
 40
0.5132162595
 40
0.7556883969
 40
0.875877897
 40
1.0
 40
1.0
 40
1.0
 40
1.0
 10
9.1475186454
 20
4.4479711538
 30
0.0
 10
9.1467312439
 20
4.4476817766
 30
0.0
 10
9.1451837953
 20
4.4471160967
 30
0.0
 10
9.142873177
 20
4.4463728962
 30
0.0
 10
9.1409422319
 20
4.4459437267
 30
0.0
 10
9.1393882368
 20
4.445766861
 30
0.0
 10
9.1386040053
 20
4.4457348285
 30
0.0
 10
9.1382056102
 20
4.4457278204
 30
0.0
  0
SPLINE
  5
257
100
AcDbEntity
  8
0
100
AcDbSpline
 62
7
  6
CONTINUOUS
 70
0
 71
3
 72
12
 73
8
 74
0
 42
0.0000001
 43
0.0000001
 44
0.0000000001
 40
0.0
 40
0.0
 40
0.0
 40
0.0
 40
0.124153443
 40
0.244370016
 40
0.4868573832
 40
0.7387189505
 40
1.0
 40
1.0
 40
1.0
 40
1.0
 10
9.3560294643
 20
4.2279039663
 30
0.0
 10
9.3560364488
 20
4.2283010217
 30
0.0
 10
9.3560683043
 20
4.2290826039
 30
0.0
 10
9.3562439733
 20
4.2306312724
 30
0.0
 10
9.3566703017
 20
4.2325555375
 30
0.0
 10
9.3574093926
 20
4.2348580842
 30
0.0
 10
9.357972576
 20
4.2363998585
 30
0.0
 10
9.3582607817
 20
4.2371843245
 30
0.0
  0
SPLINE
  5
258
100
AcDbEntity
  8
0
100
AcDbSpline
 62
7
  6
CONTINUOUS
 70
0
 71
3
 72
12
 73
8
 74
0
 42
0.0000001
 43
0.0000001
 44
0.0000000001
 40
0.0
 40
0.0
 40
0.0
 40
0.0
 40
0.2612796357
 40
0.5131392932
 40
0.7556235392
 40
0.8758428011
 40
1.0
 40
1.0
 40
1.0
 40
1.0
 10
9.3582609542
 20
4.2167544341
 30
0.0
 10
9.3579727044
 20
4.2175389237
 30
0.0
 10
9.3574095174
 20
4.2190807731
 30
0.0
 10
9.3566703736
 20
4.2213834069
 30
0.0
 10
9.3562439943
 20
4.2233077544
 30
0.0
 10
9.3560683064
 20
4.2248565104
 30
0.0
 10
9.3560364494
 20
4.2256381523
 30
0.0
 10
9.3560294643
 20
4.2260352397
 30
0.0
  0
SPLINE
  5
259
100
AcDbEntity
  8
0
100
AcDbSpline
 62
7
  6
CONTINUOUS
 70
0
 71
3
 72
12
 73
8
 74
0
 42
0.0000001
 43
0.0000001
 44
0.0000000001
 40
0.0
 40
0.0
 40
0.0
 40
0.0
 40
0.1241187137
 40
0.2443059368
 40
0.4867812775
 40
0.7386781028
 40
1.0
 40
1.0
 40
1.0
 40
1.0
 10
9.1382056102
 20
4.0082113855
 30
0.0
 10
9.1386039595
 20
4.0082043783
 30
0.0
 10
9.1393881041
 20
4.0081723488
 30
0.0
 10
9.1409419565
 20
4.0079955151
 30
0.0
 10
9.1428727497
 20
4.0075664262
 30
0.0
 10
9.1451831951
 20
4.0068233187
 30
0.0
 10
9.1467305122
 20
4.0062576768
 30
0.0
 10
9.1475178577
 20
4.005968351
 30
0.0
  0
SPLINE
  5
25A
100
AcDbEntity
  8
0
100
AcDbSpline
 62
7
  6
CONTINUOUS
 70
0
 71
3
 72
12
 73
8
 74
0
 42
0.0000001
 43
0.0000001
 44
0.0000000001
 40
0.0
 40
0.0
 40
0.0
 40
0.0
 40
0.2613209042
 40
0.5132162595
 40
0.7556883969
 40
0.875877897
 40
1.0
 40
1.0
 40
1.0
 40
1.0
 10
9.1270238484
 20
4.0059680522
 30
0.0
 10
9.1278112499
 20
4.0062574294
 30
0.0
 10
9.1293586985
 20
4.0068231092
 30
0.0
 10
9.1316693168
 20
4.0075663098
 30
0.0
 10
9.1336002619
 20
4.0079954792
 30
0.0
 10
9.135154257
 20
4.008172345
 30
0.0
 10
9.1359384885
 20
4.0082043775
 30
0.0
 10
9.1363368836
 20
4.0082113855
 30
0.0
  0
ENDSEC
  0
SECTION
  2
OBJECTS
  0
DICTIONARY
  5
C
100
AcDbDictionary
280
0
281
1
  3
ACAD_GROUP
350
D
  3
ACAD_MLINESTYLE
350
17
  3
ACAD_LAYOUT
350
1A
  3
ACAD_PLOTSETTINGS
350
19
  3
ACAD_PLOTSTYLENAME
350
E
  0
DICTIONARY
  5
D
102
{ACAD_REACTORS
330
C
102
}
100
AcDbDictionary
280
0
281
1
  0
ACDBDICTIONARYWDFLT
  5
E
102
{ACAD_REACTORS
330
C
102
}
100
AcDbDictionary
281
1
  3
Normal
350
F
100
AcDbDictionaryWithDefault
340
F
  0
DICTIONARY
  5
17
102
{ACAD_REACTORS
330
C
102
}
100
AcDbDictionary
280
0
281
1
  3
Standard
350
18
  0
DICTIONARY
  5
19
102
{ACAD_REACTORS
330
C
102
}
100
AcDbDictionary
281
1
  0
DICTIONARY
  5
1A
102
{ACAD_REACTORS
330
C
102
}
100
AcDbDictionary
281
1
  3
Model
350
25B
  3
Layout1
350
25C
  0
ACDBPLACEHOLDER
  5
F
102
{ACAD_REACTORS
330
E
102
}
  0
MLINESTYLE
  5
18
102
{ACAD_REACTORS
330
17
102
}
100
AcDbMlineStyle
  2
STANDARD
 70
0
  3

 62
256
 51
90.0
 52
90.0
 71
2
 49
0.5
 62
256
  6
BYLAYER
 49
-0.5
 62
256
  6
BYLAYER
  0
LAYOUT
  5
25B
102
{ACAD_REACTORS
330
1A
102
}
100
AcDbPlotSettings
  1

  2
none_device
  4
ANSI_A_(11.00_x_8.50_Inches)
  6

 40
0.0
 41
0.0
 42
0.0
 43
0.0
 44
279.4
 45
215.9
 46
0.0
 47
0.0
 48
0.0
 49
0.0
140
0.0
141
0.0
142
1.0
143
1.0
 70
1024
 72
0
 73
0
 74
0
  7

 75
0
147
1.0
148
0.0
149
0.0
100
AcDbLayout
  1
Model
 70
0
 71
0
 10
0.0
 20
0.0
 11
11.0
 21
8.5
 12
0.0
 22
0.0
 32
0.0
 14
0.0
 24
0.0
 34
0.0
 15
0.0
 25
0.0
 35
0.0
146
0.0
 13
0.0
 23
0.0
 33
0.0
 16
1.0
 26
0.0
 36
0.0
 17
0.0
 27
1.0
 37
0.0
 76
0
330
20E
345
0
346
0
  0
LAYOUT
  5
25C
102
{ACAD_REACTORS
330
1A
102
}
100
AcDbPlotSettings
  1

  2
none_device
  4
ANSI_A_(11.00_x_8.50_Inches)
  6

 40
0.0
 41
0.0
 42
0.0
 43
0.0
 44
279.4
 45
215.9
 46
0.0
 47
0.0
 48
0.0
 49
0.0
140
0.0
141
0.0
142
1.0
143
1.0
 70
0
 72
0
 73
0
 74
0
  7

 75
0
147
1.0
148
0.0
149
0.0
100
AcDbLayout
  1
Layout1
 70
0
 71
1
 10
0.0
 20
0.0
 11
11.0
 21
8.5
 12
0.0
 22
0.0
 32
0.0
 14
0.0
 24
0.0
 34
0.0
 15
0.0
 25
0.0
 35
0.0
146
0.0
 13
0.0
 23
0.0
 33
0.0
 16
1.0
 26
0.0
 36
0.0
 17
0.0
 27
1.0
 37
0.0
 76
0
330
20F
345
0
346
0
  0
ENDSEC
  0
EOF
