999
DXF file: E:\BT Custom\CADOUTPUT\_RIGHT.dxf
999
Pro/ENGINEER 2018400 by Parametric Technology Corporation
  0
SECTION
  2
HEADER
  9
$ACADVER
  1
AC1018
  9
$DWGCODEPAGE
  3
ANSI_1252
  9
$EXTMAX
 10
22.0
 20
17.0
 30
0.0
  9
$EXTMIN
 10
0.0
 20
0.0
 30
0.0
  9
$LIMMIN
 10
0.0
 20
0.0
  9
$LIMMAX
 10
22.0
 20
17.0
  9
$VIEWCTR
 10
11.0
 20
8.5
  9
$VIEWSIZE
 40
17.0
  9
$CLAYER
  8
0
  9
$LTSCALE
 40
1.21
  9
$CELTYPE
  6
BYLAYER
  9
$DIMSCALE
 40
1.0
  9
$DIMASZ
 40
0.1
  9
$DIMEXO
 40
0.0625
  9
$DIMDLI
 40
0.836
  9
$DIMEXE
 40
0.125
  9
$DIMCEN
 40
0.198
  9
$DIMLFAC
 40
1.0
  9
$DIMBLK
  1
_FILLED
  9
$DIMALT
 70
1
  9
$DIMALTD
 70
2
  9
$DIMALTTD
 70
2
  9
$DIMALTF
 40
25.4
  9
$DIMTXT
 40
0.08
  9
$DIMTOL
 70
1
  9
$DIMLIM
 70
0
  9
$DIMTFAC
 40
1.0
  9
$DIMTP
 40
0.001
  9
$DIMTM
 40
0.001
  9
$DIMGAP
 40
0.09
  9
$DIMDSEP
 70
46
  9
$AUNITS
 70
0
  9
$PDMODE
 70
3
  9
$PDSIZE
 40
0.06
  9
$HANDSEED
  5
4F0
  9
$TILEMODE
 70
1
  9
$MEASUREMENT
 70
0
  9
$INSUNITS
 70
1
  0
ENDSEC
  0
SECTION
  2
CLASSES
  0
CLASS
  1
ACDBDICTIONARYWDFLT
  2
AcDbDictionaryWithDefault
  3
AutoCAD 2000
 90
0
 91
1
280
0
281
0
  0
CLASS
  1
ACDBPLACEHOLDER
  2
AcDbPlaceHolder
  3
AutoCAD 2000
 90
0
 91
1
280
0
281
0
  0
CLASS
  1
LAYOUT
  2
AcDbLayout
  3
AutoCAD 2000
 90
0
 91
0
280
0
281
0
  0
ENDSEC
  0
SECTION
  2
TABLES
  0
TABLE
  2
VPORT
  5
8
100
AcDbSymbolTable
 70
2
  0
VPORT
  5
1F4
100
AcDbSymbolTableRecord
100
AcDbViewportTableRecord
  2
*ACTIVE
 70
0
 10
0.0
 20
0.0
 11
1.0
 21
1.0
 12
11.0
 22
8.5
 13
0.0
 23
0.0
 14
1.0
 24
1.0
 15
0.0
 25
0.0
 16
0.0
 26
0.0
 36
1.0
 17
0.0
 27
0.0
 37
0.0
 40
17.0
 41
1.2941176471
 42
50.0
 43
0.0
 44
0.0
 50
0.0
 51
0.0
 71
0
 72
100
 73
1
 74
1
 75
0
 76
0
 77
0
 78
0
  0
ENDTAB
  0
TABLE
  2
LTYPE
  5
5
100
AcDbSymbolTable
 70
6
  0
LTYPE
  5
14
100
AcDbSymbolTableRecord
100
AcDbLinetypeTableRecord
  2
BYBLOCK
 70
0
  3

 72
65
 73
0
 40
0.0
  0
LTYPE
  5
15
100
AcDbSymbolTableRecord
100
AcDbLinetypeTableRecord
  2
BYLAYER
 70
0
  3

 72
65
 73
0
 40
0.0
  0
LTYPE
  5
16
100
AcDbSymbolTableRecord
100
AcDbLinetypeTableRecord
  2
CONTINUOUS
 70
64
  3
Solid line
 72
65
 73
0
 40
0.0
  0
LTYPE
  5
1F5
100
AcDbSymbolTableRecord
100
AcDbLinetypeTableRecord
  2
CENTER
 70
64
  3
____ _ ____ _ ____ _ ____ _ ____ _ ____ _ ____
 72
65
 73
4
 40
0.6
 49
0.375
 74
0
 49
-0.075
 74
0
 49
0.075
 74
0
 49
-0.075
 74
0
  0
LTYPE
  5
1F6
100
AcDbSymbolTableRecord
100
AcDbLinetypeTableRecord
  2
HIDDEN
 70
64
  3
- - - - - - - - - - - - - - - - - - - -
 72
65
 73
2
 40
0.2
 49
0.1
 74
0
 49
-0.1
 74
0
  0
LTYPE
  5
1F7
100
AcDbSymbolTableRecord
100
AcDbLinetypeTableRecord
  2
PHANTOM
 70
64
  3
_____ _ _ _____ _ _ _____ _ _ _____
 72
65
 73
6
 40
0.8
 49
0.45
 74
0
 49
-0.05
 74
0
 49
0.1
 74
0
 49
-0.05
 74
0
 49
0.1
 74
0
 49
-0.05
 74
0
  0
LTYPE
  5
1F8
100
AcDbSymbolTableRecord
100
AcDbLinetypeTableRecord
  2
DOT
 70
64
  3
. . . . . . . . . . . . . . . . . . . .
 72
65
 73
2
 40
0.2
 49
0.1
 74
0
 49
-0.1
 74
0
  0
LTYPE
  5
1F9
100
AcDbSymbolTableRecord
100
AcDbLinetypeTableRecord
  2
DASHED
 70
64
  3
- - - - - - - - - - - - - - - - - - - -
 72
65
 73
2
 40
0.2
 49
0.1
 74
0
 49
-0.1
 74
0
  0
ENDTAB
  0
TABLE
  2
LAYER
  5
2
100
AcDbSymbolTable
 70
36
  0
LAYER
  5
10
100
AcDbSymbolTableRecord
100
AcDbLayerTableRecord
  2
0
 70
0
 62
7
  6
CONTINUOUS
370
-3
390
F
  0
LAYER
  5
1FA
100
AcDbSymbolTableRecord
100
AcDbLayerTableRecord
  2
DEFAULT_1
 70
0
 62
7
  6
CENTER
370
-3
390
F
  0
LAYER
  5
1FB
100
AcDbSymbolTableRecord
100
AcDbLayerTableRecord
  2
DEFAULT_2
 70
0
 62
8
  6
HIDDEN
370
-3
390
F
  0
LAYER
  5
1FC
100
AcDbSymbolTableRecord
100
AcDbLayerTableRecord
  2
DEFAULT_3
 70
0
 62
7
  6
PHANTOM
370
-3
390
F
  0
LAYER
  5
1FD
100
AcDbSymbolTableRecord
100
AcDbLayerTableRecord
  2
ALL_FEATURES
 70
0
 62
7
  6
CONTINUOUS
370
-3
390
F
  0
LAYER
  5
1FE
100
AcDbSymbolTableRecord
100
AcDbLayerTableRecord
  2
AXES_FEATURES
 70
0
 62
7
  6
CONTINUOUS
370
-3
390
F
  0
LAYER
  5
1FF
100
AcDbSymbolTableRecord
100
AcDbLayerTableRecord
  2
DIMENSIONS
 70
0
 62
7
  6
CONTINUOUS
370
-3
390
F
  0
ENDTAB
  0
TABLE
  2
STYLE
  5
3
100
AcDbSymbolTable
 70
1
  0
STYLE
  5
11
100
AcDbSymbolTableRecord
100
AcDbTextStyleTableRecord
  2
STANDARD
 70
0
 40
0.0
 41
0.8
 50
0.0
 71
0
 42
0.2
  3
txt
  4

  0
STYLE
  5
200
100
AcDbSymbolTableRecord
100
AcDbTextStyleTableRecord
  2
TEXTSTYLE_1
 70
0
 40
0.0
 41
0.8
 50
0.0
 71
0
 42
0.2
  3
gdt
  4

  0
ENDTAB
  0
TABLE
  2
VIEW
  5
6
100
AcDbSymbolTable
 70
0
  0
ENDTAB
  0
TABLE
  2
UCS
  5
7
100
AcDbSymbolTable
 70
0
  0
ENDTAB
  0
TABLE
  2
APPID
  5
9
100
AcDbSymbolTable
 70
1
  0
APPID
  5
201
100
AcDbSymbolTableRecord
100
AcDbRegAppTableRecord
  2
ACAD
 70
0
  0
ENDTAB
  0
TABLE
  2
BLOCK_RECORD
  5
1
100
AcDbSymbolTable
 70
0
  0
BLOCK_RECORD
  5
202
100
AcDbSymbolTableRecord
100
AcDbBlockTableRecord
  2
*Model_Space
  0
BLOCK_RECORD
  5
203
100
AcDbSymbolTableRecord
100
AcDbBlockTableRecord
  2
*Paper_Space
  0
BLOCK_RECORD
  5
204
100
AcDbSymbolTableRecord
100
AcDbBlockTableRecord
  2
_FILLED
  0
ENDTAB
  0
TABLE
  2
DIMSTYLE
  5
A
100
AcDbSymbolTable
 70
1
100
AcDbDimStyleTable
 71
0
  0
DIMSTYLE
105
205
100
AcDbSymbolTableRecord
100
AcDbDimStyleTableRecord
  2
STANDARD
 70
0
  3

  4

 40
1.0
 41
0.1
 42
0.0625
 43
0.38
 44
0.125
 45
0.0
 46
0.0
 47
0.001
 48
0.001
140
0.08
141
0.09
142
0.0
143
25.4
144
1.0
145
0.0
146
1.0
147
0.09
 71
1.0
 72
0.0
 73
1
 74
1
 75
0
 76
0
 77
0
 78
4
 79
1
170
1
171
2
172
0
173
0
174
0
175
0
176
0
177
0
178
0
270
2
179
3
271
3
272
3
273
2
274
2
275
0
280
0
281
0
282
0
283
1
284
4
285
0
286
0
287
3
288
0
340
11
278
46
341
204
342
204
343
204
344
204
  0
ENDTAB
  0
ENDSEC
  0
SECTION
  2
BLOCKS
  0
BLOCK
  5
20
100
AcDbEntity
  8
0
100
AcDbBlockBegin
  2
*Model_Space
 70
0
 10
0.0
 20
0.0
 30
0.0
  3
*Model_Space
  1

  0
ENDBLK
  5
21
100
AcDbEntity
  8
0
100
AcDbBlockEnd
  0
BLOCK
  5
1C
100
AcDbEntity
  8
0
100
AcDbBlockBegin
  2
*Paper_Space
 70
0
 10
0.0
 20
0.0
 30
0.0
  3
*Paper_Space
  1

  0
ENDBLK
  5
1D
100
AcDbEntity
  8
0
100
AcDbBlockEnd
  0
BLOCK
  5
206
100
AcDbEntity
  8
0
100
AcDbBlockBegin
  2
_FILLED
 70
64
 10
0.0
 20
0.0
  3
_FILLED
  1

  0
SOLID
  5
207
100
AcDbEntity
  8
0
  6
BYBLOCK
 62
0
100
AcDbTrace
 10
0.0
 20
0.0
 11
-1.0
 21
0.2
 12
-1.0
 22
-0.2
 13
-1.0
 23
-0.2
  0
ENDBLK
  5
208
100
AcDbEntity
  8
0
  6
BYBLOCK
 62
0
100
AcDbBlockEnd
  0
ENDSEC
  0
SECTION
  2
ENTITIES
  0
LINE
  5
209
100
AcDbEntity
  8
0
100
AcDbLine
 62
9
  6
CONTINUOUS
 10
13.3574972687
 20
-1.6049743377
 11
13.8974972687
 21
-1.6049743377
  0
LINE
  5
20A
100
AcDbEntity
  8
0
100
AcDbLine
 62
7
  6
CONTINUOUS
 10
14.021049476
 20
19.9174341043
 11
14.02104275
 21
19.9174281863
  0
LINE
  5
20B
100
AcDbEntity
  8
0
100
AcDbLine
 62
7
  6
CONTINUOUS
 10
13.2423016263
 20
18.8262671638
 11
13.221326296
 21
18.8096081846
  0
LINE
  5
20C
100
AcDbEntity
  8
0
100
AcDbLine
 62
7
  6
CONTINUOUS
 10
13.2553716607
 20
17.4127940846
 11
13.3574972687
 21
17.4717563319
  0
LINE
  5
20D
100
AcDbEntity
  8
0
100
AcDbLine
 62
7
  6
CONTINUOUS
 10
13.9981204603
 20
19.8958003561
 11
14.0210403518
 21
19.9174260756
  0
LINE
  5
20E
100
AcDbEntity
  8
0
100
AcDbLine
 62
7
  6
CONTINUOUS
 10
13.221368475
 20
18.8096430798
 11
13.2168075942
 21
18.8053720648
  0
LINE
  5
20F
100
AcDbEntity
  8
0
100
AcDbLine
 62
7
  6
CONTINUOUS
 10
13.236067449
 20
18.8189407801
 11
13.2359935388
 21
18.8188764615
  0
LINE
  5
210
100
AcDbEntity
  8
0
100
AcDbLine
 62
7
  6
CONTINUOUS
 10
13.9996228767
 20
16.80325724
 11
13.8974972687
 21
16.7442949927
  0
LINE
  5
211
100
AcDbEntity
  8
0
100
AcDbLine
 62
7
  6
CONTINUOUS
 10
6.1399972687
 20
9.041538337
 11
6.1399972687
 21
9.0661365681
  0
LINE
  5
212
100
AcDbEntity
  8
0
100
AcDbLine
 62
7
  6
CONTINUOUS
 10
13.2463986412
 20
18.8310861635
 11
13.2360883066
 21
18.8189589196
  0
LINE
  5
213
100
AcDbEntity
  8
0
100
AcDbLine
 62
7
  6
CONTINUOUS
 10
13.9581795223
 20
19.8496427032
 11
13.9981204603
 21
19.8958003561
  0
LINE
  5
214
100
AcDbEntity
  8
0
100
AcDbLine
 62
9
  6
CONTINUOUS
 10
6.6274972687
 20
9.041538337
 11
6.6274972687
 21
9.2684680275
  0
LINE
  5
215
100
AcDbEntity
  8
0
100
AcDbLine
 62
7
  6
CONTINUOUS
 10
7.1149972687
 20
9.041538337
 11
7.1149972687
 21
9.0661375365
  0
LINE
  5
216
100
AcDbEntity
  8
0
100
AcDbLine
 62
7
  6
CONTINUOUS
 10
13.2500627555
 20
18.8366609051
 11
13.2460496278
 21
18.8306027765
  0
LINE
  5
217
100
AcDbEntity
  8
0
100
AcDbLine
 62
7
  6
CONTINUOUS
 10
13.9469292177
 20
19.833924376
 11
13.958031741
 21
19.8494469663
  0
LINE
  5
218
100
AcDbEntity
  8
0
100
AcDbLine
 62
7
  6
CONTINUOUS
 10
13.9490334481
 20
19.8369877062
 11
13.9581676651
 21
19.8496235196
  0
LINE
  5
219
100
AcDbEntity
  8
0
100
AcDbLine
 62
7
  6
CONTINUOUS
 10
13.958031741
 20
19.8494469663
 11
13.9581786763
 21
19.8496415786
  0
LINE
  5
21A
100
AcDbEntity
  8
0
100
AcDbLine
 62
7
  6
CONTINUOUS
 10
10.5457013605
 20
13.5872579458
 11
10.5260661056
 21
13.572992098
  0
LINE
  5
21B
100
AcDbEntity
  8
0
100
AcDbLine
 62
7
  6
CONTINUOUS
 10
13.1101280997
 20
14.6726381597
 11
13.0513187208
 21
14.6452148959
  0
LINE
  5
21C
100
AcDbEntity
  8
0
100
AcDbLine
 62
7
  6
CONTINUOUS
 10
13.2168075942
 20
18.8053720648
 11
13.2022603216
 21
18.7799276823
  0
LINE
  5
21D
100
AcDbEntity
  8
0
100
AcDbLine
 62
7
  6
CONTINUOUS
 10
13.9257740302
 20
19.79942189
 11
13.9469292177
 21
19.833924376
  0
LINE
  5
21E
100
AcDbEntity
  8
0
100
AcDbLine
 62
7
  6
CONTINUOUS
 10
13.9293485968
 20
19.8057653481
 11
13.9490334481
 21
19.8369877062
  0
LINE
  5
21F
100
AcDbEntity
  8
0
100
AcDbLine
 62
7
  6
CONTINUOUS
 10
11.1007727532
 20
14.0024351688
 11
11.1582522698
 21
14.0845244258
  0
LWPOLYLINE
  5
220
100
AcDbEntity
  8
0
100
AcDbPolyline
 62
7
  6
CONTINUOUS
 90
3
 70
0
 10
13.2740331306
 20
18.889876669
 10
13.250482325
 20
18.837317885
 10
13.2463986412
 20
18.8310861635
  0
LINE
  5
221
100
AcDbEntity
  8
0
100
AcDbLine
 62
7
  6
CONTINUOUS
 10
13.2733738613
 20
18.887950404
 11
13.2500627555
 21
18.8366609051
  0
LINE
  5
222
100
AcDbEntity
  8
0
100
AcDbLine
 62
7
  6
CONTINUOUS
 10
13.9081775039
 20
19.7641548099
 11
13.9257740302
 21
19.79942189
  0
LINE
  5
223
100
AcDbEntity
  8
0
100
AcDbLine
 62
7
  6
CONTINUOUS
 10
13.9078892699
 20
19.7635054253
 11
13.9293485968
 21
19.8057653481
  0
LINE
  5
224
100
AcDbEntity
  8
0
100
AcDbLine
 62
7
  6
CONTINUOUS
 10
10.6324854576
 20
13.5604111583
 11
10.6479854576
 21
13.5872579458
  0
LINE
  5
225
100
AcDbEntity
  8
0
100
AcDbLine
 62
7
  6
CONTINUOUS
 10
10.6169854576
 20
12.5322579458
 11
10.6324854576
 21
12.5591047333
  0
LINE
  5
226
100
AcDbEntity
  8
0
100
AcDbLine
 62
7
  6
CONTINUOUS
 10
13.9312261531
 20
17.9708491283
 11
14.0551573857
 21
18.1616864913
  0
LINE
  5
227
100
AcDbEntity
  8
0
100
AcDbLine
 62
7
  6
CONTINUOUS
 10
10.765198162
 20
12.1170807228
 11
10.7077186455
 21
12.0349914658
  0
LINE
  5
228
100
AcDbEntity
  8
0
100
AcDbLine
 62
7
  6
CONTINUOUS
 10
12.6223694374
 20
13.6597579458
 11
12.6973694374
 21
13.7347579458
  0
LINE
  5
229
100
AcDbEntity
  8
0
100
AcDbLine
 62
7
  6
CONTINUOUS
 10
14.2629697096
 20
13.6297579458
 11
14.3798831391
 21
13.6972579458
  0
LINE
  5
22A
100
AcDbEntity
  8
0
100
AcDbLine
 62
7
  6
CONTINUOUS
 10
10.5069854576
 20
13.5142679019
 11
10.5260661056
 21
13.572992098
  0
LINE
  5
22B
100
AcDbEntity
  8
0
100
AcDbLine
 62
7
  6
CONTINUOUS
 10
13.9076798237
 20
19.7630353869
 11
13.9078892699
 21
19.7635054253
  0
LINE
  5
22C
100
AcDbEntity
  8
0
100
AcDbLine
 62
7
  6
CONTINUOUS
 10
12.9219854576
 20
12.3847579458
 11
12.9969854576
 21
12.4597579458
  0
LINE
  5
22D
100
AcDbEntity
  8
0
100
AcDbLine
 62
7
  6
CONTINUOUS
 10
14.8429697096
 20
12.4897579458
 11
14.7260562801
 21
12.4222579458
  0
LINE
  5
22E
100
AcDbEntity
  8
0
100
AcDbLine
 62
7
  6
CONTINUOUS
 10
10.4319854576
 20
13.0597579458
 11
10.4331648692
 21
12.9992899948
  0
LINE
  5
22F
100
AcDbEntity
  8
0
100
AcDbLine
 62
9
  6
CONTINUOUS
 10
10.4831868743
 20
13.4549432402
 11
10.4831667786
 21
12.6646489078
  0
LINE
  5
230
100
AcDbEntity
  8
0
100
AcDbLine
 62
7
  6
CONTINUOUS
 10
10.5069854576
 20
13.5142679019
 11
10.5069854576
 21
12.6052479897
  0
LINE
  5
231
100
AcDbEntity
  8
0
100
AcDbLine
 62
7
  6
CONTINUOUS
 10
10.5260661056
 20
13.572992098
 11
10.5260661056
 21
12.5465237935
  0
LINE
  5
232
100
AcDbEntity
  8
0
100
AcDbLine
 62
7
  6
CONTINUOUS
 10
10.5457013605
 20
13.5872579458
 11
10.5457013605
 21
12.5322579458
  0
LINE
  5
233
100
AcDbEntity
  8
0
100
AcDbLine
 62
7
  6
CONTINUOUS
 10
10.6169854576
 20
12.5322579458
 11
10.6169854576
 21
13.5872579458
  0
LINE
  5
234
100
AcDbEntity
  8
0
100
AcDbLine
 62
7
  6
CONTINUOUS
 10
10.6324854576
 20
13.5604111583
 11
10.6324854576
 21
12.5591047333
  0
LINE
  5
235
100
AcDbEntity
  8
0
100
AcDbLine
 62
7
  6
CONTINUOUS
 10
10.6479854576
 20
12.5322579458
 11
10.6479854576
 21
13.5872579458
  0
LINE
  5
236
100
AcDbEntity
  8
0
100
AcDbLine
 62
7
  6
CONTINUOUS
 10
10.7279854576
 20
13.6172579458
 11
10.7279854576
 21
13.2388785636
  0
LINE
  5
237
100
AcDbEntity
  8
0
100
AcDbLine
 62
7
  6
CONTINUOUS
 10
10.7279854576
 20
12.8806373279
 11
10.7279854576
 21
12.5022579458
  0
LINE
  5
238
100
AcDbEntity
  8
0
100
AcDbLine
 62
7
  6
CONTINUOUS
 10
10.4319854576
 20
13.0597579458
 11
10.4331617454
 21
13.1201457963
  0
LINE
  5
239
100
AcDbEntity
  8
0
100
AcDbLine
 62
7
  6
CONTINUOUS
 10
13.297350908
 20
18.9773484137
 11
13.2733738613
 21
18.887950404
  0
LINE
  5
23A
100
AcDbEntity
  8
0
100
AcDbLine
 62
7
  6
CONTINUOUS
 10
11.2169854576
 20
12.5322579458
 11
11.2679854576
 21
12.6892579458
  0
LINE
  5
23B
100
AcDbEntity
  8
0
100
AcDbLine
 62
7
  6
CONTINUOUS
 10
13.8974972687
 20
19.7339374972
 11
13.9077499988
 21
19.7631977477
  0
LINE
  5
23C
100
AcDbEntity
  8
0
100
AcDbLine
 62
7
  6
CONTINUOUS
 10
13.0574972687
 20
14.4980256623
 11
12.9899972687
 21
14.3811122328
  0
LINE
  5
23D
100
AcDbEntity
  8
0
100
AcDbLine
 62
7
  6
CONTINUOUS
 10
6.1399972687
 20
9.041538337
 11
7.1149972687
 21
9.041538337
  0
LINE
  5
23E
100
AcDbEntity
  8
0
100
AcDbLine
 62
9
  6
CONTINUOUS
 10
7.1149972687
 20
9.0661366049
 11
6.1399972687
 21
9.0661365681
  0
LINE
  5
23F
100
AcDbEntity
  8
0
100
AcDbLine
 62
7
  6
CONTINUOUS
 10
11.1379854576
 20
12.5022579458
 11
11.1379854576
 21
12.8806373279
  0
LINE
  5
240
100
AcDbEntity
  8
0
100
AcDbLine
 62
7
  6
CONTINUOUS
 10
11.1379854576
 20
13.2388785636
 11
11.1379854576
 21
13.6172579458
  0
LINE
  5
241
100
AcDbEntity
  8
0
100
AcDbLine
 62
7
  6
CONTINUOUS
 10
11.2169854576
 20
13.5872579458
 11
11.2169854576
 21
12.5322579458
  0
LINE
  5
242
100
AcDbEntity
  8
0
100
AcDbLine
 62
7
  6
CONTINUOUS
 10
11.2679854576
 20
12.6892579458
 11
11.2679854576
 21
13.4302579458
  0
LINE
  5
243
100
AcDbEntity
  8
0
100
AcDbLine
 62
7
  6
CONTINUOUS
 10
11.4939539616
 20
13.4249445141
 11
11.4939539616
 21
13.4032579458
  0
LINE
  5
244
100
AcDbEntity
  8
0
100
AcDbLine
 62
7
  6
CONTINUOUS
 10
11.4939539616
 20
12.7162579458
 11
11.4939539616
 21
12.6945713774
  0
LINE
  5
245
100
AcDbEntity
  8
0
100
AcDbLine
 62
7
  6
CONTINUOUS
 10
11.5739539616
 20
13.5797444753
 11
11.5739539616
 21
13.4032579458
  0
LINE
  5
246
100
AcDbEntity
  8
0
100
AcDbLine
 62
7
  6
CONTINUOUS
 10
11.5739539616
 20
12.7162579458
 11
11.5739539616
 21
12.5397579458
  0
LINE
  5
247
100
AcDbEntity
  8
0
100
AcDbLine
 62
9
  6
CONTINUOUS
 10
11.6039539616
 20
13.6097579458
 11
11.6039539616
 21
13.4032579458
  0
LINE
  5
248
100
AcDbEntity
  8
0
100
AcDbLine
 62
9
  6
CONTINUOUS
 10
11.6039539616
 20
12.7162579458
 11
11.6039539616
 21
12.5097579458
  0
LINE
  5
249
100
AcDbEntity
  8
0
100
AcDbLine
 62
7
  6
CONTINUOUS
 10
11.6269854576
 20
12.7162579458
 11
11.6269854576
 21
13.4032579458
  0
LINE
  5
24A
100
AcDbEntity
  8
0
100
AcDbLine
 62
7
  6
CONTINUOUS
 10
11.6469854576
 20
13.4316688019
 11
11.6469854576
 21
12.6878470896
  0
LINE
  5
24B
100
AcDbEntity
  8
0
100
AcDbLine
 62
9
  6
CONTINUOUS
 10
11.6746835914
 20
13.4615803617
 11
11.6746835914
 21
12.6579355298
  0
LINE
  5
24C
100
AcDbEntity
  8
0
100
AcDbLine
 62
7
  6
CONTINUOUS
 10
12.7872038627
 20
19.6413843598
 11
12.8351822958
 21
20.0676566435
  0
LWPOLYLINE
  5
24D
100
AcDbEntity
  8
0
100
AcDbPolyline
 62
7
  6
CONTINUOUS
 90
4
 70
0
 10
13.3574972687
 20
19.2977317238
 10
13.3441813831
 20
19.2181212797
 10
13.3202469758
 20
19.0898252562
 10
13.297350908
 20
18.9773484137
  0
LINE
  5
24E
100
AcDbEntity
  8
0
100
AcDbLine
 62
7
  6
CONTINUOUS
 10
14.1974972687
 20
13.9180256623
 11
14.263158601
 21
14.031754426
  0
LINE
  5
24F
100
AcDbEntity
  8
0
100
AcDbLine
 62
9
  6
CONTINUOUS
 10
7.0480647713
 20
9.1595111879
 11
6.2069297661
 21
9.1595111879
  0
LINE
  5
250
100
AcDbEntity
  8
0
100
AcDbLine
 62
9
  6
CONTINUOUS
 10
6.6346672654
 20
9.2684193631
 11
6.6275258393
 21
9.2684677104
  0
LINE
  5
251
100
AcDbEntity
  8
0
100
AcDbLine
 62
7
  6
CONTINUOUS
 10
10.5069854576
 20
12.6052479897
 11
10.5260661056
 21
12.5465237935
  0
LINE
  5
252
100
AcDbEntity
  8
0
100
AcDbLine
 62
7
  6
CONTINUOUS
 10
10.4342874102
 20
12.9752957992
 11
10.4831760446
 21
12.6646133062
  0
LINE
  5
253
100
AcDbEntity
  8
0
100
AcDbLine
 62
9
  6
CONTINUOUS
 10
12.2149846572
 20
12.4876010617
 11
12.2149846572
 21
13.6319148298
  0
LINE
  5
254
100
AcDbEntity
  8
0
100
AcDbLine
 62
9
  6
CONTINUOUS
 10
12.4169854576
 20
12.4866724578
 11
12.4169854576
 21
13.6328434338
  0
LINE
  5
255
100
AcDbEntity
  8
0
100
AcDbLine
 62
9
  6
CONTINUOUS
 10
13.0675546207
 20
20.9066460636
 11
13.0675364518
 21
20.906438208
  0
LINE
  5
256
100
AcDbEntity
  8
0
100
AcDbLine
 62
9
  6
CONTINUOUS
 10
13.0874580855
 20
20.9082026583
 11
13.0874762544
 21
20.9084105139
  0
LINE
  5
257
100
AcDbEntity
  8
0
100
AcDbLine
 62
7
  6
CONTINUOUS
 10
12.9839300117
 20
13.9034408865
 11
12.9596450271
 21
13.8049056162
  0
LINE
  5
258
100
AcDbEntity
  8
0
100
AcDbLine
 62
9
  6
CONTINUOUS
 10
7.5052482642
 20
10.12417702
 11
13.0822725297
 21
11.2519093264
  0
LINE
  5
259
100
AcDbEntity
  8
0
100
AcDbLine
 62
7
  6
CONTINUOUS
 10
7.6041092238
 20
9.8065284309
 11
13.14304035
 21
10.6838089374
  0
LINE
  5
25A
100
AcDbEntity
  8
0
100
AcDbLine
 62
7
  6
CONTINUOUS
 10
10.6324854576
 20
12.5591047333
 11
10.6479854576
 21
12.5322579458
  0
LINE
  5
25B
100
AcDbEntity
  8
0
100
AcDbLine
 62
7
  6
CONTINUOUS
 10
13.2121402428
 20
18.227662086
 11
13.2030219367
 21
18.7291689176
  0
LINE
  5
25C
100
AcDbEntity
  8
0
100
AcDbLine
 62
7
  6
CONTINUOUS
 10
12.5874972687
 20
19.0997579458
 11
12.5874972687
 21
19.1807823535
  0
LINE
  5
25D
100
AcDbEntity
  8
0
100
AcDbLine
 62
9
  6
CONTINUOUS
 10
12.6223694374
 20
13.6597579458
 11
12.6223694374
 21
12.4597579458
  0
LINE
  5
25E
100
AcDbEntity
  8
0
100
AcDbLine
 62
7
  6
CONTINUOUS
 10
12.6973694374
 20
13.7347579458
 11
12.6973694374
 21
13.728499311
  0
LINE
  5
25F
100
AcDbEntity
  8
0
100
AcDbLine
 62
7
  6
CONTINUOUS
 10
12.6973694374
 20
13.4735483353
 11
12.6973694374
 21
13.3147089215
  0
LINE
  5
260
100
AcDbEntity
  8
0
100
AcDbLine
 62
7
  6
CONTINUOUS
 10
12.6973694374
 20
12.8048069701
 11
12.6973694374
 21
12.6459675563
  0
LINE
  5
261
100
AcDbEntity
  8
0
100
AcDbLine
 62
7
  6
CONTINUOUS
 10
12.6973694374
 20
12.3910165806
 11
12.6973694374
 21
12.3847579458
  0
LINE
  5
262
100
AcDbEntity
  8
0
100
AcDbLine
 62
7
  6
CONTINUOUS
 10
12.8024972687
 20
19.082392219
 11
12.8024972687
 21
19.0877579458
  0
LINE
  5
263
100
AcDbEntity
  8
0
100
AcDbLine
 62
7
  6
CONTINUOUS
 10
12.9219854576
 20
12.3847579458
 11
12.9219854576
 21
12.3910165806
  0
LINE
  5
264
100
AcDbEntity
  8
0
100
AcDbLine
 62
7
  6
CONTINUOUS
 10
12.9219854576
 20
12.6459675563
 11
12.9219854576
 21
12.8048069701
  0
LINE
  5
265
100
AcDbEntity
  8
0
100
AcDbLine
 62
7
  6
CONTINUOUS
 10
12.9219854576
 20
13.3147089215
 11
12.9219854576
 21
13.4735483353
  0
LINE
  5
266
100
AcDbEntity
  8
0
100
AcDbLine
 62
7
  6
CONTINUOUS
 10
12.9219854576
 20
13.728499311
 11
12.9219854576
 21
13.7347579458
  0
LINE
  5
267
100
AcDbEntity
  8
0
100
AcDbLine
 62
7
  6
CONTINUOUS
 10
12.9899972687
 20
14.3811122328
 11
12.9899972687
 21
14.0349390918
  0
LINE
  5
268
100
AcDbEntity
  8
0
100
AcDbLine
 62
7
  6
CONTINUOUS
 10
12.9900536772
 20
20.8219775089
 11
12.9900536772
 21
20.8170945557
  0
LINE
  5
269
100
AcDbEntity
  8
0
100
AcDbLine
 62
7
  6
CONTINUOUS
 10
12.9969854576
 20
12.4597579458
 11
12.9969854576
 21
13.6597579458
  0
LINE
  5
26A
100
AcDbEntity
  8
0
100
AcDbLine
 62
7
  6
CONTINUOUS
 10
12.9973519394
 20
14.3811122328
 11
12.9973519394
 21
14.0349390918
  0
LINE
  5
26B
100
AcDbEntity
  8
0
100
AcDbLine
 62
7
  6
CONTINUOUS
 10
12.9974972687
 20
19.0236382191
 11
12.9974972687
 21
19.0312264652
  0
LINE
  5
26C
100
AcDbEntity
  8
0
100
AcDbLine
 62
7
  6
CONTINUOUS
 10
13.0339972687
 20
14.6180256623
 11
13.0339972687
 21
14.5030256623
  0
LINE
  5
26D
100
AcDbEntity
  8
0
100
AcDbLine
 62
9
  6
CONTINUOUS
 10
13.04048003
 20
12.541090099
 11
13.0404808058
 21
13.5784259104
  0
LINE
  5
26E
100
AcDbEntity
  8
0
100
AcDbLine
 62
7
  6
CONTINUOUS
 10
13.0574972687
 20
11.911902625
 11
13.0574972687
 21
11.8684193631
  0
LINE
  5
26F
100
AcDbEntity
  8
0
100
AcDbLine
 62
9
  6
CONTINUOUS
 10
13.0675364518
 20
20.906438208
 11
13.0675364518
 21
20.9015552548
  0
LINE
  5
270
100
AcDbEntity
  8
0
100
AcDbLine
 62
9
  6
CONTINUOUS
 10
13.0874580855
 20
20.9033197051
 11
13.0874580855
 21
20.9082026583
  0
LINE
  5
271
100
AcDbEntity
  8
0
100
AcDbLine
 62
7
  6
CONTINUOUS
 10
13.1724972687
 20
18.9684107588
 11
13.1724972687
 21
18.9759990049
  0
LINE
  5
272
100
AcDbEntity
  8
0
100
AcDbLine
 62
7
  6
CONTINUOUS
 10
13.1774972687
 20
16.9381177721
 11
13.1774972687
 21
17.277910853
  0
LINE
  5
273
100
AcDbEntity
  8
0
100
AcDbLine
 62
9
  6
CONTINUOUS
 10
13.1796422544
 20
20.831240873
 11
13.1796422544
 21
20.8263579198
  0
LINE
  5
274
100
AcDbEntity
  8
0
100
AcDbLine
 62
7
  6
CONTINUOUS
 10
13.2288044183
 20
14.0349390918
 11
13.2288044183
 21
14.3811122328
  0
LINE
  5
275
100
AcDbEntity
  8
0
100
AcDbLine
 62
7
  6
CONTINUOUS
 10
13.3574972687
 20
20.3980256623
 11
13.3574972687
 21
-2.6423551111
  0
LINE
  5
276
100
AcDbEntity
  8
0
100
AcDbLine
 62
7
  6
CONTINUOUS
 10
13.2022603216
 20
18.7799276823
 11
13.2007923411
 21
18.7543265962
  0
LINE
  5
277
100
AcDbEntity
  8
0
100
AcDbLine
 62
7
  6
CONTINUOUS
 10
14.0509393121
 20
20.5520630206
 11
14.0753522829
 21
20.831240873
  0
LINE
  5
278
100
AcDbEntity
  8
0
100
AcDbLine
 62
9
  6
CONTINUOUS
 10
14.1600192264
 20
20.8129297058
 11
14.1155772959
 21
20.313596996
  0
LINE
  5
279
100
AcDbEntity
  8
0
100
AcDbLine
 62
9
  6
CONTINUOUS
 10
14.1354989297
 20
20.3118325457
 11
14.1799408602
 21
20.8111652555
  0
LINE
  5
27A
100
AcDbEntity
  8
0
100
AcDbLine
 62
7
  6
CONTINUOUS
 10
14.2646078037
 20
20.8095956419
 11
14.2201658732
 21
20.3102629322
  0
LINE
  5
27B
100
AcDbEntity
  8
0
100
AcDbLine
 62
7
  6
CONTINUOUS
 10
12.6529017663
 20
11.3776057714
 11
7.3878118913
 21
10.3541759738
  0
LINE
  5
27C
100
AcDbEntity
  8
0
100
AcDbLine
 62
7
  6
CONTINUOUS
 10
11.1007727532
 20
12.1170807228
 11
11.1582522698
 21
12.0349914658
  0
LINE
  5
27D
100
AcDbEntity
  8
0
100
AcDbLine
 62
7
  6
CONTINUOUS
 10
10.6169854576
 20
13.5872579458
 11
10.6324854576
 21
13.5604111583
  0
LINE
  5
27E
100
AcDbEntity
  8
0
100
AcDbLine
 62
7
  6
CONTINUOUS
 10
11.2169854576
 20
13.5872579458
 11
11.2679854576
 21
13.4302579458
  0
LWPOLYLINE
  5
27F
100
AcDbEntity
  8
0
100
AcDbPolyline
 62
7
  6
CONTINUOUS
 90
3
 70
0
 10
13.2007923255
 20
18.754326716
 10
13.2028586017
 20
18.7342316816
 10
13.2030219368
 20
18.7291689143
  0
LINE
  5
280
100
AcDbEntity
  8
0
100
AcDbLine
 62
7
  6
CONTINUOUS
 10
13.0348286641
 20
20.3102629322
 11
12.9903867336
 21
20.8095956419
  0
LINE
  5
281
100
AcDbEntity
  8
0
100
AcDbLine
 62
9
  6
CONTINUOUS
 10
13.1194956076
 20
20.3118325457
 11
13.0750536772
 21
20.8111652555
  0
LINE
  5
282
100
AcDbEntity
  8
0
100
AcDbLine
 62
9
  6
CONTINUOUS
 10
13.0949753109
 20
20.8129297058
 11
13.1394172414
 21
20.313596996
  0
LINE
  5
283
100
AcDbEntity
  8
0
100
AcDbLine
 62
7
  6
CONTINUOUS
 10
13.2040552252
 20
20.5520630206
 11
13.1796422544
 21
20.831240873
  0
LINE
  5
284
100
AcDbEntity
  8
0
100
AcDbLine
 62
7
  6
CONTINUOUS
 10
12.9903867336
 20
20.8095956419
 11
12.9900536772
 21
20.8170945557
  0
LINE
  5
285
100
AcDbEntity
  8
0
100
AcDbLine
 62
9
  6
CONTINUOUS
 10
13.1796406355
 20
20.8312773968
 11
13.1796422544
 21
20.831240873
  0
LINE
  5
286
100
AcDbEntity
  8
0
100
AcDbLine
 62
7
  6
CONTINUOUS
 10
13.8974972687
 20
20.3980256623
 11
13.8974972687
 21
-2.6423551111
  0
LINE
  5
287
100
AcDbEntity
  8
0
100
AcDbLine
 62
7
  6
CONTINUOUS
 10
14.026190119
 20
14.3811122328
 11
14.026190119
 21
14.0349390918
  0
LINE
  5
288
100
AcDbEntity
  8
0
100
AcDbLine
 62
9
  6
CONTINUOUS
 10
14.0753522829
 20
20.8263579198
 11
14.0753522829
 21
20.831240873
  0
LINE
  5
289
100
AcDbEntity
  8
0
100
AcDbLine
 62
7
  6
CONTINUOUS
 10
14.0774972687
 20
17.2779335525
 11
14.0774972687
 21
16.9381404717
  0
LINE
  5
28A
100
AcDbEntity
  8
0
100
AcDbLine
 62
7
  6
CONTINUOUS
 10
14.0824972687
 20
18.9684107588
 11
14.0824972687
 21
18.9759990049
  0
LINE
  5
28B
100
AcDbEntity
  8
0
100
AcDbLine
 62
9
  6
CONTINUOUS
 10
14.1675364518
 20
20.9082026583
 11
14.1675364518
 21
20.9033197051
  0
LINE
  5
28C
100
AcDbEntity
  8
0
100
AcDbLine
 62
9
  6
CONTINUOUS
 10
14.1874580855
 20
20.9015552548
 11
14.1874580855
 21
20.906438208
  0
LINE
  5
28D
100
AcDbEntity
  8
0
100
AcDbLine
 62
9
  6
CONTINUOUS
 10
14.2145145074
 20
13.5784257926
 11
14.2145137327
 21
12.5410899813
  0
LINE
  5
28E
100
AcDbEntity
  8
0
100
AcDbLine
 62
7
  6
CONTINUOUS
 10
14.2209972687
 20
14.6180256623
 11
14.2209972687
 21
14.5030256623
  0
LINE
  5
28F
100
AcDbEntity
  8
0
100
AcDbLine
 62
7
  6
CONTINUOUS
 10
14.0428542945
 20
18.227662086
 11
14.0519725984
 21
18.7291688005
  0
LINE
  5
290
100
AcDbEntity
  8
0
100
AcDbLine
 62
7
  6
CONTINUOUS
 10
14.054202193
 20
18.7543265225
 11
14.0546636934
 21
18.7696290304
  0
LWPOLYLINE
  5
291
100
AcDbEntity
  8
0
100
AcDbPolyline
 62
7
  6
CONTINUOUS
 90
3
 70
0
 10
14.0519725984
 20
18.7291687973
 10
14.0521361666
 20
18.734236592
 10
14.054202216
 20
18.754326638
  0
LINE
  5
292
100
AcDbEntity
  8
0
100
AcDbLine
 62
9
  6
CONTINUOUS
 10
14.0753522829
 20
20.831240873
 11
14.0753539019
 21
20.8312773968
  0
LINE
  5
293
100
AcDbEntity
  8
0
100
AcDbLine
 62
7
  6
CONTINUOUS
 10
14.2649408602
 20
20.8170945557
 11
14.2646078037
 21
20.8095956419
  0
LINE
  5
294
100
AcDbEntity
  8
0
100
AcDbLine
 62
9
  6
CONTINUOUS
 10
10.7077186455
 20
12.0349914658
 11
11.1582522698
 21
12.0349914658
  0
LINE
  5
295
100
AcDbEntity
  8
0
100
AcDbLine
 62
9
  6
CONTINUOUS
 10
11.1007727532
 20
12.1170807228
 11
10.765198162
 21
12.1170807228
  0
LINE
  5
296
100
AcDbEntity
  8
0
100
AcDbLine
 62
7
  6
CONTINUOUS
 10
10.7438945679
 20
12.1422579458
 11
11.1220763473
 21
12.1422579458
  0
LINE
  5
297
100
AcDbEntity
  8
0
100
AcDbLine
 62
9
  6
CONTINUOUS
 10
11.1239027509
 20
12.1671211044
 11
10.7420681644
 21
12.1671211044
  0
LINE
  5
298
100
AcDbEntity
  8
0
100
AcDbLine
 62
7
  6
CONTINUOUS
 10
14.1524972687
 20
12.2684193631
 11
13.8974972687
 21
12.2684193631
  0
LINE
  5
299
100
AcDbEntity
  8
0
100
AcDbLine
 62
7
  6
CONTINUOUS
 10
13.3546188447
 20
12.2684193631
 11
13.1024972687
 21
12.2684193631
  0
LINE
  5
29A
100
AcDbEntity
  8
0
100
AcDbLine
 62
9
  6
CONTINUOUS
 10
14.1543061045
 20
12.2803353485
 11
13.9100681309
 21
12.2803353485
  0
LINE
  5
29B
100
AcDbEntity
  8
0
100
AcDbLine
 62
9
  6
CONTINUOUS
 10
13.3449269788
 20
12.2803353485
 11
13.1006884328
 21
12.2803353485
  0
LINE
  5
29C
100
AcDbEntity
  8
0
100
AcDbLine
 62
7
  6
CONTINUOUS
 10
14.8429697096
 20
12.3187579458
 11
14.9049697096
 21
12.3187579458
  0
LINE
  5
29D
100
AcDbEntity
  8
0
100
AcDbLine
 62
7
  6
CONTINUOUS
 10
12.6973694374
 20
12.3847579458
 11
12.9219854576
 21
12.3847579458
  0
LINE
  5
29E
100
AcDbEntity
  8
0
100
AcDbLine
 62
7
  6
CONTINUOUS
 10
12.6973694374
 20
12.3910165806
 11
12.9219854576
 21
12.3910165806
  0
LINE
  5
29F
100
AcDbEntity
  8
0
100
AcDbLine
 62
7
  6
CONTINUOUS
 10
14.3798831391
 20
12.4222579458
 11
14.7260562801
 21
12.4222579458
  0
LINE
  5
2A0
100
AcDbEntity
  8
0
100
AcDbLine
 62
7
  6
CONTINUOUS
 10
14.3798831391
 20
12.4296126165
 11
14.7260562801
 21
12.4296126165
  0
LINE
  5
2A1
100
AcDbEntity
  8
0
100
AcDbLine
 62
7
  6
CONTINUOUS
 10
11.6039539616
 20
12.5097579458
 11
12.1700142891
 21
12.5097579458
  0
LINE
  5
2A2
100
AcDbEntity
  8
0
100
AcDbLine
 62
9
  6
CONTINUOUS
 10
11.0867847809
 20
12.5285919359
 11
10.7789578089
 21
12.5285919359
  0
LINE
  5
2A3
100
AcDbEntity
  8
0
100
AcDbLine
 62
7
  6
CONTINUOUS
 10
10.5457013605
 20
12.5322579458
 11
10.5260661056
 21
12.5465237935
  0
LINE
  5
2A4
100
AcDbEntity
  8
0
100
AcDbLine
 62
7
  6
CONTINUOUS
 10
10.765198162
 20
14.0024351688
 11
10.7077186455
 21
14.0845244258
  0
LINE
  5
2A5
100
AcDbEntity
  8
0
100
AcDbLine
 62
7
  6
CONTINUOUS
 10
13.0715045809
 20
12.3512810914
 11
13.1006884328
 21
12.2803353485
  0
LINE
  5
2A6
100
AcDbEntity
  8
0
100
AcDbLine
 62
7
  6
CONTINUOUS
 10
14.2574972687
 20
19.0236382191
 11
14.2574972687
 21
19.0312264652
  0
LINE
  5
2A7
100
AcDbEntity
  8
0
100
AcDbLine
 62
7
  6
CONTINUOUS
 10
14.257642598
 20
14.0349390918
 11
14.257642598
 21
14.3811122328
  0
LINE
  5
2A8
100
AcDbEntity
  8
0
100
AcDbLine
 62
7
  6
CONTINUOUS
 10
14.2580090797
 20
12.5924620903
 11
14.2580090797
 21
13.5277623495
  0
LINE
  5
2A9
100
AcDbEntity
  8
0
100
AcDbLine
 62
7
  6
CONTINUOUS
 10
14.2629697096
 20
13.6297546793
 11
14.2629697096
 21
12.4897612123
  0
LINE
  5
2AA
100
AcDbEntity
  8
0
100
AcDbLine
 62
7
  6
CONTINUOUS
 10
14.2649408602
 20
20.8170945557
 11
14.2649408602
 21
20.8219775089
  0
LINE
  5
2AB
100
AcDbEntity
  8
0
100
AcDbLine
 62
7
  6
CONTINUOUS
 10
14.2649972687
 20
14.3811122328
 11
14.2649972687
 21
14.0349390918
  0
LINE
  5
2AC
100
AcDbEntity
  8
0
100
AcDbLine
 62
7
  6
CONTINUOUS
 10
14.3798831391
 20
13.6972579458
 11
14.3798831391
 21
13.6899032751
  0
LINE
  5
2AD
100
AcDbEntity
  8
0
100
AcDbLine
 62
7
  6
CONTINUOUS
 10
14.3798831391
 20
13.4584507962
 11
14.3798831391
 21
13.2912104247
  0
LINE
  5
2AE
100
AcDbEntity
  8
0
100
AcDbLine
 62
7
  6
CONTINUOUS
 10
14.3798831391
 20
12.8283054669
 11
14.3798831391
 21
12.6610650954
  0
LINE
  5
2AF
100
AcDbEntity
  8
0
100
AcDbLine
 62
7
  6
CONTINUOUS
 10
14.3798831391
 20
12.4296126165
 11
14.3798831391
 21
12.4222579458
  0
LINE
  5
2B0
100
AcDbEntity
  8
0
100
AcDbLine
 62
7
  6
CONTINUOUS
 10
14.4524972687
 20
19.082392219
 11
14.4524972687
 21
19.0877579458
  0
LINE
  5
2B1
100
AcDbEntity
  8
0
100
AcDbLine
 62
7
  6
CONTINUOUS
 10
14.6674972687
 20
19.0997579458
 11
14.6674972687
 21
19.1807823535
  0
LINE
  5
2B2
100
AcDbEntity
  8
0
100
AcDbLine
 62
7
  6
CONTINUOUS
 10
14.7260562801
 20
12.4222579458
 11
14.7260562801
 21
12.4296126165
  0
LINE
  5
2B3
100
AcDbEntity
  8
0
100
AcDbLine
 62
7
  6
CONTINUOUS
 10
14.7260562801
 20
12.6610650954
 11
14.7260562801
 21
12.8283054669
  0
LINE
  5
2B4
100
AcDbEntity
  8
0
100
AcDbLine
 62
7
  6
CONTINUOUS
 10
14.7260562801
 20
13.2912104247
 11
14.7260562801
 21
13.4584507962
  0
LINE
  5
2B5
100
AcDbEntity
  8
0
100
AcDbLine
 62
7
  6
CONTINUOUS
 10
14.7260562801
 20
13.6899032751
 11
14.7260562801
 21
13.6972579458
  0
LINE
  5
2B6
100
AcDbEntity
  8
0
100
AcDbLine
 62
7
  6
CONTINUOUS
 10
14.8429697096
 20
13.8007579458
 11
14.8429697096
 21
12.3187579458
  0
LINE
  5
2B7
100
AcDbEntity
  8
0
100
AcDbLine
 62
7
  6
CONTINUOUS
 10
14.9049697096
 20
13.8717597767
 11
14.9049697096
 21
12.2477561149
  0
LINE
  5
2B8
100
AcDbEntity
  8
0
100
AcDbLine
 62
7
  6
CONTINUOUS
 10
10.5457013605
 20
12.5322579458
 11
10.6169854576
 21
12.5322579458
  0
LINE
  5
2B9
100
AcDbEntity
  8
0
100
AcDbLine
 62
9
  6
CONTINUOUS
 10
10.8398278987
 20
12.5507519696
 11
11.0258282815
 21
12.5507519696
  0
LINE
  5
2BA
100
AcDbEntity
  8
0
100
AcDbLine
 62
7
  6
CONTINUOUS
 10
12.9219854576
 20
12.6459675563
 11
12.6973694374
 21
12.6459675563
  0
LINE
  5
2BB
100
AcDbEntity
  8
0
100
AcDbLine
 62
7
  6
CONTINUOUS
 10
14.2629697096
 20
12.6497579458
 11
14.2580090797
 21
12.6497579458
  0
LINE
  5
2BC
100
AcDbEntity
  8
0
100
AcDbLine
 62
7
  6
CONTINUOUS
 10
14.7260562801
 20
12.6610650954
 11
14.3798831391
 21
12.6610650954
  0
LINE
  5
2BD
100
AcDbEntity
  8
0
100
AcDbLine
 62
7
  6
CONTINUOUS
 10
11.2679854576
 20
12.7162579458
 11
11.6269854576
 21
12.7162579458
  0
LINE
  5
2BE
100
AcDbEntity
  8
0
100
AcDbLine
 62
7
  6
CONTINUOUS
 10
12.6973694374
 20
12.8048069701
 11
12.9219854576
 21
12.8048069701
  0
LINE
  5
2BF
100
AcDbEntity
  8
0
100
AcDbLine
 62
7
  6
CONTINUOUS
 10
14.3798831391
 20
12.8283054669
 11
14.7260562801
 21
12.8283054669
  0
LINE
  5
2C0
100
AcDbEntity
  8
0
100
AcDbLine
 62
7
  6
CONTINUOUS
 10
11.6269854576
 20
12.8597579458
 11
11.6469854576
 21
12.8597579458
  0
LINE
  5
2C1
100
AcDbEntity
  8
0
100
AcDbLine
 62
7
  6
CONTINUOUS
 10
11.6269854576
 20
13.2597579458
 11
11.6469854576
 21
13.2597579458
  0
LINE
  5
2C2
100
AcDbEntity
  8
0
100
AcDbLine
 62
7
  6
CONTINUOUS
 10
14.7260562801
 20
13.2912104247
 11
14.3798831391
 21
13.2912104247
  0
LINE
  5
2C3
100
AcDbEntity
  8
0
100
AcDbLine
 62
7
  6
CONTINUOUS
 10
12.9219854576
 20
13.3147089215
 11
12.6973694374
 21
13.3147089215
  0
LINE
  5
2C4
100
AcDbEntity
  8
0
100
AcDbLine
 62
7
  6
CONTINUOUS
 10
12.6223694374
 20
12.4597579458
 11
12.69424012
 21
12.3878872632
  0
LINE
  5
2C5
100
AcDbEntity
  8
0
100
AcDbLine
 62
9
  6
CONTINUOUS
 10
14.1675182829
 20
20.9084105139
 11
14.1675364518
 21
20.9082026583
  0
LINE
  5
2C6
100
AcDbEntity
  8
0
100
AcDbLine
 62
9
  6
CONTINUOUS
 10
14.1874580855
 20
20.906438208
 11
14.1874399167
 21
20.9066460636
  0
LINE
  5
2C7
100
AcDbEntity
  8
0
100
AcDbLine
 62
7
  6
CONTINUOUS
 10
15.0921399995
 20
12.0597579458
 11
15.0921399995
 21
14.0597579458
  0
LINE
  5
2C8
100
AcDbEntity
  8
0
100
AcDbLine
 62
7
  6
CONTINUOUS
 10
15.2799697096
 20
11.8797579458
 11
15.2799697096
 21
14.2397579458
  0
LINE
  5
2C9
100
AcDbEntity
  8
0
100
AcDbLine
 62
7
  6
CONTINUOUS
 10
11.2679854576
 20
13.4032579458
 11
11.6269854576
 21
13.4032579458
  0
LINE
  5
2CA
100
AcDbEntity
  8
0
100
AcDbLine
 62
7
  6
CONTINUOUS
 10
14.3798831391
 20
13.4584507962
 11
14.7260562801
 21
13.4584507962
  0
LINE
  5
2CB
100
AcDbEntity
  8
0
100
AcDbLine
 62
7
  6
CONTINUOUS
 10
14.2629697096
 20
13.4697579458
 11
14.2580090797
 21
13.4697579458
  0
LINE
  5
2CC
100
AcDbEntity
  8
0
100
AcDbLine
 62
7
  6
CONTINUOUS
 10
12.6973694374
 20
13.4735483353
 11
12.9219854576
 21
13.4735483353
  0
LINE
  5
2CD
100
AcDbEntity
  8
0
100
AcDbLine
 62
9
  6
CONTINUOUS
 10
11.0260405173
 20
13.5687639219
 11
10.8400870983
 21
13.5687639219
  0
LINE
  5
2CE
100
AcDbEntity
  8
0
100
AcDbLine
 62
7
  6
CONTINUOUS
 10
10.5457013605
 20
13.5872579458
 11
10.6169854576
 21
13.5872579458
  0
LINE
  5
2CF
100
AcDbEntity
  8
0
100
AcDbLine
 62
9
  6
CONTINUOUS
 10
10.7791528641
 20
13.5909239556
 11
11.0869353849
 21
13.5909239556
  0
LINE
  5
2D0
100
AcDbEntity
  8
0
100
AcDbLine
 62
7
  6
CONTINUOUS
 10
11.6039539616
 20
13.6097579458
 11
12.1700142891
 21
13.6097579458
  0
LINE
  5
2D1
100
AcDbEntity
  8
0
100
AcDbLine
 62
7
  6
CONTINUOUS
 10
14.7260562801
 20
13.6899032751
 11
14.3798831391
 21
13.6899032751
  0
LINE
  5
2D2
100
AcDbEntity
  8
0
100
AcDbLine
 62
7
  6
CONTINUOUS
 10
14.3798831391
 20
13.6972579458
 11
14.7260562801
 21
13.6972579458
  0
LINE
  5
2D3
100
AcDbEntity
  8
0
100
AcDbLine
 62
7
  6
CONTINUOUS
 10
12.9219854576
 20
13.728499311
 11
12.6973694374
 21
13.728499311
  0
LINE
  5
2D4
100
AcDbEntity
  8
0
100
AcDbLine
 62
7
  6
CONTINUOUS
 10
12.6973694374
 20
13.7347579458
 11
12.9219854576
 21
13.7347579458
  0
LINE
  5
2D5
100
AcDbEntity
  8
0
100
AcDbLine
 62
7
  6
CONTINUOUS
 10
14.8429697096
 20
13.8007579458
 11
14.9049697096
 21
13.8007579458
  0
LINE
  5
2D6
100
AcDbEntity
  8
0
100
AcDbLine
 62
9
  6
CONTINUOUS
 10
12.9839300117
 20
13.9034408865
 11
13.3574972687
 21
13.9034408865
  0
LINE
  5
2D7
100
AcDbEntity
  8
0
100
AcDbLine
 62
9
  6
CONTINUOUS
 10
13.8974972687
 20
13.9034408865
 11
14.2710645256
 21
13.9034408865
  0
LINE
  5
2D8
100
AcDbEntity
  8
0
100
AcDbLine
 62
7
  6
CONTINUOUS
 10
14.2520487536
 20
13.9180256623
 11
13.8974972687
 21
13.9180256623
  0
LINE
  5
2D9
100
AcDbEntity
  8
0
100
AcDbLine
 62
7
  6
CONTINUOUS
 10
13.3574972687
 20
13.9180256623
 11
13.0029457837
 21
13.9180256623
  0
LINE
  5
2DA
100
AcDbEntity
  8
0
100
AcDbLine
 62
9
  6
CONTINUOUS
 10
10.7420681644
 20
13.9523947872
 11
11.1239027509
 21
13.9523947872
  0
LINE
  5
2DB
100
AcDbEntity
  8
0
100
AcDbLine
 62
7
  6
CONTINUOUS
 10
11.1220763473
 20
13.9772579458
 11
10.7438945679
 21
13.9772579458
  0
LINE
  5
2DC
100
AcDbEntity
  8
0
100
AcDbLine
 62
9
  6
CONTINUOUS
 10
10.765198162
 20
14.0024351688
 11
11.1007727532
 21
14.0024351688
  0
LINE
  5
2DD
100
AcDbEntity
  8
0
100
AcDbLine
 62
7
  6
CONTINUOUS
 10
12.9899972687
 20
14.0349390918
 11
12.9973519394
 21
14.0349390918
  0
LINE
  5
2DE
100
AcDbEntity
  8
0
100
AcDbLine
 62
7
  6
CONTINUOUS
 10
13.2288044183
 20
14.0349390918
 11
13.3574972687
 21
14.0349390918
  0
LINE
  5
2DF
100
AcDbEntity
  8
0
100
AcDbLine
 62
7
  6
CONTINUOUS
 10
13.8974972687
 20
14.0349390918
 11
14.026190119
 21
14.0349390918
  0
LINE
  5
2E0
100
AcDbEntity
  8
0
100
AcDbLine
 62
7
  6
CONTINUOUS
 10
14.257642598
 20
14.0349390918
 11
14.2649972687
 21
14.0349390918
  0
LINE
  5
2E1
100
AcDbEntity
  8
0
100
AcDbLine
 62
9
  6
CONTINUOUS
 10
11.1582522698
 20
14.0845244258
 11
10.7077186455
 21
14.0845244258
  0
LINE
  5
2E2
100
AcDbEntity
  8
0
100
AcDbLine
 62
7
  6
CONTINUOUS
 10
14.2629697096
 20
12.4897579458
 11
14.3766984733
 21
12.4240966134
  0
LINE
  5
2E3
100
AcDbEntity
  8
0
100
AcDbLine
 62
7
  6
CONTINUOUS
 10
12.925114775
 20
13.7316286284
 11
12.9969854576
 21
13.6597579458
  0
LINE
  5
2E4
100
AcDbEntity
  8
0
100
AcDbLine
 62
7
  6
CONTINUOUS
 10
13.0574972687
 20
13.9180256623
 11
12.9899972687
 21
14.0349390918
  0
LINE
  5
2E5
100
AcDbEntity
  8
0
100
AcDbLine
 62
7
  6
CONTINUOUS
 10
14.4677906746
 20
19.6413843598
 11
14.4198122416
 21
20.0676566435
  0
LINE
  5
2E6
100
AcDbEntity
  8
0
100
AcDbLine
 62
7
  6
CONTINUOUS
 10
14.2649972687
 20
14.3811122328
 11
14.257642598
 21
14.3811122328
  0
LINE
  5
2E7
100
AcDbEntity
  8
0
100
AcDbLine
 62
7
  6
CONTINUOUS
 10
14.026190119
 20
14.3811122328
 11
13.8974972687
 21
14.3811122328
  0
LINE
  5
2E8
100
AcDbEntity
  8
0
100
AcDbLine
 62
7
  6
CONTINUOUS
 10
13.3574972687
 20
14.3811122328
 11
13.2288044183
 21
14.3811122328
  0
LINE
  5
2E9
100
AcDbEntity
  8
0
100
AcDbLine
 62
7
  6
CONTINUOUS
 10
12.9973519394
 20
14.3811122328
 11
12.9899972687
 21
14.3811122328
  0
LINE
  5
2EA
100
AcDbEntity
  8
0
100
AcDbLine
 62
7
  6
CONTINUOUS
 10
14.1974940022
 20
14.4980256623
 11
13.8974972687
 21
14.4980256623
  0
LINE
  5
2EB
100
AcDbEntity
  8
0
100
AcDbLine
 62
7
  6
CONTINUOUS
 10
13.3574972687
 20
14.4980256623
 11
13.0575005352
 21
14.4980256623
  0
LINE
  5
2EC
100
AcDbEntity
  8
0
100
AcDbLine
 62
7
  6
CONTINUOUS
 10
13.0340006698
 20
14.5030256623
 11
13.3574972687
 21
14.5030256623
  0
LINE
  5
2ED
100
AcDbEntity
  8
0
100
AcDbLine
 62
7
  6
CONTINUOUS
 10
13.8974972687
 20
14.5030256623
 11
14.2209938675
 21
14.5030256623
  0
LINE
  5
2EE
100
AcDbEntity
  8
0
100
AcDbLine
 62
9
  6
CONTINUOUS
 10
14.2209972687
 20
14.6180256623
 11
13.8974972687
 21
14.6180256623
  0
LINE
  5
2EF
100
AcDbEntity
  8
0
100
AcDbLine
 62
9
  6
CONTINUOUS
 10
13.3574972687
 20
14.6180256623
 11
13.0339972687
 21
14.6180256623
  0
LINE
  5
2F0
100
AcDbEntity
  8
0
100
AcDbLine
 62
9
  6
CONTINUOUS
 10
13.0513187208
 20
14.6452148959
 11
13.3574972687
 21
14.6452148959
  0
LINE
  5
2F1
100
AcDbEntity
  8
0
100
AcDbLine
 62
9
  6
CONTINUOUS
 10
13.8974972687
 20
14.6452148959
 11
14.2036758165
 21
14.6452148959
  0
LINE
  5
2F2
100
AcDbEntity
  8
0
100
AcDbLine
 62
9
  6
CONTINUOUS
 10
14.1448664376
 20
14.6726381597
 11
13.8974972687
 21
14.6726381597
  0
LINE
  5
2F3
100
AcDbEntity
  8
0
100
AcDbLine
 62
9
  6
CONTINUOUS
 10
13.3574972687
 20
14.6726381597
 11
13.1101280997
 21
14.6726381597
  0
LINE
  5
2F4
100
AcDbEntity
  8
0
100
AcDbLine
 62
9
  6
CONTINUOUS
 10
14.0681249955
 20
14.7659204183
 11
13.8974972687
 21
14.7659204183
  0
LINE
  5
2F5
100
AcDbEntity
  8
0
100
AcDbLine
 62
9
  6
CONTINUOUS
 10
13.1868695418
 20
14.7659204183
 11
13.3574972687
 21
14.7659204183
  0
LINE
  5
2F6
100
AcDbEntity
  8
0
100
AcDbLine
 62
7
  6
CONTINUOUS
 10
14.8429697096
 20
13.6297579458
 11
14.7292409459
 21
13.6954192781
  0
LINE
  5
2F7
100
AcDbEntity
  8
0
100
AcDbLine
 62
7
  6
CONTINUOUS
 10
14.1974972687
 20
14.4980256623
 11
14.263158601
 21
14.3842968986
  0
LINE
  5
2F8
100
AcDbEntity
  8
0
100
AcDbLine
 62
7
  6
CONTINUOUS
 10
13.3472575406
 20
19.7631685537
 11
13.3574972687
 21
19.7341020203
  0
LINE
  5
2F9
100
AcDbEntity
  8
0
100
AcDbLine
 62
9
  6
CONTINUOUS
 10
14.0764409306
 20
15.4651348809
 11
13.8974972687
 21
15.4651348809
  0
LINE
  5
2FA
100
AcDbEntity
  8
0
100
AcDbLine
 62
9
  6
CONTINUOUS
 10
13.1785536067
 20
15.4651348809
 11
13.3574972687
 21
15.4651348809
  0
LINE
  5
2FB
100
AcDbEntity
  8
0
100
AcDbLine
 62
9
  6
CONTINUOUS
 10
14.0594577608
 20
15.5005383254
 11
13.8974972687
 21
15.5005383254
  0
LINE
  5
2FC
100
AcDbEntity
  8
0
100
AcDbLine
 62
9
  6
CONTINUOUS
 10
13.1955367766
 20
15.5005383254
 11
13.3574972687
 21
15.5005383254
  0
LINE
  5
2FD
100
AcDbEntity
  8
0
100
AcDbLine
 62
9
  6
CONTINUOUS
 10
14.0314445502
 20
15.5605719837
 11
13.8974972687
 21
15.5605719837
  0
LINE
  5
2FE
100
AcDbEntity
  8
0
100
AcDbLine
 62
9
  6
CONTINUOUS
 10
13.3574972687
 20
15.5605719837
 11
13.2235499871
 21
15.5605719837
  0
LINE
  5
2FF
100
AcDbEntity
  8
0
100
AcDbLine
 62
7
  6
CONTINUOUS
 10
14.1448664376
 20
14.6726381597
 11
14.2036758165
 21
14.6452148959
  0
LINE
  5
300
100
AcDbEntity
  8
0
100
AcDbLine
 62
7
  6
CONTINUOUS
 10
13.3473020802
 20
19.7630637864
 11
13.3468740877
 21
19.7640227179
  0
LINE
  5
301
100
AcDbEntity
  8
0
100
AcDbLine
 62
9
  6
CONTINUOUS
 10
13.2253544115
 20
16.1337725959
 11
13.3574972687
 21
16.1337725959
  0
LINE
  5
302
100
AcDbEntity
  8
0
100
AcDbLine
 62
9
  6
CONTINUOUS
 10
13.8974972687
 20
16.1337725959
 11
14.0296401258
 21
16.1337725959
  0
LINE
  5
303
100
AcDbEntity
  8
0
100
AcDbLine
 62
9
  6
CONTINUOUS
 10
14.0505741917
 20
16.190385911
 11
13.8974972687
 21
16.190385911
  0
LINE
  5
304
100
AcDbEntity
  8
0
100
AcDbLine
 62
9
  6
CONTINUOUS
 10
13.2044203456
 20
16.190385911
 11
13.3574972687
 21
16.190385911
  0
LINE
  5
305
100
AcDbEntity
  8
0
100
AcDbLine
 62
9
  6
CONTINUOUS
 10
14.0503304622
 20
16.2158178896
 11
13.8974972687
 21
16.2158178896
  0
LINE
  5
306
100
AcDbEntity
  8
0
100
AcDbLine
 62
9
  6
CONTINUOUS
 10
13.2046640752
 20
16.2158178896
 11
13.3574972687
 21
16.2158178896
  0
LINE
  5
307
100
AcDbEntity
  8
0
100
AcDbLine
 62
9
  6
CONTINUOUS
 10
14.0343725314
 20
16.5631839272
 11
13.8974972687
 21
16.5631666502
  0
LINE
  5
308
100
AcDbEntity
  8
0
100
AcDbLine
 62
9
  6
CONTINUOUS
 10
13.3574972687
 20
16.5631664226
 11
13.2206184613
 21
16.5631865704
  0
LINE
  5
309
100
AcDbEntity
  8
0
100
AcDbLine
 62
7
  6
CONTINUOUS
 10
13.3237683842
 20
17.9708491283
 11
13.1998371516
 21
18.1616864913
  0
LINE
  5
30A
100
AcDbEntity
  8
0
100
AcDbLine
 62
7
  6
CONTINUOUS
 10
13.3255988295
 20
19.8058516407
 11
13.3470478144
 21
19.7636388324
  0
LINE
  5
30B
100
AcDbEntity
  8
0
100
AcDbLine
 62
9
  6
CONTINUOUS
 10
13.8974972687
 20
17.1080256623
 11
13.3574972687
 21
17.1080256623
  0
LINE
  5
30C
100
AcDbEntity
  8
0
100
AcDbLine
 62
7
  6
CONTINUOUS
 10
13.3574972687
 20
16.7442949927
 11
13.2553723778
 21
16.8032568259
  0
LINE
  5
30D
100
AcDbEntity
  8
0
100
AcDbLine
 62
7
  6
CONTINUOUS
 10
13.2968154392
 20
19.8496421426
 11
13.2968122063
 21
19.849646422
  0
LINE
  5
30E
100
AcDbEntity
  8
0
100
AcDbLine
 62
7
  6
CONTINUOUS
 10
13.2968157438
 20
19.8496417338
 11
13.3059343304
 21
19.8370300577
  0
LINE
  5
30F
100
AcDbEntity
  8
0
100
AcDbLine
 62
7
  6
CONTINUOUS
 10
13.296974526
 20
19.8494279296
 11
13.30809935
 21
19.8338704946
  0
LINE
  5
310
100
AcDbEntity
  8
0
100
AcDbLine
 62
7
  6
CONTINUOUS
 10
13.3059343304
 20
19.8370300577
 11
13.3255988295
 21
19.8058516407
  0
LWPOLYLINE
  5
311
100
AcDbEntity
  8
0
100
AcDbPolyline
 62
7
  6
CONTINUOUS
 90
3
 70
0
 10
13.30809935
 20
19.8338704946
 10
13.3292727839
 20
19.7993230134
 10
13.3468742275
 20
19.7640223955
  0
LINE
  5
312
100
AcDbEntity
  8
0
100
AcDbLine
 62
7
  6
CONTINUOUS
 10
12.9661388207
 20
19.0495770153
 11
12.9653551147
 21
19.0494036089
  0
LINE
  5
313
100
AcDbEntity
  8
0
100
AcDbLine
 62
7
  6
CONTINUOUS
 10
13.1714984021
 20
18.9903851185
 11
13.1730506026
 21
18.9906901979
  0
LINE
  5
314
100
AcDbEntity
  8
0
100
AcDbLine
 62
7
  6
CONTINUOUS
 10
12.9201388207
 20
19.0573680997
 11
12.9209225267
 21
19.05751465
  0
LINE
  5
315
100
AcDbEntity
  8
0
100
AcDbLine
 62
7
  6
CONTINUOUS
 10
13.03691827
 20
19.0499783653
 11
13.0338368544
 21
19.0494036089
  0
LINE
  5
316
100
AcDbEntity
  8
0
100
AcDbLine
 62
7
  6
CONTINUOUS
 10
13.9640874908
 20
18.9391409239
 11
14.0742337504
 21
18.9585626813
  0
LINE
  5
317
100
AcDbEntity
  8
0
100
AcDbLine
 62
7
  6
CONTINUOUS
 10
14.0907607869
 20
18.9858470824
 11
14.1059690837
 21
18.9885287155
  0
LINE
  5
318
100
AcDbEntity
  8
0
100
AcDbLine
 62
7
  6
CONTINUOUS
 10
14.1514766109
 20
18.9965529203
 11
14.2492337504
 21
19.0137901416
  0
LINE
  5
319
100
AcDbEntity
  8
0
100
AcDbLine
 62
7
  6
CONTINUOUS
 10
14.2657607869
 20
19.0410745427
 11
14.3129972687
 21
19.0494036089
  0
LINE
  5
31A
100
AcDbEntity
  8
0
100
AcDbLine
 62
7
  6
CONTINUOUS
 10
14.3589972687
 20
19.05751465
 11
14.4442337504
 21
19.0725441415
  0
LINE
  5
31B
100
AcDbEntity
  8
0
100
AcDbLine
 62
7
  6
CONTINUOUS
 10
13.1270506026
 20
18.9982246019
 11
13.1286028032
 21
18.9984961596
  0
LINE
  5
31C
100
AcDbEntity
  8
0
100
AcDbLine
 62
9
  6
CONTINUOUS
 10
13.2610478691
 20
17.6808386762
 11
13.3574972687
 21
17.6808605844
  0
LINE
  5
31D
100
AcDbEntity
  8
0
100
AcDbLine
 62
9
  6
CONTINUOUS
 10
13.8974972687
 20
17.6808629562
 11
13.9939068838
 21
17.6808642032
  0
LINE
  5
31E
100
AcDbEntity
  8
0
100
AcDbLine
 62
9
  6
CONTINUOUS
 10
13.3237683842
 20
17.9708491283
 11
13.3574972687
 21
17.9708491283
  0
LINE
  5
31F
100
AcDbEntity
  8
0
100
AcDbLine
 62
9
  6
CONTINUOUS
 10
13.8974972687
 20
17.9708491283
 11
13.9312261531
 21
17.9708491283
  0
LINE
  5
320
100
AcDbEntity
  8
0
100
AcDbLine
 62
9
  6
CONTINUOUS
 10
14.0551573857
 20
18.1616864913
 11
13.8974972687
 21
18.1616864913
  0
LINE
  5
321
100
AcDbEntity
  8
0
100
AcDbLine
 62
9
  6
CONTINUOUS
 10
13.3574972687
 20
18.1616864913
 11
13.1998371516
 21
18.1616864913
  0
LINE
  5
322
100
AcDbEntity
  8
0
100
AcDbLine
 62
7
  6
CONTINUOUS
 10
14.029943484
 20
18.2080256623
 11
13.8974972687
 21
18.2080256623
  0
LINE
  5
323
100
AcDbEntity
  8
0
100
AcDbLine
 62
7
  6
CONTINUOUS
 10
13.3574972687
 20
18.2080256623
 11
13.2250510533
 21
18.2080256623
  0
LINE
  5
324
100
AcDbEntity
  8
0
100
AcDbLine
 62
9
  6
CONTINUOUS
 10
13.2121402428
 20
18.227662086
 11
13.3574972687
 21
18.227662086
  0
LINE
  5
325
100
AcDbEntity
  8
0
100
AcDbLine
 62
9
  6
CONTINUOUS
 10
13.8974972687
 20
18.227662086
 11
14.0428542945
 21
18.227662086
  0
LINE
  5
326
100
AcDbEntity
  8
0
100
AcDbLine
 62
7
  6
CONTINUOUS
 10
13.8974972687
 20
17.4717563319
 11
13.9996221595
 21
17.4127944987
  0
LINE
  5
327
100
AcDbEntity
  8
0
100
AcDbLine
 62
7
  6
CONTINUOUS
 10
13.255182874
 20
19.8975013616
 11
13.2968122063
 21
19.849646422
  0
LWPOLYLINE
  5
328
100
AcDbEntity
  8
0
100
AcDbPolyline
 62
7
  6
CONTINUOUS
 90
7
 70
0
 10
14.0187402372
 20
18.8191038079
 10
14.0089438377
 20
18.8305911567
 10
13.9869967551
 20
18.8733552932
 10
13.9629168104
 20
18.9545639005
 10
13.9386490362
 20
19.0695530335
 10
13.9128739303
 20
19.2068476213
 10
13.8974972687
 20
19.2981232665
  0
LINE
  5
329
100
AcDbEntity
  8
0
100
AcDbLine
 62
9
  6
CONTINUOUS
 10
14.0742337504
 20
18.9585626813
 11
13.9620115989
 21
18.9585626813
  0
LINE
  5
32A
100
AcDbEntity
  8
0
100
AcDbLine
 62
9
  6
CONTINUOUS
 10
13.292343102
 20
18.9585626813
 11
13.1807860279
 21
18.9585626813
  0
LINE
  5
32B
100
AcDbEntity
  8
0
100
AcDbLine
 62
9
  6
CONTINUOUS
 10
13.1724972687
 20
18.9684107588
 11
13.294968353
 21
18.9684107588
  0
LINE
  5
32C
100
AcDbEntity
  8
0
100
AcDbLine
 62
9
  6
CONTINUOUS
 10
13.9599334563
 20
18.9684107588
 11
14.0824972687
 21
18.9684107588
  0
LINE
  5
32D
100
AcDbEntity
  8
0
100
AcDbLine
 62
9
  6
CONTINUOUS
 10
14.0824972687
 20
18.9759990049
 11
13.9583321837
 21
18.9759990049
  0
LINE
  5
32E
100
AcDbEntity
  8
0
100
AcDbLine
 62
9
  6
CONTINUOUS
 10
13.2969911894
 20
18.9759990049
 11
13.1724972687
 21
18.9759990049
  0
LINE
  5
32F
100
AcDbEntity
  8
0
100
AcDbLine
 62
9
  6
CONTINUOUS
 10
13.1642337504
 20
18.9858470824
 11
13.2990809183
 21
18.9858470824
  0
LINE
  5
330
100
AcDbEntity
  8
0
100
AcDbLine
 62
9
  6
CONTINUOUS
 10
13.9562540412
 20
18.9858470824
 11
14.0907483197
 21
18.9858470824
  0
LINE
  5
331
100
AcDbEntity
  8
0
100
AcDbLine
 62
9
  6
CONTINUOUS
 10
14.2492337504
 20
19.0137901416
 11
13.952670997
 21
19.0137901416
  0
LINE
  5
332
100
AcDbEntity
  8
0
100
AcDbLine
 62
9
  6
CONTINUOUS
 10
13.3047690774
 20
19.0137901416
 11
13.0057762561
 21
19.0137901416
  0
LINE
  5
333
100
AcDbEntity
  8
0
100
AcDbLine
 62
9
  6
CONTINUOUS
 10
12.9974972687
 20
19.0236382191
 11
13.3067737768
 21
19.0236382191
  0
LINE
  5
334
100
AcDbEntity
  8
0
100
AcDbLine
 62
9
  6
CONTINUOUS
 10
13.9482793508
 20
19.0236382191
 11
14.2574972687
 21
19.0236382191
  0
LINE
  5
335
100
AcDbEntity
  8
0
100
AcDbLine
 62
9
  6
CONTINUOUS
 10
14.2574972687
 20
19.0312264652
 11
13.9466780782
 21
19.0312264652
  0
LINE
  5
336
100
AcDbEntity
  8
0
100
AcDbLine
 62
9
  6
CONTINUOUS
 10
13.3083184591
 20
19.0312264652
 11
12.9974972687
 21
19.0312264652
  0
LINE
  5
337
100
AcDbEntity
  8
0
100
AcDbLine
 62
9
  6
CONTINUOUS
 10
12.9892337504
 20
19.0410745427
 11
13.3103231585
 21
19.0410745427
  0
LINE
  5
338
100
AcDbEntity
  8
0
100
AcDbLine
 62
9
  6
CONTINUOUS
 10
13.9446109022
 20
19.0410745427
 11
14.2657512353
 21
19.0410745427
  0
LINE
  5
339
100
AcDbEntity
  8
0
100
AcDbLine
 62
9
  6
CONTINUOUS
 10
14.4442337504
 20
19.0725441415
 11
13.9379966685
 21
19.0725441415
  0
LINE
  5
33A
100
AcDbEntity
  8
0
100
AcDbLine
 62
9
  6
CONTINUOUS
 10
13.3167291888
 20
19.0725441415
 11
12.8107720869
 21
19.0725441415
  0
LINE
  5
33B
100
AcDbEntity
  8
0
100
AcDbLine
 62
9
  6
CONTINUOUS
 10
12.8024972687
 20
19.082392219
 11
13.3187338881
 21
19.082392219
  0
LINE
  5
33C
100
AcDbEntity
  8
0
100
AcDbLine
 62
9
  6
CONTINUOUS
 10
13.9361485086
 20
19.082392219
 11
14.4524972687
 21
19.082392219
  0
LINE
  5
33D
100
AcDbEntity
  8
0
100
AcDbLine
 62
9
  6
CONTINUOUS
 10
14.4524972687
 20
19.0877579458
 11
13.9351415384
 21
19.0877579458
  0
LINE
  5
33E
100
AcDbEntity
  8
0
100
AcDbLine
 62
9
  6
CONTINUOUS
 10
13.3198261489
 20
19.0877579458
 11
12.8024972687
 21
19.0877579458
  0
LINE
  5
33F
100
AcDbEntity
  8
0
100
AcDbLine
 62
7
  6
CONTINUOUS
 10
12.5875678703
 20
19.0997579458
 11
13.3220999797
 21
19.0997579458
  0
LINE
  5
340
100
AcDbEntity
  8
0
100
AcDbLine
 62
7
  6
CONTINUOUS
 10
13.9328895335
 20
19.0997579458
 11
14.667426667
 21
19.0997579458
  0
LINE
  5
341
100
AcDbEntity
  8
0
100
AcDbLine
 62
9
  6
CONTINUOUS
 10
14.6674972687
 20
19.1807823535
 11
13.9176839201
 21
19.1807823535
  0
LINE
  5
342
100
AcDbEntity
  8
0
100
AcDbLine
 62
9
  6
CONTINUOUS
 10
13.3372155782
 20
19.1807823535
 11
12.5874972687
 21
19.1807823535
  0
LINE
  5
343
100
AcDbEntity
  8
0
100
AcDbLine
 62
9
  6
CONTINUOUS
 10
14.6552865902
 20
19.2135232634
 11
13.9116366266
 21
19.2135232634
  0
LINE
  5
344
100
AcDbEntity
  8
0
100
AcDbLine
 62
9
  6
CONTINUOUS
 10
13.3433235951
 20
19.2135232634
 11
12.5997079471
 21
19.2135232634
  0
LINE
  5
345
100
AcDbEntity
  8
0
100
AcDbLine
 62
7
  6
CONTINUOUS
 10
13.2873337101
 20
18.9397709995
 11
13.1807607869
 21
18.9585626813
  0
LINE
  5
346
100
AcDbEntity
  8
0
100
AcDbLine
 62
7
  6
CONTINUOUS
 10
13.1642337504
 20
18.9858470824
 11
13.0057607869
 21
19.0137901416
  0
LINE
  5
347
100
AcDbEntity
  8
0
100
AcDbLine
 62
7
  6
CONTINUOUS
 10
12.9892337504
 20
19.0410745427
 11
12.9419972687
 21
19.0494036089
  0
LINE
  5
348
100
AcDbEntity
  8
0
100
AcDbLine
 62
7
  6
CONTINUOUS
 10
12.8959972687
 20
19.05751465
 11
12.8107607869
 21
19.0725441415
  0
LINE
  5
349
100
AcDbEntity
  8
0
100
AcDbLine
 62
7
  6
CONTINUOUS
 10
14.0336632838
 20
18.8096123659
 11
14.012721069
 21
18.8261619403
  0
LINE
  5
34A
100
AcDbEntity
  8
0
100
AcDbLine
 62
7
  6
CONTINUOUS
 10
13.2339510039
 20
19.9174288756
 11
13.2339450221
 21
19.9174341388
  0
LINE
  5
34B
100
AcDbEntity
  8
0
100
AcDbLine
 62
7
  6
CONTINUOUS
 10
13.2339534211
 20
19.91742675
 11
13.2568878333
 21
19.8957852771
  0
LINE
  5
34C
100
AcDbEntity
  8
0
100
AcDbLine
 62
9
  6
CONTINUOUS
 10
12.7872038627
 20
19.6413843598
 11
13.3574972687
 21
19.6413843598
  0
LINE
  5
34D
100
AcDbEntity
  8
0
100
AcDbLine
 62
9
  6
CONTINUOUS
 10
13.8974972687
 20
19.6413843598
 11
14.4677747046
 21
19.6413843598
  0
LINE
  5
34E
100
AcDbEntity
  8
0
100
AcDbLine
 62
9
  6
CONTINUOUS
 10
14.4198122416
 20
20.0676566435
 11
14.1379398198
 21
20.0676566435
  0
LINE
  5
34F
100
AcDbEntity
  8
0
100
AcDbLine
 62
9
  6
CONTINUOUS
 10
13.1170528961
 20
20.0676566435
 11
12.8351822958
 21
20.0676566435
  0
LINE
  5
350
100
AcDbEntity
  8
0
100
AcDbLine
 62
7
  6
CONTINUOUS
 10
14.0807220881
 20
18.9978765388
 11
14.0770485937
 21
18.9984961596
  0
LINE
  5
351
100
AcDbEntity
  8
0
100
AcDbLine
 62
7
  6
CONTINUOUS
 10
14.221157683
 20
19.0494036089
 11
14.2180762672
 21
19.0499635029
  0
LINE
  5
352
100
AcDbEntity
  8
0
100
AcDbLine
 62
7
  6
CONTINUOUS
 10
14.0383955826
 20
18.9903851185
 11
14.0347220881
 21
18.9910566195
  0
LINE
  5
353
100
AcDbEntity
  8
0
100
AcDbLine
 62
7
  6
CONTINUOUS
 10
14.1516224812
 20
18.9983980723
 11
14.1511339653
 21
18.9984961596
  0
LINE
  5
354
100
AcDbEntity
  8
0
100
AcDbLine
 62
7
  6
CONTINUOUS
 10
14.3340720106
 20
19.05751465
 11
14.3348557166
 21
19.0573542405
  0
LINE
  5
355
100
AcDbEntity
  8
0
100
AcDbLine
 62
7
  6
CONTINUOUS
 10
14.2896394226
 20
19.0494036089
 11
14.2888557166
 21
19.049564135
  0
LINE
  5
356
100
AcDbEntity
  8
0
100
AcDbLine
 62
7
  6
CONTINUOUS
 10
14.106110997
 20
18.9903851185
 11
14.1056224812
 21
18.990494396
  0
LINE
  5
357
100
AcDbEntity
  8
0
100
AcDbLine
 62
9
  6
CONTINUOUS
 10
13.0949753109
 20
20.8129297058
 11
13.0750536772
 21
20.8111652555
  0
LINE
  5
358
100
AcDbEntity
  8
0
100
AcDbLine
 62
9
  6
CONTINUOUS
 10
13.0675364518
 20
20.9015552548
 11
13.0874580855
 21
20.9033197051
  0
LINE
  5
359
100
AcDbEntity
  8
0
100
AcDbLine
 62
9
  6
CONTINUOUS
 10
13.0874580855
 20
20.9082026583
 11
13.0675364518
 21
20.906438208
  0
LINE
  5
35A
100
AcDbEntity
  8
0
100
AcDbLine
 62
7
  6
CONTINUOUS
 10
13.0874762544
 20
20.9084105139
 11
13.0675546207
 21
20.9066460636
  0
LINE
  5
35B
100
AcDbEntity
  8
0
100
AcDbLine
 62
7
  6
CONTINUOUS
 10
13.4417980805
 20
20.7730256623
 11
13.8131934823
 21
20.7730256623
  0
LINE
  5
35C
100
AcDbEntity
  8
0
100
AcDbLine
 62
9
  6
CONTINUOUS
 10
14.1799408602
 20
20.8111652555
 11
14.1600192264
 21
20.8129297058
  0
LINE
  5
35D
100
AcDbEntity
  8
0
100
AcDbLine
 62
9
  6
CONTINUOUS
 10
14.1675364518
 20
20.9033197051
 11
14.1874580855
 21
20.9015552548
  0
LINE
  5
35E
100
AcDbEntity
  8
0
100
AcDbLine
 62
9
  6
CONTINUOUS
 10
14.1874580855
 20
20.906438208
 11
14.1675364518
 21
20.9082026583
  0
LINE
  5
35F
100
AcDbEntity
  8
0
100
AcDbLine
 62
7
  6
CONTINUOUS
 10
14.1874399167
 20
20.9066460636
 11
14.1675182829
 21
20.9084105139
  0
ARC
  5
360
100
AcDbEntity
  8
0
100
AcDbCircle
 62
9
  6
CONTINUOUS
 10
8.5749300752
 20
11.6119106716
 40
4.9017736506
100
AcDbArc
 50
24.8744364705
 51
25.2442896077
  0
ARC
  5
361
100
AcDbEntity
  8
0
100
AcDbCircle
 62
9
  6
CONTINUOUS
 10
9.1480168881
 20
11.8855716659
 40
4.2668166214
100
AcDbArc
 50
23.5262751285
 51
23.9423010905
  0
ARC
  5
362
100
AcDbEntity
  8
0
100
AcDbCircle
 62
9
  6
CONTINUOUS
 10
9.4226491756
 20
12.0050346886
 40
3.967335767
100
AcDbArc
 50
23.9750339776
 51
24.8733157579
  0
ARC
  5
363
100
AcDbEntity
  8
0
100
AcDbCircle
 62
7
  6
CONTINUOUS
 10
7.6556008908
 20
8.9779477311
 40
1.4020396301
100
AcDbArc
 50
101.0111250739
 51
116.1939332303
  0
ARC
  5
364
100
AcDbEntity
  8
0
100
AcDbCircle
 62
7
  6
CONTINUOUS
 10
7.6549535295
 20
8.9798933434
 40
1.3999987061
100
AcDbArc
 50
116.2050583041
 51
167.7275758417
  0
ARC
  5
365
100
AcDbEntity
  8
0
100
AcDbCircle
 62
9
  6
CONTINUOUS
 10
7.7292505257
 20
9.0163807894
 40
1.1302193563
100
AcDbArc
 50
101.4313762069
 51
167.1118475276
  0
ARC
  5
366
100
AcDbEntity
  8
0
100
AcDbCircle
 62
7
  6
CONTINUOUS
 10
7.7292585851
 20
9.0163771695
 40
0.79999589
100
AcDbArc
 50
99.0001199719
 51
159.6674447467
  0
ARC
  5
367
100
AcDbEntity
  8
0
100
AcDbCircle
 62
7
  6
CONTINUOUS
 10
7.0730980238
 20
9.2596232445
 40
0.1001970444
100
AcDbArc
 50
159.7215876261
 51
215.9888606984
  0
ARC
  5
368
100
AcDbEntity
  8
0
100
AcDbCircle
 62
7
  6
CONTINUOUS
 10
6.3848045582
 20
9.2561983746
 40
0.1001546476
100
AcDbArc
 50
167.7320884079
 51
176.7400623358
  0
ARC
  5
369
100
AcDbEntity
  8
0
100
AcDbCircle
 62
9
  6
CONTINUOUS
 10
13.3660042432
 20
-12.3015612978
 40
24.2202453432
100
AcDbArc
 50
88.0675691066
 51
88.5629662062
  0
ARC
  5
36A
100
AcDbEntity
  8
0
100
AcDbCircle
 62
7
  6
CONTINUOUS
 10
13.6274972687
 20
-2.6499743377
 40
0.27
100
AcDbArc
 50
180.0
 51
360.0
  0
ARC
  5
36B
100
AcDbEntity
  8
0
100
AcDbCircle
 62
7
  6
CONTINUOUS
 10
11.1652776918
 20
12.3294786547
 40
1.3600000002
100
AcDbArc
 50
108.7559867838
 51
112.3561036553
  0
ARC
  5
36C
100
AcDbEntity
  8
0
100
AcDbCircle
 62
7
  6
CONTINUOUS
 10
10.6949036422
 20
12.3314591651
 40
1.3599999998
100
AcDbArc
 50
67.4255442889
 51
70.9862258001
  0
ARC
  5
36D
100
AcDbEntity
  8
0
100
AcDbCircle
 62
7
  6
CONTINUOUS
 10
11.0093741625
 20
12.0309964012
 40
0.5488194273
100
AcDbArc
 50
116.4421966476
 51
117.9030085512
  0
ARC
  5
36E
100
AcDbEntity
  8
0
100
AcDbCircle
 62
7
  6
CONTINUOUS
 10
11.0057809245
 20
12.0381960808
 40
0.5407728993
100
AcDbArc
 50
115.9874661228
 51
116.4409942342
  0
ARC
  5
36F
100
AcDbEntity
  8
0
100
AcDbCircle
 62
7
  6
CONTINUOUS
 10
10.9329854576
 20
11.8772579458
 40
0.275
100
AcDbArc
 50
144.9999999999
 51
35.0000000001
  0
ARC
  5
370
100
AcDbEntity
  8
0
100
AcDbCircle
 62
7
  6
CONTINUOUS
 10
10.5714854576
 20
12.3498819868
 40
0.25
100
AcDbArc
 50
313.0260516848
 51
42.2893926641
  0
ARC
  5
371
100
AcDbEntity
  8
0
100
AcDbCircle
 62
7
  6
CONTINUOUS
 10
10.5121858046
 20
12.6722579458
 40
0.03
100
AcDbArc
 50
194.7630312681
 51
259.9904422976
  0
ARC
  5
372
100
AcDbEntity
  8
0
100
AcDbCircle
 62
7
  6
CONTINUOUS
 10
11.1129854576
 20
12.1554244079
 40
0.016
100
AcDbArc
 50
304.6234510998
 51
46.9739483152
  0
ARC
  5
373
100
AcDbEntity
  8
0
100
AcDbCircle
 62
7
  6
CONTINUOUS
 10
10.7529854576
 20
12.1554244079
 40
0.016
100
AcDbArc
 50
133.0260516848
 51
235.3765489002
  0
ARC
  5
374
100
AcDbEntity
  8
0
100
AcDbCircle
 62
7
  6
CONTINUOUS
 10
10.7520917293
 20
12.1262579458
 40
0.016
100
AcDbArc
 50
325.0000000002
 51
59.999999999
  0
ARC
  5
375
100
AcDbEntity
  8
0
100
AcDbCircle
 62
7
  6
CONTINUOUS
 10
11.113879186
 20
12.1262579458
 40
0.016
100
AcDbArc
 50
119.9999999986
 51
214.9999999998
  0
ARC
  5
376
100
AcDbEntity
  8
0
100
AcDbCircle
 62
7
  6
CONTINUOUS
 10
11.1652776918
 20
13.7900372369
 40
1.3600000002
100
AcDbArc
 50
247.6438963447
 51
251.2440132161
  0
ARC
  5
377
100
AcDbEntity
  8
0
100
AcDbCircle
 62
7
  6
CONTINUOUS
 10
10.6949155954
 20
13.7880218373
 40
1.35996312
100
AcDbArc
 50
289.0137769684
 51
292.5741287927
  0
ARC
  5
378
100
AcDbEntity
  8
0
100
AcDbCircle
 62
7
  6
CONTINUOUS
 10
10.8396023181
 20
14.1205761323
 40
0.5851018025
100
AcDbArc
 50
297.8907636393
 51
299.5626903678
  0
ARC
  5
379
100
AcDbEntity
  8
0
100
AcDbCircle
 62
7
  6
CONTINUOUS
 10
10.8556421259
 20
14.09038024
 40
0.5509102167
100
AcDbArc
 50
296.4025776947
 51
297.8854195551
  0
ARC
  5
37A
100
AcDbEntity
  8
0
100
AcDbCircle
 62
7
  6
CONTINUOUS
 10
10.8584070018
 20
14.0848403345
 40
0.5447186966
100
AcDbArc
 50
296.1346107237
 51
296.4012085683
  0
CIRCLE
  5
37B
100
AcDbEntity
  8
0
100
AcDbCircle
 62
7
  6
CONTINUOUS
 10
10.9329854576
 20
13.0597579458
 40
0.275
  0
ARC
  5
37C
100
AcDbEntity
  8
0
100
AcDbCircle
 62
7
  6
CONTINUOUS
 10
10.5714854576
 20
13.7696339047
 40
0.25
100
AcDbArc
 50
317.6973434598
 51
46.9739483152
  0
ARC
  5
37D
100
AcDbEntity
  8
0
100
AcDbCircle
 62
7
  6
CONTINUOUS
 10
10.5121858046
 20
13.4472579458
 40
0.03
100
AcDbArc
 50
100.0095577024
 51
165.2369687319
  0
ARC
  5
37E
100
AcDbEntity
  8
0
100
AcDbCircle
 62
7
  6
CONTINUOUS
 10
10.7529854576
 20
13.9640914837
 40
0.016
100
AcDbArc
 50
124.6234510998
 51
226.9739483152
  0
ARC
  5
37F
100
AcDbEntity
  8
0
100
AcDbCircle
 62
7
  6
CONTINUOUS
 10
11.1129854576
 20
13.9640914837
 40
0.016
100
AcDbArc
 50
313.0260516848
 51
55.3765489002
  0
ARC
  5
380
100
AcDbEntity
  8
0
100
AcDbCircle
 62
7
  6
CONTINUOUS
 10
11.113879186
 20
13.9932579458
 40
0.016
100
AcDbArc
 50
145.0000000002
 51
240.0000000014
  0
ARC
  5
381
100
AcDbEntity
  8
0
100
AcDbCircle
 62
7
  6
CONTINUOUS
 10
10.7520917293
 20
13.9932579458
 40
0.016
100
AcDbArc
 50
300.000000001
 51
34.9999999998
  0
ARC
  5
382
100
AcDbEntity
  8
0
100
AcDbCircle
 62
7
  6
CONTINUOUS
 10
11.5787724997
 20
11.4116205365
 40
1.25
100
AcDbArc
 50
59.4047719508
 51
85.5994342384
  0
ARC
  5
383
100
AcDbEntity
  8
0
100
AcDbCircle
 62
7
  6
CONTINUOUS
 10
11.2944854576
 20
12.3498819868
 40
0.25
100
AcDbArc
 50
137.6968963757
 51
226.9739483152
  0
ARC
  5
384
100
AcDbEntity
  8
0
100
AcDbCircle
 62
7
  6
CONTINUOUS
 10
11.4939539616
 20
12.6147579458
 40
0.08
100
AcDbArc
 50
0.0
 51
90.0
  0
ARC
  5
385
100
AcDbEntity
  8
0
100
AcDbCircle
 62
7
  6
CONTINUOUS
 10
11.6769854576
 20
12.6878470896
 40
0.03
100
AcDbArc
 50
180.0
 51
265.5994342397
  0
ARC
  5
386
100
AcDbEntity
  8
0
100
AcDbCircle
 62
7
  6
CONTINUOUS
 10
11.6039539616
 20
12.5397579458
 40
0.03
100
AcDbArc
 50
180.0
 51
270.0
  0
ARC
  5
387
100
AcDbEntity
  8
0
100
AcDbCircle
 62
7
  6
CONTINUOUS
 10
11.8731249236
 20
13.2601848616
 40
2.4827188018
100
AcDbArc
 50
9.2965967709
 51
15.0162737825
  0
ARC
  5
388
100
AcDbEntity
  8
0
100
AcDbCircle
 62
7
  6
CONTINUOUS
 10
11.8731249236
 20
13.2601848616
 40
2.4827188018
100
AcDbArc
 50
336.7547341089
 51
344.3390810972
  0
ARC
  5
389
100
AcDbEntity
  8
0
100
AcDbCircle
 62
7
  6
CONTINUOUS
 10
11.9826558697
 20
13.0597586886
 40
1.5506704121
100
AcDbArc
 50
165.2369989814
 51
194.7630039052
  0
ARC
  5
38A
100
AcDbEntity
  8
0
100
AcDbCircle
 62
7
  6
CONTINUOUS
 10
11.2944854576
 20
13.7696339047
 40
0.25
100
AcDbArc
 50
133.0260516848
 51
222.2934326119
  0
ARC
  5
38B
100
AcDbEntity
  8
0
100
AcDbCircle
 62
7
  6
CONTINUOUS
 10
11.4939539616
 20
13.5047579458
 40
0.08
100
AcDbArc
 50
270.0
 51
360.0
  0
ARC
  5
38C
100
AcDbEntity
  8
0
100
AcDbCircle
 62
7
  6
CONTINUOUS
 10
11.6769854576
 20
13.4316688019
 40
0.03
100
AcDbArc
 50
94.4005657603
 51
180.0
  0
ARC
  5
38D
100
AcDbEntity
  8
0
100
AcDbCircle
 62
7
  6
CONTINUOUS
 10
11.6039539616
 20
13.5797579458
 40
0.03
100
AcDbArc
 50
90.0
 51
180.0
  0
ARC
  5
38E
100
AcDbEntity
  8
0
100
AcDbCircle
 62
7
  6
CONTINUOUS
 10
11.8374972687
 20
15.0995286744
 40
1.39
100
AcDbArc
 50
346.1131090765
 51
15.2496931708
  0
ARC
  5
38F
100
AcDbEntity
  8
0
100
AcDbCircle
 62
7
  6
CONTINUOUS
 10
11.5787724997
 20
14.707895355
 40
1.25
100
AcDbArc
 50
274.4005657616
 51
300.5952280492
  0
ARC
  5
390
100
AcDbEntity
  8
0
100
AcDbCircle
 62
7
  6
CONTINUOUS
 10
10.9329854576
 20
14.2422579458
 40
0.275
100
AcDbArc
 50
324.9999999999
 51
215.0000000001
  0
ARC
  5
391
100
AcDbEntity
  8
0
100
AcDbCircle
 62
7
  6
CONTINUOUS
 10
13.6274972687
 20
9.7134492692
 40
3.9093008025
100
AcDbArc
 50
93.9722188191
 51
98.6361306251
  0
ARC
  5
392
100
AcDbEntity
  8
0
100
AcDbCircle
 62
7
  6
CONTINUOUS
 10
13.6274972687
 20
9.7134492692
 40
3.9093008025
100
AcDbArc
 50
81.3638693749
 51
86.0277837167
  0
ARC
  5
393
100
AcDbEntity
  8
0
100
AcDbCircle
 62
7
  6
CONTINUOUS
 10
12.9469763787
 20
11.9197827464
 40
1.2514281191
100
AcDbArc
 50
279.0137900908
 51
289.2044457875
  0
ARC
  5
394
100
AcDbEntity
  8
0
100
AcDbCircle
 62
7
  6
CONTINUOUS
 10
12.9474878115
 20
11.9184228483
 40
1.25
100
AcDbArc
 50
319.4790737315
 51
359.7503849747
  0
ARC
  5
395
100
AcDbEntity
  8
0
100
AcDbCircle
 62
9
  6
CONTINUOUS
 10
12.9471783404
 20
11.91890922
 40
0.680582767
100
AcDbArc
 50
281.4409571471
 51
307.3242347711
  0
ARC
  5
396
100
AcDbEntity
  8
0
100
AcDbCircle
 62
7
  6
CONTINUOUS
 10
12.5574899468
 20
11.8684253988
 40
0.5
100
AcDbArc
 50
281.000691627
 51
359.999308373
  0
ARC
  5
397
100
AcDbEntity
  8
0
100
AcDbCircle
 62
7
  6
CONTINUOUS
 10
12.7152714262
 20
13.8599384811
 40
0.2504939574
100
AcDbArc
 50
329.0890734131
 51
347.308723034
  0
ARC
  5
398
100
AcDbEntity
  8
0
100
AcDbCircle
 62
7
  6
CONTINUOUS
 10
12.8072569232
 20
11.9118193267
 40
0.2502375488
100
AcDbArc
 50
0.0190722468
 51
38.1059407666
  0
ARC
  5
399
100
AcDbEntity
  8
0
100
AcDbCircle
 62
7
  6
CONTINUOUS
 10
12.8388912973
 20
12.2597687148
 40
0.2499649866
100
AcDbArc
 50
21.475175248
 51
51.8596549426
  0
ARC
  5
39A
100
AcDbEntity
  8
0
100
AcDbCircle
 62
7
  6
CONTINUOUS
 10
12.7208005915
 20
13.8568299017
 40
0.2441532854
100
AcDbArc
 50
327.9091067133
 51
329.0484046795
  0
ARC
  5
39B
100
AcDbEntity
  8
0
100
AcDbCircle
 62
7
  6
CONTINUOUS
 10
12.3167786024
 20
13.4597579458
 40
0.2
100
AcDbArc
 50
59.9315492034
 51
120.5952280491
  0
ARC
  5
39C
100
AcDbEntity
  8
0
100
AcDbCircle
 62
7
  6
CONTINUOUS
 10
12.3167786024
 20
12.6597579458
 40
0.2
100
AcDbArc
 50
239.4047719509
 51
300.0684507966
  0
ARC
  5
39D
100
AcDbEntity
  8
0
100
AcDbCircle
 62
7
  6
CONTINUOUS
 10
12.5021612846
 20
12.339549793
 40
0.17
100
AcDbArc
 50
44.9999999999
 51
120.0684507965
  0
ARC
  5
39E
100
AcDbEntity
  8
0
100
AcDbCircle
 62
7
  6
CONTINUOUS
 10
12.5021612846
 20
13.7799660986
 40
0.17
100
AcDbArc
 50
239.9315492035
 51
315.0000000001
  0
ARC
  5
39F
100
AcDbEntity
  8
0
100
AcDbCircle
 62
7
  6
CONTINUOUS
 10
13.1024972687
 20
12.1434193631
 40
0.125
100
AcDbArc
 50
90.0
 51
218.124911622
  0
ARC
  5
3A0
100
AcDbEntity
  8
0
100
AcDbCircle
 62
7
  6
CONTINUOUS
 10
13.04816656
 20
13.527825175
 40
0.0511811024
100
AcDbArc
 50
98.6361306251
 51
180.0
  0
ARC
  5
3A1
100
AcDbEntity
  8
0
100
AcDbCircle
 62
7
  6
CONTINUOUS
 10
13.04816656
 20
12.5916907165
 40
0.0511811024
100
AcDbArc
 50
180.0
 51
261.3638693749
  0
ARC
  5
3A2
100
AcDbEntity
  8
0
100
AcDbCircle
 62
7
  6
CONTINUOUS
 10
13.1187755159
 20
12.2881044025
 40
0.0196850394
100
AcDbArc
 50
203.2452658911
 51
270.0
  0
ARC
  5
3A3
100
AcDbEntity
  8
0
100
AcDbCircle
 62
7
  6
CONTINUOUS
 10
13.0029428517
 20
13.8983406229
 40
0.0196850394
100
AcDbArc
 50
90.0
 51
164.9837262175
  0
ARC
  5
3A4
100
AcDbEntity
  8
0
100
AcDbCircle
 62
7
  6
CONTINUOUS
 10
12.1332102222
 20
14.5911290736
 40
4.5310526434
100
AcDbArc
 50
80.0126059352
 51
80.1612984979
  0
ARC
  5
3A5
100
AcDbEntity
  8
0
100
AcDbCircle
 62
7
  6
CONTINUOUS
 10
12.2374669738
 20
15.1829116921
 40
3.930155661
100
AcDbArc
 50
79.7178753017
 51
79.842851793
  0
ARC
  5
3A6
100
AcDbEntity
  8
0
100
AcDbCircle
 62
7
  6
CONTINUOUS
 10
13.6274972687
 20
16.4060666223
 40
3.9093008025
100
AcDbArc
 50
261.3638693749
 51
266.0277811809
  0
ARC
  5
3A7
100
AcDbEntity
  8
0
100
AcDbCircle
 62
7
  6
CONTINUOUS
 10
13.6274972687
 20
16.4060666223
 40
3.9093008025
100
AcDbArc
 50
273.9722162833
 51
278.6361306251
  0
ARC
  5
3A8
100
AcDbEntity
  8
0
100
AcDbCircle
 62
7
  6
CONTINUOUS
 10
13.0724972687
 20
15.8441563826
 40
1.0
100
AcDbArc
 50
343.5257501351
 51
16.8349806732
  0
ARC
  5
3A9
100
AcDbEntity
  8
0
100
AcDbCircle
 62
7
  6
CONTINUOUS
 10
13.0950016587
 20
16.3949053281
 40
0.2099956099
100
AcDbArc
 50
301.4808058443
 51
53.250856315
  0
ARC
  5
3AA
100
AcDbEntity
  8
0
100
AcDbCircle
 62
7
  6
CONTINUOUS
 10
13.0509615431
 20
14.7995212499
 40
0.14
100
AcDbArc
 50
295.0
 51
346.1131090765
  0
ARC
  5
3AB
100
AcDbEntity
  8
0
100
AcDbCircle
 62
7
  6
CONTINUOUS
 10
13.1774972687
 20
16.1482534066
 40
0.05
100
AcDbArc
 50
343.1650193268
 51
57.4210296069
  0
ARC
  5
3AC
100
AcDbEntity
  8
0
100
AcDbCircle
 62
7
  6
CONTINUOUS
 10
13.1756026231
 20
15.5463927638
 40
0.05
100
AcDbArc
 50
293.4958766063
 51
16.4742498649
  0
ARC
  5
3AD
100
AcDbEntity
  8
0
100
AcDbCircle
 62
7
  6
CONTINUOUS
 10
13.2074972687
 20
15.4730256623
 40
0.03
100
AcDbArc
 50
113.4958766065
 51
195.2496931702
  0
ARC
  5
3AE
100
AcDbEntity
  8
0
100
AcDbCircle
 62
7
  6
CONTINUOUS
 10
13.0639972687
 20
14.6180256623
 40
0.03
100
AcDbArc
 50
115.0
 51
180.0
  0
ARC
  5
3AF
100
AcDbEntity
  8
0
100
AcDbCircle
 62
7
  6
CONTINUOUS
 10
13.2124972687
 20
16.2030256623
 40
0.015
100
AcDbArc
 50
121.4808058442
 51
237.421029607
  0
ARC
  5
3B0
100
AcDbEntity
  8
0
100
AcDbCircle
 62
7
  6
CONTINUOUS
 10
13.1484288796
 20
17.8569823226
 40
0.2090683891
100
AcDbArc
 50
302.6049200261
 51
32.9999999999
  0
ARC
  5
3B1
100
AcDbEntity
  8
0
100
AcDbCircle
 62
7
  6
CONTINUOUS
 10
13.2249972687
 20
18.1780256623
 40
0.03
100
AcDbArc
 50
90.0
 51
212.9999999993
  0
ARC
  5
3B2
100
AcDbEntity
  8
0
100
AcDbCircle
 62
7
  6
CONTINUOUS
 10
13.2321369378
 20
18.2280256623
 40
0.02
100
AcDbArc
 50
181.041626676
 51
270.0
  0
ARC
  5
3B3
100
AcDbEntity
  8
0
100
AcDbCircle
 62
7
  6
CONTINUOUS
 10
13.6274952334
 20
17.1080233153
 40
0.6799977679
100
AcDbArc
 50
306.7493993262
 51
57.3950425943
  0
ARC
  5
3B4
100
AcDbEntity
  8
0
100
AcDbCircle
 62
7
  6
CONTINUOUS
 10
13.6274929506
 20
17.1080293735
 40
0.6799916316
100
AcDbArc
 50
122.6047638572
 51
233.2513447265
  0
ARC
  5
3B5
100
AcDbEntity
  8
0
100
AcDbCircle
 62
7
  6
CONTINUOUS
 10
13.6274972687
 20
17.1080256623
 40
0.5172452508
100
AcDbArc
 50
301.5716005984
 51
58.5382526351
  0
ARC
  5
3B6
100
AcDbEntity
  8
0
100
AcDbCircle
 62
7
  6
CONTINUOUS
 10
13.6274972687
 20
17.1080256623
 40
0.5172452508
100
AcDbArc
 50
121.512364224
 51
238.5470556386
  0
ARC
  5
3B7
100
AcDbEntity
  8
0
100
AcDbCircle
 62
7
  6
CONTINUOUS
 10
13.6274972687
 20
17.1080256623
 40
0.5
100
AcDbArc
 50
303.0595487442
 51
56.9404512558
  0
ARC
  5
3B8
100
AcDbEntity
  8
0
100
AcDbCircle
 62
7
  6
CONTINUOUS
 10
13.6274972687
 20
17.1080256623
 40
0.5
100
AcDbArc
 50
123.0595487442
 51
236.9404512558
  0
ARC
  5
3B9
100
AcDbEntity
  8
0
100
AcDbCircle
 62
7
  6
CONTINUOUS
 10
13.6274972687
 20
17.1080256623
 40
0.481
100
AcDbArc
 50
140.6826645581
 51
159.3173354419
  0
ARC
  5
3BA
100
AcDbEntity
  8
0
100
AcDbCircle
 62
7
  6
CONTINUOUS
 10
13.6274972687
 20
17.1080256623
 40
0.481
100
AcDbArc
 50
200.6826645581
 51
219.317335442
  0
ARC
  5
3BB
100
AcDbEntity
  8
0
100
AcDbCircle
 62
7
  6
CONTINUOUS
 10
13.6274972687
 20
17.1080256623
 40
0.481
100
AcDbArc
 50
320.6826645581
 51
339.3173354419
  0
ARC
  5
3BC
100
AcDbEntity
  8
0
100
AcDbCircle
 62
7
  6
CONTINUOUS
 10
13.6274972687
 20
17.1080256623
 40
0.481
100
AcDbArc
 50
20.6826645581
 51
39.317335442
  0
ARC
  5
3BD
100
AcDbEntity
  8
0
100
AcDbCircle
 62
7
  6
CONTINUOUS
 10
13.6274972687
 20
17.1080256623
 40
0.4165551275
100
AcDbArc
 50
130.9199922388
 51
229.0943347759
  0
ARC
  5
3BE
100
AcDbEntity
  8
0
100
AcDbCircle
 62
7
  6
CONTINUOUS
 10
13.6274972687
 20
17.1080256623
 40
0.4165551275
100
AcDbArc
 50
310.9199922387
 51
49.0943347758
  0
ARC
  5
3BF
100
AcDbEntity
  8
0
100
AcDbCircle
 62
7
  6
CONTINUOUS
 10
13.6274972687
 20
17.1080256623
 40
0.3
100
AcDbArc
 50
155.5552320955
 51
204.4970793227
  0
ARC
  5
3C0
100
AcDbEntity
  8
0
100
AcDbCircle
 62
7
  6
CONTINUOUS
 10
13.6274972687
 20
17.1080256623
 40
0.3
100
AcDbArc
 50
335.5552320955
 51
24.4970793227
  0
ARC
  5
3C1
100
AcDbEntity
  8
0
100
AcDbCircle
 62
9
  6
CONTINUOUS
 10
13.486327675
 20
18.7666660026
 40
0.2857783469
100
AcDbArc
 50
187.7138811443
 51
191.6668833967
  0
ARC
  5
3C2
100
AcDbEntity
  8
0
100
AcDbCircle
 62
9
  6
CONTINUOUS
 10
1.0092239489
 20
21.9837788327
 40
13.2028142495
100
AcDbArc
 50
354.9122243463
 51
355.0549952705
  0
ARC
  5
3C3
100
AcDbEntity
  8
0
100
AcDbCircle
 62
9
  6
CONTINUOUS
 10
12.7995346888
 20
19.5444555532
 40
0.6369202464
100
AcDbArc
 50
28.7646472104
 51
30.275769049
  0
ARC
  5
3C4
100
AcDbEntity
  8
0
100
AcDbCircle
 62
7
  6
CONTINUOUS
 10
12.6374972687
 20
19.1807823535
 40
0.05
100
AcDbArc
 50
139.0941338576
 51
180.0
  0
ARC
  5
3C5
100
AcDbEntity
  8
0
100
AcDbCircle
 62
7
  6
CONTINUOUS
 10
12.8124972687
 20
19.082392219
 40
0.01
100
AcDbArc
 50
180.0
 51
260.0000000007
  0
ARC
  5
3C6
100
AcDbEntity
  8
0
100
AcDbCircle
 62
7
  6
CONTINUOUS
 10
12.7924972687
 20
19.0877579458
 40
0.01
100
AcDbArc
 50
0.0
 51
90.0
  0
ARC
  5
3C7
100
AcDbEntity
  8
0
100
AcDbCircle
 62
7
  6
CONTINUOUS
 10
12.0041482399
 20
19.7295200028
 40
0.788
100
AcDbArc
 50
319.0941338575
 51
353.5781868592
  0
ARC
  5
3C8
100
AcDbEntity
  8
0
100
AcDbCircle
 62
7
  6
CONTINUOUS
 10
12.8920359264
 20
19.5585758703
 40
0.4991063396
100
AcDbArc
 50
28.3295735096
 51
33.9036154818
  0
ARC
  5
3C9
100
AcDbEntity
  8
0
100
AcDbCircle
 62
7
  6
CONTINUOUS
 10
12.9022668012
 20
19.5638605672
 40
0.4875582566
100
AcDbArc
 50
24.2372692445
 51
28.3777212386
  0
ARC
  5
3CA
100
AcDbEntity
  8
0
100
AcDbCircle
 62
7
  6
CONTINUOUS
 10
12.9038207193
 20
19.5648909846
 40
0.4857361917
100
AcDbArc
 50
24.1519830494
 51
28.3335388916
  0
ARC
  5
3CB
100
AcDbEntity
  8
0
100
AcDbCircle
 62
7
  6
CONTINUOUS
 10
12.9159060186
 20
19.5620655455
 40
0.4771362255
100
AcDbArc
 50
35.1559439644
 51
37.0518446175
  0
ARC
  5
3CC
100
AcDbEntity
  8
0
100
AcDbCircle
 62
7
  6
CONTINUOUS
 10
12.9136568324
 20
19.5690000884
 40
0.4750622876
100
AcDbArc
 50
22.0614899821
 51
24.1093361877
  0
ARC
  5
3CD
100
AcDbEntity
  8
0
100
AcDbCircle
 62
7
  6
CONTINUOUS
 10
12.9177385238
 20
19.56332582
 40
0.4749123213
100
AcDbArc
 50
31.8871643115
 51
35.158933348
  0
ARC
  5
3CE
100
AcDbEntity
  8
0
100
AcDbCircle
 62
7
  6
CONTINUOUS
 10
12.9164351753
 20
19.5701805156
 40
0.4720440039
100
AcDbArc
 50
20.0921550624
 51
24.07841429
  0
ARC
  5
3CF
100
AcDbEntity
  8
0
100
AcDbCircle
 62
7
  6
CONTINUOUS
 10
12.9217242001
 20
19.5657942939
 40
0.4702241566
100
AcDbArc
 50
29.2805926216
 51
31.8883181378
  0
ARC
  5
3D0
100
AcDbEntity
  8
0
100
AcDbCircle
 62
7
  6
CONTINUOUS
 10
12.93114354
 20
19.5709537405
 40
0.4594848727
100
AcDbArc
 50
24.8796773976
 51
29.2938885724
  0
ARC
  5
3D1
100
AcDbEntity
  8
0
100
AcDbCircle
 62
7
  6
CONTINUOUS
 10
12.9364826721
 20
19.5735671767
 40
0.4535417556
100
AcDbArc
 50
20.3612239403
 51
24.8639311761
  0
ARC
  5
3D2
100
AcDbEntity
  8
0
100
AcDbCircle
 62
9
  6
CONTINUOUS
 10
12.8725479151
 20
18.9690060367
 40
0.4409313555
100
AcDbArc
 50
336.8234707135
 51
338.8027487104
  0
ARC
  5
3D3
100
AcDbEntity
  8
0
100
AcDbCircle
 62
7
  6
CONTINUOUS
 10
12.9874972687
 20
19.0312264652
 40
0.01
100
AcDbArc
 50
0.0
 51
79.9999999997
  0
ARC
  5
3D4
100
AcDbEntity
  8
0
100
AcDbCircle
 62
7
  6
CONTINUOUS
 10
13.0074972687
 20
19.0236382191
 40
0.01
100
AcDbArc
 50
180.0
 51
259.9999999997
  0
ARC
  5
3D5
100
AcDbEntity
  8
0
100
AcDbCircle
 62
7
  6
CONTINUOUS
 10
13.1824972687
 20
18.9684107588
 40
0.01
100
AcDbArc
 50
180.0
 51
259.9999999997
  0
ARC
  5
3D6
100
AcDbEntity
  8
0
100
AcDbCircle
 62
7
  6
CONTINUOUS
 10
13.1624972687
 20
18.9759990049
 40
0.01
100
AcDbArc
 50
0.0
 51
79.9999999997
  0
ARC
  5
3D7
100
AcDbEntity
  8
0
100
AcDbCircle
 62
7
  6
CONTINUOUS
 10
13.5983634104
 20
19.9817579458
 40
0.768
100
AcDbArc
 50
139.3333712227
 51
173.5781868591
  0
ARC
  5
3D8
100
AcDbEntity
  8
0
100
AcDbCircle
 62
7
  6
CONTINUOUS
 10
13.6267373044
 20
20.3635696964
 40
0.5944052165
100
AcDbArc
 50
228.255581894
 51
228.6385471537
  0
ARC
  5
3D9
100
AcDbEntity
  8
0
100
AcDbCircle
 62
7
  6
CONTINUOUS
 10
13.6256788344
 20
20.3628904977
 40
0.5931866134
100
AcDbArc
 50
185.0934830459
 51
228.2881835969
  0
ARC
  5
3DA
100
AcDbEntity
  8
0
100
AcDbCircle
 62
9
  6
CONTINUOUS
 10
13.5182465686
 20
20.3797017483
 40
0.5410932565
100
AcDbArc
 50
251.8381193906
 51
252.6962779274
  0
ARC
  5
3DB
100
AcDbEntity
  8
0
100
AcDbCircle
 62
7
  6
CONTINUOUS
 10
13.6274972687
 20
20.3997579458
 40
0.54
100
AcDbArc
 50
35.6423298651
 51
144.2885995424
  0
ARC
  5
3DC
100
AcDbEntity
  8
0
100
AcDbCircle
 62
9
  6
CONTINUOUS
 10
13.6257959405
 20
20.3570208927
 40
0.5083142289
100
AcDbArc
 50
185.1002521689
 51
237.7914438727
  0
ARC
  5
3DD
100
AcDbEntity
  8
0
100
AcDbCircle
 62
9
  6
CONTINUOUS
 10
13.6260570041
 20
20.3571051898
 40
0.4885885681
100
AcDbArc
 50
185.1089650604
 51
236.3611559111
  0
ARC
  5
3DE
100
AcDbEntity
  8
0
100
AcDbCircle
 62
7
  6
CONTINUOUS
 10
13.6274972687
 20
20.3980256623
 40
0.45
100
AcDbArc
 50
307.2240652511
 51
232.7816773979
  0
ARC
  5
3DF
100
AcDbEntity
  8
0
100
AcDbCircle
 62
7
  6
CONTINUOUS
 10
13.6274972687
 20
20.3997579458
 40
0.45
100
AcDbArc
 50
19.7362337178
 51
160.2637662822
  0
ARC
  5
3E0
100
AcDbEntity
  8
0
100
AcDbCircle
 62
7
  6
CONTINUOUS
 10
13.6274972687
 20
20.3980256623
 40
0.4290186125
100
AcDbArc
 50
309.4716690467
 51
230.5345767392
  0
ARC
  5
3E1
100
AcDbEntity
  8
0
100
AcDbCircle
 62
7
  6
CONTINUOUS
 10
13.6274972687
 20
20.3980256623
 40
0.4262436548
100
AcDbArc
 50
309.7787508711
 51
230.2132620092
  0
ARC
  5
3E2
100
AcDbEntity
  8
0
100
AcDbCircle
 62
7
  6
CONTINUOUS
 10
13.6274972687
 20
20.3980256623
 40
0.4184602369
100
AcDbArc
 50
63.6555586134
 51
116.3444413866
  0
ARC
  5
3E3
100
AcDbEntity
  8
0
100
AcDbCircle
 62
9
  6
CONTINUOUS
 10
13.6274972687
 20
20.3980256623
 40
0.4106539279
100
AcDbArc
 50
311.1953908491
 51
65.9483211188
  0
ARC
  5
3E4
100
AcDbEntity
  8
0
100
AcDbCircle
 62
9
  6
CONTINUOUS
 10
13.6274972687
 20
20.3980256623
 40
0.4106539279
100
AcDbArc
 50
114.052058634
 51
228.8046021794
  0
ARC
  5
3E5
100
AcDbEntity
  8
0
100
AcDbCircle
 62
9
  6
CONTINUOUS
 10
13.6274972687
 20
20.3980256623
 40
0.3906653701
100
AcDbArc
 50
106.2804921621
 51
225.7982183496
  0
ARC
  5
3E6
100
AcDbEntity
  8
0
100
AcDbCircle
 62
9
  6
CONTINUOUS
 10
13.6274972687
 20
20.3980256623
 40
0.3906653701
100
AcDbArc
 50
314.2019388065
 51
73.7195078379
  0
ARC
  5
3E7
100
AcDbEntity
  8
0
100
AcDbCircle
 62
7
  6
CONTINUOUS
 10
13.6274972687
 20
20.3980256623
 40
0.27
100
AcDbArc
 50
0.0
 51
180.0
  0
ARC
  5
3E8
100
AcDbEntity
  8
0
100
AcDbCircle
 62
7
  6
CONTINUOUS
 10
13.6566311269
 20
19.9817579458
 40
0.768
100
AcDbArc
 50
6.4218131409
 51
40.621475991
  0
ARC
  5
3E9
100
AcDbEntity
  8
0
100
AcDbCircle
 62
7
  6
CONTINUOUS
 10
13.6282547685
 20
20.3635723934
 40
0.594408859
100
AcDbArc
 50
311.3614521551
 51
311.7444232085
  0
ARC
  5
3EA
100
AcDbEntity
  8
0
100
AcDbCircle
 62
7
  6
CONTINUOUS
 10
13.6292328711
 20
20.3629328326
 40
0.5932769295
100
AcDbArc
 50
311.7150685438
 51
354.9031548094
  0
ARC
  5
3EB
100
AcDbEntity
  8
0
100
AcDbCircle
 62
9
  6
CONTINUOUS
 10
13.7367535745
 20
20.3796859696
 40
0.5410765165
100
AcDbArc
 50
287.3037926102
 51
288.1618374076
  0
ARC
  5
3EC
100
AcDbEntity
  8
0
100
AcDbCircle
 62
9
  6
CONTINUOUS
 10
13.6292042712
 20
20.3570178309
 40
0.5083079749
100
AcDbArc
 50
302.2085301478
 51
354.9000347335
  0
ARC
  5
3ED
100
AcDbEntity
  8
0
100
AcDbCircle
 62
9
  6
CONTINUOUS
 10
13.6289437557
 20
20.3571014295
 40
0.4885815728
100
AcDbArc
 50
303.6385357311
 51
354.8914091846
  0
ARC
  5
3EE
100
AcDbEntity
  8
0
100
AcDbCircle
 62
9
  6
CONTINUOUS
 10
12.9721584801
 20
21.9714700106
 40
1.1648581658
100
AcDbArc
 50
273.4695299525
 51
275.0677022162
  0
ARC
  5
3EF
100
AcDbEntity
  8
0
100
AcDbCircle
 62
9
  6
CONTINUOUS
 10
13.5497180246
 20
20.5323049016
 40
0.6956724125
100
AcDbArc
 50
248.5335770915
 51
249.6682730965
  0
ARC
  5
3F0
100
AcDbEntity
  8
0
100
AcDbCircle
 62
7
  6
CONTINUOUS
 10
13.0949753436
 20
20.8237420078
 40
0.0849999544
100
AcDbArc
 50
5.1071745457
 51
95.0614793209
  0
ARC
  5
3F1
100
AcDbEntity
  8
0
100
AcDbCircle
 62
7
  6
CONTINUOUS
 10
13.0750448039
 20
20.8219799307
 40
0.0849911268
100
AcDbArc
 50
95.0644421613
 51
180.0016326431
  0
ARC
  5
3F2
100
AcDbEntity
  8
0
100
AcDbCircle
 62
9
  6
CONTINUOUS
 10
13.0950536481
 20
20.8187123973
 40
0.084940704
100
AcDbArc
 50
5.1646329295
 51
95.1299370546
  0
ARC
  5
3F3
100
AcDbEntity
  8
0
100
AcDbCircle
 62
7
  6
CONTINUOUS
 10
13.0749104248
 20
20.817009831
 40
0.0848587779
100
AcDbArc
 50
94.9846702855
 51
179.9427934305
  0
ARC
  5
3F4
100
AcDbEntity
  8
0
100
AcDbCircle
 62
9
  6
CONTINUOUS
 10
13.0952493712
 20
20.823707897
 40
0.0847284159
100
AcDbArc
 50
5.1007488871
 51
95.070317556
  0
ARC
  5
3F5
100
AcDbEntity
  8
0
100
AcDbCircle
 62
9
  6
CONTINUOUS
 10
13.0746704452
 20
20.8219921525
 40
0.0846115284
100
AcDbArc
 50
95.0470330977
 51
180.0099196875
  0
ARC
  5
3F6
100
AcDbEntity
  8
0
100
AcDbCircle
 62
7
  6
CONTINUOUS
 10
15.0778816691
 20
14.8423284317
 40
4.2760458896
100
AcDbArc
 50
99.8343329046
 51
99.9916017438
  0
ARC
  5
3F7
100
AcDbEntity
  8
0
100
AcDbCircle
 62
7
  6
CONTINUOUS
 10
15.4174972687
 20
15.0995286744
 40
1.39
100
AcDbArc
 50
164.7503068292
 51
193.8868909235
  0
ARC
  5
3F8
100
AcDbEntity
  8
0
100
AcDbCircle
 62
7
  6
CONTINUOUS
 10
14.1824972687
 20
15.8441563826
 40
1.0
100
AcDbArc
 50
163.1650193268
 51
196.4742498649
  0
ARC
  5
3F9
100
AcDbEntity
  8
0
100
AcDbCircle
 62
7
  6
CONTINUOUS
 10
14.4477201366
 20
11.9118018698
 40
0.2502347194
100
AcDbArc
 50
141.8902043687
 51
179.7317050577
  0
ARC
  5
3FA
100
AcDbEntity
  8
0
100
AcDbCircle
 62
7
  6
CONTINUOUS
 10
14.1599928786
 20
16.3949053281
 40
0.2099956099
100
AcDbArc
 50
126.749143685
 51
238.5191941557
  0
ARC
  5
3FB
100
AcDbEntity
  8
0
100
AcDbCircle
 62
7
  6
CONTINUOUS
 10
14.1065656577
 20
17.8569823226
 40
0.2090683891
100
AcDbArc
 50
147.0000000001
 51
237.3950799739
  0
ARC
  5
3FC
100
AcDbEntity
  8
0
100
AcDbCircle
 62
7
  6
CONTINUOUS
 10
15.0929697096
 20
13.8717597767
 40
0.188
100
AcDbArc
 50
90.2528672439
 51
180.0
  0
ARC
  5
3FD
100
AcDbEntity
  8
0
100
AcDbCircle
 62
7
  6
CONTINUOUS
 10
15.0929697096
 20
12.2477561149
 40
0.188
100
AcDbArc
 50
180.0
 51
269.7471327561
  0
ARC
  5
3FE
100
AcDbEntity
  8
0
100
AcDbCircle
 62
7
  6
CONTINUOUS
 10
15.2799697096
 20
12.0677579458
 40
0.188
100
AcDbArc
 50
182.4388546909
 51
270.0
  0
ARC
  5
3FF
100
AcDbEntity
  8
0
100
AcDbCircle
 62
7
  6
CONTINUOUS
 10
15.2799697096
 20
14.0517579458
 40
0.188
100
AcDbArc
 50
90.0
 51
177.5611453091
  0
ARC
  5
400
100
AcDbEntity
  8
0
100
AcDbCircle
 62
7
  6
CONTINUOUS
 10
14.2040329943
 20
14.7995212499
 40
0.14
100
AcDbArc
 50
193.8868909235
 51
245.0
  0
ARC
  5
401
100
AcDbEntity
  8
0
100
AcDbCircle
 62
7
  6
CONTINUOUS
 10
14.1524972687
 20
12.1434193631
 40
0.125
100
AcDbArc
 50
321.8715656423
 51
90.0
  0
ARC
  5
402
100
AcDbEntity
  8
0
100
AcDbCircle
 62
7
  6
CONTINUOUS
 10
14.2068279773
 20
13.527825175
 40
0.0511811024
100
AcDbArc
 50
0.0
 51
81.3638693749
  0
ARC
  5
403
100
AcDbEntity
  8
0
100
AcDbCircle
 62
7
  6
CONTINUOUS
 10
14.2068279773
 20
12.5916907165
 40
0.0511811024
100
AcDbArc
 50
278.6361306251
 51
360.0
  0
ARC
  5
404
100
AcDbEntity
  8
0
100
AcDbCircle
 62
7
  6
CONTINUOUS
 10
14.0774972687
 20
16.1482534066
 40
0.05
100
AcDbArc
 50
122.5789703931
 51
196.8349806732
  0
ARC
  5
405
100
AcDbEntity
  8
0
100
AcDbCircle
 62
7
  6
CONTINUOUS
 10
14.0793919143
 20
15.5463927638
 40
0.05
100
AcDbArc
 50
163.5257501351
 51
246.5041233937
  0
ARC
  5
406
100
AcDbEntity
  8
0
100
AcDbCircle
 62
7
  6
CONTINUOUS
 10
14.0299972687
 20
18.1780256623
 40
0.03
100
AcDbArc
 50
327.0000000007
 51
90.0
  0
ARC
  5
407
100
AcDbEntity
  8
0
100
AcDbCircle
 62
7
  6
CONTINUOUS
 10
14.0474972687
 20
15.4730256623
 40
0.03
100
AcDbArc
 50
344.7503068298
 51
66.5041233935
  0
ARC
  5
408
100
AcDbEntity
  8
0
100
AcDbCircle
 62
7
  6
CONTINUOUS
 10
14.1909972687
 20
14.6180256623
 40
0.03
100
AcDbArc
 50
0.0
 51
65.0
  0
ARC
  5
409
100
AcDbEntity
  8
0
100
AcDbCircle
 62
7
  6
CONTINUOUS
 10
14.0228575995
 20
18.2280256623
 40
0.02
100
AcDbArc
 50
270.0
 51
358.958373324
  0
ARC
  5
40A
100
AcDbEntity
  8
0
100
AcDbCircle
 62
7
  6
CONTINUOUS
 10
14.2520516856
 20
13.8983406229
 40
0.0196850394
100
AcDbArc
 50
15.0162737825
 51
90.0
  0
ARC
  5
40B
100
AcDbEntity
  8
0
100
AcDbCircle
 62
7
  6
CONTINUOUS
 10
14.1362190214
 20
12.2881044025
 40
0.0196850394
100
AcDbArc
 50
270.0
 51
336.7547341089
  0
ARC
  5
40C
100
AcDbEntity
  8
0
100
AcDbCircle
 62
7
  6
CONTINUOUS
 10
14.0424972687
 20
16.2030256623
 40
0.015
100
AcDbArc
 50
302.578970393
 51
58.5191941558
  0
ARC
  5
40D
100
AcDbEntity
  8
0
100
AcDbCircle
 62
9
  6
CONTINUOUS
 10
14.4551816994
 20
19.5446231132
 40
0.6365964431
100
AcDbArc
 50
149.7247666836
 51
151.2365306736
  0
ARC
  5
40E
100
AcDbEntity
  8
0
100
AcDbCircle
 62
7
  6
CONTINUOUS
 10
14.3661110279
 20
19.5566787381
 40
0.5027483481
100
AcDbArc
 50
146.1147232907
 51
151.6154778479
  0
ARC
  5
40F
100
AcDbEntity
  8
0
100
AcDbCircle
 62
7
  6
CONTINUOUS
 10
14.352778605
 20
19.5638321382
 40
0.4876181605
100
AcDbArc
 50
151.6102305194
 51
155.745192044
  0
ARC
  5
410
100
AcDbEntity
  8
0
100
AcDbCircle
 62
7
  6
CONTINUOUS
 10
14.3511275801
 20
19.564917573
 40
0.4856812276
100
AcDbArc
 50
151.6784586856
 51
155.8657803141
  0
ARC
  5
411
100
AcDbEntity
  8
0
100
AcDbCircle
 62
7
  6
CONTINUOUS
 10
14.3391067242
 20
19.5620619299
 40
0.4771509177
100
AcDbArc
 50
142.9516760072
 51
144.8405104883
  0
ARC
  5
412
100
AcDbEntity
  8
0
100
AcDbCircle
 62
7
  6
CONTINUOUS
 10
14.3421396508
 20
19.5690497789
 40
0.4757893805
100
AcDbArc
 50
155.9393156775
 51
156.5218780505
  0
ARC
  5
413
100
AcDbEntity
  8
0
100
AcDbCircle
 62
7
  6
CONTINUOUS
 10
14.3375071829
 20
19.5631660636
 40
0.4752057628
100
AcDbArc
 50
144.8400165074
 51
148.1117618582
  0
ARC
  5
414
100
AcDbEntity
  8
0
100
AcDbCircle
 62
7
  6
CONTINUOUS
 10
14.3395899428
 20
19.5702243918
 40
0.4729841174
100
AcDbArc
 50
158.0034220334
 51
159.5906230743
  0
ARC
  5
415
100
AcDbEntity
  8
0
100
AcDbCircle
 62
7
  6
CONTINUOUS
 10
14.3383629078
 20
19.5702615473
 40
0.4718335811
100
AcDbArc
 50
155.8652242647
 51
159.5429749474
  0
ARC
  5
416
100
AcDbEntity
  8
0
100
AcDbCircle
 62
7
  6
CONTINUOUS
 10
14.333606618
 20
19.565582312
 40
0.4706174535
100
AcDbArc
 50
148.1106734944
 51
150.6795089175
  0
ARC
  5
417
100
AcDbEntity
  8
0
100
AcDbCircle
 62
7
  6
CONTINUOUS
 10
14.3240737497
 20
19.5708056452
 40
0.4597479786
100
AcDbArc
 50
150.6653020647
 51
155.1759858248
  0
ARC
  5
418
100
AcDbEntity
  8
0
100
AcDbCircle
 62
7
  6
CONTINUOUS
 10
14.3183915306
 20
19.5735695948
 40
0.4534304082
100
AcDbArc
 50
155.1915262672
 51
159.6330619142
  0
ARC
  5
419
100
AcDbEntity
  8
0
100
AcDbCircle
 62
7
  6
CONTINUOUS
 10
14.2671435767
 20
18.9100624077
 40
0.1476455354
100
AcDbArc
 50
94.1898565827
 51
95.6782228071
  0
ARC
  5
41A
100
AcDbEntity
  8
0
100
AcDbCircle
 62
7
  6
CONTINUOUS
 10
14.6174972687
 20
19.1807823535
 40
0.05
100
AcDbArc
 50
0.0
 51
40.9058661424
  0
ARC
  5
41B
100
AcDbEntity
  8
0
100
AcDbCircle
 62
7
  6
CONTINUOUS
 10
14.4624972687
 20
19.0877579458
 40
0.01
100
AcDbArc
 50
90.0
 51
180.0
  0
ARC
  5
41C
100
AcDbEntity
  8
0
100
AcDbCircle
 62
7
  6
CONTINUOUS
 10
14.4424972687
 20
19.082392219
 40
0.01
100
AcDbArc
 50
279.9999999993
 51
360.0
  0
ARC
  5
41D
100
AcDbEntity
  8
0
100
AcDbCircle
 62
7
  6
CONTINUOUS
 10
14.2474972687
 20
19.0236382191
 40
0.01
100
AcDbArc
 50
280.0000000003
 51
360.0
  0
ARC
  5
41E
100
AcDbEntity
  8
0
100
AcDbCircle
 62
7
  6
CONTINUOUS
 10
14.2674972687
 20
19.0312264652
 40
0.01
100
AcDbArc
 50
100.0000000003
 51
180.0
  0
ARC
  5
41F
100
AcDbEntity
  8
0
100
AcDbCircle
 62
7
  6
CONTINUOUS
 10
14.0924972687
 20
18.9759990049
 40
0.01
100
AcDbArc
 50
100.0000000003
 51
180.0
  0
ARC
  5
420
100
AcDbEntity
  8
0
100
AcDbCircle
 62
7
  6
CONTINUOUS
 10
14.0724972687
 20
18.9684107588
 40
0.01
100
AcDbArc
 50
280.0000000003
 51
360.0
  0
ARC
  5
421
100
AcDbEntity
  8
0
100
AcDbCircle
 62
9
  6
CONTINUOUS
 10
14.2795220129
 20
21.9270693634
 40
1.1203385132
100
AcDbArc
 50
264.900541772
 51
266.5622260593
  0
ARC
  5
422
100
AcDbEntity
  8
0
100
AcDbCircle
 62
7
  6
CONTINUOUS
 10
14.1600188351
 20
20.8237423078
 40
0.0849995793
100
AcDbArc
 50
84.9420168526
 51
174.9141363735
  0
ARC
  5
423
100
AcDbEntity
  8
0
100
AcDbCircle
 62
7
  6
CONTINUOUS
 10
14.1799452778
 20
20.8219809076
 40
0.0849944748
100
AcDbArc
 50
0.018016068
 51
84.9384643435
  0
ARC
  5
424
100
AcDbEntity
  8
0
100
AcDbCircle
 62
9
  6
CONTINUOUS
 10
14.15994089
 20
20.8187123979
 40
0.084940704
100
AcDbArc
 50
84.8700634299
 51
174.8353675541
  0
ARC
  5
425
100
AcDbEntity
  8
0
100
AcDbCircle
 62
7
  6
CONTINUOUS
 10
14.1800841172
 20
20.8170098331
 40
0.0848587836
100
AcDbArc
 50
0.057205123
 51
85.0153327697
  0
ARC
  5
426
100
AcDbEntity
  8
0
100
AcDbCircle
 62
9
  6
CONTINUOUS
 10
14.1801524392
 20
20.8219034699
 40
0.0848000561
100
AcDbArc
 50
0.0548962095
 51
84.9533485738
  0
ARC
  5
427
100
AcDbEntity
  8
0
100
AcDbCircle
 62
9
  6
CONTINUOUS
 10
14.1597450745
 20
20.8237083689
 40
0.0847282827
100
AcDbArc
 50
84.9308289099
 51
174.8995634639
  0
ARC
  5
428
100
AcDbEntity
  8
0
100
AcDbCircle
 62
7
  6
CONTINUOUS
 10
15.2508462975
 20
19.7295200028
 40
0.788
100
AcDbArc
 50
186.4218131409
 51
220.9058661425
  0
ARC
  5
429
100
AcDbEntity
  8
0
100
AcDbCircle
 62
9
  6
CONTINUOUS
 10
14.0025682902
 20
49.9976238358
 40
37.932584609
100
AcDbArc
 50
269.8417457556
 51
270.0066586974
  0
ARC
  5
42A
100
AcDbEntity
  8
0
100
AcDbCircle
 62
9
  6
CONTINUOUS
 10
13.9486071607
 20
40.3233405501
 40
28.4122773453
100
AcDbArc
 50
269.8997849182
 51
270.0500119119
  0
ARC
  5
42B
100
AcDbEntity
  8
0
100
AcDbCircle
 62
9
  6
CONTINUOUS
 10
26.5624331689
 20
22.0115744997
 40
13.5206941574
100
AcDbArc
 50
184.9466830469
 51
185.0860973364
  0
SPLINE
  5
42C
100
AcDbEntity
  8
0
100
AcDbSpline
 62
7
  6
CONTINUOUS
 70
0
 71
3
 72
13
 73
9
 74
0
 42
0.0000001
 43
0.0000001
 44
0.0000000001
 40
0.0
 40
0.0
 40
0.0
 40
0.0
 40
0.058227183
 40
0.1440567364
 40
0.254017368
 40
0.3840009704
 40
0.6837873762
 40
1.0
 40
1.0
 40
1.0
 40
1.0
 10
14.2896383672
 20
19.0499631486
 30
0.0
 10
14.2901606077
 20
19.0501467684
 30
0.0
 10
14.2914807526
 20
19.0505175604
 30
0.0
 10
14.29382539
 20
19.0510944766
 30
0.0
 10
14.2968503504
 20
19.0517618341
 30
0.0
 10
14.3018777106
 20
19.0527897096
 30
0.0
 10
14.3088523618
 20
19.0540795533
 30
0.0
 10
14.3146299122
 20
19.0550397267
 30
0.0
 10
14.3176002771
 20
19.0555032452
 30
0.0
  0
LINE
  5
42D
100
AcDbEntity
  8
0
100
AcDbLine
 62
7
  6
CONTINUOUS
 10
14.3176002771
 20
19.0555032452
 11
14.3280857087
 21
19.0569834831
  0
LINE
  5
42E
100
AcDbEntity
  8
0
100
AcDbLine
 62
7
  6
CONTINUOUS
 10
14.3280857087
 20
19.0569834831
 11
14.3340720106
 21
19.05751465
  0
SPLINE
  5
42F
100
AcDbEntity
  8
0
100
AcDbSpline
 62
7
  6
CONTINUOUS
 70
0
 71
3
 72
14
 73
10
 74
0
 42
0.0000001
 43
0.0000001
 44
0.0000000001
 40
0.0
 40
0.0
 40
0.0
 40
0.0
 40
0.0300634672
 40
0.0872431721
 40
0.1739215581
 40
0.2894707647
 40
0.4324897801
 40
0.6004774474
 40
1.0
 40
1.0
 40
1.0
 40
1.0
 10
14.2180762603
 20
19.04996352
 30
0.0
 10
14.2180740336
 20
19.0500830554
 30
0.0
 10
14.2183575583
 20
19.0503696178
 30
0.0
 10
14.2189440432
 20
19.0506782883
 30
0.0
 10
14.219911443
 20
19.0510800401
 30
0.0
 10
14.2212105105
 20
19.0515079318
 30
0.0
 10
14.2228432202
 20
19.0519769484
 30
0.0
 10
14.2255806537
 20
19.0526747107
 30
0.0
 10
14.2277862676
 20
19.0531582188
 30
0.0
 10
14.2293427274
 20
19.0534772395
 30
0.0
  0
LINE
  5
430
100
AcDbEntity
  8
0
100
AcDbLine
 62
7
  6
CONTINUOUS
 10
14.2293427274
 20
19.0534772395
 11
14.2408609126
 21
19.0555032452
  0
LINE
  5
431
100
AcDbEntity
  8
0
100
AcDbLine
 62
7
  6
CONTINUOUS
 10
14.2408609126
 20
19.0555032452
 11
14.2525353003
 21
19.0569834831
  0
LINE
  5
432
100
AcDbEntity
  8
0
100
AcDbLine
 62
7
  6
CONTINUOUS
 10
14.2563563524
 20
19.0573133498
 11
14.2609948515
 21
19.05751465
  0
SPLINE
  5
433
100
AcDbEntity
  8
0
100
AcDbSpline
 62
7
  6
CONTINUOUS
 70
0
 71
3
 72
16
 73
12
 74
0
 42
0.0000001
 43
0.0000001
 44
0.0000000001
 40
0.0
 40
0.0
 40
0.0
 40
0.0
 40
0.0128661494
 40
0.0326389647
 40
0.0610113248
 40
0.0981551943
 40
0.19729442
 40
0.3262375224
 40
0.4788652747
 40
0.6476131846
 40
1.0
 40
1.0
 40
1.0
 40
1.0
 10
14.1054834215
 20
19.0506248712
 30
0.0
 10
14.1054838028
 20
19.0507533548
 30
0.0
 10
14.10565781
 20
19.0510627466
 30
0.0
 10
14.106145404
 20
19.0514271151
 30
0.0
 10
14.106898976
 20
19.051832179
 30
0.0
 10
14.1084209802
 20
19.052456463
 30
0.0
 10
14.1109580613
 20
19.0532330016
 30
0.0
 10
14.1146553584
 20
19.0541209729
 30
0.0
 10
14.1190699005
 20
19.0549853974
 30
0.0
 10
14.1257124673
 20
19.0560597183
 30
0.0
 10
14.1308843698
 20
19.0566721425
 30
0.0
 10
14.134389583
 20
19.0569834831
 30
0.0
  0
SPLINE
  5
434
100
AcDbEntity
  8
0
100
AcDbSpline
 62
7
  6
CONTINUOUS
 70
0
 71
3
 72
9
 73
5
 74
0
 42
0.0000001
 43
0.0000001
 44
0.0000000001
 40
0.0
 40
0.0
 40
0.0
 40
0.0
 40
0.5393348848
 40
1.0
 40
1.0
 40
1.0
 40
1.0
 10
14.134389583
 20
19.0569834831
 30
0.0
 10
14.1362469686
 20
19.0571484602
 30
0.0
 10
14.1396959922
 20
19.0573974265
 30
0.0
 10
14.1431531742
 20
19.05751465
 30
0.0
 10
14.1447458791
 20
19.05751465
 30
0.0
  0
SPLINE
  5
435
100
AcDbEntity
  8
0
100
AcDbSpline
 62
7
  6
CONTINUOUS
 70
0
 71
3
 72
14
 73
10
 74
0
 42
0.0000001
 43
0.0000001
 44
0.0000000001
 40
0.0
 40
0.0
 40
0.0
 40
0.0
 40
0.0355907544
 40
0.0633224632
 40
0.098624549
 40
0.1922636345
 40
0.3148921208
 40
0.6295976918
 40
1.0
 40
1.0
 40
1.0
 40
1.0
 10
13.9587472798
 20
19.0514813458
 30
0.0
 10
13.958747878
 20
19.0517663191
 30
0.0
 10
13.9591342057
 20
19.052211794
 30
0.0
 10
13.9597747552
 20
19.0526374416
 30
0.0
 10
13.96090308
 20
19.0532124435
 30
0.0
 10
13.9628031108
 20
19.0538804626
 30
0.0
 10
13.9669160873
 20
19.0549753562
 30
0.0
 10
13.9732923951
 20
19.0561040945
 30
0.0
 10
13.9787450516
 20
19.0567299342
 30
0.0
 10
13.9816999922
 20
19.0569834831
 30
0.0
  0
SPLINE
  5
436
100
AcDbEntity
  8
0
100
AcDbSpline
 62
7
  6
CONTINUOUS
 70
0
 71
3
 72
9
 73
5
 74
0
 42
0.0000001
 43
0.0000001
 44
0.0000000001
 40
0.0
 40
0.0
 40
0.0
 40
0.0
 40
0.2618046051
 40
1.0
 40
1.0
 40
1.0
 40
1.0
 10
13.9816999922
 20
19.0569834831
 30
0.0
 10
13.9827052319
 20
19.0570697378
 30
0.0
 10
13.986547975
 20
19.0573596862
 30
0.0
 10
13.990402437
 20
19.05751465
 30
0.0
 10
13.9932472687
 20
19.05751465
 30
0.0
  0
SPLINE
  5
437
100
AcDbEntity
  8
0
100
AcDbSpline
 62
7
  6
CONTINUOUS
 70
0
 71
3
 72
10
 73
6
 74
0
 42
0.0000001
 43
0.0000001
 44
0.0000000001
 40
0.0
 40
0.0
 40
0.0
 40
0.0
 40
0.322092705
 40
0.6124374927
 40
1.0
 40
1.0
 40
1.0
 40
1.0
 10
13.2502471929
 20
19.0555356911
 30
0.0
 10
13.2502465167
 20
19.0559114828
 30
0.0
 10
13.2510180914
 20
19.0564119644
 30
0.0
 10
13.2520660971
 20
19.0567363629
 30
0.0
 10
13.2528594348
 20
19.0569069498
 30
0.0
 10
13.2533050882
 20
19.0569834831
 30
0.0
  0
SPLINE
  5
438
100
AcDbEntity
  8
0
100
AcDbSpline
 62
7
  6
CONTINUOUS
 70
0
 71
3
 72
9
 73
5
 74
0
 42
0.0000001
 43
0.0000001
 44
0.0000000001
 40
0.0
 40
0.0
 40
0.0
 40
0.0
 40
0.4373160514
 40
1.0
 40
1.0
 40
1.0
 40
1.0
 10
13.2533050882
 20
19.0569834831
 30
0.0
 10
13.2545212849
 20
19.057192344
 30
0.0
 10
13.2573382898
 20
19.0574457416
 30
0.0
 10
13.2601595102
 20
19.05751465
 30
0.0
 10
13.2617472687
 20
19.05751465
 30
0.0
  0
SPLINE
  5
439
100
AcDbEntity
  8
0
100
AcDbSpline
 62
7
  6
CONTINUOUS
 70
0
 71
3
 72
10
 73
6
 74
0
 42
0.0000001
 43
0.0000001
 44
0.0000000001
 40
0.0
 40
0.0
 40
0.0
 40
0.0
 40
0.3394264065
 40
0.6228325244
 40
1.0
 40
1.0
 40
1.0
 40
1.0
 10
13.1035132531
 20
19.0563591046
 30
0.0
 10
13.1035126895
 20
19.0565421705
 30
0.0
 10
13.1038208651
 20
19.056818917
 30
0.0
 10
13.1043080947
 20
19.0570000492
 30
0.0
 10
13.1046583484
 20
19.057092898
 30
0.0
 10
13.1048572295
 20
19.0571356397
 30
0.0
  0
SPLINE
  5
43A
100
AcDbEntity
  8
0
100
AcDbSpline
 62
7
  6
CONTINUOUS
 70
0
 71
3
 72
9
 73
5
 74
0
 42
0.0000001
 43
0.0000001
 44
0.0000000001
 40
0.0
 40
0.0
 40
0.0
 40
0.0
 40
0.4169036636
 40
1.0
 40
1.0
 40
1.0
 40
1.0
 10
13.1048572295
 20
19.0571356397
 30
0.0
 10
13.1055923516
 20
19.0572936255
 30
0.0
 10
13.107394803
 20
19.0574704459
 30
0.0
 10
13.1091970143
 20
19.05751465
 30
0.0
 10
13.1102486582
 20
19.05751465
 30
0.0
  0
SPLINE
  5
43B
100
AcDbEntity
  8
0
100
AcDbSpline
 62
7
  6
CONTINUOUS
 70
0
 71
3
 72
10
 73
6
 74
0
 42
0.0000001
 43
0.0000001
 44
0.0000000001
 40
0.0
 40
0.0
 40
0.0
 40
0.0
 40
0.3018821841
 40
0.5987452165
 40
1.0
 40
1.0
 40
1.0
 40
1.0
 10
12.9909183492
 20
19.0569875307
 30
0.0
 10
12.9909215586
 20
19.0571484851
 30
0.0
 10
12.9913271017
 20
19.0573089566
 30
0.0
 10
12.991803975
 20
19.0574008887
 30
0.0
 10
12.9921878165
 20
19.0574439101
 30
0.0
 10
12.9924011066
 20
19.0574610719
 30
0.0
  0
LINE
  5
43C
100
AcDbEntity
  8
0
100
AcDbLine
 62
7
  6
CONTINUOUS
 10
12.9924011066
 20
19.0574610719
 11
12.9939996858
 21
19.05751465
  0
SPLINE
  5
43D
100
AcDbEntity
  8
0
100
AcDbSpline
 62
7
  6
CONTINUOUS
 70
0
 71
3
 72
13
 73
9
 74
0
 42
0.0000001
 43
0.0000001
 44
0.0000000001
 40
0.0
 40
0.0
 40
0.0
 40
0.0
 40
0.1198509726
 40
0.2440494054
 40
0.4979249679
 40
0.7529648762
 40
0.8784517233
 40
1.0
 40
1.0
 40
1.0
 40
1.0
 10
6.2069297661
 20
9.1595111879
 30
0.0
 10
6.212079573
 20
9.1612575694
 30
0.0
 10
6.2223038501
 20
9.1656390054
 30
0.0
 10
6.2416498407
 20
9.1773984271
 30
0.0
 10
6.2628856266
 20
9.1974620129
 30
0.0
 10
6.2766769599
 20
9.2232864081
 30
0.0
 10
6.2829713401
 20
9.2452304689
 30
0.0
 10
6.2844990362
 20
9.2563877768
 30
0.0
 10
6.284811974
 20
9.2618937644
 30
0.0
  0
SPLINE
  5
43E
100
AcDbEntity
  8
0
100
AcDbSpline
 62
7
  6
CONTINUOUS
 70
0
 71
3
 72
13
 73
9
 74
0
 42
0.0000001
 43
0.0000001
 44
0.0000000001
 40
0.0
 40
0.0
 40
0.0
 40
0.0
 40
0.1203095907
 40
0.2451725852
 40
0.4999994373
 40
0.7548266085
 40
0.879689952
 40
1.0
 40
1.0
 40
1.0
 40
1.0
 10
7.1149972687
 20
9.0661375374
 30
0.0
 10
7.1149972378
 20
9.071039682
 30
0.0
 10
7.1141652065
 20
9.0810460762
 30
0.0
 10
7.1094831654
 20
9.1009209767
 30
0.0
 10
7.0979963927
 20
9.1246270702
 30
0.0
 10
7.0792349612
 20
9.1431185356
 30
0.0
 10
7.0619164325
 20
9.1539353569
 30
0.0
 10
7.0527072552
 20
9.1579368476
 30
0.0
 10
7.0480647713
 20
9.1595111879
 30
0.0
  0
SPLINE
  5
43F
100
AcDbEntity
  8
0
100
AcDbSpline
 62
7
  6
CONTINUOUS
 70
0
 71
3
 72
13
 73
9
 74
0
 42
0.0000001
 43
0.0000001
 44
0.0000000001
 40
0.0
 40
0.0
 40
0.0
 40
0.0
 40
0.1203095265
 40
0.2451725282
 40
0.4999994471
 40
0.7548266795
 40
0.8796900242
 40
1.0
 40
1.0
 40
1.0
 40
1.0
 10
6.1399972687
 20
9.0661365681
 30
0.0
 10
6.1399972513
 20
9.0710387485
 30
0.0
 10
6.1408291983
 20
9.0810452272
 30
0.0
 10
6.1455111171
 20
9.1009203218
 30
0.0
 10
6.156997832
 20
9.1246266884
 30
0.0
 10
6.175759359
 20
9.1431183706
 30
0.0
 10
6.193078004
 20
9.153935308
 30
0.0
 10
6.2022872485
 20
9.1579368362
 30
0.0
 10
6.2069297661
 20
9.1595111879
 30
0.0
  0
SPLINE
  5
440
100
AcDbEntity
  8
0
100
AcDbSpline
 62
7
  6
CONTINUOUS
 70
0
 71
3
 72
10
 73
6
 74
0
 42
0.0000001
 43
0.0000001
 44
0.0000000001
 40
0.0
 40
0.0
 40
0.0
 40
0.0
 40
0.2402468819
 40
0.4892400786
 40
1.0
 40
1.0
 40
1.0
 40
1.0
 10
7.0480647713
 20
9.1595111879
 30
0.0
 10
7.0427206549
 20
9.1613234629
 30
0.0
 10
7.0321167585
 20
9.1659002465
 30
0.0
 10
7.0121049058
 20
9.1782794461
 30
0.0
 10
6.9990809206
 20
9.1910416601
 30
0.0
 10
6.9920206161
 20
9.2007411386
 30
0.0
  0
LINE
  5
441
100
AcDbEntity
  8
0
100
AcDbLine
 62
7
  6
CONTINUOUS
 10
14.105632443
 20
18.9904770583
 11
14.106770766
 21
18.9909521363
  0
LINE
  5
442
100
AcDbEntity
  8
0
100
AcDbLine
 62
7
  6
CONTINUOUS
 10
14.106770766
 20
18.9909521363
 11
14.1132370297
 21
18.9924728818
  0
LINE
  5
443
100
AcDbEntity
  8
0
100
AcDbLine
 62
7
  6
CONTINUOUS
 10
14.1132370297
 20
18.9924728818
 11
14.1236105421
 21
18.9944782423
  0
SPLINE
  5
444
100
AcDbEntity
  8
0
100
AcDbSpline
 62
7
  6
CONTINUOUS
 70
0
 71
3
 72
9
 73
5
 74
0
 42
0.0000001
 43
0.0000001
 44
0.0000000001
 40
0.0
 40
0.0
 40
0.0
 40
0.0
 40
0.5423388752
 40
1.0
 40
1.0
 40
1.0
 40
1.0
 10
14.1236105421
 20
18.9944782423
 30
0.0
 10
14.1275925963
 20
18.9951973506
 30
0.0
 10
14.1349502811
 20
18.9964377671
 30
0.0
 10
14.1423310752
 20
18.9975383606
 30
0.0
 10
14.1457184055
 20
18.9979696124
 30
0.0
  0
LINE
  5
445
100
AcDbEntity
  8
0
100
AcDbLine
 62
7
  6
CONTINUOUS
 10
14.1457184055
 20
18.9979696124
 11
14.1511339653
 21
18.9984961596
  0
SPLINE
  5
446
100
AcDbEntity
  8
0
100
AcDbSpline
 62
7
  6
CONTINUOUS
 70
0
 71
3
 72
15
 73
11
 74
0
 42
0.0000001
 43
0.0000001
 44
0.0000000001
 40
0.0
 40
0.0
 40
0.0
 40
0.0
 40
0.0113390156
 40
0.0294201056
 40
0.0898599177
 40
0.1828413112
 40
0.305599907
 40
0.4538483928
 40
0.6229778136
 40
1.0
 40
1.0
 40
1.0
 40
1.0
 10
14.0347208755
 20
18.9910600247
 30
0.0
 10
14.0347204542
 20
18.991145061
 30
0.0
 10
14.0348466178
 20
18.9913516554
 30
0.0
 10
14.0353885806
 20
18.9917454839
 30
0.0
 10
14.0365812123
 20
18.992267348
 30
0.0
 10
14.0385438095
 20
18.9929135529
 30
0.0
 10
14.0411833189
 20
18.9936232346
 30
0.0
 10
14.0443988341
 20
18.9943668779
 30
0.0
 10
14.049504127
 20
18.9953986528
 30
0.0
 10
14.053544625
 20
18.9960775953
 30
0.0
 10
14.0563406022
 20
18.9964985599
 30
0.0
  0
LINE
  5
447
100
AcDbEntity
  8
0
100
AcDbLine
 62
7
  6
CONTINUOUS
 10
14.0563406022
 20
18.9964985599
 11
14.0681686548
 21
18.9979696124
  0
LINE
  5
448
100
AcDbEntity
  8
0
100
AcDbLine
 62
7
  6
CONTINUOUS
 10
14.0681686548
 20
18.9979696124
 11
14.0770485937
 21
18.9984961596
  0
SPLINE
  5
449
100
AcDbEntity
  8
0
100
AcDbSpline
 62
7
  6
CONTINUOUS
 70
0
 71
3
 72
10
 73
6
 74
0
 42
0.0000001
 43
0.0000001
 44
0.0000000001
 40
0.0
 40
0.0
 40
0.0
 40
0.0
 40
0.3315883057
 40
0.6178598421
 40
1.0
 40
1.0
 40
1.0
 40
1.0
 10
13.2250258721
 20
18.9974863064
 30
0.0
 10
13.225024872
 20
18.9976608325
 30
0.0
 10
13.2253413732
 20
18.9979175455
 30
0.0
 10
13.2258192358
 20
18.9980762996
 30
0.0
 10
13.2261680589
 20
18.9981597663
 30
0.0
 10
13.226365618
 20
18.9981975324
 30
0.0
  0
LINE
  5
44A
100
AcDbEntity
  8
0
100
AcDbLine
 62
7
  6
CONTINUOUS
 10
13.226365618
 20
18.9981975324
 11
13.230978698
 21
18.9984961596
  0
SPLINE
  5
44B
100
AcDbEntity
  8
0
100
AcDbSpline
 62
7
  6
CONTINUOUS
 70
0
 71
3
 72
15
 73
11
 74
0
 42
0.0000001
 43
0.0000001
 44
0.0000000001
 40
0.0
 40
0.0
 40
0.0
 40
0.0
 40
0.0124705677
 40
0.0321809795
 40
0.0981096155
 40
0.1983182948
 40
0.3284111247
 40
0.4819839326
 40
0.6509579212
 40
1.0
 40
1.0
 40
1.0
 40
1.0
 10
13.2710257983
 20
18.9914772866
 30
0.0
 10
13.2710251569
 20
18.9916056233
 30
0.0
 10
13.2708360634
 20
18.9919154591
 30
0.0
 10
13.2700146406
 20
18.9924959329
 30
0.0
 10
13.2682226119
 20
18.9932282863
 30
0.0
 10
13.2653103228
 20
18.9941056175
 30
0.0
 10
13.2614599106
 20
18.9950134437
 30
0.0
 10
13.2568872352
 20
18.9959002973
 30
0.0
 10
13.2500626339
 20
18.9970003059
 30
0.0
 10
13.2447658014
 20
18.9976336265
 30
0.0
 10
13.2411882092
 20
18.9979561073
 30
0.0
  0
SPLINE
  5
44C
100
AcDbEntity
  8
0
100
AcDbSpline
 62
7
  6
CONTINUOUS
 70
0
 71
3
 72
9
 73
5
 74
0
 42
0.0000001
 43
0.0000001
 44
0.0000000001
 40
0.0
 40
0.0
 40
0.0
 40
0.0
 40
0.5440115951
 40
1.0
 40
1.0
 40
1.0
 40
1.0
 10
13.2411882092
 20
18.9979561073
 30
0.0
 10
13.2393413268
 20
18.9981225835
 30
0.0
 10
13.2359413945
 20
18.998373966
 30
0.0
 10
13.2325330239
 20
18.9984961596
 30
0.0
 10
13.230978698
 20
18.9984961596
 30
0.0
  0
SPLINE
  5
44D
100
AcDbEntity
  8
0
100
AcDbSpline
 62
7
  6
CONTINUOUS
 70
0
 71
3
 72
18
 73
14
 74
0
 42
0.0000001
 43
0.0000001
 44
0.0000000001
 40
0.0
 40
0.0
 40
0.0
 40
0.0
 40
0.0083973784
 40
0.0253895903
 40
0.0518324895
 40
0.0874407301
 40
0.1317663366
 40
0.1843180206
 40
0.3118199293
 40
0.4640742876
 40
0.6345351095
 40
0.8158890941
 40
1.0
 40
1.0
 40
1.0
 40
1.0
 10
13.1730403803
 20
18.9906730984
 30
0.0
 10
13.1730428376
 20
18.9907484447
 30
0.0
 10
13.1728456191
 20
18.9909310857
 30
0.0
 10
13.1724507538
 20
18.9911280661
 30
0.0
 10
13.1717801717
 20
18.9913976162
 30
0.0
 10
13.1708769825
 20
18.9916927305
 30
0.0
 10
13.1697333454
 20
18.9920266383
 30
0.0
 10
13.1677863809
 20
18.9925406152
 30
0.0
 10
13.1648802035
 20
18.9932188783
 30
0.0
 10
13.1609241992
 20
18.9940470787
 30
0.0
 10
13.1564782915
 20
18.9948922032
 30
0.0
 10
13.1517381471
 20
18.9957168087
 30
0.0
 10
13.1484981244
 20
18.9962340364
 30
0.0
 10
13.1468640939
 20
18.9964826203
 30
0.0
  0
LINE
  5
44E
100
AcDbEntity
  8
0
100
AcDbLine
 62
7
  6
CONTINUOUS
 10
13.1468640939
 20
18.9964826203
 11
13.1357977731
 21
18.9979561073
  0
LINE
  5
44F
100
AcDbEntity
  8
0
100
AcDbLine
 62
7
  6
CONTINUOUS
 10
13.1357977731
 20
18.9979561073
 11
13.1286028032
 21
18.9984961596
  0
SPLINE
  5
450
100
AcDbEntity
  8
0
100
AcDbSpline
 62
7
  6
CONTINUOUS
 70
0
 71
3
 72
21
 73
17
 74
0
 42
0.0000001
 43
0.0000001
 44
0.0000000001
 40
0.0
 40
0.0
 40
0.0
 40
0.0
 40
0.0010805715
 40
0.0043105821
 40
0.0096722856
 40
0.0171479499
 40
0.0383702975
 40
0.0678360607
 40
0.1054039116
 40
0.1509327709
 40
0.2042818158
 40
0.2653083222
 40
0.409515418
 40
0.5814605691
 40
0.7789946757
 40
1.0
 40
1.0
 40
1.0
 40
1.0
 10
11.1379854576
 20
12.5022579548
 30
0.0
 10
11.1379964045
 20
12.5022474719
 30
0.0
 10
11.1378863398
 20
12.5023229274
 30
0.0
 10
11.1378258279
 20
12.502349713
 30
0.0
 10
11.13760058
 20
12.5024890175
 30
0.0
 10
11.1372086923
 20
12.5027181185
 30
0.0
 10
11.1364918489
 20
12.5031432269
 30
0.0
 10
11.1354303581
 20
12.5037636995
 30
0.0
 10
11.1340629278
 20
12.5045594164
 30
0.0
 10
11.1324064464
 20
12.5055157206
 30
0.0
 10
11.1304601879
 20
12.5066312728
 30
0.0
 10
11.1273079068
 20
12.5084249276
 30
0.0
 10
11.1226934742
 20
12.5110130558
 30
0.0
 10
11.1163690224
 20
12.5144654455
 30
0.0
 10
11.1090449477
 20
12.5183334834
 30
0.0
 10
11.1038107922
 20
12.5209928124
 30
0.0
 10
11.101035389
 20
12.5223736592
 30
0.0
  0
SPLINE
  5
451
100
AcDbEntity
  8
0
100
AcDbSpline
 62
7
  6
CONTINUOUS
 70
0
 71
3
 72
9
 73
5
 74
0
 42
0.0000001
 43
0.0000001
 44
0.0000000001
 40
0.0
 40
0.0
 40
0.0
 40
0.0
 40
0.2226203583
 40
1.0
 40
1.0
 40
1.0
 40
1.0
 10
11.101035389
 20
12.5223736592
 30
0.0
 10
11.0977205797
 20
12.5240228768
 30
0.0
 10
11.0827571114
 20
12.5312807406
 30
0.0
 10
11.0674283177
 20
12.537800616
 30
0.0
 10
11.0553164814
 20
12.5423231811
 30
0.0
  0
SPLINE
  5
452
100
AcDbEntity
  8
0
100
AcDbSpline
 62
7
  6
CONTINUOUS
 70
0
 71
3
 72
10
 73
6
 74
0
 42
0.0000001
 43
0.0000001
 44
0.0000000001
 40
0.0
 40
0.0
 40
0.0
 40
0.0
 40
0.4750808363
 40
0.7346319709
 40
1.0
 40
1.0
 40
1.0
 40
1.0
 10
11.0553164814
 20
12.5423231811
 30
0.0
 10
11.0367557517
 20
12.5492537659
 30
0.0
 10
11.0072261301
 20
12.5580313426
 30
0.0
 10
10.9659579959
 20
12.5643786755
 30
0.0
 10
10.9440521938
 20
12.5655919818
 30
0.0
 10
10.9329854576
 20
12.5655919818
 30
0.0
  0
SPLINE
  5
453
100
AcDbEntity
  8
0
100
AcDbSpline
 62
7
  6
CONTINUOUS
 70
0
 71
3
 72
13
 73
9
 74
0
 42
0.0000001
 43
0.0000001
 44
0.0000000001
 40
0.0
 40
0.0
 40
0.0
 40
0.0
 40
0.1425896208
 40
0.2837123209
 40
0.4209641048
 40
0.5526826048
 40
0.7948035581
 40
1.0
 40
1.0
 40
1.0
 40
1.0
 10
10.9329854576
 20
12.5655919818
 30
0.0
 10
10.9248711698
 20
12.5655919818
 30
0.0
 10
10.9087203032
 20
12.564936692
 30
0.0
 10
10.8849007203
 20
12.5622119954
 30
0.0
 10
10.861942853
 20
12.5579135546
 30
0.0
 10
10.8337594435
 20
12.5506626471
 30
0.0
 10
10.8025832938
 20
12.539807246
 30
0.0
 10
10.7793243955
 20
12.5294079394
 30
0.0
 10
10.7688280198
 20
12.5242913899
 30
0.0
  0
SPLINE
  5
454
100
AcDbEntity
  8
0
100
AcDbSpline
 62
7
  6
CONTINUOUS
 70
0
 71
3
 72
23
 73
19
 74
0
 42
0.0000001
 43
0.0000001
 44
0.0000000001
 40
0.0
 40
0.0
 40
0.0
 40
0.0
 40
0.2249331665
 40
0.424163288
 40
0.5959827192
 40
0.6710993976
 40
0.7388258958
 40
0.7990409641
 40
0.8516231487
 40
0.8964507969
 40
0.9334020638
 40
0.9623549176
 40
0.9737937573
 40
0.9831871493
 40
0.9905197897
 40
0.9957763635
 40
0.9989415455
 40
1.0
 40
1.0
 40
1.0
 40
1.0
 10
10.7525397218
 20
12.5160106627
 30
0.0
 10
10.7506746656
 20
12.5150232519
 30
0.0
 10
10.7471682039
 20
12.5131412912
 30
0.0
 10
10.7422691454
 20
12.5104459719
 30
0.0
 10
10.738618857
 20
12.5083971832
 30
0.0
 10
10.7360510967
 20
12.5069405381
 30
0.0
 10
10.7343967772
 20
12.5059957872
 30
0.0
 10
10.7329284115
 20
12.505151708
 30
0.0
 10
10.7316483962
 20
12.5044112086
 30
0.0
 10
10.7305589081
 20
12.503776812
 30
0.0
 10
10.7296627608
 20
12.5032521602
 30
0.0
 10
10.7290370221
 20
12.5028827019
 30
0.0
 10
10.7286360263
 20
12.5026463221
 30
0.0
 10
10.7284069134
 20
12.5025079992
 30
0.0
 10
10.7282347001
 20
12.5024112612
 30
0.0
 10
10.7280964947
 20
12.5023154614
 30
0.0
 10
10.7280401132
 20
12.5023049862
 30
0.0
 10
10.7279854576
 20
12.5022480154
 30
0.0
 10
10.7279854576
 20
12.5022579458
 30
0.0
  0
SPLINE
  5
455
100
AcDbEntity
  8
0
100
AcDbSpline
 62
7
  6
CONTINUOUS
 70
0
 71
3
 72
26
 73
22
 74
0
 42
0.0000001
 43
0.0000001
 44
0.0000000001
 40
0.0
 40
0.0
 40
0.0
 40
0.0
 40
0.0002709192
 40
0.0010821438
 40
0.0024314058
 40
0.004316438
 40
0.0096847485
 40
0.0171689563
 40
0.0267509573
 40
0.0384126621
 40
0.0521359969
 40
0.0679029033
 40
0.1054952661
 40
0.1510456155
 40
0.2044100752
 40
0.2654437481
 40
0.3339484093
 40
0.4096551076
 40
0.5815854377
 40
0.7790760967
 40
1.0
 40
1.0
 40
1.0
 40
1.0
 10
10.7279854576
 20
13.6172579658
 30
0.0
 10
10.7279854576
 20
13.6172541432
 30
0.0
 10
10.7280065234
 20
13.6172508027
 30
0.0
 10
10.728028273
 20
13.6172288302
 30
0.0
 10
10.7280816067
 20
13.6172019983
 30
0.0
 10
10.7281832033
 20
13.6171383047
 30
0.0
 10
10.7283638402
 20
13.6170330603
 30
0.0
 10
10.7286351502
 20
13.6168710385
 30
0.0
 10
10.7289844413
 20
13.6166649743
 30
0.0
 10
10.7294094004
 20
13.6164144793
 30
0.0
 10
10.7299101761
 20
13.6161205591
 30
0.0
 10
10.7307271542
 20
13.6156426534
 30
0.0
 10
10.7319335297
 20
13.6149410209
 30
0.0
 10
10.7336015112
 20
13.6139779507
 30
0.0
 10
10.7355596013
 20
13.6128558876
 30
0.0
 10
10.737802817
 20
13.6115800136
 30
0.0
 10
10.7403254427
 20
13.6101578001
 30
0.0
 10
10.7442218224
 20
13.6079863145
 30
0.0
 10
10.7497351604
 20
13.6049779068
 30
0.0
 10
10.7571020168
 20
13.6010901861
 30
0.0
 10
10.7623667346
 20
13.598418195
 30
0.0
 10
10.7651582468
 20
13.5970311322
 30
0.0
  0
SPLINE
  5
456
100
AcDbEntity
  8
0
100
AcDbSpline
 62
7
  6
CONTINUOUS
 70
0
 71
3
 72
9
 73
5
 74
0
 42
0.0000001
 43
0.0000001
 44
0.0000000001
 40
0.0
 40
0.0
 40
0.0
 40
0.0
 40
0.2229568867
 40
1.0
 40
1.0
 40
1.0
 40
1.0
 10
10.7651582468
 20
13.5970311322
 30
0.0
 10
10.7684416516
 20
13.5953996548
 30
0.0
 10
10.7832404897
 20
13.5882300077
 30
0.0
 10
10.7983961184
 20
13.5817824123
 30
0.0
 10
10.8103635613
 20
13.5773037734
 30
0.0
  0
SPLINE
  5
457
100
AcDbEntity
  8
0
100
AcDbSpline
 62
7
  6
CONTINUOUS
 70
0
 71
3
 72
10
 73
6
 74
0
 42
0.0000001
 43
0.0000001
 44
0.0000000001
 40
0.0
 40
0.0
 40
0.0
 40
0.0
 40
0.4749035163
 40
0.7345376568
 40
1.0
 40
1.0
 40
1.0
 40
1.0
 10
10.8103635613
 20
13.5773037734
 30
0.0
 10
10.8289582749
 20
13.5703449763
 30
0.0
 10
10.8585518272
 20
13.5615265473
 30
0.0
 10
10.8999198519
 20
13.5551466436
 30
0.0
 10
10.9218873389
 20
13.5539239098
 30
0.0
 10
10.9329854576
 20
13.5539239098
 30
0.0
  0
SPLINE
  5
458
100
AcDbEntity
  8
0
100
AcDbSpline
 62
7
  6
CONTINUOUS
 70
0
 71
3
 72
10
 73
6
 74
0
 42
0.0000001
 43
0.0000001
 44
0.0000000001
 40
0.0
 40
0.0
 40
0.0
 40
0.0
 40
0.2644688601
 40
0.5234585127
 40
1.0
 40
1.0
 40
1.0
 40
1.0
 10
10.9329854576
 20
13.5539239098
 30
0.0
 10
10.9437206659
 20
13.5539239098
 30
0.0
 10
10.9649826545
 20
13.5550621967
 30
0.0
 10
11.0051739704
 20
13.5610685326
 30
0.0
 10
11.0340081356
 20
13.5694107279
 30
0.0
 10
11.0521825687
 20
13.5760336965
 30
0.0
  0
SPLINE
  5
459
100
AcDbEntity
  8
0
100
AcDbSpline
 62
7
  6
CONTINUOUS
 70
0
 71
3
 72
9
 73
5
 74
0
 42
0.0000001
 43
0.0000001
 44
0.0000000001
 40
0.0
 40
0.0
 40
0.0
 40
0.0
 40
0.2744064878
 40
1.0
 40
1.0
 40
1.0
 40
1.0
 10
11.0521825687
 20
13.5760336965
 30
0.0
 10
11.056499923
 20
13.5776069892
 30
0.0
 10
11.0721410012
 20
13.5835935611
 30
0.0
 10
11.0874373248
 20
13.590460741
 30
0.0
 10
11.0983455442
 20
13.5958127746
 30
0.0
  0
LINE
  5
45A
100
AcDbEntity
  8
0
100
AcDbLine
 62
7
  6
CONTINUOUS
 10
11.1282772521
 20
13.6116449958
 11
11.1379854576
 21
13.6172579552
  0
SPLINE
  5
45B
100
AcDbEntity
  8
0
100
AcDbSpline
 62
7
  6
CONTINUOUS
 70
0
 71
3
 72
9
 73
5
 74
0
 42
0.0000001
 43
0.0000001
 44
0.0000000001
 40
0.0
 40
0.0
 40
0.0
 40
0.0
 40
0.2527116963
 40
1.0
 40
1.0
 40
1.0
 40
1.0
 10
13.958292826
 20
19.8495554018
 30
0.0
 10
13.9629906282
 20
19.8557784288
 30
0.0
 10
13.9821797533
 20
19.8799438475
 30
0.0
 10
14.0037288457
 20
19.902244845
 30
0.0
 10
14.0209774899
 20
19.9175451181
 30
0.0
  0
SPLINE
  5
45C
100
AcDbEntity
  8
0
100
AcDbSpline
 62
7
  6
CONTINUOUS
 70
0
 71
3
 72
9
 73
5
 74
0
 42
0.0000001
 43
0.0000001
 44
0.0000000001
 40
0.0
 40
0.0
 40
0.0
 40
0.0
 40
0.2528651828
 40
1.0
 40
1.0
 40
1.0
 40
1.0
 10
13.2967007364
 20
19.8495622596
 30
0.0
 10
13.2920004371
 20
19.8557879042
 30
0.0
 10
13.2728123502
 20
19.8799484199
 30
0.0
 10
13.2512653059
 20
19.9022447854
 30
0.0
 10
13.2340229358
 20
19.9175399105
 30
0.0
  0
LINE
  5
45D
100
AcDbEntity
  8
0
100
AcDbLine
 62
7
  6
CONTINUOUS
 10
14.2609948515
 20
19.05751465
 11
14.2627205234
 21
19.0574486586
  0
SPLINE
  5
45E
100
AcDbEntity
  8
0
100
AcDbSpline
 62
7
  6
CONTINUOUS
 70
0
 71
3
 72
10
 73
6
 74
0
 42
0.0000001
 43
0.0000001
 44
0.0000000001
 40
0.0
 40
0.0
 40
0.0
 40
0.0
 40
0.3967176128
 40
0.6913668361
 40
1.0
 40
1.0
 40
1.0
 40
1.0
 10
14.2627205234
 20
19.0574486586
 30
0.0
 10
14.2629133963
 20
19.057430485
 30
0.0
 10
14.2632593078
 20
19.0573864361
 30
0.0
 10
14.2636999069
 20
19.0572928966
 30
0.0
 10
14.2640589844
 20
19.0571361342
 30
0.0
 10
14.2640673099
 20
19.0569856509
 30
0.0
  0
SPLINE
  5
45F
100
AcDbEntity
  8
0
100
AcDbSpline
 62
7
  6
CONTINUOUS
 70
0
 71
3
 72
11
 73
7
 74
0
 42
0.0000001
 43
0.0000001
 44
0.0000000001
 40
0.0
 40
0.0
 40
0.0
 40
0.0
 40
0.3515684569
 40
0.6391974081
 40
0.8567133136
 40
1.0
 40
1.0
 40
1.0
 40
1.0
 10
14.1447458791
 20
19.05751465
 30
0.0
 10
14.1455067951
 20
19.05751465
 30
0.0
 10
14.1468896873
 20
19.0574900356
 30
0.0
 10
14.1487436365
 20
19.0573647444
 30
0.0
 10
14.1501272532
 20
19.057157699
 30
0.0
 10
14.1508929746
 20
19.0569422942
 30
0.0
 10
14.1511606812
 20
19.056785741
 30
0.0
  0
SPLINE
  5
460
100
AcDbEntity
  8
0
100
AcDbSpline
 62
7
  6
CONTINUOUS
 70
0
 71
3
 72
10
 73
6
 74
0
 42
0.0000001
 43
0.0000001
 44
0.0000000001
 40
0.0
 40
0.0
 40
0.0
 40
0.0
 40
0.5798157268
 40
0.8132214311
 40
1.0
 40
1.0
 40
1.0
 40
1.0
 10
13.9932472687
 20
19.05751465
 30
0.0
 10
13.9950748783
 20
19.05751465
 30
0.0
 10
13.9976412293
 20
19.0574487663
 30
0.0
 10
14.0007787058
 20
19.0571390299
 30
0.0
 10
14.0020876673
 20
19.0569213559
 30
0.0
 10
14.0026605709
 20
19.056785741
 30
0.0
  0
SPLINE
  5
461
100
AcDbEntity
  8
0
100
AcDbSpline
 62
7
  6
CONTINUOUS
 70
0
 71
3
 72
10
 73
6
 74
0
 42
0.0000001
 43
0.0000001
 44
0.0000000001
 40
0.0
 40
0.0
 40
0.0
 40
0.0
 40
0.3748573643
 40
0.6584225154
 40
1.0
 40
1.0
 40
1.0
 40
1.0
 10
14.0026605709
 20
19.056785741
 30
0.0
 10
14.0029680723
 20
19.0567129509
 30
0.0
 10
14.0035107598
 20
19.0565567429
 30
0.0
 10
14.0042641978
 20
19.0562542488
 30
0.0
 10
14.0047456447
 20
19.0558230737
 30
0.0
 10
14.0047465012
 20
19.0555351302
 30
0.0
  0
SPLINE
  5
462
100
AcDbEntity
  8
0
100
AcDbSpline
 62
7
  6
CONTINUOUS
 70
0
 71
3
 72
15
 73
11
 74
0
 42
0.0000001
 43
0.0000001
 44
0.0000000001
 40
0.0
 40
0.0
 40
0.0
 40
0.0
 40
0.2984045456
 40
0.4553954469
 40
0.6052616155
 40
0.7406295599
 40
0.8545195073
 40
0.9420172029
 40
0.9748271132
 40
1.0
 40
1.0
 40
1.0
 40
1.0
 10
13.2617472687
 20
19.05751465
 30
0.0
 10
13.2651876443
 20
19.05751465
 30
0.0
 10
13.2704388226
 20
19.0572639952
 30
0.0
 10
13.2773867354
 20
19.0566089976
 30
0.0
 10
13.282442577
 20
19.0559416628
 30
0.0
 10
13.2869795718
 20
19.0551603989
 30
0.0
 10
13.2907652811
 20
19.0542957368
 30
0.0
 10
13.2933535281
 20
19.0535001393
 30
0.0
 10
13.2948890949
 20
19.0528230293
 30
0.0
 10
13.2954685814
 20
19.0524812715
 30
0.0
 10
13.2956976566
 20
19.0523030734
 30
0.0
  0
SPLINE
  5
463
100
AcDbEntity
  8
0
100
AcDbSpline
 62
7
  6
CONTINUOUS
 70
0
 71
3
 72
9
 73
5
 74
0
 42
0.0000001
 43
0.0000001
 44
0.0000000001
 40
0.0
 40
0.0
 40
0.0
 40
0.0
 40
0.3191592707
 40
1.0
 40
1.0
 40
1.0
 40
1.0
 10
13.2956976566
 20
19.0523030734
 30
0.0
 10
13.2957818943
 20
19.0522375446
 30
0.0
 10
13.2960317439
 20
19.0520247898
 30
0.0
 10
13.2962458728
 20
19.0517090298
 30
0.0
 10
13.2962452021
 20
19.0514813636
 30
0.0
  0
SPLINE
  5
464
100
AcDbEntity
  8
0
100
AcDbSpline
 62
7
  6
CONTINUOUS
 70
0
 71
3
 72
13
 73
9
 74
0
 42
0.0000001
 43
0.0000001
 44
0.0000000001
 40
0.0
 40
0.0
 40
0.0
 40
0.0
 40
0.1142056311
 40
0.2474031284
 40
0.5370357099
 40
0.8057674362
 40
0.914984312
 40
1.0
 40
1.0
 40
1.0
 40
1.0
 10
13.1102486582
 20
19.05751465
 30
0.0
 10
13.1116622451
 20
19.05751465
 30
0.0
 10
13.1147243557
 20
19.0574195474
 30
0.0
 10
13.1213577515
 20
19.0569776551
 30
0.0
 10
13.1298668398
 20
19.0560098621
 30
0.0
 10
13.1380249213
 20
19.0546484427
 30
0.0
 10
13.1436056998
 20
19.053344272
 30
0.0
 10
13.1459158952
 20
19.0526651047
 30
0.0
 10
13.146903944
 20
19.0523030734
 30
0.0
  0
SPLINE
  5
465
100
AcDbEntity
  8
0
100
AcDbSpline
 62
7
  6
CONTINUOUS
 70
0
 71
3
 72
10
 73
6
 74
0
 42
0.0000001
 43
0.0000001
 44
0.0000000001
 40
0.0
 40
0.0
 40
0.0
 40
0.0
 40
0.6697076991
 40
0.8714197837
 40
1.0
 40
1.0
 40
1.0
 40
1.0
 10
13.146903944
 20
19.0523030734
 30
0.0
 10
13.1475732973
 20
19.0520578154
 30
0.0
 10
13.1484475753
 20
19.0517038725
 30
0.0
 10
13.1493124447
 20
19.051090601
 30
0.0
 10
13.1495127617
 20
19.0507617374
 30
0.0
 10
13.1495138354
 20
19.0506248742
 30
0.0
  0
SPLINE
  5
466
100
AcDbEntity
  8
0
100
AcDbSpline
 62
7
  6
CONTINUOUS
 70
0
 71
3
 72
20
 73
16
 74
0
 42
0.0000001
 43
0.0000001
 44
0.0000000001
 40
0.0
 40
0.0
 40
0.0
 40
0.0
 40
0.1093124325
 40
0.2563219264
 40
0.424349517
 40
0.5955993233
 40
0.676958338
 40
0.7528154088
 40
0.8212294715
 40
0.8802923481
 40
0.9285319167
 40
0.964898133
 40
0.988523224
 40
0.9955434585
 40
1.0
 40
1.0
 40
1.0
 40
1.0
 10
12.9939996858
 20
19.05751465
 30
0.0
 10
12.9955982878
 20
19.05751465
 30
0.0
 10
12.9993444788
 20
19.0572942658
 30
0.0
 10
13.0055208199
 20
19.0566929006
 30
0.0
 10
13.012573393
 20
19.0557670979
 30
0.0
 10
13.0186496102
 20
19.0548029516
 30
0.0
 10
13.0233746489
 20
19.0539367599
 30
0.0
 10
13.0266097413
 20
19.0532866842
 30
0.0
 10
13.029513266
 20
19.0526428419
 30
0.0
 10
13.0320063688
 20
19.0520211199
 30
0.0
 10
13.034027683
 20
19.0514391652
 30
0.0
 10
13.0355191368
 20
19.0509182709
 30
0.0
 10
13.0364195253
 20
19.0505060094
 30
0.0
 10
13.0368268108
 20
19.0501941966
 30
0.0
 10
13.0369117859
 20
19.0500309037
 30
0.0
 10
13.0369082984
 20
19.0499658239
 30
0.0
  0
SPLINE
  5
467
100
AcDbEntity
  8
0
100
AcDbSpline
 62
7
  6
CONTINUOUS
 70
0
 71
3
 72
15
 73
11
 74
0
 42
0.0000001
 43
0.0000001
 44
0.0000000001
 40
0.0
 40
0.0
 40
0.0
 40
0.0
 40
0.0274230813
 40
0.0670006355
 40
0.1774930169
 40
0.3201929325
 40
0.4805789246
 40
0.793479573
 40
0.916265441
 40
1.0
 40
1.0
 40
1.0
 40
1.0
 10
12.9209225267
 20
19.05751465
 30
0.0
 10
12.9213280187
 20
19.05751465
 30
0.0
 10
12.9223181235
 20
19.0574596261
 30
0.0
 10
12.9249323493
 20
19.0572302575
 30
0.0
 10
12.9292308547
 20
19.056706498
 30
0.0
 10
12.9352852967
 20
19.0558450703
 30
0.0
 10
12.9442802881
 20
19.0544124679
 30
0.0
 10
12.9529590336
 20
19.0528577164
 30
0.0
 10
12.9604708415
 20
19.051262015
 30
0.0
 10
12.9634432481
 20
19.0505505857
 30
0.0
 10
12.964629611
 20
19.0501962686
 30
0.0
  0
LINE
  5
468
100
AcDbEntity
  8
0
100
AcDbLine
 62
7
  6
CONTINUOUS
 10
12.964629611
 20
19.0501962686
 11
12.9661178141
 21
19.0495503499
  0
LINE
  5
469
100
AcDbEntity
  8
0
100
AcDbLine
 62
7
  6
CONTINUOUS
 10
14.3475332583
 20
19.055540941
 11
14.3559433945
 21
19.0569919399
  0
LINE
  5
46A
100
AcDbEntity
  8
0
100
AcDbLine
 62
7
  6
CONTINUOUS
 10
14.3559433945
 20
19.0569919399
 11
14.3589972687
 21
19.05751465
  0
LINE
  5
46B
100
AcDbEntity
  8
0
100
AcDbLine
 62
7
  6
CONTINUOUS
 10
14.3129972687
 20
19.0494036089
 11
14.3244665978
 21
19.0514760024
  0
LINE
  5
46C
100
AcDbEntity
  8
0
100
AcDbLine
 62
7
  6
CONTINUOUS
 10
14.3244665978
 20
19.0514760024
 11
14.3315515088
 21
19.0527388396
  0
LINE
  5
46D
100
AcDbEntity
  8
0
100
AcDbLine
 62
7
  6
CONTINUOUS
 10
14.3315515088
 20
19.0527388396
 11
14.3359713496
 21
19.0535203684
  0
LINE
  5
46E
100
AcDbEntity
  8
0
100
AcDbLine
 62
7
  6
CONTINUOUS
 10
12.8959972687
 20
19.05751465
 11
12.8990493121
 21
19.0569922523
  0
LINE
  5
46F
100
AcDbEntity
  8
0
100
AcDbLine
 62
7
  6
CONTINUOUS
 10
12.8990493121
 20
19.0569922523
 11
12.9074541707
 21
19.0555421778
  0
LINE
  5
470
100
AcDbEntity
  8
0
100
AcDbLine
 62
7
  6
CONTINUOUS
 10
12.9190374828
 20
19.0535178479
 11
12.9234434596
 21
19.0527387617
  0
LINE
  5
471
100
AcDbEntity
  8
0
100
AcDbLine
 62
7
  6
CONTINUOUS
 10
12.9234434596
 20
19.0527387617
 11
12.9305444466
 21
19.0514730703
  0
LINE
  5
472
100
AcDbEntity
  8
0
100
AcDbLine
 62
7
  6
CONTINUOUS
 10
12.9389810955
 20
19.0499520923
 11
12.9419972687
 21
19.0494036089
  0
SPLINE
  5
473
100
AcDbEntity
  8
0
100
AcDbSpline
 62
9
  6
CONTINUOUS
 70
0
 71
3
 72
10
 73
6
 74
0
 42
0.0000001
 43
0.0000001
 44
0.0000000001
 40
0.0
 40
0.0
 40
0.0
 40
0.0
 40
0.2335282665
 40
0.4840239938
 40
1.0
 40
1.0
 40
1.0
 40
1.0
 10
13.2064535496
 20
18.7088755404
 30
0.0
 10
13.2085553388
 20
18.6986263901
 30
0.0
 10
13.2141331255
 20
18.6776034886
 30
0.0
 10
13.230670574
 20
18.6359215694
 30
0.0
 10
13.250188187
 20
18.6067127236
 30
0.0
 10
13.2662895764
 20
18.5901259844
 30
0.0
  0
SPLINE
  5
474
100
AcDbEntity
  8
0
100
AcDbSpline
 62
7
  6
CONTINUOUS
 70
0
 71
3
 72
15
 73
11
 74
0
 42
0.0000001
 43
0.0000001
 44
0.0000000001
 40
0.0
 40
0.0
 40
0.0
 40
0.0
 40
0.1339232163
 40
0.2610651847
 40
0.3823063589
 40
0.5
 40
0.6176936413
 40
0.7389348157
 40
0.8660767839
 40
1.0
 40
1.0
 40
1.0
 40
1.0
 10
12.6973694374
 20
13.728499311
 30
0.0
 10
12.6898757136
 20
13.7185792399
 30
0.0
 10
12.6761740729
 20
13.6985203547
 30
0.0
 10
12.6600081876
 20
13.6667836283
 30
0.0
 10
12.6497821633
 20
13.634178818
 30
0.0
 10
12.646175079
 20
13.6010238231
 30
0.0
 10
12.6497821635
 20
13.5678688283
 30
0.0
 10
12.6600081877
 20
13.5352640179
 30
0.0
 10
12.6761740729
 20
13.5035272915
 30
0.0
 10
12.6898757136
 20
13.4834684064
 30
0.0
 10
12.6973694374
 20
13.4735483353
 30
0.0
  0
SPLINE
  5
475
100
AcDbEntity
  8
0
100
AcDbSpline
 62
7
  6
CONTINUOUS
 70
0
 71
3
 72
11
 73
7
 74
0
 42
0.0000001
 43
0.0000001
 44
0.0000000001
 40
0.0
 40
0.0
 40
0.0
 40
0.0
 40
0.2500244722
 40
0.5
 40
0.7499755281
 40
1.0
 40
1.0
 40
1.0
 40
1.0
 10
12.6973694374
 20
13.3147089215
 30
0.0
 10
12.6820037637
 20
13.2740272581
 30
0.0
 10
12.6567040816
 20
13.1903761591
 30
0.0
 10
12.6426966363
 20
13.0597579457
 30
0.0
 10
12.6567040817
 20
12.9291397324
 30
0.0
 10
12.6820037637
 20
12.8454886334
 30
0.0
 10
12.6973694374
 20
12.8048069701
 30
0.0
  0
SPLINE
  5
476
100
AcDbEntity
  8
0
100
AcDbSpline
 62
7
  6
CONTINUOUS
 70
0
 71
3
 72
15
 73
11
 74
0
 42
0.0000001
 43
0.0000001
 44
0.0000000001
 40
0.0
 40
0.0
 40
0.0
 40
0.0
 40
0.1339232163
 40
0.2610651847
 40
0.3823063589
 40
0.5
 40
0.6176936413
 40
0.7389348157
 40
0.8660767839
 40
1.0
 40
1.0
 40
1.0
 40
1.0
 10
12.6973694374
 20
12.6459675563
 30
0.0
 10
12.6898757136
 20
12.6360474852
 30
0.0
 10
12.6761740729
 20
12.6159886
 30
0.0
 10
12.6600081876
 20
12.5842518736
 30
0.0
 10
12.6497821633
 20
12.5516470633
 30
0.0
 10
12.646175079
 20
12.5184920684
 30
0.0
 10
12.6497821635
 20
12.4853370736
 30
0.0
 10
12.6600081877
 20
12.4527322632
 30
0.0
 10
12.6761740729
 20
12.4209955368
 30
0.0
 10
12.6898757136
 20
12.4009366516
 30
0.0
 10
12.6973694374
 20
12.3910165806
 30
0.0
  0
SPLINE
  5
477
100
AcDbEntity
  8
0
100
AcDbSpline
 62
7
  6
CONTINUOUS
 70
0
 71
3
 72
14
 73
10
 74
0
 42
0.0000001
 43
0.0000001
 44
0.0000000001
 40
0.0
 40
0.0
 40
0.0
 40
0.0
 40
0.0353979325
 40
0.0628994179
 40
0.0979120539
 40
0.1902384562
 40
0.3107009342
 40
0.6237277235
 40
1.0
 40
1.0
 40
1.0
 40
1.0
 10
14.0047465012
 20
19.0555351302
 30
0.0
 10
14.0047472629
 20
19.0552790815
 30
0.0
 10
14.0044143727
 20
19.0548717734
 30
0.0
 10
14.0038436745
 20
19.0544813221
 30
0.0
 10
14.0028450475
 20
19.0539528398
 30
0.0
 10
14.0011654666
 20
19.0533267936
 30
0.0
 10
13.997506308
 20
19.052274224
 30
0.0
 10
13.9917501194
 20
19.051150193
 30
0.0
 10
13.9868066474
 20
19.0504835055
 30
0.0
 10
13.9841000923
 20
19.0501962686
 30
0.0
  0
SPLINE
  5
478
100
AcDbEntity
  8
0
100
AcDbSpline
 62
7
  6
CONTINUOUS
 70
0
 71
3
 72
9
 73
5
 74
0
 42
0.0000001
 43
0.0000001
 44
0.0000000001
 40
0.0
 40
0.0
 40
0.0
 40
0.0
 40
0.5189799289
 40
1.0
 40
1.0
 40
1.0
 40
1.0
 10
13.9841000923
 20
19.0501962686
 30
0.0
 10
13.9817123698
 20
19.0499428683
 30
0.0
 10
13.9770993508
 20
19.0495672424
 30
0.0
 10
13.9724727734
 20
19.0494036089
 30
0.0
 10
13.9702472687
 20
19.0494036089
 30
0.0
  0
LINE
  5
479
100
AcDbEntity
  8
0
100
AcDbLine
 62
9
  6
CONTINUOUS
 10
13.9455338125
 20
11.1658085359
 11
13.9015443352
 21
11.1768363244
  0
SPLINE
  5
47A
100
AcDbEntity
  8
0
100
AcDbSpline
 62
9
  6
CONTINUOUS
 70
0
 71
3
 72
9
 73
5
 74
0
 42
0.0000001
 43
0.0000001
 44
0.0000000001
 40
0.0
 40
0.0
 40
0.0
 40
0.0
 40
0.4942911784
 40
1.0
 40
1.0
 40
1.0
 40
1.0
 10
13.3576467565
 20
11.2876563252
 30
0.0
 10
13.3387051102
 20
11.2908423947
 30
0.0
 10
13.3003548318
 20
11.2971135011
 30
0.0
 10
13.261937147
 20
11.3029653165
 30
0.0
 10
13.2424834653
 20
11.3057460168
 30
0.0
  0
SPLINE
  5
47B
100
AcDbEntity
  8
0
100
AcDbSpline
 62
9
  6
CONTINUOUS
 70
0
 71
3
 72
10
 73
6
 74
0
 42
0.0000001
 43
0.0000001
 44
0.0000000001
 40
0.0
 40
0.0
 40
0.0
 40
0.0
 40
0.4917280034
 40
0.7432172537
 40
1.0
 40
1.0
 40
1.0
 40
1.0
 10
13.3576571262
 20
11.1847790954
 30
0.0
 10
13.3128640768
 20
11.1971422214
 30
0.0
 10
13.2449350175
 20
11.2150328952
 30
0.0
 10
13.1530099239
 20
11.2369500862
 30
0.0
 10
13.1060678501
 20
11.2471543786
 30
0.0
 10
13.0822725297
 20
11.2519093264
 30
0.0
  0
SPLINE
  5
47C
100
AcDbEntity
  8
0
100
AcDbSpline
 62
9
  6
CONTINUOUS
 70
0
 71
3
 72
38
 73
34
 74
0
 42
0.0000001
 43
0.0000001
 44
0.0000000001
 40
0.0
 40
0.0
 40
0.0
 40
0.0
 40
0.1179200373
 40
0.2274955527
 40
0.4270004448
 40
0.5170281863
 40
0.6002741859
 40
0.6764508949
 40
0.7452022304
 40
0.8061816765
 40
0.8591555281
 40
0.8825754379
 40
0.9039140145
 40
0.9231429132
 40
0.9402337009
 40
0.9551628178
 40
0.9679264332
 40
0.9734965284
 40
0.9785256782
 40
0.9830140438
 40
0.9869618083
 40
0.9903691942
 40
0.9932364962
 40
0.9955641532
 40
0.9973529287
 40
0.9980457236
 40
0.9986046021
 40
0.9990303559
 40
0.9993248425
 40
0.9994942753
 40
0.9995792236
 40
0.9997283664
 40
1.0
 40
1.0
 40
1.0
 40
1.0
 10
13.0822725297
 20
11.2519093264
 30
0.0
 10
13.0591306571
 20
11.2565336976
 30
0.0
 10
13.0145018665
 20
11.2655427917
 30
0.0
 10
12.9305961721
 20
11.281750064
 30
0.0
 10
12.8519570323
 20
11.2957751059
 30
0.0
 10
12.7783181465
 20
11.3077442933
 30
0.0
 10
12.7289691132
 20
11.3152950325
 30
0.0
 10
12.6837700116
 20
11.3218022471
 30
0.0
 10
12.6429354789
 20
11.3273432733
 30
0.0
 10
12.6066677035
 20
11.3319963357
 30
0.0
 10
12.5793759262
 20
11.3353144793
 30
0.0
 10
12.5599493542
 20
11.3375886592
 30
0.0
 10
12.5472266719
 20
11.3390456296
 30
0.0
 10
12.5357596918
 20
11.3403344344
 30
0.0
 10
12.525565661
 20
11.3414642319
 30
0.0
 10
12.5166569217
 20
11.3424448277
 30
0.0
 10
12.5100400883
 20
11.3431741408
 30
0.0
 10
12.5053932862
 20
11.3436924628
 30
0.0
 10
12.5023928917
 20
11.344031514
 30
0.0
 10
12.4997157834
 20
11.3443399573
 30
0.0
 10
12.4973620095
 20
11.344618893
 30
0.0
 10
12.4953315367
 20
11.344869373
 30
0.0
 10
12.4936245131
 20
11.3450923735
 30
0.0
 10
12.4922404404
 20
11.3452887195
 30
0.0
 10
12.4912905509
 20
11.3454411263
 30
0.0
 10
12.4906916175
 20
11.345553429
 30
0.0
 10
12.4903654416
 20
11.3456257434
 30
0.0
 10
12.4901127192
 20
11.3456874917
 30
0.0
 10
12.4899547513
 20
11.3457518996
 30
0.0
 10
12.489838044
 20
11.3457924273
 30
0.0
 10
12.4898273103
 20
11.3458886229
 30
0.0
 10
12.4899461041
 20
11.3459232375
 30
0.0
 10
12.4900185104
 20
11.3459444737
 30
0.0
 10
12.4900718737
 20
11.3459548465
 30
0.0
  0
SPLINE
  5
47D
100
AcDbEntity
  8
0
100
AcDbSpline
 62
9
  6
CONTINUOUS
 70
0
 71
3
 72
16
 73
12
 74
0
 42
0.0000001
 43
0.0000001
 44
0.0000000001
 40
0.0
 40
0.0
 40
0.0
 40
0.0
 40
0.112925818
 40
0.2188412494
 40
0.413860067
 40
0.5855436736
 40
0.7310792429
 40
0.8472941238
 40
0.9318579551
 40
0.9829333662
 40
1.0
 40
1.0
 40
1.0
 40
1.0
 10
13.242483468
 20
11.3057460165
 30
0.0
 10
13.2203485652
 20
11.3089101394
 30
0.0
 10
13.177464959
 20
11.3151262474
 30
0.0
 10
13.0963182185
 20
11.3265486796
 30
0.0
 10
13.0035552403
 20
11.3389074374
 30
0.0
 10
12.9028856261
 20
11.3512827427
 30
0.0
 10
12.8176132386
 20
11.3609904146
 30
0.0
 10
12.7494260543
 20
11.3682503887
 30
0.0
 10
12.6998049819
 20
11.3732144733
 30
0.0
 10
12.6697040948
 20
11.3760761905
 30
0.0
 10
12.6562681523
 20
11.3773108045
 30
0.0
 10
12.6529017663
 20
11.3776057714
 30
0.0
  0
SPLINE
  5
47E
100
AcDbEntity
  8
0
100
AcDbSpline
 62
9
  6
CONTINUOUS
 70
0
 71
3
 72
31
 73
27
 74
0
 42
0.0000001
 43
0.0000001
 44
0.0000000001
 40
0.0
 40
0.0
 40
0.0
 40
0.0
 40
0.0002649625
 40
0.0005958563
 40
0.0010588488
 40
0.0023806011
 40
0.0042291613
 40
0.0066034718
 40
0.009502475
 40
0.0129251133
 40
0.0168703292
 40
0.0263242649
 40
0.0378558251
 40
0.0514565545
 40
0.0671179996
 40
0.0848292483
 40
0.1045704784
 40
0.1500555289
 40
0.2033984493
 40
0.2644245431
 40
0.3329461301
 40
0.4087242832
 40
0.4915074557
 40
0.5810441238
 40
0.7791588094
 40
1.0
 40
1.0
 40
1.0
 40
1.0
 10
14.250825857
 20
12.0662410714
 30
0.0
 10
14.2508078174
 20
12.066252837
 30
0.0
 10
14.2507538755
 20
12.0662331277
 30
0.0
 10
14.2506706659
 20
12.0662417482
 30
0.0
 10
14.2504970905
 20
12.0662337363
 30
0.0
 10
14.2502029945
 20
12.0662338185
 30
0.0
 10
14.2497517627
 20
12.0662256873
 30
0.0
 10
14.2491731431
 20
12.0662187478
 30
0.0
 10
14.248466276
 20
12.0662092182
 30
0.0
 10
14.2476318366
 20
12.0661986124
 30
0.0
 10
14.2462645824
 20
12.0661813936
 30
0.0
 10
14.2442382597
 20
12.0661568033
 30
0.0
 10
14.2414271237
 20
12.0661241228
 30
0.0
 10
14.2381114318
 20
12.0660873545
 30
0.0
 10
14.2342934345
 20
12.0660470573
 30
0.0
 10
14.2299763145
 20
12.0660038029
 30
0.0
 10
14.2232350887
 20
12.0659394892
 30
0.0
 10
14.2135976316
 20
12.0658541747
 30
0.0
 10
14.2006044023
 20
12.0657492999
 30
0.0
 10
14.1857386372
 20
12.0656402475
 30
0.0
 10
14.1690492023
 20
12.0655296857
 30
0.0
 10
14.1505912047
 20
12.0654216247
 30
0.0
 10
14.1304249466
 20
12.0653200339
 30
0.0
 10
14.1003146348
 20
12.0651943454
 30
0.0
 10
14.0589822306
 20
12.0650791597
 30
0.0
 10
14.0249276274
 20
12.0650431977
 30
0.0
 10
14.0069766708
 20
12.0650394829
 30
0.0
  0
SPLINE
  5
47F
100
AcDbEntity
  8
0
100
AcDbSpline
 62
9
  6
CONTINUOUS
 70
0
 71
3
 72
11
 73
7
 74
0
 42
0.0000001
 43
0.0000001
 44
0.0000000001
 40
0.0
 40
0.0
 40
0.0
 40
0.0
 40
0.0687613076
 40
0.2693209496
 40
0.5870695096
 40
1.0
 40
1.0
 40
1.0
 40
1.0
 10
14.1952446342
 20
11.8434092849
 30
0.0
 10
14.188430384
 20
11.8436918468
 30
0.0
 10
14.1617393055
 20
11.8447643532
 30
0.0
 10
14.1035483192
 20
11.8468609527
 30
0.0
 10
14.0112333838
 20
11.8499032474
 30
0.0
 10
13.938792288
 20
11.8520412432
 30
0.0
 10
13.8978518038
 20
11.8531877141
 30
0.0
  0
SPLINE
  5
480
100
AcDbEntity
  8
0
100
AcDbSpline
 62
9
  6
CONTINUOUS
 70
0
 71
3
 72
11
 73
7
 74
0
 42
0.0000001
 43
0.0000001
 44
0.0000000001
 40
0.0
 40
0.0
 40
0.0
 40
0.0
 40
0.306421238
 40
0.4496994025
 40
0.5838609827
 40
1.0
 40
1.0
 40
1.0
 40
1.0
 10
13.9100631126
 20
12.2803361233
 30
0.0
 10
13.9096939981
 20
12.278733942
 30
0.0
 10
13.9089055844
 20
12.2764325313
 30
0.0
 10
13.9073999429
 20
12.2736633713
 30
0.0
 10
13.9052994815
 20
12.2706627115
 30
0.0
 10
13.9025951934
 20
12.2684206258
 30
0.0
 10
13.9003623355
 20
12.2684203445
 30
0.0
  0
SPLINE
  5
481
100
AcDbEntity
  8
0
100
AcDbSpline
 62
9
  6
CONTINUOUS
 70
0
 71
3
 72
31
 73
27
 74
0
 42
0.0000001
 43
0.0000001
 44
0.0000000001
 40
0.0
 40
0.0
 40
0.0
 40
0.0
 40
0.0672985914
 40
0.1304051333
 40
0.2476663543
 40
0.4538338679
 40
0.5442016095
 40
0.6263946213
 40
0.7004978074
 40
0.7664685336
 40
0.8242371666
 40
0.8500445983
 40
0.8738011157
 40
0.8955051201
 40
0.9151513176
 40
0.9327325274
 40
0.9482402938
 40
0.9616688678
 40
0.9730271174
 40
0.982326605
 40
0.9895776166
 40
0.9947891847
 40
0.997969225
 40
0.998799832
 40
0.9991267032
 40
1.0
 40
1.0
 40
1.0
 40
1.0
 10
12.3441818908
 20
11.1026597232
 30
0.0
 10
12.3315156217
 20
11.1065531766
 30
0.0
 10
12.3069921366
 20
11.1141625426
 30
0.0
 10
12.2603325575
 20
11.1283416575
 30
0.0
 10
12.1871911364
 20
11.1494006055
 30
0.0
 10
12.1080381359
 20
11.1689407825
 30
0.0
 10
12.0348895489
 20
11.1834886963
 30
0.0
 10
11.9869912308
 20
11.1915714778
 30
0.0
 10
11.9436366406
 20
11.1975929602
 30
0.0
 10
11.9049082088
 20
11.2018396858
 30
0.0
 10
11.8755540179
 20
11.2042168953
 30
0.0
 10
11.8544560315
 20
11.2054588817
 30
0.0
 10
11.8404368203
 20
11.2060857652
 30
0.0
 10
11.8276228632
 20
11.2064787469
 30
0.0
 10
11.8160204048
 20
11.2066727977
 30
0.0
 10
11.8056366629
 20
11.2067028752
 30
0.0
 10
11.796477079
 20
11.2066039649
 30
0.0
 10
11.7885465829
 20
11.2064107418
 30
0.0
 10
11.7818353323
 20
11.2061582525
 30
0.0
 10
11.7763584944
 20
11.2058807625
 30
0.0
 10
11.7720519772
 20
11.2056143918
 30
0.0
 10
11.7690479607
 20
11.2053895659
 30
0.0
 10
11.767119596
 20
11.2052509798
 30
0.0
 10
11.7663866311
 20
11.2051877255
 30
0.0
 10
11.765832984
 20
11.2051815686
 30
0.0
 10
11.7663784075
 20
11.2052830868
 30
0.0
 10
11.7665472013
 20
11.205315897
 30
0.0
  0
LINE
  5
482
100
AcDbEntity
  8
0
100
AcDbLine
 62
9
  6
CONTINUOUS
 10
13.357497396
 20
12.279704623
 11
13.351270297
 21
12.280017529
  0
LINE
  5
483
100
AcDbEntity
  8
0
100
AcDbLine
 62
9
  6
CONTINUOUS
 10
13.351270297
 20
12.280017529
 11
13.3449303057
 21
12.2803361504
  0
SPLINE
  5
484
100
AcDbEntity
  8
0
100
AcDbSpline
 62
9
  6
CONTINUOUS
 70
0
 71
3
 72
9
 73
5
 74
0
 42
0.0000001
 43
0.0000001
 44
0.0000000001
 40
0.0
 40
0.0
 40
0.0
 40
0.0
 40
0.2794531385
 40
1.0
 40
1.0
 40
1.0
 40
1.0
 10
13.2360180248
 20
18.8188840534
 30
0.0
 10
13.2354758921
 20
18.8184119926
 30
0.0
 10
13.2335132766
 20
18.8167491234
 30
0.0
 10
13.231463369
 20
18.8151879449
 30
0.0
 10
13.2299353844
 20
18.8141387859
 30
0.0
  0
SPLINE
  5
485
100
AcDbEntity
  8
0
100
AcDbSpline
 62
9
  6
CONTINUOUS
 70
0
 71
3
 72
18
 73
14
 74
0
 42
0.0000001
 43
0.0000001
 44
0.0000000001
 40
0.0
 40
0.0
 40
0.0
 40
0.0
 40
0.2352982632
 40
0.4382234244
 40
0.6094379824
 40
0.7494202113
 40
0.8584605012
 40
0.901418892
 40
0.9366642102
 40
0.964179437
 40
0.9839358371
 40
0.9958931096
 40
1.0
 40
1.0
 40
1.0
 40
1.0
 10
13.2299353844
 20
18.8141387859
 30
0.0
 10
13.2293076656
 20
18.8137077758
 30
0.0
 10
13.2281219864
 20
18.8129287977
 30
0.0
 10
13.226426932
 20
18.81191945
 30
0.0
 10
13.2249604833
 20
18.8111323917
 30
0.0
 10
13.2237345361
 20
18.8105428261
 30
0.0
 10
13.2228652438
 20
18.8101715329
 30
0.0
 10
13.2223002814
 20
18.8099526082
 30
0.0
 10
13.2219778927
 20
18.8098373996
 30
0.0
 10
13.2217264894
 20
18.809749105
 30
0.0
 10
13.2215399604
 20
18.8096981059
 30
0.0
 10
13.2214353019
 20
18.8096537391
 30
0.0
 10
13.2213783318
 20
18.8096520056
 30
0.0
 10
13.2213684803
 20
18.8096430848
 30
0.0
  0
SPLINE
  5
486
100
AcDbEntity
  8
0
100
AcDbSpline
 62
9
  6
CONTINUOUS
 70
0
 71
3
 72
9
 73
5
 74
0
 42
0.0000001
 43
0.0000001
 44
0.0000000001
 40
0.0
 40
0.0
 40
0.0
 40
0.0
 40
0.5031006416
 40
1.0
 40
1.0
 40
1.0
 40
1.0
 10
13.2507667562
 20
13.5953160036
 30
0.0
 10
13.2665320688
 20
13.6139282256
 30
0.0
 10
13.3000582971
 20
13.649134069
 30
0.0
 10
13.337789887
 20
13.6798324605
 30
0.0
 10
13.3574640009
 20
13.6937361444
 30
0.0
  0
SPLINE
  5
487
100
AcDbEntity
  8
0
100
AcDbSpline
 62
9
  6
CONTINUOUS
 70
0
 71
3
 72
9
 73
5
 74
0
 42
0.0000001
 43
0.0000001
 44
0.0000000001
 40
0.0
 40
0.0
 40
0.0
 40
0.0
 40
0.4969710409
 40
1.0
 40
1.0
 40
1.0
 40
1.0
 10
13.8990641409
 20
13.6927002274
 30
0.0
 10
13.9182430467
 20
13.6790537254
 30
0.0
 10
13.9550418964
 20
13.6489958315
 30
0.0
 10
13.9877946684
 20
13.6146112795
 30
0.0
 10
14.0032295724
 20
13.5964615942
 30
0.0
  0
SPLINE
  5
488
100
AcDbEntity
  8
0
100
AcDbSpline
 62
9
  6
CONTINUOUS
 70
0
 71
3
 72
17
 73
13
 74
0
 42
0.0000001
 43
0.0000001
 44
0.0000000001
 40
0.0
 40
0.0
 40
0.0
 40
0.0
 40
0.2392606326
 40
0.4439535844
 40
0.6154237843
 40
0.7544620572
 40
0.8617065705
 40
0.9377484813
 40
0.9642641345
 40
0.9832337673
 40
0.9948535552
 40
1.0
 40
1.0
 40
1.0
 40
1.0
 10
14.0188507048
 20
18.8191232076
 30
0.0
 10
14.0199101814
 20
18.8181942046
 30
0.0
 10
14.0219160198
 20
18.816515228
 30
0.0
 10
14.0247977603
 20
18.8143154131
 30
0.0
 10
14.0272731547
 20
18.8125601505
 30
0.0
 10
14.0293340506
 20
18.8112136926
 30
0.0
 10
14.03096515
 20
18.8102452154
 30
0.0
 10
14.0320656902
 20
18.8096723767
 30
0.0
 10
14.032715269
 20
18.8093843229
 30
0.0
 10
14.0330431234
 20
18.8092731281
 30
0.0
 10
14.0332282634
 20
18.8092197865
 30
0.0
 10
14.0333544144
 20
18.8092303069
 30
0.0
 10
14.0333661284
 20
18.809258261
 30
0.0
  0
SPLINE
  5
489
100
AcDbEntity
  8
0
100
AcDbSpline
 62
7
  6
CONTINUOUS
 70
0
 71
3
 72
21
 73
17
 74
0
 42
0.0000001
 43
0.0000001
 44
0.0000000001
 40
0.0
 40
0.0
 40
0.0
 40
0.0
 40
0.1418036068
 40
0.2085172841
 40
0.2721412552
 40
0.3326751305
 40
0.3903573035
 40
0.4458028822
 40
0.5000001827
 40
0.5541975231
 40
0.6096431247
 40
0.6673252239
 40
0.7278589324
 40
0.7914827995
 40
0.8581963871
 40
1.0
 40
1.0
 40
1.0
 40
1.0
 10
12.9973519394
 20
14.0349390918
 30
0.0
 10
13.005745319
 20
14.0243828547
 30
0.0
 10
13.0188059355
 20
14.0093771658
 30
0.0
 10
13.0378057772
 20
13.9917670469
 30
0.0
 10
13.0521695787
 20
13.9806198061
 30
0.0
 10
13.0669265203
 20
13.9715246321
 30
0.0
 10
13.0820511444
 20
13.964749913
 30
0.0
 10
13.0974761449
 20
13.9605481153
 30
0.0
 10
13.1130782343
 20
13.9591267159
 30
0.0
 10
13.1286803336
 20
13.9605481073
 30
0.0
 10
13.1441053052
 20
13.9647499947
 30
0.0
 10
13.159229939
 20
13.9715246367
 30
0.0
 10
13.1739868196
 20
13.9806198543
 30
0.0
 10
13.1883505969
 20
13.9917670649
 30
0.0
 10
13.2073504286
 20
14.0093771705
 30
0.0
 10
13.2204110383
 20
14.0243828543
 30
0.0
 10
13.2288044183
 20
14.0349390918
 30
0.0
  0
SPLINE
  5
48A
100
AcDbEntity
  8
0
100
AcDbSpline
 62
7
  6
CONTINUOUS
 70
0
 71
3
 72
21
 73
17
 74
0
 42
0.0000001
 43
0.0000001
 44
0.0000000001
 40
0.0
 40
0.0
 40
0.0
 40
0.0
 40
0.1418036068
 40
0.2085172841
 40
0.2721412552
 40
0.3326751305
 40
0.3903573035
 40
0.4458028822
 40
0.5000001827
 40
0.5541975231
 40
0.6096431247
 40
0.6673252239
 40
0.7278589324
 40
0.7914827995
 40
0.8581963871
 40
1.0
 40
1.0
 40
1.0
 40
1.0
 10
14.026190119
 20
14.0349390918
 30
0.0
 10
14.0345834987
 20
14.0243828547
 30
0.0
 10
14.0476441152
 20
14.0093771658
 30
0.0
 10
14.0666439569
 20
13.9917670469
 30
0.0
 10
14.0810077584
 20
13.9806198061
 30
0.0
 10
14.0957647
 20
13.9715246321
 30
0.0
 10
14.1108893241
 20
13.964749913
 30
0.0
 10
14.1263143246
 20
13.9605481153
 30
0.0
 10
14.141916414
 20
13.9591267159
 30
0.0
 10
14.1575185133
 20
13.9605481073
 30
0.0
 10
14.1729434849
 20
13.9647499947
 30
0.0
 10
14.1880681187
 20
13.9715246367
 30
0.0
 10
14.2028249993
 20
13.9806198543
 30
0.0
 10
14.2171887766
 20
13.9917670649
 30
0.0
 10
14.2361886083
 20
14.0093771705
 30
0.0
 10
14.249249218
 20
14.0243828543
 30
0.0
 10
14.257642598
 20
14.0349390918
 30
0.0
  0
SPLINE
  5
48B
100
AcDbEntity
  8
0
100
AcDbSpline
 62
7
  6
CONTINUOUS
 70
0
 71
3
 72
21
 73
17
 74
0
 42
0.0000001
 43
0.0000001
 44
0.0000000001
 40
0.0
 40
0.0
 40
0.0
 40
0.0
 40
0.1418036068
 40
0.2085172841
 40
0.2721412552
 40
0.3326751305
 40
0.3903573035
 40
0.4458028822
 40
0.5000001827
 40
0.5541975231
 40
0.6096431247
 40
0.6673252239
 40
0.7278589324
 40
0.7914827995
 40
0.8581963871
 40
1.0
 40
1.0
 40
1.0
 40
1.0
 10
14.257642598
 20
14.3811122328
 30
0.0
 10
14.2492492183
 20
14.3916684699
 30
0.0
 10
14.2361886018
 20
14.4066741588
 30
0.0
 10
14.2171887601
 20
14.4242842777
 30
0.0
 10
14.2028249587
 20
14.4354315186
 30
0.0
 10
14.1880680171
 20
14.4445266926
 30
0.0
 10
14.1729433929
 20
14.4513014116
 30
0.0
 10
14.1575183924
 20
14.4555032093
 30
0.0
 10
14.141916303
 20
14.4569246087
 30
0.0
 10
14.1263142037
 20
14.4555032173
 30
0.0
 10
14.1108892321
 20
14.4513013299
 30
0.0
 10
14.0957645983
 20
14.444526688
 30
0.0
 10
14.0810077177
 20
14.4354314703
 30
0.0
 10
14.0666439404
 20
14.4242842597
 30
0.0
 10
14.0476441087
 20
14.4066741541
 30
0.0
 10
14.034583499
 20
14.3916684704
 30
0.0
 10
14.026190119
 20
14.3811122328
 30
0.0
  0
SPLINE
  5
48C
100
AcDbEntity
  8
0
100
AcDbSpline
 62
7
  6
CONTINUOUS
 70
0
 71
3
 72
21
 73
17
 74
0
 42
0.0000001
 43
0.0000001
 44
0.0000000001
 40
0.0
 40
0.0
 40
0.0
 40
0.0
 40
0.1418036068
 40
0.2085172841
 40
0.2721412552
 40
0.3326751305
 40
0.3903573035
 40
0.4458028822
 40
0.5000001827
 40
0.5541975231
 40
0.6096431247
 40
0.6673252239
 40
0.7278589324
 40
0.7914827995
 40
0.8581963871
 40
1.0
 40
1.0
 40
1.0
 40
1.0
 10
13.2288044183
 20
14.3811122328
 30
0.0
 10
13.2204110387
 20
14.3916684699
 30
0.0
 10
13.2073504221
 20
14.4066741588
 30
0.0
 10
13.1883505804
 20
14.4242842777
 30
0.0
 10
13.173986779
 20
14.4354315186
 30
0.0
 10
13.1592298374
 20
14.4445266926
 30
0.0
 10
13.1441052132
 20
14.4513014116
 30
0.0
 10
13.1286802127
 20
14.4555032093
 30
0.0
 10
13.1130781233
 20
14.4569246087
 30
0.0
 10
13.097476024
 20
14.4555032173
 30
0.0
 10
13.0820510524
 20
14.4513013299
 30
0.0
 10
13.0669264186
 20
14.444526688
 30
0.0
 10
13.052169538
 20
14.4354314703
 30
0.0
 10
13.0378057607
 20
14.4242842597
 30
0.0
 10
13.018805929
 20
14.4066741541
 30
0.0
 10
13.0057453193
 20
14.3916684704
 30
0.0
 10
12.9973519394
 20
14.3811122328
 30
0.0
  0
SPLINE
  5
48D
100
AcDbEntity
  8
0
100
AcDbSpline
 62
9
  6
CONTINUOUS
 70
0
 71
3
 72
35
 73
31
 74
0
 42
0.0000001
 43
0.0000001
 44
0.0000000001
 40
0.0
 40
0.0
 40
0.0
 40
0.0
 40
0.2144494533
 40
0.3147548659
 40
0.4097996521
 40
0.4990999269
 40
0.5822050176
 40
0.658734459
 40
0.7283166984
 40
0.7905827306
 40
0.845219158
 40
0.8695950646
 40
0.89196656
 40
0.9123014855
 40
0.9305676794
 40
0.9467335237
 40
0.9607787602
 40
0.9726938608
 40
0.9824697192
 40
0.986552588
 40
0.9900972338
 40
0.9931025211
 40
0.9955673165
 40
0.9974904918
 40
0.998248623
 40
0.9988709336
 40
0.999357292
 40
0.9997075791
 40
0.9999217207
 40
1.0
 40
1.0
 40
1.0
 40
1.0
 10
13.3555587875
 20
12.0651694075
 30
0.0
 10
13.3304397257
 20
12.0650943637
 30
0.0
 10
13.2935714825
 20
12.0650182229
 30
0.0
 10
13.2455702846
 20
12.0650119281
 30
0.0
 10
13.2122282416
 20
12.0650433123
 30
0.0
 10
13.1809009752
 20
12.0651043445
 30
0.0
 10
13.1517425343
 20
12.0651883387
 30
0.0
 10
13.1248938132
 20
12.0652925636
 30
0.0
 10
13.1004861364
 20
12.0654134997
 30
0.0
 10
13.0786429798
 20
12.0655488288
 30
0.0
 10
13.0620950351
 20
12.0656724606
 30
0.0
 10
13.05022002
 20
12.065770971
 30
0.0
 10
13.0423627468
 20
12.0658398656
 30
0.0
 10
13.0352211223
 20
12.0659052966
 30
0.0
 10
13.028806374
 20
12.0659660202
 30
0.0
 10
13.0231283323
 20
12.0660205652
 30
0.0
 10
13.018194186
 20
12.066068448
 30
0.0
 10
13.0140084945
 20
12.0661102191
 30
0.0
 10
13.0109896889
 20
12.0661418488
 30
0.0
 10
13.0089512983
 20
12.0661647512
 30
0.0
 10
13.0077059421
 20
12.0661796261
 30
0.0
 10
13.0066500738
 20
12.0661932077
 30
0.0
 10
13.0057842522
 20
12.0662057725
 30
0.0
 10
13.0051813565
 20
12.0662154934
 30
0.0
 10
13.0047947717
 20
12.0662236305
 30
0.0
 10
13.0045755269
 20
12.066227766
 30
0.0
 10
13.0044063574
 20
12.06623484
 30
0.0
 10
13.0042795544
 20
12.0662338717
 30
0.0
 10
13.0042112092
 20
12.066247371
 30
0.0
 10
13.0041695961
 20
12.066239904
 30
0.0
 10
13.0041639353
 20
12.0662471171
 30
0.0
  0
SPLINE
  5
48E
100
AcDbEntity
  8
0
100
AcDbSpline
 62
9
  6
CONTINUOUS
 70
0
 71
3
 72
31
 73
27
 74
0
 42
0.0000001
 43
0.0000001
 44
0.0000000001
 40
0.0
 40
0.0
 40
0.0
 40
0.0
 40
0.0006769802
 40
0.0012984097
 40
0.0025192779
 40
0.0044362787
 40
0.0070528046
 40
0.0103565507
 40
0.0143307316
 40
0.0189568879
 40
0.0242158526
 40
0.0300881588
 40
0.0435945278
 40
0.0593199199
 40
0.0771239834
 40
0.096941836
 40
0.1187325428
 40
0.1680658156
 40
0.2247877191
 40
0.2885596509
 40
0.3590014122
 40
0.4356671536
 40
0.5181071003
 40
0.6058737367
 40
0.7954161448
 40
1.0
 40
1.0
 40
1.0
 40
1.0
 10
13.071504571
 20
12.3512811164
 30
0.0
 10
13.0715206124
 20
12.3512403453
 30
0.0
 10
13.0715768505
 20
12.3511417329
 30
0.0
 10
13.0717476405
 20
12.3512498099
 30
0.0
 10
13.0718594018
 20
12.3514534785
 30
0.0
 10
13.072035614
 20
12.3517881896
 30
0.0
 10
13.0722292404
 20
12.352254947
 30
0.0
 10
13.0724629285
 20
12.3528519805
 30
0.0
 10
13.0727285017
 20
12.3535749381
 30
0.0
 10
13.0730301679
 20
12.3544197384
 30
0.0
 10
13.0733678599
 20
12.3553819803
 30
0.0
 10
13.0738930854
 20
12.3568875221
 30
0.0
 10
13.0746434519
 20
12.3590319187
 30
0.0
 10
13.0756706097
 20
12.3618975519
 30
0.0
 10
13.0768737159
 20
12.3651337923
 30
0.0
 10
13.0782436409
 20
12.368726617
 30
0.0
 10
13.080371892
 20
12.3742140211
 30
0.0
 10
13.0834072985
 20
12.3819111924
 30
0.0
 10
13.0874582242
 20
12.3921284253
 30
0.0
 10
13.0919953638
 20
12.4036224716
 30
0.0
 10
13.0969582514
 20
12.416336048
 30
0.0
 10
13.1022877677
 20
12.4302032856
 30
0.0
 10
13.1079238471
 20
12.4451536075
 30
0.0
 10
13.1159638994
 20
12.467004157
 30
0.0
 10
13.1264069465
 20
12.4963917257
 30
0.0
 10
13.134944364
 20
12.5204279285
 30
0.0
 10
13.1394366814
 20
12.5328829539
 30
0.0
  0
SPLINE
  5
48F
100
AcDbEntity
  8
0
100
AcDbSpline
 62
9
  6
CONTINUOUS
 70
0
 71
3
 72
19
 73
15
 74
0
 42
0.0000001
 43
0.0000001
 44
0.0000000001
 40
0.0
 40
0.0
 40
0.0
 40
0.0
 40
0.0792032214
 40
0.1478480218
 40
0.2100563123
 40
0.2674766789
 40
0.3719743717
 40
0.4655984923
 40
0.6270035076
 40
0.7585426718
 40
0.862008957
 40
0.9374672075
 40
0.9840447115
 40
1.0
 40
1.0
 40
1.0
 40
1.0
 10
7.8772940773
 20
10.1994085526
 30
0.0
 10
7.8640704067
 20
10.2023993575
 30
0.0
 10
7.8395024058
 20
10.2085026036
 30
0.0
 10
7.8048568728
 20
10.2181304399
 30
0.0
 10
7.7739568654
 20
10.2272906892
 30
0.0
 10
7.737325236
 20
10.2386945827
 30
0.0
 10
7.6957175211
 20
10.2521974252
 30
0.0
 10
7.6373588483
 20
10.2717359545
 30
0.0
 10
7.574733368
 20
10.2931060774
 30
0.0
 10
7.5104654382
 20
10.3148791742
 30
0.0
 10
7.4600194373
 20
10.3315986864
 30
0.0
 10
7.4232654825
 20
10.3433963352
 30
0.0
 10
7.4006972983
 20
10.3503715779
 30
0.0
 10
7.3904335087
 20
10.3534101212
 30
0.0
 10
7.3878118913
 20
10.3541759738
 30
0.0
  0
SPLINE
  5
490
100
AcDbEntity
  8
0
100
AcDbSpline
 62
9
  6
CONTINUOUS
 70
0
 71
3
 72
26
 73
22
 74
0
 42
0.0000001
 43
0.0000001
 44
0.0000000001
 40
0.0
 40
0.0
 40
0.0
 40
0.0
 40
0.0098668429
 40
0.0209908617
 40
0.0335145019
 40
0.0475108488
 40
0.0800006233
 40
0.1184262933
 40
0.1625424931
 40
0.2120742549
 40
0.2667269799
 40
0.3262331741
 40
0.3903498902
 40
0.4589156001
 40
0.5318724193
 40
0.6094712247
 40
0.6922294641
 40
0.781520328
 40
0.829452389
 40
0.8806327932
 40
1.0
 40
1.0
 40
1.0
 40
1.0
 10
8.461299666
 20
9.9422940594
 30
0.0
 10
8.4592151072
 20
9.9419638977
 30
0.0
 10
8.4547085325
 20
9.9416978636
 30
0.0
 10
8.4475487385
 20
9.942285748
 30
0.0
 10
8.4396252878
 20
9.9437838514
 30
0.0
 10
8.4274398727
 20
9.9471128347
 30
0.0
 10
8.4104101862
 20
9.9535205411
 30
0.0
 10
8.3880364861
 20
9.9637799085
 30
0.0
 10
8.3628991787
 20
9.976687459
 30
0.0
 10
8.3350695551
 20
9.9919150945
 30
0.0
 10
8.3045914024
 20
10.0091513472
 30
0.0
 10
8.2714784354
 20
10.0280641704
 30
0.0
 10
8.2357141459
 20
10.0483359249
 30
0.0
 10
8.1972248221
 20
10.0696317345
 30
0.0
 10
8.1558484867
 20
10.0916577338
 30
0.0
 10
8.1112409664
 20
10.1140501794
 30
0.0
 10
8.0628055616
 20
10.1365600684
 30
0.0
 10
8.0193637254
 20
10.1546845944
 30
0.0
 10
7.9816256764
 20
10.1688409458
 30
0.0
 10
7.9373832244
 20
10.1839002944
 30
0.0
 10
7.9021980169
 20
10.1937760147
 30
0.0
 10
7.8772940773
 20
10.1994085526
 30
0.0
  0
SPLINE
  5
491
100
AcDbEntity
  8
0
100
AcDbSpline
 62
9
  6
CONTINUOUS
 70
0
 71
3
 72
11
 73
7
 74
0
 42
0.0000001
 43
0.0000001
 44
0.0000000001
 40
0.0
 40
0.0
 40
0.0
 40
0.0
 40
0.1842822529
 40
0.4106708013
 40
0.6812498492
 40
1.0
 40
1.0
 40
1.0
 40
1.0
 10
14.0210412087
 20
19.917428717
 30
0.0
 10
14.017830866
 20
19.9146080157
 30
0.0
 10
14.010106632
 20
19.9089754388
 30
0.0
 10
13.996414757
 20
19.9010651638
 30
0.0
 10
13.9793621998
 20
19.8928444541
 30
0.0
 10
13.9667366905
 20
19.8875989831
 30
0.0
 10
13.9598596521
 20
19.8848888706
 30
0.0
  0
SPLINE
  5
492
100
AcDbEntity
  8
0
100
AcDbSpline
 62
9
  6
CONTINUOUS
 70
0
 71
3
 72
9
 73
5
 74
0
 42
0.0000001
 43
0.0000001
 44
0.0000000001
 40
0.0
 40
0.0
 40
0.0
 40
0.0
 40
0.2339746608
 40
1.0
 40
1.0
 40
1.0
 40
1.0
 10
13.9598596521
 20
19.8848888706
 30
0.0
 10
13.9578924395
 20
19.8841136288
 30
0.0
 10
13.9494667611
 20
19.880845635
 30
0.0
 10
13.9409766312
 20
19.8777453622
 30
0.0
 10
13.9344506279
 20
19.8754357073
 30
0.0
  0
LINE
  5
493
100
AcDbEntity
  8
0
100
AcDbLine
 62
9
  6
CONTINUOUS
 10
13.9344506279
 20
19.8754357073
 11
13.9054082765
 21
19.8655658861
  0
SPLINE
  5
494
100
AcDbEntity
  8
0
100
AcDbSpline
 62
9
  6
CONTINUOUS
 70
0
 71
3
 72
14
 73
10
 74
0
 42
0.0000001
 43
0.0000001
 44
0.0000000001
 40
0.0
 40
0.0
 40
0.0
 40
0.0
 40
0.2506192823
 40
0.3756880671
 40
0.5005797953
 40
0.6254010436
 40
0.7502788893
 40
0.875181849
 40
1.0
 40
1.0
 40
1.0
 40
1.0
 10
13.1494643104
 20
12.5324701577
 30
0.0
 10
13.1618355792
 20
12.5086733079
 30
0.0
 10
13.1816760273
 20
12.4736392261
 30
0.0
 10
13.2110939357
 20
12.4288508956
 30
0.0
 10
13.2346889351
 20
12.3963971577
 30
0.0
 10
13.2598204668
 20
12.3651455823
 30
0.0
 10
13.286462485
 20
12.3351670594
 30
0.0
 10
13.3146732731
 20
12.306655924
 30
0.0
 10
13.3346435512
 20
12.2888604746
 30
0.0
 10
13.3449269788
 20
12.2803353485
 30
0.0
  0
SPLINE
  5
495
100
AcDbEntity
  8
0
100
AcDbSpline
 62
9
  6
CONTINUOUS
 70
0
 71
3
 72
11
 73
7
 74
0
 42
0.0000001
 43
0.0000001
 44
0.0000000001
 40
0.0
 40
0.0
 40
0.0
 40
0.0
 40
0.3064208366
 40
0.4496991163
 40
0.5838608769
 40
1.0
 40
1.0
 40
1.0
 40
1.0
 10
13.3449312737
 20
12.2803361311
 30
0.0
 10
13.3453003937
 20
12.2787339556
 30
0.0
 10
13.3460888111
 20
12.2764325524
 30
0.0
 10
13.3475944488
 20
12.2736633958
 30
0.0
 10
13.3496949018
 20
12.2706627354
 30
0.0
 10
13.3523991802
 20
12.268420634
 30
0.0
 10
13.3546320357
 20
12.2684203544
 30
0.0
  0
SPLINE
  5
496
100
AcDbEntity
  8
0
100
AcDbSpline
 62
9
  6
CONTINUOUS
 70
0
 71
3
 72
21
 73
17
 74
0
 42
0.0000001
 43
0.0000001
 44
0.0000000001
 40
0.0
 40
0.0
 40
0.0
 40
0.0
 40
0.0062264549
 40
0.0243009175
 40
0.0533190198
 40
0.0923808312
 40
0.1405742351
 40
0.1969226846
 40
0.3301510527
 40
0.4842363739
 40
0.6512242243
 40
0.7372707377
 40
0.8240148457
 40
0.9111629805
 40
0.9551272189
 40
1.0
 40
1.0
 40
1.0
 40
1.0
 10
13.14304035
 20
10.6838089374
 30
0.0
 10
13.1415198147
 20
10.6849111711
 30
0.0
 10
13.1355484958
 20
10.6891618989
 30
0.0
 10
13.1223815816
 20
10.698396005
 30
0.0
 10
13.1009454878
 20
10.7130857196
 30
0.0
 10
13.0717954308
 20
10.7325857271
 30
0.0
 10
13.0354968143
 20
10.7562200806
 30
0.0
 10
12.9749180009
 20
10.7946075921
 30
0.0
 10
12.8862353958
 20
10.8483004323
 30
0.0
 10
12.7669055348
 20
10.9156987297
 30
0.0
 10
12.657865451
 20
10.9722540993
 30
0.0
 10
12.5652812522
 20
11.016222845
 30
0.0
 10
12.4935305513
 20
11.0478544215
 30
0.0
 10
12.4325096756
 20
11.0722846451
 30
0.0
 10
12.3825776403
 20
11.0903067406
 30
0.0
 10
12.3571189711
 20
11.0986830259
 30
0.0
 10
12.3441818908
 20
11.1026597232
 30
0.0
  0
SPLINE
  5
497
100
AcDbEntity
  8
0
100
AcDbSpline
 62
9
  6
CONTINUOUS
 70
0
 71
3
 72
14
 73
10
 74
0
 42
0.0000001
 43
0.0000001
 44
0.0000000001
 40
0.0
 40
0.0
 40
0.0
 40
0.0
 40
0.0278659166
 40
0.0508704918
 40
0.0809555314
 40
0.1631426999
 40
0.2750065153
 40
0.5850997436
 40
1.0
 40
1.0
 40
1.0
 40
1.0
 10
13.0348303231
 20
20.310226412
 30
0.0
 10
13.0348515665
 20
20.3099934424
 30
0.0
 10
13.035253787
 20
20.3096743759
 30
0.0
 10
13.0358598046
 20
20.3094243713
 30
0.0
 10
13.036961851
 20
20.3090992332
 30
0.0
 10
13.0388150673
 20
20.3087934678
 30
0.0
 10
13.0430319095
 20
20.3083747552
 30
0.0
 10
13.050057559
 20
20.3081655804
 30
0.0
 10
13.0561445225
 20
20.3082021035
 30
0.0
 10
13.0596270377
 20
20.3082666648
 30
0.0
  0
SPLINE
  5
498
100
AcDbEntity
  8
0
100
AcDbSpline
 62
9
  6
CONTINUOUS
 70
0
 71
3
 72
9
 73
5
 74
0
 42
0.0000001
 43
0.0000001
 44
0.0000000001
 40
0.0
 40
0.0
 40
0.0
 40
0.0
 40
0.4583306901
 40
1.0
 40
1.0
 40
1.0
 40
1.0
 10
13.0596270377
 20
20.3082666648
 30
0.0
 10
13.0687894275
 20
20.3084365234
 30
0.0
 10
13.088768298
 20
20.3093729837
 30
0.0
 10
13.1087075839
 20
20.3108770552
 30
0.0
 10
13.1194956076
 20
20.3118325457
 30
0.0
  0
SPLINE
  5
499
100
AcDbEntity
  8
0
100
AcDbSpline
 62
7
  6
CONTINUOUS
 70
0
 71
3
 72
13
 73
9
 74
0
 42
0.0000001
 43
0.0000001
 44
0.0000000001
 40
0.0
 40
0.0
 40
0.0
 40
0.0
 40
0.0958084554
 40
0.1812853433
 40
0.2957888385
 40
0.4380045301
 40
0.6049596822
 40
1.0
 40
1.0
 40
1.0
 40
1.0
 10
13.2962452021
 20
19.0514813636
 30
0.0
 10
13.2962440731
 20
19.0510980813
 30
0.0
 10
13.2954880691
 20
19.0505705699
 30
0.0
 10
13.2944209591
 20
19.0502266004
 30
0.0
 10
13.2930599154
 20
19.0499264035
 30
0.0
 10
13.2913871856
 20
19.0497014822
 30
0.0
 10
13.2885760888
 20
19.0494589579
 30
0.0
 10
13.2863276368
 20
19.0494036089
 30
0.0
 10
13.2847472687
 20
19.0494036089
 30
0.0
  0
SPLINE
  5
49A
100
AcDbEntity
  8
0
100
AcDbSpline
 62
9
  6
CONTINUOUS
 70
0
 71
3
 72
26
 73
22
 74
0
 42
0.0000001
 43
0.0000001
 44
0.0000000001
 40
0.0
 40
0.0
 40
0.0
 40
0.0
 40
0.0098761759
 40
0.0210048544
 40
0.0335353459
 40
0.0475425435
 40
0.0800590448
 40
0.1184935847
 40
0.1625660734
 40
0.2119792713
 40
0.2664204368
 40
0.3256096905
 40
0.3892998733
 40
0.4573457046
 40
0.5297236867
 40
0.6067572909
 40
0.6890747139
 40
0.7782636529
 40
0.8263853404
 40
0.8780401641
 40
1.0
 40
1.0
 40
1.0
 40
1.0
 10
8.0713588186
 20
9.8805334965
 30
0.0
 10
8.0693417278
 20
9.8802140207
 30
0.0
 10
8.0649801728
 20
9.879968587
 30
0.0
 10
8.0580575611
 20
9.8805840247
 30
0.0
 10
8.0504065782
 20
9.8821045054
 30
0.0
 10
8.0386533891
 20
9.8854538094
 30
0.0
 10
8.02225829
 20
9.891854108
 30
0.0
 10
8.0007567334
 20
9.9020410732
 30
0.0
 10
7.9766356686
 20
9.9147946625
 30
0.0
 10
7.9499584584
 20
9.92976359
 30
0.0
 10
7.920757073
 20
9.9466154896
 30
0.0
 10
7.8890302696
 20
9.9649968734
 30
0.0
 10
7.8547429857
 20
9.9845705409
 30
0.0
 10
7.8177949711
 20
10.004978493
 30
0.0
 10
7.7779900965
 20
10.0259066264
 30
0.0
 10
7.7349392383
 20
10.0469670311
 30
0.0
 10
7.6879820566
 20
10.0678896429
 30
0.0
 10
7.645675466
 20
10.0844609463
 30
0.0
 10
7.6087383234
 20
10.0972283415
 30
0.0
 10
7.5649244733
 20
10.1107575726
 30
0.0
 10
7.5300023301
 20
10.1193551093
 30
0.0
 10
7.5052482642
 20
10.12417702
 30
0.0
  0
SPLINE
  5
49B
100
AcDbEntity
  8
0
100
AcDbSpline
 62
7
  6
CONTINUOUS
 70
0
 71
3
 72
21
 73
17
 74
0
 42
0.0000001
 43
0.0000001
 44
0.0000000001
 40
0.0
 40
0.0
 40
0.0
 40
0.0
 40
0.1418036068
 40
0.2085172841
 40
0.2721412552
 40
0.3326751305
 40
0.3903573035
 40
0.4458028822
 40
0.5000001827
 40
0.5541975231
 40
0.6096431247
 40
0.6673252239
 40
0.7278589324
 40
0.7914827995
 40
0.8581963871
 40
1.0
 40
1.0
 40
1.0
 40
1.0
 10
14.3798831391
 20
12.6610650954
 30
0.0
 10
14.369326902
 20
12.6526717158
 30
0.0
 10
14.3543212131
 20
12.6396110992
 30
0.0
 10
14.3367110942
 20
12.6206112575
 30
0.0
 10
14.3255638534
 20
12.6062474561
 30
0.0
 10
14.3164686794
 20
12.5914905145
 30
0.0
 10
14.3096939603
 20
12.5763658903
 30
0.0
 10
14.3054921626
 20
12.5609408898
 30
0.0
 10
14.3040707632
 20
12.5453388004
 30
0.0
 10
14.3054921546
 20
12.5297367011
 30
0.0
 10
14.309694042
 20
12.5143117295
 30
0.0
 10
14.3164686839
 20
12.4991870957
 30
0.0
 10
14.3255639016
 20
12.4844302151
 30
0.0
 10
14.3367111122
 20
12.4700664378
 30
0.0
 10
14.3543212178
 20
12.4510666061
 30
0.0
 10
14.3693269016
 20
12.4380059964
 30
0.0
 10
14.3798831391
 20
12.4296126165
 30
0.0
  0
SPLINE
  5
49C
100
AcDbEntity
  8
0
100
AcDbSpline
 62
7
  6
CONTINUOUS
 70
0
 71
3
 72
21
 73
17
 74
0
 42
0.0000001
 43
0.0000001
 44
0.0000000001
 40
0.0
 40
0.0
 40
0.0
 40
0.0
 40
0.1418036068
 40
0.2085172841
 40
0.2721412552
 40
0.3326751305
 40
0.3903573035
 40
0.4458028822
 40
0.5000001827
 40
0.5541975231
 40
0.6096431247
 40
0.6673252239
 40
0.7278589324
 40
0.7914827995
 40
0.8581963871
 40
1.0
 40
1.0
 40
1.0
 40
1.0
 10
14.7260562801
 20
12.4296126165
 30
0.0
 10
14.7366125172
 20
12.4380059961
 30
0.0
 10
14.7516182061
 20
12.4510666126
 30
0.0
 10
14.769228325
 20
12.4700664543
 30
0.0
 10
14.7803755659
 20
12.4844302558
 30
0.0
 10
14.7894707398
 20
12.4991871974
 30
0.0
 10
14.7962454589
 20
12.5143118216
 30
0.0
 10
14.8004472566
 20
12.5297368221
 30
0.0
 10
14.801868656
 20
12.5453389115
 30
0.0
 10
14.8004472646
 20
12.5609410107
 30
0.0
 10
14.7962453772
 20
12.5763659823
 30
0.0
 10
14.7894707353
 20
12.5914906161
 30
0.0
 10
14.7803755176
 20
12.6062474967
 30
0.0
 10
14.769228307
 20
12.6206112741
 30
0.0
 10
14.7516182014
 20
12.6396111058
 30
0.0
 10
14.7366125177
 20
12.6526717154
 30
0.0
 10
14.7260562801
 20
12.6610650954
 30
0.0
  0
SPLINE
  5
49D
100
AcDbEntity
  8
0
100
AcDbSpline
 62
7
  6
CONTINUOUS
 70
0
 71
3
 72
12
 73
8
 74
0
 42
0.0000001
 43
0.0000001
 44
0.0000000001
 40
0.0
 40
0.0
 40
0.0
 40
0.0
 40
0.2499377013
 40
0.4999426002
 40
0.6249994565
 40
0.7500950549
 40
1.0
 40
1.0
 40
1.0
 40
1.0
 10
14.7260562801
 20
12.8283054669
 30
0.0
 10
14.7369908911
 20
12.8456939246
 30
0.0
 10
14.757365259
 20
12.8814581932
 30
0.0
 10
14.7776081219
 20
12.9288321248
 30
0.0
 10
14.7896613096
 20
12.9681719307
 30
0.0
 10
14.7985676513
 20
13.0083210104
 30
0.0
 10
14.8014004902
 20
13.0392198447
 30
0.0
 10
14.8014004902
 20
13.0597579458
 30
0.0
  0
SPLINE
  5
49E
100
AcDbEntity
  8
0
100
AcDbSpline
 62
9
  6
CONTINUOUS
 70
0
 71
3
 72
15
 73
11
 74
0
 42
0.0000001
 43
0.0000001
 44
0.0000000001
 40
0.0
 40
0.0
 40
0.0
 40
0.0
 40
0.019709136
 40
0.0751055669
 40
0.1608632523
 40
0.2728431439
 40
0.4081162132
 40
0.5660028406
 40
0.7517998174
 40
1.0
 40
1.0
 40
1.0
 40
1.0
 10
7.6041092238
 20
9.8065284309
 30
0.0
 10
7.600897642
 20
9.8079761631
 30
0.0
 10
7.588634079
 20
9.8134363339
 30
0.0
 10
7.562189791
 20
9.8247271246
 30
0.0
 10
7.5202822367
 20
9.8417884818
 30
0.0
 10
7.4645665127
 20
9.8627565765
 30
0.0
 10
7.3959460837
 20
9.8859399061
 30
0.0
 10
7.3136634582
 20
9.9097038979
 30
0.0
 10
7.2104092404
 20
9.9330489218
 30
0.0
 10
7.1334488789
 20
9.9438871771
 30
0.0
 10
7.0892724723
 20
9.9479458407
 30
0.0
  0
SPLINE
  5
49F
100
AcDbEntity
  8
0
100
AcDbSpline
 62
7
  6
CONTINUOUS
 70
0
 71
3
 72
9
 73
5
 74
0
 42
0.0000001
 43
0.0000001
 44
0.0000000001
 40
0.0
 40
0.0
 40
0.0
 40
0.0
 40
0.5724030103
 40
1.0
 40
1.0
 40
1.0
 40
1.0
 10
14.2316742021
 20
19.0501962686
 30
0.0
 10
14.2296746719
 20
19.0499646036
 30
0.0
 10
14.2261757179
 20
19.0496158616
 30
0.0
 10
14.2226613656
 20
19.0494036089
 30
0.0
 10
14.221157683
 20
19.0494036089
 30
0.0
  0
SPLINE
  5
4A0
100
AcDbEntity
  8
0
100
AcDbSpline
 62
9
  6
CONTINUOUS
 70
0
 71
3
 72
31
 73
27
 74
0
 42
0.0000001
 43
0.0000001
 44
0.0000000001
 40
0.0
 40
0.0
 40
0.0
 40
0.0
 40
0.0002746386
 40
0.0006172149
 40
0.0010962958
 40
0.0024629721
 40
0.0043726681
 40
0.0068233851
 40
0.0098131245
 40
0.0133398883
 40
0.0174016786
 40
0.0271223497
 40
0.0389591636
 40
0.0528961524
 40
0.0689173543
 40
0.087006814
 40
0.1071485825
 40
0.1535251873
 40
0.2078699699
 40
0.2698741655
 40
0.3392077334
 40
0.4155410146
 40
0.4985447699
 40
0.5878896375
 40
0.7839724312
 40
1.0
 40
1.0
 40
1.0
 40
1.0
 10
13.0574973717
 20
11.9119038349
 30
0.0
 10
13.0575226238
 20
11.9119144508
 30
0.0
 10
13.0575874933
 20
11.9118939819
 30
0.0
 10
13.0576950399
 20
11.9118994828
 30
0.0
 10
13.0579141511
 20
11.9118863165
 30
0.0
 10
13.0582877581
 20
11.9118770295
 30
0.0
 10
13.058858986
 20
11.9118551135
 30
0.0
 10
13.0595915234
 20
11.9118305211
 30
0.0
 10
13.0604854529
 20
11.9117997478
 30
0.0
 10
13.0615399295
 20
11.9117643452
 30
0.0
 10
13.0632654278
 20
11.9117070397
 30
0.0
 10
13.0658193754
 20
11.9116242219
 30
0.0
 10
13.0693578825
 20
11.9115128146
 30
0.0
 10
13.073524623
 20
11.911385679
 30
0.0
 10
13.0783148607
 20
11.9112442032
 30
0.0
 10
13.083723855
 20
11.9110897941
 30
0.0
 10
13.0921595346
 20
11.9108574223
 30
0.0
 10
13.1042104983
 20
11.9105442347
 30
0.0
 10
13.1204363129
 20
11.9101566526
 30
0.0
 10
13.138952336
 20
11.9097630573
 30
0.0
 10
13.1596622435
 20
11.9093842371
 30
0.0
 10
13.1824675707
 20
11.909041623
 30
0.0
 10
13.2072697884
 20
11.9087559546
 30
0.0
 10
13.2440165448
 20
11.908473219
 30
0.0
 10
13.2940325505
 20
11.9083771603
 30
0.0
 10
13.3351367948
 20
11.9085262796
 30
0.0
 10
13.3566832521
 20
11.9086525107
 30
0.0
  0
LINE
  5
4A1
100
AcDbEntity
  8
0
100
AcDbLine
 62
9
  6
CONTINUOUS
 10
13.3573766244
 20
11.8645562235
 11
13.0574972687
 21
11.8684193631
  0
SPLINE
  5
4A2
100
AcDbEntity
  8
0
100
AcDbSpline
 62
7
  6
CONTINUOUS
 70
0
 71
3
 72
13
 73
9
 74
0
 42
0.0000001
 43
0.0000001
 44
0.0000000001
 40
0.0
 40
0.0
 40
0.0
 40
0.0
 40
0.096542605
 40
0.1812987072
 40
0.2935887608
 40
0.4328791431
 40
0.5980112011
 40
1.0
 40
1.0
 40
1.0
 40
1.0
 10
13.1495138354
 20
19.0506248742
 30
0.0
 10
13.1495156145
 20
19.0503981036
 30
0.0
 10
13.1490849661
 20
19.0500732353
 30
0.0
 10
13.1484583125
 20
19.0498766528
 30
0.0
 10
13.1476748474
 20
19.0497009031
 30
0.0
 10
13.1467080286
 20
19.0495719938
 30
0.0
 10
13.1450522675
 20
19.0494322438
 30
0.0
 10
13.1437198381
 20
19.0494036089
 30
0.0
 10
13.1427755702
 20
19.0494036089
 30
0.0
  0
SPLINE
  5
4A3
100
AcDbEntity
  8
0
100
AcDbSpline
 62
9
  6
CONTINUOUS
 70
0
 71
3
 72
16
 73
12
 74
0
 42
0.0000001
 43
0.0000001
 44
0.0000000001
 40
0.0
 40
0.0
 40
0.0
 40
0.0
 40
0.1747304758
 40
0.3082572365
 40
0.5157967133
 40
0.6733094912
 40
0.794394884
 40
0.8851570128
 40
0.9488536417
 40
0.987140527
 40
1.0
 40
1.0
 40
1.0
 40
1.0
 10
7.0892724723
 20
9.9479458407
 30
0.0
 10
7.0651476386
 20
9.9501622859
 30
0.0
 10
7.0226467959
 20
9.9547127651
 30
0.0
 10
6.9516075857
 20
9.962940958
 30
0.0
 10
6.8829189448
 20
9.9707438117
 30
0.0
 10
6.8157930616
 20
9.9769302187
 30
0.0
 10
6.7646727887
 20
9.9801409274
 30
0.0
 10
6.7264775363
 20
9.9812463452
 30
0.0
 10
6.6997465174
 20
9.9810863389
 30
0.0
 10
6.6838367454
 20
9.9803991964
 30
0.0
 10
6.6767598088
 20
9.9799171166
 30
0.0
 10
6.6749858173
 20
9.9797384092
 30
0.0
  0
SPLINE
  5
4A4
100
AcDbEntity
  8
0
100
AcDbSpline
 62
9
  6
CONTINUOUS
 70
0
 71
3
 72
26
 73
22
 74
0
 42
0.0000001
 43
0.0000001
 44
0.0000000001
 40
0.0
 40
0.0
 40
0.0
 40
0.0
 40
0.1554004966
 40
0.2197793713
 40
0.2787219301
 40
0.4790129459
 40
0.5633139801
 40
0.6390163186
 40
0.7069619968
 40
0.7675590847
 40
0.8210731651
 40
0.8676353981
 40
0.9073219329
 40
0.9401274163
 40
0.9539374546
 40
0.9659939052
 40
0.9762701461
 40
0.984739315
 40
0.9913743169
 40
0.99614783
 40
1.0
 40
1.0
 40
1.0
 40
1.0
 10
7.5052482642
 20
10.12417702
 30
0.0
 10
7.4807475876
 20
10.1289495723
 30
0.0
 10
7.4463228024
 20
10.1368526168
 30
0.0
 10
7.4029048929
 20
10.1477643613
 30
0.0
 10
7.3526141673
 20
10.1609133476
 30
0.0
 10
7.2993706612
 20
10.1754053471
 30
0.0
 10
7.2434353173
 20
10.1902532255
 30
0.0
 10
7.2079868992
 20
10.1994206998
 30
0.0
 10
7.1761503471
 20
10.2073427075
 30
0.0
 10
7.1477022144
 20
10.2141159315
 30
0.0
 10
7.122529542
 20
10.2198113155
 30
0.0
 10
7.1005772665
 20
10.2245088258
 30
0.0
 10
7.0818271675
 20
10.2282798027
 30
0.0
 10
7.0682083628
 20
10.2308421067
 30
0.0
 10
7.0589209553
 20
10.2324895354
 30
0.0
 10
7.0532174189
 20
10.2334640644
 30
0.0
 10
7.0482786899
 20
10.2342730283
 30
0.0
 10
7.0444096559
 20
10.2348876171
 30
0.0
 10
7.0408437929
 20
10.2354193066
 30
0.0
 10
7.0394148489
 20
10.2356413794
 30
0.0
 10
7.0361117656
 20
10.2360845371
 30
0.0
 10
7.0367253943
 20
10.2360050605
 30
0.0
  0
SPLINE
  5
4A5
100
AcDbEntity
  8
0
100
AcDbSpline
 62
9
  6
CONTINUOUS
 70
0
 71
3
 72
11
 73
7
 74
0
 42
0.0000001
 43
0.0000001
 44
0.0000000001
 40
0.0
 40
0.0
 40
0.0
 40
0.0
 40
0.2331952357
 40
0.4821962898
 40
0.7404282376
 40
1.0
 40
1.0
 40
1.0
 40
1.0
 10
14.0069687644
 20
12.0650458367
 30
0.0
 10
14.001539612
 20
12.053960341
 30
0.0
 10
13.9919116682
 20
12.0302367642
 30
0.0
 10
13.9814601503
 20
11.9923810777
 30
0.0
 10
13.9750678663
 20
11.9522227978
 30
0.0
 10
13.9734944908
 20
11.9248060051
 30
0.0
 10
13.9734094394
 20
11.9110665184
 30
0.0
  0
SPLINE
  5
4A6
100
AcDbEntity
  8
0
100
AcDbSpline
 62
7
  6
CONTINUOUS
 70
0
 71
3
 72
12
 73
8
 74
0
 42
0.0000001
 43
0.0000001
 44
0.0000000001
 40
0.0
 40
0.0
 40
0.0
 40
0.0
 40
0.2499271615
 40
0.3750434533
 40
0.5000942655
 40
0.7500809081
 40
1.0
 40
1.0
 40
1.0
 40
1.0
 10
14.8014004902
 20
13.0597579458
 30
0.0
 10
14.8014004902
 20
13.0802978661
 30
0.0
 10
14.7985609461
 20
13.111199329
 30
0.0
 10
14.7896614766
 20
13.1513528851
 30
0.0
 10
14.7776069659
 20
13.1906922145
 30
0.0
 10
14.7573619317
 20
13.2380611617
 30
0.0
 10
14.7369900735
 20
13.2738232672
 30
0.0
 10
14.7260562801
 20
13.2912104247
 30
0.0
  0
SPLINE
  5
4A7
100
AcDbEntity
  8
0
100
AcDbSpline
 62
7
  6
CONTINUOUS
 70
0
 71
3
 72
21
 73
17
 74
0
 42
0.0000001
 43
0.0000001
 44
0.0000000001
 40
0.0
 40
0.0
 40
0.0
 40
0.0
 40
0.1418036068
 40
0.2085172841
 40
0.2721412552
 40
0.3326751305
 40
0.3903573035
 40
0.4458028822
 40
0.5000001827
 40
0.5541975231
 40
0.6096431247
 40
0.6673252239
 40
0.7278589324
 40
0.7914827995
 40
0.8581963871
 40
1.0
 40
1.0
 40
1.0
 40
1.0
 10
14.7260562801
 20
13.4584507962
 30
0.0
 10
14.7366125172
 20
13.4668441758
 30
0.0
 10
14.7516182061
 20
13.4799047923
 30
0.0
 10
14.769228325
 20
13.498904634
 30
0.0
 10
14.7803755659
 20
13.5132684355
 30
0.0
 10
14.7894707398
 20
13.5280253771
 30
0.0
 10
14.7962454589
 20
13.5431500012
 30
0.0
 10
14.8004472566
 20
13.5585750018
 30
0.0
 10
14.801868656
 20
13.5741770911
 30
0.0
 10
14.8004472646
 20
13.5897791904
 30
0.0
 10
14.7962453772
 20
13.605204162
 30
0.0
 10
14.7894707353
 20
13.6203287958
 30
0.0
 10
14.7803755176
 20
13.6350856764
 30
0.0
 10
14.769228307
 20
13.6494494538
 30
0.0
 10
14.7516182014
 20
13.6684492855
 30
0.0
 10
14.7366125177
 20
13.6815098951
 30
0.0
 10
14.7260562801
 20
13.6899032751
 30
0.0
  0
LINE
  5
4A8
100
AcDbEntity
  8
0
100
AcDbLine
 62
9
  6
CONTINUOUS
 10
6.2869369648
 20
9.2774795516
 11
6.309515266
 21
9.277347319
  0
SPLINE
  5
4A9
100
AcDbEntity
  8
0
100
AcDbSpline
 62
9
  6
CONTINUOUS
 70
0
 71
3
 72
25
 73
21
 74
0
 42
0.0000001
 43
0.0000001
 44
0.0000000001
 40
0.0
 40
0.0
 40
0.0
 40
0.0
 40
0.1031054887
 40
0.1764218015
 40
0.268188378
 40
0.3224784809
 40
0.3837174554
 40
0.453175312
 40
0.5325959068
 40
0.6245218526
 40
0.6760903119
 40
0.7319965602
 40
0.7927619884
 40
0.8249616034
 40
0.8583122971
 40
0.8926713972
 40
0.9278773359
 40
0.9457533429
 40
0.9637889524
 40
1.0
 40
1.0
 40
1.0
 40
1.0
 10
6.309515266
 20
9.277347319
 30
0.0
 10
6.3204547969
 20
9.277298281
 30
0.0
 10
6.3391733021
 20
9.2772342319
 30
0.0
 10
6.3676283493
 20
9.2771502099
 30
0.0
 10
6.3909040072
 20
9.2770709751
 30
0.0
 10
6.4128981678
 20
9.2769738467
 30
0.0
 10
6.4325251473
 20
9.2768459906
 30
0.0
 10
6.4548181105
 20
9.2766553783
 30
0.0
 10
6.4803659487
 20
9.2763350049
 30
0.0
 10
6.5040129776
 20
9.2758566762
 30
0.0
 10
6.5251623415
 20
9.2752927862
 30
0.0
 10
6.543000795
 20
9.2746254889
 30
0.0
 10
6.5587783333
 20
9.2738691635
 30
0.0
 10
6.5721618623
 20
9.2731598206
 30
0.0
 10
6.5827454335
 20
9.2725611663
 30
0.0
 10
6.5936426556
 20
9.2718549517
 30
0.0
 10
6.6028902841
 20
9.2711173035
 30
0.0
 10
6.6104106887
 20
9.2704787432
 30
0.0
 10
6.6180309053
 20
9.2698653469
 30
0.0
 10
6.6237988907
 20
9.2693577326
 30
0.0
 10
6.6275364086
 20
9.2684676404
 30
0.0
  0
LINE
  5
4AA
100
AcDbEntity
  8
0
100
AcDbLine
 62
9
  6
CONTINUOUS
 10
6.284811974
 20
9.2618937644
 11
6.348139855
 21
9.2621055981
  0
SPLINE
  5
4AB
100
AcDbEntity
  8
0
100
AcDbSpline
 62
9
  6
CONTINUOUS
 70
0
 71
3
 72
14
 73
10
 74
0
 42
0.0000001
 43
0.0000001
 44
0.0000000001
 40
0.0
 40
0.0
 40
0.0
 40
0.0
 40
0.1343108874
 40
0.3199660682
 40
0.4409495641
 40
0.5891748375
 40
0.7751827545
 40
0.8841888308
 40
1.0
 40
1.0
 40
1.0
 40
1.0
 10
6.348139855
 20
9.2621055981
 30
0.0
 10
6.3606530097
 20
9.2621351084
 30
0.0
 10
6.3904628481
 20
9.2622023821
 30
0.0
 10
6.43154405
 20
9.262353987
 30
0.0
 10
6.4739208576
 20
9.2626733973
 30
0.0
 10
6.5163273149
 20
9.2632779239
 30
0.0
 10
6.5576113984
 20
9.2643476015
 30
0.0
 10
6.5958464214
 20
9.2661241939
 30
0.0
 10
6.6167470399
 20
9.2675440438
 30
0.0
 10
6.6274972687
 20
9.2684654953
 30
0.0
  0
SPLINE
  5
4AC
100
AcDbEntity
  8
0
100
AcDbSpline
 62
7
  6
CONTINUOUS
 70
0
 71
3
 72
12
 73
8
 74
0
 42
0.0000001
 43
0.0000001
 44
0.0000000001
 40
0.0
 40
0.0
 40
0.0
 40
0.0
 40
0.2499310469
 40
0.4999300645
 40
0.6249844893
 40
0.7500868587
 40
1.0
 40
1.0
 40
1.0
 40
1.0
 10
14.3798831391
 20
12.8283054669
 30
0.0
 10
14.3689488224
 20
12.8456934566
 30
0.0
 10
14.348576187
 20
12.8814574993
 30
0.0
 10
14.3283324219
 20
12.928829513
 30
0.0
 10
14.3162776814
 20
12.968168789
 30
0.0
 10
14.3073734687
 20
13.0083193748
 30
0.0
 10
14.304538929
 20
13.039219177
 30
0.0
 10
14.304538929
 20
13.0597579458
 30
0.0
  0
SPLINE
  5
4AD
100
AcDbEntity
  8
0
100
AcDbSpline
 62
7
  6
CONTINUOUS
 70
0
 71
3
 72
12
 73
8
 74
0
 42
0.0000001
 43
0.0000001
 44
0.0000000001
 40
0.0
 40
0.0
 40
0.0
 40
0.0
 40
0.2499231744
 40
0.3750351009
 40
0.5000868363
 40
0.7500774732
 40
1.0
 40
1.0
 40
1.0
 40
1.0
 10
14.304538929
 20
13.0597579458
 30
0.0
 10
14.304538929
 20
13.0802975314
 30
0.0
 10
14.3073766997
 20
13.1111985159
 30
0.0
 10
14.3162778088
 20
13.1513511269
 30
0.0
 10
14.3283330566
 20
13.1906902167
 30
0.0
 10
14.3485777551
 20
13.2380599693
 30
0.0
 10
14.3689491992
 20
13.2738230342
 30
0.0
 10
14.3798831391
 20
13.2912104247
 30
0.0
  0
SPLINE
  5
4AE
100
AcDbEntity
  8
0
100
AcDbSpline
 62
9
  6
CONTINUOUS
 70
0
 71
3
 72
24
 73
20
 74
0
 42
0.0000001
 43
0.0000001
 44
0.0000000001
 40
0.0
 40
0.0
 40
0.0
 40
0.0
 40
0.0006401063
 40
0.002544932
 40
0.0056506126
 40
0.0098933583
 40
0.0215354244
 40
0.0369633865
 40
0.0556720919
 40
0.0771596783
 40
0.1265807017
 40
0.182737473
 40
0.2441591188
 40
0.3094418929
 40
0.3773569998
 40
0.5198595727
 40
0.6711977418
 40
0.83128432
 40
1.0
 40
1.0
 40
1.0
 40
1.0
 10
13.2007923254
 20
18.7543267143
 30
0.0
 10
13.2007945307
 20
18.7543326564
 30
0.0
 10
13.2007987159
 20
18.7542788309
 30
0.0
 10
13.2008130467
 20
18.754252299
 30
0.0
 10
13.2008335493
 20
18.7541477708
 30
0.0
 10
13.2008786595
 20
18.7539740613
 30
0.0
 10
13.2009545074
 20
18.7536671616
 30
0.0
 10
13.2010713681
 20
18.7532320126
 30
0.0
 10
13.2012205524
 20
18.7527007989
 30
0.0
 10
13.2014744278
 20
18.7518509181
 30
0.0
 10
13.2018697894
 20
18.7506558726
 30
0.0
 10
13.2024512334
 20
18.7491075323
 30
0.0
 10
13.203155574
 20
18.7474389322
 30
0.0
 10
13.2039826116
 20
18.7456975335
 30
0.0
 10
13.2052772629
 20
18.7432929854
 30
0.0
 10
13.2072184419
 20
18.7402746808
 30
0.0
 10
13.2100192387
 20
18.7367500707
 30
0.0
 10
13.2133351683
 20
18.7333329589
 30
0.0
 10
13.2158232064
 20
18.7312238138
 30
0.0
 10
13.2171471916
 20
18.730205065
 30
0.0
  0
SPLINE
  5
4AF
100
AcDbEntity
  8
0
100
AcDbSpline
 62
9
  6
CONTINUOUS
 70
0
 71
3
 72
9
 73
5
 74
0
 42
0.0000001
 43
0.0000001
 44
0.0000000001
 40
0.0
 40
0.0
 40
0.0
 40
0.0
 40
0.2336824055
 40
1.0
 40
1.0
 40
1.0
 40
1.0
 10
13.2171471916
 20
18.730205065
 30
0.0
 10
13.2180312948
 20
18.7295247863
 30
0.0
 10
13.2219064703
 20
18.7267331747
 30
0.0
 10
13.2261378953
 20
18.7244519101
 30
0.0
 10
13.2294762551
 20
18.7229560212
 30
0.0
  0
SPLINE
  5
4B0
100
AcDbEntity
  8
0
100
AcDbSpline
 62
7
  6
CONTINUOUS
 70
0
 71
3
 72
21
 73
17
 74
0
 42
0.0000001
 43
0.0000001
 44
0.0000000001
 40
0.0
 40
0.0
 40
0.0
 40
0.0
 40
0.1418036068
 40
0.2085172841
 40
0.2721412552
 40
0.3326751305
 40
0.3903573035
 40
0.4458028822
 40
0.5000001827
 40
0.5541975231
 40
0.6096431247
 40
0.6673252239
 40
0.7278589324
 40
0.7914827995
 40
0.8581963871
 40
1.0
 40
1.0
 40
1.0
 40
1.0
 10
14.3798831391
 20
13.6899032751
 30
0.0
 10
14.369326902
 20
13.6815098955
 30
0.0
 10
14.3543212131
 20
13.6684492789
 30
0.0
 10
14.3367110942
 20
13.6494494372
 30
0.0
 10
14.3255638534
 20
13.6350856358
 30
0.0
 10
14.3164686794
 20
13.6203286942
 30
0.0
 10
14.3096939603
 20
13.60520407
 30
0.0
 10
14.3054921626
 20
13.5897790695
 30
0.0
 10
14.3040707632
 20
13.5741769801
 30
0.0
 10
14.3054921546
 20
13.5585748808
 30
0.0
 10
14.309694042
 20
13.5431499092
 30
0.0
 10
14.3164686839
 20
13.5280252754
 30
0.0
 10
14.3255639016
 20
13.5132683948
 30
0.0
 10
14.3367111122
 20
13.4989046175
 30
0.0
 10
14.3543212178
 20
13.4799047858
 30
0.0
 10
14.3693269016
 20
13.4668441761
 30
0.0
 10
14.3798831391
 20
13.4584507962
 30
0.0
  0
SPLINE
  5
4B1
100
AcDbEntity
  8
0
100
AcDbSpline
 62
9
  6
CONTINUOUS
 70
0
 71
3
 72
36
 73
32
 74
0
 42
0.0000001
 43
0.0000001
 44
0.0000000001
 40
0.0
 40
0.0
 40
0.0
 40
0.0
 40
0.0928640304
 40
0.1378024431
 40
0.1810043638
 40
0.2614233805
 40
0.2985872268
 40
0.3336919619
 40
0.3982292464
 40
0.4561529423
 40
0.5560118357
 40
0.6394064803
 40
0.7099979351
 40
0.770246618
 40
0.8216886277
 40
0.8654648194
 40
0.9023204194
 40
0.932815614
 40
0.9458228389
 40
0.9573958205
 40
0.9675446561
 40
0.9762762186
 40
0.9835973973
 40
0.9895212818
 40
0.9940829067
 40
0.9958653315
 40
0.9973221536
 40
0.9984584061
 40
0.99927924
 40
0.9997902386
 40
1.0
 40
1.0
 40
1.0
 40
1.0
 10
6.6346672654
 20
9.2684193631
 30
0.0
 10
6.6452544776
 20
9.2644895933
 30
0.0
 10
6.6609511623
 20
9.2586176249
 30
0.0
 10
6.6817634455
 20
9.2514439064
 30
0.0
 10
6.7013462449
 20
9.245373439
 30
0.0
 10
6.7203089027
 20
9.240551937
 30
0.0
 10
6.7384524719
 20
9.2366038116
 30
0.0
 10
6.7547632367
 20
9.233322972
 30
0.0
 10
6.7736293734
 20
9.2299593331
 30
0.0
 10
6.8003461326
 20
9.2258074135
 30
0.0
 10
6.829420647
 20
9.221939022
 30
0.0
 10
6.8600350169
 20
9.2179805116
 30
0.0
 10
6.8858787404
 20
9.2146867555
 30
0.0
 10
6.9078730285
 20
9.2119253361
 30
0.0
 10
6.9266277585
 20
9.2095381107
 30
0.0
 10
6.942553853
 20
9.2074587574
 30
0.0
 10
6.955949322
 20
9.205673218
 30
0.0
 10
6.9656334615
 20
9.2043643696
 30
0.0
 10
6.9722693977
 20
9.2034575176
 30
0.0
 10
6.9764533858
 20
9.2028824062
 30
0.0
 10
6.980122139
 20
9.2023771429
 30
0.0
 10
6.9832788551
 20
9.2019439255
 30
0.0
 10
6.9859272111
 20
9.2015848258
 30
0.0
 10
6.9880738887
 20
9.2013014742
 30
0.0
 10
6.9895537571
 20
9.2011099972
 30
0.0
 10
6.9904938022
 20
9.200986228
 30
0.0
 10
6.9910223435
 20
9.2009164884
 30
0.0
 10
6.9914304247
 20
9.2008560057
 30
0.0
 10
6.9917340512
 20
9.2008162869
 30
0.0
 10
6.9919054993
 20
9.2007710644
 30
0.0
 10
6.992005604
 20
9.2007617622
 30
0.0
 10
6.9920206161
 20
9.2007411386
 30
0.0
  0
SPLINE
  5
4B2
100
AcDbEntity
  8
0
100
AcDbSpline
 62
9
  6
CONTINUOUS
 70
0
 71
3
 72
14
 73
10
 74
0
 42
0.0000001
 43
0.0000001
 44
0.0000000001
 40
0.0
 40
0.0
 40
0.0
 40
0.0
 40
0.1245058253
 40
0.249391722
 40
0.3745735894
 40
0.4997097293
 40
0.6246988247
 40
0.7496705202
 40
1.0
 40
1.0
 40
1.0
 40
1.0
 10
13.9100681309
 20
12.2803353485
 30
0.0
 10
13.9204633094
 20
12.2886310163
 30
0.0
 10
13.9405606314
 20
12.3061709118
 30
0.0
 10
13.9686951457
 20
12.3346593603
 30
0.0
 10
13.9950808749
 20
12.3648532227
 30
0.0
 10
14.0200198978
 20
12.396257233
 30
0.0
 10
14.0435645084
 20
12.4286939323
 30
0.0
 10
14.0730474767
 20
12.4732795088
 30
0.0
 10
14.0929844862
 20
12.508132809
 30
0.0
 10
14.1052854899
 20
12.5318752839
 30
0.0
  0
SPLINE
  5
4B3
100
AcDbEntity
  8
0
100
AcDbSpline
 62
9
  6
CONTINUOUS
 70
0
 71
3
 72
13
 73
9
 74
0
 42
0.0000001
 43
0.0000001
 44
0.0000000001
 40
0.0
 40
0.0
 40
0.0
 40
0.0
 40
0.2488885252
 40
0.4979769847
 40
0.622785999
 40
0.7479337289
 40
0.8736252011
 40
1.0
 40
1.0
 40
1.0
 40
1.0
 10
14.1161564634
 20
13.5871422212
 30
0.0
 10
14.1032314407
 20
13.6132785973
 30
0.0
 10
14.0750232726
 20
13.6644536185
 30
0.0
 10
14.0334569748
 20
13.7246053486
 30
0.0
 10
13.996120581
 20
13.7696342503
 30
0.0
 10
13.9660241152
 20
13.8017819095
 30
0.0
 10
13.9338451864
 20
13.832106503
 30
0.0
 10
13.9111030042
 20
13.8509891264
 30
0.0
 10
13.8993418237
 20
13.8599814454
 30
0.0
  0
SPLINE
  5
4B4
100
AcDbEntity
  8
0
100
AcDbSpline
 62
9
  6
CONTINUOUS
 70
0
 71
3
 72
14
 73
10
 74
0
 42
0.0000001
 43
0.0000001
 44
0.0000000001
 40
0.0
 40
0.0
 40
0.0
 40
0.0
 40
0.0309280107
 40
0.0928882561
 40
0.184600282
 40
0.3041623123
 40
0.4487192432
 40
0.6152869567
 40
1.0
 40
1.0
 40
1.0
 40
1.0
 10
14.1675364518
 20
20.9033197051
 30
0.0
 10
14.1675364518
 20
20.9027237712
 30
0.0
 10
14.1674124137
 20
20.9009364424
 30
0.0
 10
14.1671811693
 20
20.8973883179
 30
0.0
 10
14.1667742999
 20
20.8921385322
 30
0.0
 10
14.1662340005
 20
20.8853038394
 30
0.0
 10
14.1655562355
 20
20.8770327973
 30
0.0
 10
14.1644407042
 20
20.8636716337
 30
0.0
 10
14.1635347041
 20
20.853087998
 30
0.0
 10
14.162895944
 20
20.8457027571
 30
0.0
  0
SPLINE
  5
4B5
100
AcDbEntity
  8
0
100
AcDbSpline
 62
9
  6
CONTINUOUS
 70
0
 71
3
 72
9
 73
5
 74
0
 42
0.0000001
 43
0.0000001
 44
0.0000000001
 40
0.0
 40
0.0
 40
0.0
 40
0.0
 40
0.4777985251
 40
1.0
 40
1.0
 40
1.0
 40
1.0
 10
14.0675867627
 20
20.3188914367
 30
0.0
 10
14.0752060048
 20
20.3178495624
 30
0.0
 10
14.0911874322
 20
20.3159238148
 30
0.0
 10
14.1072052593
 20
20.3143385036
 30
0.0
 10
14.1155772959
 20
20.313596996
 30
0.0
  0
SPLINE
  5
4B6
100
AcDbEntity
  8
0
100
AcDbSpline
 62
9
  6
CONTINUOUS
 70
0
 71
3
 72
9
 73
5
 74
0
 42
0.0000001
 43
0.0000001
 44
0.0000000001
 40
0.0
 40
0.0
 40
0.0
 40
0.0
 40
0.5226999108
 40
1.0
 40
1.0
 40
1.0
 40
1.0
 10
13.1394172414
 20
20.313596996
 30
0.0
 10
13.1478694224
 20
20.314345602
 30
0.0
 10
13.1640250365
 20
20.315946039
 30
0.0
 10
13.1801435084
 20
20.3178935172
 30
0.0
 10
13.1878197027
 20
20.318947891
 30
0.0
  0
SPLINE
  5
4B7
100
AcDbEntity
  8
0
100
AcDbSpline
 62
9
  6
CONTINUOUS
 70
0
 71
3
 72
19
 73
15
 74
0
 42
0.0000001
 43
0.0000001
 44
0.0000000001
 40
0.0
 40
0.0
 40
0.0
 40
0.0
 40
0.1921193442
 40
0.3779048721
 40
0.5491501685
 40
0.6995213741
 40
0.8234412593
 40
0.8740742849
 40
0.9164727668
 40
0.9502110624
 40
0.9751507243
 40
0.9843447845
 40
0.9914188511
 40
1.0
 40
1.0
 40
1.0
 40
1.0
 10
14.1600192264
 20
20.8129297058
 30
0.0
 10
14.1545212309
 20
20.8134166608
 30
0.0
 10
14.1437129154
 20
20.8144485604
 30
0.0
 10
14.1280288478
 20
20.8161620688
 30
0.0
 10
14.1135634805
 20
20.8179726667
 30
0.0
 10
14.1008939682
 20
20.8198018852
 30
0.0
 10
14.0916892216
 20
20.821366117
 30
0.0
 10
14.085580243
 20
20.822607928
 30
0.0
 10
14.0820330916
 20
20.8234327518
 30
0.0
 10
14.0792322644
 20
20.8242143584
 30
0.0
 10
14.0773940366
 20
20.8248527794
 30
0.0
 10
14.0763151201
 20
20.825371901
 30
0.0
 10
14.075728594
 20
20.8257342961
 30
0.0
 10
14.0753522829
 20
20.8261113866
 30
0.0
 10
14.0753522829
 20
20.8263579198
 30
0.0
  0
SPLINE
  5
4B8
100
AcDbEntity
  8
0
100
AcDbSpline
 62
9
  6
CONTINUOUS
 70
0
 71
3
 72
19
 73
15
 74
0
 42
0.0000001
 43
0.0000001
 44
0.0000000001
 40
0.0
 40
0.0
 40
0.0
 40
0.0
 40
0.0085811489
 40
0.0156552155
 40
0.0248492757
 40
0.0497889376
 40
0.0835272332
 40
0.1259257151
 40
0.1765587407
 40
0.3004786259
 40
0.4508498315
 40
0.6220951279
 40
0.8078806558
 40
1.0
 40
1.0
 40
1.0
 40
1.0
 10
13.1796422544
 20
20.8263579198
 30
0.0
 10
13.1796422544
 20
20.8261113866
 30
0.0
 10
13.1792659434
 20
20.8257342961
 30
0.0
 10
13.1786794172
 20
20.825371901
 30
0.0
 10
13.1776005008
 20
20.8248527794
 30
0.0
 10
13.175762273
 20
20.8242143584
 30
0.0
 10
13.1729614458
 20
20.8234327518
 30
0.0
 10
13.1694142943
 20
20.822607928
 30
0.0
 10
13.1633053157
 20
20.821366117
 30
0.0
 10
13.1541005691
 20
20.8198018852
 30
0.0
 10
13.1414310568
 20
20.8179726667
 30
0.0
 10
13.1269656895
 20
20.8161620688
 30
0.0
 10
13.1112816219
 20
20.8144485604
 30
0.0
 10
13.1004733064
 20
20.8134166608
 30
0.0
 10
13.0949753109
 20
20.8129297058
 30
0.0
  0
SPLINE
  5
4B9
100
AcDbEntity
  8
0
100
AcDbSpline
 62
9
  6
CONTINUOUS
 70
0
 71
3
 72
14
 73
10
 74
0
 42
0.0000001
 43
0.0000001
 44
0.0000000001
 40
0.0
 40
0.0
 40
0.0
 40
0.0
 40
0.3847130433
 40
0.5512807568
 40
0.6958376877
 40
0.815399718
 40
0.9071117439
 40
0.9690719893
 40
1.0
 40
1.0
 40
1.0
 40
1.0
 10
13.0920985933
 20
20.8457027571
 30
0.0
 10
13.0914598333
 20
20.853087998
 30
0.0
 10
13.0905538331
 20
20.8636716337
 30
0.0
 10
13.0894383018
 20
20.8770327973
 30
0.0
 10
13.0887605368
 20
20.8853038394
 30
0.0
 10
13.0882202375
 20
20.8921385322
 30
0.0
 10
13.087813368
 20
20.8973883179
 30
0.0
 10
13.0875821236
 20
20.9009364424
 30
0.0
 10
13.0874580855
 20
20.9027237712
 30
0.0
 10
13.0874580855
 20
20.9033197051
 30
0.0
  0
SPLINE
  5
4BA
100
AcDbEntity
  8
0
100
AcDbSpline
 62
9
  6
CONTINUOUS
 70
0
 71
3
 72
16
 73
12
 74
0
 42
0.0000001
 43
0.0000001
 44
0.0000000001
 40
0.0
 40
0.0
 40
0.0
 40
0.0
 40
0.0109039283
 40
0.0307157914
 40
0.059198012
 40
0.096110091
 40
0.19384142
 40
0.3198910741
 40
0.4695838935
 40
0.6372937083
 40
1.0
 40
1.0
 40
1.0
 40
1.0
 10
13.0675364518
 20
20.9015552548
 30
0.0
 10
13.0675364518
 20
20.9012255766
 30
0.0
 10
13.0675868124
 20
20.9002976336
 30
0.0
 10
13.0676944357
 20
20.8985114312
 30
0.0
 10
13.0678771604
 20
20.8959415002
 30
0.0
 10
13.0682439251
 20
20.891023192
 30
0.0
 10
13.0688683073
 20
20.8831658437
 30
0.0
 10
13.0697930782
 20
20.8719119006
 30
0.0
 10
13.0709193045
 20
20.858551568
 30
0.0
 10
13.0726780265
 20
20.8380639561
 30
0.0
 10
13.0740814856
 20
20.8220884316
 30
0.0
 10
13.0750536772
 20
20.8111652555
 30
0.0
  0
SPLINE
  5
4BB
100
AcDbEntity
  8
0
100
AcDbSpline
 62
9
  6
CONTINUOUS
 70
0
 71
3
 72
20
 73
16
 74
0
 42
0.0000001
 43
0.0000001
 44
0.0000000001
 40
0.0
 40
0.0
 40
0.0
 40
0.0
 40
0.2114530284
 40
0.4046946081
 40
0.575730097
 40
0.7209992488
 40
0.7830685474
 40
0.8376313876
 40
0.8843558265
 40
0.9230201017
 40
0.9535804249
 40
0.976101973
 40
0.9844544815
 40
0.9910107751
 40
1.0
 40
1.0
 40
1.0
 40
1.0
 10
13.0426530406
 20
20.8087468865
 30
0.0
 10
13.0389431801
 20
20.8085257564
 30
0.0
 10
13.0318404001
 20
20.8081440743
 30
0.0
 10
13.0217292148
 20
20.8077393102
 30
0.0
 10
13.0127755364
 20
20.8075314302
 30
0.0
 10
13.0061243823
 20
20.807522434
 30
0.0
 10
13.0015223445
 20
20.8076320974
 30
0.0
 10
12.9986537851
 20
20.8077599113
 30
0.0
 10
12.9962000913
 20
20.8079373016
 30
0.0
 10
12.9941736625
 20
20.8081611502
 30
0.0
 10
12.9925830677
 20
20.8084319323
 30
0.0
 10
12.9915352569
 20
20.8087028847
 30
0.0
 10
12.9909284591
 20
20.808969062
 30
0.0
 10
12.9905743461
 20
20.8091832518
 30
0.0
 10
12.9903867336
 20
20.8094376496
 30
0.0
 10
12.9903867336
 20
20.8095956419
 30
0.0
  0
SPLINE
  5
4BC
100
AcDbEntity
  8
0
100
AcDbSpline
 62
9
  6
CONTINUOUS
 70
0
 71
3
 72
9
 73
5
 74
0
 42
0.0000001
 43
0.0000001
 44
0.0000000001
 40
0.0
 40
0.0
 40
0.0
 40
0.0
 40
0.2733780595
 40
1.0
 40
1.0
 40
1.0
 40
1.0
 10
13.3495862566
 20
19.8655658781
 30
0.0
 10
13.3457757943
 20
19.8668165892
 30
0.0
 10
13.3318534019
 20
19.8714396083
 30
0.0
 10
13.3179977984
 20
19.8762691153
 30
0.0
 10
13.3080032054
 20
19.8799751907
 30
0.0
  0
SPLINE
  5
4BD
100
AcDbEntity
  8
0
100
AcDbSpline
 62
9
  6
CONTINUOUS
 70
0
 71
3
 72
11
 73
7
 74
0
 42
0.0000001
 43
0.0000001
 44
0.0000000001
 40
0.0
 40
0.0
 40
0.0
 40
0.0
 40
0.3039111931
 40
0.5699096383
 40
0.8015700734
 40
1.0
 40
1.0
 40
1.0
 40
1.0
 10
13.2951325934
 20
19.8848897614
 30
0.0
 10
13.2894421651
 20
19.8871322494
 30
0.0
 10
13.2788339802
 20
19.8915013801
 30
0.0
 10
13.2641902698
 20
19.8982847324
 30
0.0
 10
13.2518134376
 20
19.9048633045
 30
0.0
 10
13.2444696878
 20
19.9094692491
 30
0.0
 10
13.2412043835
 20
19.9117683273
 30
0.0
  0
SPLINE
  5
4BE
100
AcDbEntity
  8
0
100
AcDbSpline
 62
9
  6
CONTINUOUS
 70
0
 71
3
 72
9
 73
5
 74
0
 42
0.0000001
 43
0.0000001
 44
0.0000000001
 40
0.0
 40
0.0
 40
0.0
 40
0.0
 40
0.2656685697
 40
1.0
 40
1.0
 40
1.0
 40
1.0
 10
13.2412043835
 20
19.9117683273
 30
0.0
 10
13.2405380666
 20
19.9122374764
 30
0.0
 10
13.2380501105
 20
19.9140314189
 30
0.0
 10
13.235644695
 20
19.9159426683
 30
0.0
 10
13.2339525779
 20
19.9174294188
 30
0.0
  0
SPLINE
  5
4BF
100
AcDbEntity
  8
0
100
AcDbSpline
 62
9
  6
CONTINUOUS
 70
0
 71
3
 72
18
 73
14
 74
0
 42
0.0000001
 43
0.0000001
 44
0.0000000001
 40
0.0
 40
0.0
 40
0.0
 40
0.0
 40
0.1934199013
 40
0.3800575379
 40
0.551719337
 40
0.7021078413
 40
0.8256909838
 40
0.9180823079
 40
0.9514160311
 40
0.9759040624
 40
0.9848659372
 40
0.9917160208
 40
1.0
 40
1.0
 40
1.0
 40
1.0
 10
14.1354989297
 20
20.3118325457
 30
0.0
 10
14.140968696
 20
20.311348091
 30
0.0
 10
14.1517230489
 20
20.3104694723
 30
0.0
 10
14.1673507848
 20
20.3094065052
 30
0.0
 10
14.181773468
 20
20.3086556273
 30
0.0
 10
14.1944191429
 20
20.3082328645
 30
0.0
 10
14.2048210389
 20
20.3081636864
 30
0.0
 10
14.2118991243
 20
20.3083707907
 30
0.0
 10
14.2161484446
 20
20.3087892638
 30
0.0
 10
14.2180160027
 20
20.3090954459
 30
0.0
 10
14.219126797
 20
20.3094215
 30
0.0
 10
14.2197369877
 20
20.3096720646
 30
0.0
 10
14.2201428577
 20
20.309992202
 30
0.0
 10
14.2201642143
 20
20.310226412
 30
0.0
  0
SPLINE
  5
4C0
100
AcDbEntity
  8
0
100
AcDbSpline
 62
9
  6
CONTINUOUS
 70
0
 71
3
 72
15
 73
11
 74
0
 42
0.0000001
 43
0.0000001
 44
0.0000000001
 40
0.0
 40
0.0
 40
0.0
 40
0.0
 40
0.0269765821
 40
0.0493930359
 40
0.0789518389
 40
0.115924337
 40
0.1604073887
 40
0.2719427828
 40
0.5827436083
 40
1.0
 40
1.0
 40
1.0
 40
1.0
 10
14.2646078037
 20
20.8095956419
 30
0.0
 10
14.2646078037
 20
20.8093688715
 30
0.0
 10
14.2642292176
 20
20.8090296097
 30
0.0
 10
14.2636403747
 20
20.808781211
 30
0.0
 10
14.2629165158
 20
20.8085571637
 30
0.0
 10
14.2620065342
 20
20.8083617963
 30
0.0
 10
14.2604031966
 20
20.8081019824
 30
0.0
 10
14.2564964908
 20
20.8077160701
 30
0.0
 10
14.2494364333
 20
20.8074956667
 30
0.0
 10
14.243316366
 20
20.8075343605
 30
0.0
 10
14.2398094301
 20
20.8075993745
 30
0.0
  0
SPLINE
  5
4C1
100
AcDbEntity
  8
0
100
AcDbSpline
 62
9
  6
CONTINUOUS
 70
0
 71
3
 72
9
 73
5
 74
0
 42
0.0000001
 43
0.0000001
 44
0.0000000001
 40
0.0
 40
0.0
 40
0.0
 40
0.0
 40
0.2238782924
 40
1.0
 40
1.0
 40
1.0
 40
1.0
 10
14.2398094301
 20
20.8075993745
 30
0.0
 10
14.237758088
 20
20.8076374037
 30
0.0
 10
14.2285965842
 20
20.8078737847
 30
0.0
 10
14.2194415305
 20
20.8083236815
 30
0.0
 10
14.2123414967
 20
20.8087468865
 30
0.0
  0
SPLINE
  5
4C2
100
AcDbEntity
  8
0
100
AcDbSpline
 62
9
  6
CONTINUOUS
 70
0
 71
3
 72
16
 73
12
 74
0
 42
0.0000001
 43
0.0000001
 44
0.0000000001
 40
0.0
 40
0.0
 40
0.0
 40
0.0
 40
0.3627062917
 40
0.5304161065
 40
0.6801089259
 40
0.80615858
 40
0.903889909
 40
0.940801988
 40
0.9692842086
 40
0.9890960717
 40
1.0
 40
1.0
 40
1.0
 40
1.0
 10
14.1799408602
 20
20.8111652555
 30
0.0
 10
14.1809130517
 20
20.8220884316
 30
0.0
 10
14.1823165108
 20
20.8380639561
 30
0.0
 10
14.1840752328
 20
20.858551568
 30
0.0
 10
14.1852014591
 20
20.8719119006
 30
0.0
 10
14.1861262301
 20
20.8831658437
 30
0.0
 10
14.1867506122
 20
20.891023192
 30
0.0
 10
14.1871173769
 20
20.8959415002
 30
0.0
 10
14.1873001017
 20
20.8985114312
 30
0.0
 10
14.187407725
 20
20.9002976336
 30
0.0
 10
14.1874580855
 20
20.9012255766
 30
0.0
 10
14.1874580855
 20
20.9015552548
 30
0.0
  0
SPLINE
  5
4C3
100
AcDbEntity
  8
0
100
AcDbSpline
 62
9
  6
CONTINUOUS
 70
0
 71
3
 72
12
 73
8
 74
0
 42
0.0000001
 43
0.0000001
 44
0.0000000001
 40
0.0
 40
0.0
 40
0.0
 40
0.0
 40
0.2996637277
 40
0.5671830639
 40
0.801175389
 40
0.9050779258
 40
1.0
 40
1.0
 40
1.0
 40
1.0
 10
13.357341731
 20
19.1140877112
 30
0.0
 10
13.3520614337
 20
19.0874578335
 30
0.0
 10
13.341963239
 20
19.037074554
 30
0.0
 10
13.3269826451
 20
18.9660533686
 30
0.0
 10
13.3146787198
 20
18.9125942487
 30
0.0
 10
13.304789519
 20
18.8746475032
 30
0.0
 10
13.2998033631
 20
18.8573352429
 30
0.0
 10
13.297275471
 20
18.8491156213
 30
0.0
  0
SPLINE
  5
4C4
100
AcDbEntity
  8
0
100
AcDbSpline
 62
9
  6
CONTINUOUS
 70
0
 71
3
 72
9
 73
5
 74
0
 42
0.0000001
 43
0.0000001
 44
0.0000000001
 40
0.0
 40
0.0
 40
0.0
 40
0.0
 40
0.2688612714
 40
1.0
 40
1.0
 40
1.0
 40
1.0
 10
13.297275471
 20
18.8491156213
 30
0.0
 10
13.2961734993
 20
18.8455324817
 30
0.0
 10
13.2919685376
 20
18.8322386667
 30
0.0
 10
13.2873349246
 20
18.8190777942
 30
0.0
 10
13.2836463616
 20
18.8095741467
 30
0.0
  0
SPLINE
  5
4C5
100
AcDbEntity
  8
0
100
AcDbSpline
 62
9
  6
CONTINUOUS
 70
0
 71
3
 72
12
 73
8
 74
0
 42
0.0000001
 43
0.0000001
 44
0.0000000001
 40
0.0
 40
0.0
 40
0.0
 40
0.0
 40
0.1974265246
 40
0.3711824169
 40
0.653468015
 40
0.8597589928
 40
1.0
 40
1.0
 40
1.0
 40
1.0
 10
13.2778946273
 20
18.7954707287
 30
0.0
 10
13.275612798
 20
18.7901528156
 30
0.0
 10
13.271103694
 20
18.7802449694
 30
0.0
 10
13.2622622299
 20
18.7632468827
 30
0.0
 10
13.2518416179
 20
18.7468019148
 30
0.0
 10
13.2400219131
 20
18.7325897665
 30
0.0
 10
13.2325968281
 20
18.725631686
 30
0.0
 10
13.2294762494
 20
18.7229560214
 30
0.0
  0
SPLINE
  5
4C6
100
AcDbEntity
  8
0
100
AcDbSpline
 62
9
  6
CONTINUOUS
 70
0
 71
3
 72
13
 73
9
 74
0
 42
0.0000001
 43
0.0000001
 44
0.0000000001
 40
0.0
 40
0.0
 40
0.0
 40
0.0
 40
0.1530131645
 40
0.2984694583
 40
0.5660743938
 40
0.8004939345
 40
0.9046847295
 40
1.0
 40
1.0
 40
1.0
 40
1.0
 10
13.8976662169
 20
19.1138320022
 30
0.0
 10
13.9003691908
 20
19.1003403969
 30
0.0
 10
13.9056990847
 20
19.0740350349
 30
0.0
 10
13.9158816398
 20
19.0241595589
 30
0.0
 10
13.927814901
 20
18.9671706678
 30
0.0
 10
13.9399571668
 20
18.9140175807
 30
0.0
 10
13.9497177677
 20
18.876234635
 30
0.0
 10
13.9546374838
 20
18.8589785565
 30
0.0
 10
13.9571308319
 20
18.8507780026
 30
0.0
  0
SPLINE
  5
4C7
100
AcDbEntity
  8
0
100
AcDbSpline
 62
9
  6
CONTINUOUS
 70
0
 71
3
 72
15
 73
11
 74
0
 42
0.0000001
 43
0.0000001
 44
0.0000000001
 40
0.0
 40
0.0
 40
0.0
 40
0.0
 40
0.2129693426
 40
0.3966352926
 40
0.5528131968
 40
0.6835965473
 40
0.7915335646
 40
0.878976517
 40
0.9479198736
 40
1.0
 40
1.0
 40
1.0
 40
1.0
 10
13.9571308319
 20
18.8507780026
 30
0.0
 10
13.9601629521
 20
18.8408054417
 30
0.0
 10
13.9662194723
 20
18.8223517545
 30
0.0
 10
13.9760388171
 20
18.7971246837
 30
0.0
 10
13.9857245566
 20
18.7762065968
 30
0.0
 10
13.995112154
 20
18.7592904266
 30
0.0
 10
14.0039483637
 20
18.7459745015
 30
0.0
 10
14.0119921867
 20
18.7358213943
 30
0.0
 10
14.0190261451
 20
18.7284118804
 30
0.0
 10
14.0235029723
 20
18.7245159557
 30
0.0
 10
14.025519967
 20
18.7229574704
 30
0.0
  0
SPLINE
  5
4C8
100
AcDbEntity
  8
0
100
AcDbSpline
 62
9
  6
CONTINUOUS
 70
0
 71
3
 72
11
 73
7
 74
0
 42
0.0000001
 43
0.0000001
 44
0.0000000001
 40
0.0
 40
0.0
 40
0.0
 40
0.0
 40
0.285237084
 40
0.545552721
 40
0.7820892882
 40
1.0
 40
1.0
 40
1.0
 40
1.0
 10
13.355848313
 20
18.6527367745
 30
0.0
 10
13.3431896923
 20
18.6581536456
 30
0.0
 10
13.3192857141
 20
18.6692466868
 30
0.0
 10
13.2859277573
 20
18.6869579116
 30
0.0
 10
13.2563002651
 20
18.7046691813
 30
0.0
 10
13.2380690829
 20
18.7168887677
 30
0.0
 10
13.2294762495
 20
18.7229560216
 30
0.0
  0
SPLINE
  5
4C9
100
AcDbEntity
  8
0
100
AcDbSpline
 62
7
  6
CONTINUOUS
 70
0
 71
3
 72
13
 73
9
 74
0
 42
0.0000001
 43
0.0000001
 44
0.0000000001
 40
0.0
 40
0.0
 40
0.0
 40
0.0
 40
0.4039830118
 40
0.5696742025
 40
0.7090046181
 40
0.8206667216
 40
0.9041485627
 40
1.0
 40
1.0
 40
1.0
 40
1.0
 10
14.1122189672
 20
19.0494036089
 30
0.0
 10
14.1112698005
 20
19.0494036089
 30
0.0
 10
14.1099310517
 20
19.0494317405
 30
0.0
 10
14.1082687889
 20
19.0495704359
 30
0.0
 10
14.1073015439
 20
19.0496988973
 30
0.0
 10
14.106522789
 20
19.0498736382
 30
0.0
 10
14.1059009309
 20
19.0500736492
 30
0.0
 10
14.1054827532
 20
19.0503996672
 30
0.0
 10
14.1054834215
 20
19.0506248712
 30
0.0
  0
SPLINE
  5
4CA
100
AcDbEntity
  8
0
100
AcDbSpline
 62
7
  6
CONTINUOUS
 70
0
 71
3
 72
13
 73
9
 74
0
 42
0.0000001
 43
0.0000001
 44
0.0000000001
 40
0.0
 40
0.0
 40
0.0
 40
0.0
 40
0.3967745881
 40
0.5638508541
 40
0.7054149046
 40
0.8188314409
 40
0.9040463894
 40
1.0
 40
1.0
 40
1.0
 40
1.0
 10
13.9702472687
 20
19.0494036089
 30
0.0
 10
13.9686597668
 20
19.0494036089
 30
0.0
 10
13.9664036401
 20
19.049457681
 30
0.0
 10
13.9635871853
 20
19.0496993718
 30
0.0
 10
13.961920824
 20
19.0499240482
 30
0.0
 10
13.9605680707
 20
19.0502277267
 30
0.0
 10
13.9595081484
 20
19.0505731537
 30
0.0
 10
13.9587464739
 20
19.0510974346
 30
0.0
 10
13.9587472798
 20
19.0514813458
 30
0.0
  0
SPLINE
  5
4CB
100
AcDbEntity
  8
0
100
AcDbSpline
 62
9
  6
CONTINUOUS
 70
0
 71
3
 72
9
 73
5
 74
0
 42
0.0000001
 43
0.0000001
 44
0.0000000001
 40
0.0
 40
0.0
 40
0.0
 40
0.0
 40
0.2265312742
 40
1.0
 40
1.0
 40
1.0
 40
1.0
 10
13.2662896023
 20
18.5901260394
 30
0.0
 10
13.2725771018
 20
18.5836490769
 30
0.0
 10
13.300856721
 20
18.5555789159
 30
0.0
 10
13.3316212297
 20
18.5299382539
 30
0.0
 10
13.3568080321
 20
18.5121738771
 30
0.0
  0
SPLINE
  5
4CC
100
AcDbEntity
  8
0
100
AcDbSpline
 62
9
  6
CONTINUOUS
 70
0
 71
3
 72
9
 73
5
 74
0
 42
0.0000001
 43
0.0000001
 44
0.0000000001
 40
0.0
 40
0.0
 40
0.0
 40
0.0
 40
0.2716943012
 40
1.0
 40
1.0
 40
1.0
 40
1.0
 10
13.8981819486
 20
18.5121706598
 30
0.0
 10
13.9070311502
 20
18.5184119165
 30
0.0
 10
13.9389501714
 20
18.5423050733
 30
0.0
 10
13.9684862086
 20
18.5692980551
 30
0.0
 10
13.9887049353
 20
18.590126038
 30
0.0
  0
SPLINE
  5
4CD
100
AcDbEntity
  8
0
100
AcDbSpline
 62
9
  6
CONTINUOUS
 70
0
 71
3
 72
27
 73
23
 74
0
 42
0.0000001
 43
0.0000001
 44
0.0000000001
 40
0.0
 40
0.0
 40
0.0
 40
0.0
 40
0.1448914528
 40
0.2881060664
 40
0.4296279425
 40
0.4997031395
 40
0.5692410902
 40
0.6380881462
 40
0.7057434806
 40
0.771600616
 40
0.8350344584
 40
0.8655594118
 40
0.8947264238
 40
0.9219403819
 40
0.9466033592
 40
0.9679941578
 40
0.9770937164
 40
0.9849084465
 40
0.9912724789
 40
0.9960198233
 40
0.9989843886
 40
1.0
 40
1.0
 40
1.0
 40
1.0
 10
13.9887049454
 20
18.5901260048
 30
0.0
 10
13.9939292944
 20
18.5955077331
 30
0.0
 10
14.0036891134
 20
18.6068364932
 30
0.0
 10
14.0163163422
 20
18.6251876752
 30
0.0
 10
14.0252197897
 20
18.6412862927
 30
0.0
 10
14.0313830509
 20
18.6544740974
 30
0.0
 10
14.0355226584
 20
18.6644435174
 30
0.0
 10
14.0391953635
 20
18.6744602079
 30
0.0
 10
14.042414684
 20
18.6844312809
 30
0.0
 10
14.0451846663
 20
18.6942452011
 30
0.0
 10
14.0471426758
 20
18.7022852205
 30
0.0
 10
14.0484797922
 20
18.7085174533
 30
0.0
 10
14.0493539074
 20
18.7129304881
 30
0.0
 10
14.0501106145
 20
18.71705774
 30
0.0
 10
14.0507452943
 20
18.7207952062
 30
0.0
 10
14.0511871731
 20
18.7236210126
 30
0.0
 10
14.0514770055
 20
18.7255741057
 30
0.0
 10
14.0516493377
 20
18.7267863793
 30
0.0
 10
14.0517801207
 20
18.7277033683
 30
0.0
 10
14.0518872241
 20
18.7285535247
 30
0.0
 10
14.0519285126
 20
18.7287661253
 30
0.0
 10
14.0519737188
 20
18.7292213313
 30
0.0
 10
14.0519725979
 20
18.7291687691
 30
0.0
  0
SPLINE
  5
4CE
100
AcDbEntity
  8
0
100
AcDbSpline
 62
7
  6
CONTINUOUS
 70
0
 71
3
 72
12
 73
8
 74
0
 42
0.0000001
 43
0.0000001
 44
0.0000000001
 40
0.0
 40
0.0
 40
0.0
 40
0.0
 40
0.2684861579
 40
0.5520426371
 40
0.807493032
 40
0.9134237023
 40
1.0
 40
1.0
 40
1.0
 40
1.0
 10
13.2847472687
 20
19.0494036089
 30
0.0
 10
13.2819155087
 20
19.0494036089
 30
0.0
 10
13.2760925113
 20
19.0496505468
 30
0.0
 10
13.2676152477
 20
19.0504995302
 30
0.0
 10
13.2608906519
 20
19.0515711023
 30
0.0
 10
13.2562822007
 20
19.0526175071
 30
0.0
 10
13.2543283741
 20
19.0531788926
 30
0.0
 10
13.2534653566
 20
19.0534772395
 30
0.0
  0
SPLINE
  5
4CF
100
AcDbEntity
  8
0
100
AcDbSpline
 62
7
  6
CONTINUOUS
 70
0
 71
3
 72
11
 73
7
 74
0
 42
0.0000001
 43
0.0000001
 44
0.0000000001
 40
0.0
 40
0.0
 40
0.0
 40
0.0
 40
0.37622537
 40
0.6645692718
 40
0.8671462119
 40
1.0
 40
1.0
 40
1.0
 40
1.0
 10
13.2534653566
 20
19.0534772395
 30
0.0
 10
13.2529974126
 20
19.0536390086
 30
0.0
 10
13.2521782117
 20
19.0539470829
 30
0.0
 10
13.2511561701
 20
19.0544662576
 30
0.0
 10
13.2504881123
 20
19.0549423731
 30
0.0
 10
13.2502475075
 20
19.0553608542
 30
0.0
 10
13.2502471929
 20
19.0555356911
 30
0.0
  0
SPLINE
  5
4D0
100
AcDbEntity
  8
0
100
AcDbSpline
 62
9
  6
CONTINUOUS
 70
0
 71
3
 72
10
 73
6
 74
0
 42
0.0000001
 43
0.0000001
 44
0.0000000001
 40
0.0
 40
0.0
 40
0.0
 40
0.0
 40
0.2848051048
 40
0.5477211573
 40
1.0
 40
1.0
 40
1.0
 40
1.0
 10
13.898588223
 20
18.652475344
 30
0.0
 10
13.9112906752
 20
18.6578797962
 30
0.0
 10
13.9354133397
 20
18.6690140845
 30
0.0
 10
13.9781727996
 20
18.6918778294
 30
0.0
 10
14.0074995537
 20
18.7104705336
 30
0.0
 10
14.0255182886
 20
18.7229560231
 30
0.0
  0
SPLINE
  5
4D1
100
AcDbEntity
  8
0
100
AcDbSpline
 62
9
  6
CONTINUOUS
 70
0
 71
3
 72
11
 73
7
 74
0
 42
0.0000001
 43
0.0000001
 44
0.0000000001
 40
0.0
 40
0.0
 40
0.0
 40
0.0
 40
0.241384102
 40
0.4912720166
 40
0.7461987645
 40
1.0
 40
1.0
 40
1.0
 40
1.0
 10
14.0255182886
 20
18.7229560231
 30
0.0
 10
14.0171524263
 20
18.7150274402
 30
0.0
 10
14.002642939
 20
18.6961061557
 30
0.0
 10
13.9891279699
 20
18.6627075061
 30
0.0
 10
13.9845392726
 20
18.6264368516
 30
0.0
 10
13.9865512955
 20
18.6020521222
 30
0.0
 10
13.9887049376
 20
18.5901260399
 30
0.0
  0
SPLINE
  5
4D2
100
AcDbEntity
  8
0
100
AcDbSpline
 62
9
  6
CONTINUOUS
 70
0
 71
3
 72
12
 73
8
 74
0
 42
0.0000001
 43
0.0000001
 44
0.0000000001
 40
0.0
 40
0.0
 40
0.0
 40
0.0
 40
0.2305809724
 40
0.4759078961
 40
0.6039734576
 40
0.7348317923
 40
1.0
 40
1.0
 40
1.0
 40
1.0
 10
13.2294762551
 20
18.7229560212
 30
0.0
 10
13.2374716707
 20
18.7153785173
 30
0.0
 10
13.2516635142
 20
18.6971860804
 30
0.0
 10
13.2629775421
 20
18.670275959
 30
0.0
 10
13.2678539138
 20
18.6466260622
 30
0.0
 10
13.2699989131
 20
18.6216402772
 30
0.0
 10
13.2685407935
 20
18.6025924524
 30
0.0
 10
13.266289579
 20
18.5901260489
 30
0.0
  0
SPLINE
  5
4D3
100
AcDbEntity
  8
0
100
AcDbSpline
 62
9
  6
CONTINUOUS
 70
0
 71
3
 72
11
 73
7
 74
0
 42
0.0000001
 43
0.0000001
 44
0.0000000001
 40
0.0
 40
0.0
 40
0.0
 40
0.0
 40
0.3049001421
 40
0.5709114014
 40
0.805913389
 40
1.0
 40
1.0
 40
1.0
 40
1.0
 10
14.0255182853
 20
18.7229560243
 30
0.0
 10
14.0293373562
 20
18.7246673734
 30
0.0
 10
14.036249458
 20
18.7284939335
 30
0.0
 10
14.0445985917
 20
18.7358802973
 30
0.0
 10
14.0502594157
 20
18.7436581147
 30
0.0
 10
14.0526255778
 20
18.7491007422
 30
0.0
 10
14.0534456805
 20
18.7516353461
 30
0.0
  0
LINE
  5
4D4
100
AcDbEntity
  8
0
100
AcDbLine
 62
9
  6
CONTINUOUS
 10
14.0534456805
 20
18.7516353461
 11
14.0542022192
 21
18.7543266304
  0
SPLINE
  5
4D5
100
AcDbEntity
  8
0
100
AcDbSpline
 62
7
  6
CONTINUOUS
 70
0
 71
3
 72
16
 73
12
 74
0
 42
0.0000001
 43
0.0000001
 44
0.0000000001
 40
0.0
 40
0.0
 40
0.0
 40
0.0
 40
0.1223090196
 40
0.2654909357
 40
0.4187320109
 40
0.5717504633
 40
0.7146408488
 40
0.8385163987
 40
0.9354252111
 40
0.9720261398
 40
1.0
 40
1.0
 40
1.0
 40
1.0
 10
13.1427755702
 20
19.0494036089
 30
0.0
 10
13.1411824262
 20
19.0494036089
 30
0.0
 10
13.1377245021
 20
19.0495291019
 30
0.0
 10
13.1322853649
 20
19.049946135
 30
0.0
 10
13.1264665392
 20
19.0505998254
 30
0.0
 10
13.1206746853
 20
19.0514311972
 30
0.0
 10
13.1152888198
 20
19.0523833482
 30
0.0
 10
13.1106585582
 20
19.0533856394
 30
0.0
 10
13.10741862
 20
19.0542651399
 30
0.0
 10
13.1054389536
 20
19.0549773454
 30
0.0
 10
13.1046700038
 20
19.0553244129
 30
0.0
 10
13.1043525319
 20
19.0555032452
 30
0.0
  0
SPLINE
  5
4D6
100
AcDbEntity
  8
0
100
AcDbSpline
 62
7
  6
CONTINUOUS
 70
0
 71
3
 72
9
 73
5
 74
0
 42
0.0000001
 43
0.0000001
 44
0.0000000001
 40
0.0
 40
0.0
 40
0.0
 40
0.0
 40
0.6281842068
 40
1.0
 40
1.0
 40
1.0
 40
1.0
 10
13.1043525319
 20
19.0555032452
 30
0.0
 10
13.1041281154
 20
19.0556296593
 30
0.0
 10
13.1037831584
 20
19.0558354098
 30
0.0
 10
13.1035137224
 20
19.0562066511
 30
0.0
 10
13.1035132531
 20
19.0563591046
 30
0.0
  0
LINE
  5
4D7
100
AcDbEntity
  8
0
100
AcDbLine
 62
9
  6
CONTINUOUS
 10
13.9100637816
 20
12.280336011
 11
13.8974972306
 21
12.2797045132
  0
SPLINE
  5
4D8
100
AcDbEntity
  8
0
100
AcDbSpline
 62
7
  6
CONTINUOUS
 70
0
 71
3
 72
14
 73
10
 74
0
 42
0.0000001
 43
0.0000001
 44
0.0000000001
 40
0.0
 40
0.0
 40
0.0
 40
0.0
 40
0.0949151051
 40
0.2201737301
 40
0.5189613213
 40
0.6697422153
 40
0.8065523232
 40
0.9194348577
 40
1.0
 40
1.0
 40
1.0
 40
1.0
 10
13.0338368544
 20
19.0494036089
 30
0.0
 10
13.0325150282
 20
19.0494036089
 30
0.0
 10
13.0294501569
 20
19.0495685184
 30
0.0
 10
13.0222548426
 20
19.0502474916
 30
0.0
 10
13.0143231004
 20
19.0513672672
 30
0.0
 10
13.0062755936
 20
19.0527531612
 30
0.0
 10
13.0008024009
 20
19.0538325974
 30
0.0
 10
12.9963219972
 20
19.0548683537
 30
0.0
 10
12.9937220471
 20
19.0555911558
 30
0.0
 10
12.9926660127
 20
19.0559701502
 30
0.0
  0
SPLINE
  5
4D9
100
AcDbEntity
  8
0
100
AcDbSpline
 62
7
  6
CONTINUOUS
 70
0
 71
3
 72
10
 73
6
 74
0
 42
0.0000001
 43
0.0000001
 44
0.0000000001
 40
0.0
 40
0.0
 40
0.0
 40
0.0
 40
0.6868540769
 40
0.8854264951
 40
1.0
 40
1.0
 40
1.0
 40
1.0
 10
12.9926660127
 20
19.0559701502
 30
0.0
 10
12.9922198112
 20
19.056130285
 30
0.0
 10
12.9916387009
 20
19.0563571102
 30
0.0
 10
12.9910630454
 20
19.0567141927
 30
0.0
 10
12.9909167727
 20
19.0569084678
 30
0.0
 10
12.9909183492
 20
19.0569875307
 30
0.0
  0
SPLINE
  5
4DA
100
AcDbEntity
  8
0
100
AcDbSpline
 62
9
  6
CONTINUOUS
 70
0
 71
3
 72
9
 73
5
 74
0
 42
0.0000001
 43
0.0000001
 44
0.0000000001
 40
0.0
 40
0.0
 40
0.0
 40
0.0
 40
0.5063731247
 40
1.0
 40
1.0
 40
1.0
 40
1.0
 10
14.0381463009
 20
12.5248158084
 30
0.0
 10
14.0186619302
 20
12.4980707894
 30
0.0
 10
13.9761575778
 20
12.4480394537
 30
0.0
 10
13.9258421584
 20
12.405740926
 30
0.0
 10
13.8993431471
 20
12.3873477161
 30
0.0
  0
SPLINE
  5
4DB
100
AcDbEntity
  8
0
100
AcDbSpline
 62
9
  6
CONTINUOUS
 70
0
 71
3
 72
9
 73
5
 74
0
 42
0.0000001
 43
0.0000001
 44
0.0000000001
 40
0.0
 40
0.0
 40
0.0
 40
0.0
 40
0.493527613
 40
1.0
 40
1.0
 40
1.0
 40
1.0
 10
13.3564093833
 20
12.3868266239
 30
0.0
 10
13.3294883534
 20
12.4054528669
 30
0.0
 10
13.2784201629
 20
12.4484141617
 30
0.0
 10
13.2353722272
 20
12.499287187
 30
0.0
 10
13.2156591358
 20
12.5264906496
 30
0.0
  0
SPLINE
  5
4DC
100
AcDbEntity
  8
0
100
AcDbSpline
 62
9
  6
CONTINUOUS
 70
0
 71
3
 72
34
 73
30
 74
0
 42
0.0000001
 43
0.0000001
 44
0.0000000001
 40
0.0
 40
0.0
 40
0.0
 40
0.0
 40
0.0000415398
 40
0.0001683878
 40
0.0003807762
 40
0.0006789232
 40
0.0015333591
 40
0.0027334258
 40
0.0042808514
 40
0.006177364
 40
0.0084246915
 40
0.0110245614
 40
0.0172888403
 40
0.024984023
 40
0.0341239324
 40
0.0447223916
 40
0.056802571
 40
0.0704250271
 40
0.1025763922
 40
0.1417357729
 40
0.1884625112
 40
0.2434571553
 40
0.3079848896
 40
0.383647387
 40
0.4728278866
 40
0.5783133791
 40
0.7030912341
 40
0.8462193132
 40
1.0
 40
1.0
 40
1.0
 40
1.0
 10
6.9791057152
 20
9.2943521131
 30
0.0
 10
6.9791081688
 20
9.2943562207
 30
0.0
 10
6.9790709625
 20
9.2943454542
 30
0.0
 10
6.9790445614
 20
9.2943528922
 30
0.0
 10
6.9789613439
 20
9.29434331
 30
0.0
 10
6.978810442
 20
9.2943377357
 30
0.0
 10
6.9785353973
 20
9.2943193609
 30
0.0
 10
6.9781234406
 20
9.2942960381
 30
0.0
 10
6.9775886272
 20
9.2942637101
 30
0.0
 10
6.9769345794
 20
9.2942247423
 30
0.0
 10
6.9761591104
 20
9.2941782475
 30
0.0
 10
6.9748816084
 20
9.2941017556
 30
0.0
 10
6.9729776547
 20
9.2939878245
 30
0.0
 10
6.9703217656
 20
9.2938293932
 30
0.0
 10
6.9671674868
 20
9.2936419327
 30
0.0
 10
6.9635089772
 20
9.2934254357
 30
0.0
 10
6.959334992
 20
9.2931796005
 30
0.0
 10
6.9526826289
 20
9.2927907858
 30
0.0
 10
6.9429160481
 20
9.292228658
 30
0.0
 10
6.9293417195
 20
9.2914657568
 30
0.0
 10
6.913139131
 20
9.2905782646
 30
0.0
 10
6.8940174902
 20
9.2895579309
 30
0.0
 10
6.8715662383
 20
9.2883880802
 30
0.0
 10
6.8451815724
 20
9.2870359911
 30
0.0
 10
6.8140896491
 20
9.2853622566
 30
0.0
 10
6.7773577505
 20
9.2832226507
 30
0.0
 10
6.7344514116
 20
9.2802343212
 30
0.0
 10
6.6861086622
 20
9.2754105157
 30
0.0
 10
6.6522277385
 20
9.2707366227
 30
0.0
 10
6.6346672276
 20
9.2684196501
 30
0.0
  0
SPLINE
  5
4DD
100
AcDbEntity
  8
0
100
AcDbSpline
 62
9
  6
CONTINUOUS
 70
0
 71
3
 72
33
 73
29
 74
0
 42
0.0000001
 43
0.0000001
 44
0.0000000001
 40
0.0
 40
0.0
 40
0.0
 40
0.0
 40
0.2211963212
 40
0.3232192026
 40
0.4191296657
 40
0.5086310156
 40
0.5914265378
 40
0.6672195005
 40
0.7357131555
 40
0.796639512
 40
0.8498456093
 40
0.8952072277
 40
0.914907537
 40
0.9326001412
 40
0.9482695111
 40
0.9619001169
 40
0.9734764286
 40
0.9829829157
 40
0.9869551217
 40
0.9904040475
 40
0.9933277517
 40
0.9957242928
 40
0.9975917295
 40
0.9989281202
 40
0.9993965667
 40
0.9997315237
 40
0.9999327487
 40
1.0
 40
1.0
 40
1.0
 40
1.0
 10
13.9734067662
 20
11.9110779838
 30
0.0
 10
13.9899290275
 20
11.9111518624
 30
0.0
 10
14.0140718034
 20
11.9112804823
 30
0.0
 10
14.0453783349
 20
11.9114865138
 30
0.0
 10
14.0668479084
 20
11.9116443999
 30
0.0
 10
14.0868812052
 20
11.9118063504
 30
0.0
 10
14.1054117518
 20
11.9119688587
 30
0.0
 10
14.1223730746
 20
11.9121284149
 30
0.0
 10
14.1377008488
 20
11.9122815477
 30
0.0
 10
14.1513414918
 20
11.9124248676
 30
0.0
 10
14.1632543004
 20
11.9125560374
 30
0.0
 10
14.172087836
 20
11.9126576505
 30
0.0
 10
14.1782688122
 20
11.9127310793
 30
0.0
 10
14.1822320489
 20
11.9127790997
 30
0.0
 10
14.1857419271
 20
11.9128224378
 30
0.0
 10
14.1887949727
 20
11.9128608252
 30
0.0
 10
14.1913876999
 20
11.9128939765
 30
0.0
 10
14.1932590562
 20
11.9129183065
 30
0.0
 10
14.1945233493
 20
11.9129348877
 30
0.0
 10
14.1952960419
 20
11.9129451654
 30
0.0
 10
14.1959508727
 20
11.9129536774
 30
0.0
 10
14.1964880782
 20
11.9129613607
 30
0.0
 10
14.1969054294
 20
11.9129655879
 30
0.0
 10
14.1971816515
 20
11.9129720375
 30
0.0
 10
14.1973388556
 20
11.912970342
 30
0.0
 10
14.1974181985
 20
11.91297752
 30
0.0
 10
14.1974556506
 20
11.9129670566
 30
0.0
 10
14.1974836077
 20
11.9129786816
 30
0.0
 10
14.1974853801
 20
11.9129739813
 30
0.0
  0
LINE
  5
4DE
100
AcDbEntity
  8
0
100
AcDbLine
 62
9
  6
CONTINUOUS
 10
14.1974184293
 20
11.9043804107
 11
14.182732417
 21
11.9049097292
  0
SPLINE
  5
4DF
100
AcDbEntity
  8
0
100
AcDbSpline
 62
7
  6
CONTINUOUS
 70
0
 71
3
 72
11
 73
7
 74
0
 42
0.0000001
 43
0.0000001
 44
0.0000000001
 40
0.0
 40
0.0
 40
0.0
 40
0.0
 40
0.2678464322
 40
0.5221303686
 40
0.7646127175
 40
1.0
 40
1.0
 40
1.0
 40
1.0
 10
12.9219854576
 20
12.3910165806
 30
0.0
 10
12.9294791814
 20
12.4009366516
 30
0.0
 10
12.943180822
 20
12.420994861
 30
0.0
 10
12.9593467071
 20
12.452734455
 30
0.0
 10
12.9695727314
 20
12.4853294313
 30
0.0
 10
12.9719894149
 20
12.5075663269
 30
0.0
 10
12.971989415
 20
12.5184920676
 30
0.0
  0
SPLINE
  5
4E0
100
AcDbEntity
  8
0
100
AcDbSpline
 62
7
  6
CONTINUOUS
 70
0
 71
3
 72
11
 73
7
 74
0
 42
0.0000001
 43
0.0000001
 44
0.0000000001
 40
0.0
 40
0.0
 40
0.0
 40
0.0
 40
0.2353872822
 40
0.4778696306
 40
0.7321535674
 40
1.0
 40
1.0
 40
1.0
 40
1.0
 10
12.971989415
 20
12.5184920676
 30
0.0
 10
12.9719894151
 20
12.5294178084
 30
0.0
 10
12.9695727319
 20
12.5516547042
 30
0.0
 10
12.9593467076
 20
12.584249681
 30
0.0
 10
12.9431808222
 20
12.6159892753
 30
0.0
 10
12.9294791815
 20
12.6360474851
 30
0.0
 10
12.9219854576
 20
12.6459675563
 30
0.0
  0
SPLINE
  5
4E1
100
AcDbEntity
  8
0
100
AcDbSpline
 62
7
  6
CONTINUOUS
 70
0
 71
3
 72
11
 73
7
 74
0
 42
0.0000001
 43
0.0000001
 44
0.0000000001
 40
0.0
 40
0.0
 40
0.0
 40
0.0
 40
0.2500244719
 40
0.5
 40
0.7499755278
 40
1.0
 40
1.0
 40
1.0
 40
1.0
 10
12.9219854576
 20
12.8048069701
 30
0.0
 10
12.9373511313
 20
12.8454886334
 30
0.0
 10
12.9626508134
 20
12.9291397324
 30
0.0
 10
12.9766582588
 20
13.0597579457
 30
0.0
 10
12.9626508135
 20
13.1903761591
 30
0.0
 10
12.9373511313
 20
13.2740272581
 30
0.0
 10
12.9219854576
 20
13.3147089215
 30
0.0
  0
SPLINE
  5
4E2
100
AcDbEntity
  8
0
100
AcDbSpline
 62
7
  6
CONTINUOUS
 70
0
 71
3
 72
11
 73
7
 74
0
 42
0.0000001
 43
0.0000001
 44
0.0000000001
 40
0.0
 40
0.0
 40
0.0
 40
0.0
 40
0.2678464322
 40
0.5221303686
 40
0.7646127175
 40
1.0
 40
1.0
 40
1.0
 40
1.0
 10
12.9219854576
 20
13.4735483353
 30
0.0
 10
12.9294791814
 20
13.4834684063
 30
0.0
 10
12.943180822
 20
13.5035266158
 30
0.0
 10
12.9593467071
 20
13.5352662097
 30
0.0
 10
12.9695727314
 20
13.5678611861
 30
0.0
 10
12.9719894149
 20
13.5900980816
 30
0.0
 10
12.971989415
 20
13.6010238223
 30
0.0
  0
SPLINE
  5
4E3
100
AcDbEntity
  8
0
100
AcDbSpline
 62
7
  6
CONTINUOUS
 70
0
 71
3
 72
11
 73
7
 74
0
 42
0.0000001
 43
0.0000001
 44
0.0000000001
 40
0.0
 40
0.0
 40
0.0
 40
0.0
 40
0.2353872822
 40
0.4778696306
 40
0.7321535674
 40
1.0
 40
1.0
 40
1.0
 40
1.0
 10
12.971989415
 20
13.6010238223
 30
0.0
 10
12.9719894151
 20
13.6119495631
 30
0.0
 10
12.9695727319
 20
13.6341864589
 30
0.0
 10
12.9593467076
 20
13.6667814357
 30
0.0
 10
12.9431808222
 20
13.6985210301
 30
0.0
 10
12.9294791815
 20
13.7185792398
 30
0.0
 10
12.9219854576
 20
13.728499311
 30
0.0
  0
SPLINE
  5
4E4
100
AcDbEntity
  8
0
100
AcDbSpline
 62
7
  6
CONTINUOUS
 70
0
 71
3
 72
14
 73
10
 74
0
 42
0.0000001
 43
0.0000001
 44
0.0000000001
 40
0.0
 40
0.0
 40
0.0
 40
0.0
 40
0.1162675031
 40
0.2548229704
 40
0.5573432541
 40
0.7013532628
 40
0.8282166675
 40
0.9297424156
 40
1.0
 40
1.0
 40
1.0
 40
1.0
 10
13.2650718835
 20
18.9903851185
 30
0.0
 10
13.2635416785
 20
18.9903851185
 30
0.0
 10
13.2601882278
 20
18.9905147041
 30
0.0
 10
13.2528755028
 20
18.9910983936
 30
0.0
 10
13.2452334898
 20
18.9920973987
 30
0.0
 10
13.2377993392
 20
18.9933940545
 30
0.0
 10
13.2329986034
 20
18.9943961629
 30
0.0
 10
13.2291971618
 20
18.995386211
 30
0.0
 10
13.2270420813
 20
18.9961022236
 30
0.0
 10
13.2262066633
 20
18.9964985599
 30
0.0
  0
SPLINE
  5
4E5
100
AcDbEntity
  8
0
100
AcDbSpline
 62
7
  6
CONTINUOUS
 70
0
 71
3
 72
9
 73
5
 74
0
 42
0.0000001
 43
0.0000001
 44
0.0000000001
 40
0.0
 40
0.0
 40
0.0
 40
0.0
 40
0.6513928778
 40
1.0
 40
1.0
 40
1.0
 40
1.0
 10
13.2262066633
 20
18.9964985599
 30
0.0
 10
13.2258973181
 20
18.9966453186
 30
0.0
 10
13.2254492895
 20
18.9968663407
 30
0.0
 10
13.2250269222
 20
18.9973030706
 30
0.0
 10
13.2250258721
 20
18.9974863064
 30
0.0
  0
SPLINE
  5
4E6
100
AcDbEntity
  8
0
100
AcDbSpline
 62
7
  6
CONTINUOUS
 70
0
 71
3
 72
13
 73
9
 74
0
 42
0.0000001
 43
0.0000001
 44
0.0000000001
 40
0.0
 40
0.0
 40
0.0
 40
0.0
 40
0.4045631038
 40
0.5697871037
 40
0.7085649324
 40
0.8199055745
 40
0.9035024166
 40
1.0
 40
1.0
 40
1.0
 40
1.0
 10
13.2650718835
 20
18.9903851185
 30
0.0
 10
13.265912977
 20
18.9903851185
 30
0.0
 10
13.2670978955
 20
18.9904099428
 30
0.0
 10
13.2685676785
 20
18.9905340414
 30
0.0
 10
13.2694208091
 20
18.9906487332
 30
0.0
 10
13.2701074488
 20
18.9908052153
 30
0.0
 10
13.270659302
 20
18.9909832019
 30
0.0
 10
13.2710268011
 20
18.991276669
 30
0.0
 10
13.2710257983
 20
18.9914772866
 30
0.0
  0
SPLINE
  5
4E7
100
AcDbEntity
  8
0
100
AcDbSpline
 62
7
  6
CONTINUOUS
 70
0
 71
3
 72
13
 73
9
 74
0
 42
0.0000001
 43
0.0000001
 44
0.0000000001
 40
0.0
 40
0.0
 40
0.0
 40
0.0
 40
0.0968999662
 40
0.2205862894
 40
0.5109686251
 40
0.7945578967
 40
0.9108535087
 40
1.0
 40
1.0
 40
1.0
 40
1.0
 10
14.0383955826
 20
18.9903851185
 30
0.0
 10
14.0396931903
 20
18.9903851185
 30
0.0
 10
14.0426462213
 20
18.9905260468
 30
0.0
 10
14.0494628324
 20
18.9911265721
 30
0.0
 10
14.0587244271
 20
18.9923868266
 30
0.0
 10
14.0678324829
 20
18.9939874313
 30
0.0
 10
14.0742247504
 20
18.9954117638
 30
0.0
 10
14.0768861055
 20
18.9961185605
 30
0.0
 10
14.0780230177
 20
18.9964826203
 30
0.0
  0
SPLINE
  5
4E8
100
AcDbEntity
  8
0
100
AcDbSpline
 62
7
  6
CONTINUOUS
 70
0
 71
3
 72
11
 73
7
 74
0
 42
0.0000001
 43
0.0000001
 44
0.0000000001
 40
0.0
 40
0.0
 40
0.0
 40
0.0
 40
0.3972537066
 40
0.6950478903
 40
0.8925598422
 40
1.0
 40
1.0
 40
1.0
 40
1.0
 10
14.0780230177
 20
18.9964826203
 30
0.0
 10
14.0784143389
 20
18.9966079285
 30
0.0
 10
14.0790928727
 20
18.9968368478
 30
0.0
 10
14.0799521329
 20
18.9972058986
 30
0.0
 10
14.0804808889
 20
18.9974953647
 30
0.0
 10
14.0807241706
 20
18.9977630115
 30
0.0
 10
14.0807232525
 20
18.9978741371
 30
0.0
  0
SPLINE
  5
4E9
100
AcDbEntity
  8
0
100
AcDbSpline
 62
9
  6
CONTINUOUS
 70
0
 71
3
 72
24
 73
20
 74
0
 42
0.0000001
 43
0.0000001
 44
0.0000000001
 40
0.0
 40
0.0
 40
0.0
 40
0.0
 40
0.0007960993
 40
0.0038300207
 40
0.0091174827
 40
0.0166372549
 40
0.0263652192
 40
0.0382765422
 40
0.0523461316
 40
0.0685487809
 40
0.1072521742
 40
0.1541651465
 40
0.2089620481
 40
0.2712822184
 40
0.3407649867
 40
0.4170497158
 40
0.5886362439
 40
0.7836671787
 40
1.0
 40
1.0
 40
1.0
 40
1.0
 10
12.9596450246
 20
13.8049056051
 30
0.0
 10
12.9596516459
 20
13.8049350095
 30
0.0
 10
12.9598080486
 20
13.8046999418
 30
0.0
 10
12.9598923457
 20
13.8045234825
 30
0.0
 10
12.96021817
 20
13.803914541
 30
0.0
 10
12.9605763366
 20
13.8031856061
 30
0.0
 10
12.9610707451
 20
13.8021804931
 30
0.0
 10
12.9616562603
 20
13.8009684012
 30
0.0
 10
12.962348671
 20
13.7995269949
 30
0.0
 10
12.9634740055
 20
13.7971714003
 30
0.0
 10
12.9651296403
 20
13.7936895552
 30
0.0
 10
12.9674087947
 20
13.7888870347
 30
0.0
 10
12.9700707411
 20
13.7832761411
 30
0.0
 10
12.9731007304
 20
13.7768941701
 30
0.0
 10
12.9764837965
 20
13.7697792254
 30
0.0
 10
12.9816513998
 20
13.7589321062
 30
0.0
 10
12.9888897916
 20
13.7438063828
 30
0.0
 10
12.9984067619
 20
13.7238929324
 30
0.0
 10
13.0050802295
 20
13.7098206647
 30
0.0
 10
13.0085728475
 20
13.7024122118
 30
0.0
  0
LINE
  5
4EA
100
AcDbEntity
  8
0
100
AcDbLine
 62
9
  6
CONTINUOUS
 10
13.0601634091
 20
13.5887550615
 11
13.0631249525
 21
13.5819487969
  0
SPLINE
  5
4EB
100
AcDbEntity
  8
0
100
AcDbSpline
 62
7
  6
CONTINUOUS
 70
0
 71
3
 72
15
 73
11
 74
0
 42
0.0000001
 43
0.0000001
 44
0.0000000001
 40
0.0
 40
0.0
 40
0.0
 40
0.0
 40
0.0126088944
 40
0.0319266405
 40
0.0955371043
 40
0.192820974
 40
0.3196130955
 40
0.470404157
 40
0.6392079969
 40
1.0
 40
1.0
 40
1.0
 40
1.0
 10
14.1514844558
 20
19.0563587162
 30
0.0
 10
14.1514836377
 20
19.0562424383
 30
0.0
 10
14.1513258231
 20
19.055963615
 30
0.0
 10
14.1506219569
 20
19.0554348741
 30
0.0
 10
14.1490780738
 20
19.0547686832
 30
0.0
 10
14.1465529189
 20
19.0539722913
 30
0.0
 10
14.1431955881
 20
19.0531298776
 30
0.0
 10
14.1391662518
 20
19.0522874875
 30
0.0
 10
14.1329850445
 20
19.0512028373
 30
0.0
 10
14.1281418488
 20
19.0505502818
 30
0.0
 10
14.1248334672
 20
19.0501962686
 30
0.0
  0
SPLINE
  5
4EC
100
AcDbEntity
  8
0
100
AcDbSpline
 62
7
  6
CONTINUOUS
 70
0
 71
3
 72
9
 73
5
 74
0
 42
0.0000001
 43
0.0000001
 44
0.0000000001
 40
0.0
 40
0.0
 40
0.0
 40
0.0
 40
0.5419953583
 40
1.0
 40
1.0
 40
1.0
 40
1.0
 10
14.1248334672
 20
19.0501962686
 30
0.0
 10
14.1225622298
 20
19.049953235
 30
0.0
 10
14.1183629041
 20
19.049587262
 30
0.0
 10
14.1141491972
 20
19.0494036089
 30
0.0
 10
14.1122189672
 20
19.0494036089
 30
0.0
  0
SPLINE
  5
4ED
100
AcDbEntity
  8
0
100
AcDbSpline
 62
9
  6
CONTINUOUS
 70
0
 71
3
 72
13
 73
9
 74
0
 42
0.0000001
 43
0.0000001
 44
0.0000000001
 40
0.0
 40
0.0
 40
0.0
 40
0.0
 40
0.1262780027
 40
0.251880701
 40
0.3769906661
 40
0.5017973008
 40
0.7509396916
 40
1.0
 40
1.0
 40
1.0
 40
1.0
 10
13.3560075586
 20
13.8601161202
 30
0.0
 10
13.3442409524
 20
13.8511405846
 30
0.0
 10
13.3214596957
 20
13.8323233851
 30
0.0
 10
13.2892330469
 20
13.8020623003
 30
0.0
 10
13.2590982478
 20
13.7699481116
 30
0.0
 10
13.2217162526
 20
13.7249280714
 30
0.0
 10
13.1800466841
 20
13.6647757529
 30
0.0
 10
13.1519637245
 20
13.6134704955
 30
0.0
 10
13.1390923976
 20
13.5872731974
 30
0.0
  0
ENDSEC
  0
SECTION
  2
OBJECTS
  0
DICTIONARY
  5
C
100
AcDbDictionary
280
0
281
1
  3
ACAD_GROUP
350
D
  3
ACAD_MLINESTYLE
350
17
  3
ACAD_LAYOUT
350
1A
  3
ACAD_PLOTSETTINGS
350
19
  3
ACAD_PLOTSTYLENAME
350
E
  0
DICTIONARY
  5
D
102
{ACAD_REACTORS
330
C
102
}
100
AcDbDictionary
280
0
281
1
  0
ACDBDICTIONARYWDFLT
  5
E
102
{ACAD_REACTORS
330
C
102
}
100
AcDbDictionary
281
1
  3
Normal
350
F
100
AcDbDictionaryWithDefault
340
F
  0
DICTIONARY
  5
17
102
{ACAD_REACTORS
330
C
102
}
100
AcDbDictionary
280
0
281
1
  3
Standard
350
18
  0
DICTIONARY
  5
19
102
{ACAD_REACTORS
330
C
102
}
100
AcDbDictionary
281
1
  0
DICTIONARY
  5
1A
102
{ACAD_REACTORS
330
C
102
}
100
AcDbDictionary
281
1
  3
Model
350
4EE
  3
Layout1
350
4EF
  0
ACDBPLACEHOLDER
  5
F
102
{ACAD_REACTORS
330
E
102
}
  0
MLINESTYLE
  5
18
102
{ACAD_REACTORS
330
17
102
}
100
AcDbMlineStyle
  2
STANDARD
 70
0
  3

 62
256
 51
90.0
 52
90.0
 71
2
 49
0.5
 62
256
  6
BYLAYER
 49
-0.5
 62
256
  6
BYLAYER
  0
LAYOUT
  5
4EE
102
{ACAD_REACTORS
330
1A
102
}
100
AcDbPlotSettings
  1

  2
none_device
  4
ANSI_C_(22.00_x_17.00_Inches)
  6

 40
0.0
 41
0.0
 42
0.0
 43
0.0
 44
558.8
 45
431.8
 46
0.0
 47
0.0
 48
0.0
 49
0.0
140
0.0
141
0.0
142
1.0
143
1.0
 70
1024
 72
0
 73
0
 74
0
  7

 75
0
147
1.0
148
0.0
149
0.0
100
AcDbLayout
  1
Model
 70
0
 71
0
 10
0.0
 20
0.0
 11
22.0
 21
17.0
 12
0.0
 22
0.0
 32
0.0
 14
0.0
 24
0.0
 34
0.0
 15
0.0
 25
0.0
 35
0.0
146
0.0
 13
0.0
 23
0.0
 33
0.0
 16
1.0
 26
0.0
 36
0.0
 17
0.0
 27
1.0
 37
0.0
 76
0
330
202
345
0
346
0
  0
LAYOUT
  5
4EF
102
{ACAD_REACTORS
330
1A
102
}
100
AcDbPlotSettings
  1

  2
none_device
  4
ANSI_C_(22.00_x_17.00_Inches)
  6

 40
0.0
 41
0.0
 42
0.0
 43
0.0
 44
558.8
 45
431.8
 46
0.0
 47
0.0
 48
0.0
 49
0.0
140
0.0
141
0.0
142
1.0
143
1.0
 70
0
 72
0
 73
0
 74
0
  7

 75
0
147
1.0
148
0.0
149
0.0
100
AcDbLayout
  1
Layout1
 70
0
 71
1
 10
0.0
 20
0.0
 11
22.0
 21
17.0
 12
0.0
 22
0.0
 32
0.0
 14
0.0
 24
0.0
 34
0.0
 15
0.0
 25
0.0
 35
0.0
146
0.0
 13
0.0
 23
0.0
 33
0.0
 16
1.0
 26
0.0
 36
0.0
 17
0.0
 27
1.0
 37
0.0
 76
0
330
203
345
0
346
0
  0
ENDSEC
  0
EOF
