999
DXF file: E:\BT Custom\CADOUTPUT\_FRONT.dxf
999
Pro/ENGINEER 2018400 by Parametric Technology Corporation
  0
SECTION
  2
HEADER
  9
$ACADVER
  1
AC1018
  9
$DWGCODEPAGE
  3
ANSI_1252
  9
$EXTMAX
 10
22.0
 20
17.0
 30
0.0
  9
$EXTMIN
 10
0.0
 20
0.0
 30
0.0
  9
$LIMMIN
 10
0.0
 20
0.0
  9
$LIMMAX
 10
22.0
 20
17.0
  9
$VIEWCTR
 10
11.0
 20
8.5
  9
$VIEWSIZE
 40
17.0
  9
$CLAYER
  8
0
  9
$LTSCALE
 40
1.21
  9
$CELTYPE
  6
BYLAYER
  9
$DIMSCALE
 40
1.0
  9
$DIMASZ
 40
0.1
  9
$DIMEXO
 40
0.0625
  9
$DIMDLI
 40
0.836
  9
$DIMEXE
 40
0.125
  9
$DIMCEN
 40
0.198
  9
$DIMLFAC
 40
1.0
  9
$DIMBLK
  1
_FILLED
  9
$DIMALT
 70
1
  9
$DIMALTD
 70
2
  9
$DIMALTTD
 70
2
  9
$DIMALTF
 40
25.4
  9
$DIMTXT
 40
0.08
  9
$DIMTOL
 70
1
  9
$DIMLIM
 70
0
  9
$DIMTFAC
 40
1.0
  9
$DIMTP
 40
0.001
  9
$DIMTM
 40
0.001
  9
$DIMGAP
 40
0.09
  9
$DIMDSEP
 70
46
  9
$AUNITS
 70
0
  9
$PDMODE
 70
3
  9
$PDSIZE
 40
0.06
  9
$HANDSEED
  5
522
  9
$TILEMODE
 70
1
  9
$MEASUREMENT
 70
0
  9
$INSUNITS
 70
1
  0
ENDSEC
  0
SECTION
  2
CLASSES
  0
CLASS
  1
ACDBDICTIONARYWDFLT
  2
AcDbDictionaryWithDefault
  3
AutoCAD 2000
 90
0
 91
1
280
0
281
0
  0
CLASS
  1
ACDBPLACEHOLDER
  2
AcDbPlaceHolder
  3
AutoCAD 2000
 90
0
 91
1
280
0
281
0
  0
CLASS
  1
LAYOUT
  2
AcDbLayout
  3
AutoCAD 2000
 90
0
 91
0
280
0
281
0
  0
ENDSEC
  0
SECTION
  2
TABLES
  0
TABLE
  2
VPORT
  5
8
100
AcDbSymbolTable
 70
2
  0
VPORT
  5
1F4
100
AcDbSymbolTableRecord
100
AcDbViewportTableRecord
  2
*ACTIVE
 70
0
 10
0.0
 20
0.0
 11
1.0
 21
1.0
 12
11.0
 22
8.5
 13
0.0
 23
0.0
 14
1.0
 24
1.0
 15
0.0
 25
0.0
 16
0.0
 26
0.0
 36
1.0
 17
0.0
 27
0.0
 37
0.0
 40
17.0
 41
1.2941176471
 42
50.0
 43
0.0
 44
0.0
 50
0.0
 51
0.0
 71
0
 72
100
 73
1
 74
1
 75
0
 76
0
 77
0
 78
0
  0
ENDTAB
  0
TABLE
  2
LTYPE
  5
5
100
AcDbSymbolTable
 70
6
  0
LTYPE
  5
14
100
AcDbSymbolTableRecord
100
AcDbLinetypeTableRecord
  2
BYBLOCK
 70
0
  3

 72
65
 73
0
 40
0.0
  0
LTYPE
  5
15
100
AcDbSymbolTableRecord
100
AcDbLinetypeTableRecord
  2
BYLAYER
 70
0
  3

 72
65
 73
0
 40
0.0
  0
LTYPE
  5
16
100
AcDbSymbolTableRecord
100
AcDbLinetypeTableRecord
  2
CONTINUOUS
 70
64
  3
Solid line
 72
65
 73
0
 40
0.0
  0
LTYPE
  5
1F5
100
AcDbSymbolTableRecord
100
AcDbLinetypeTableRecord
  2
CENTER
 70
64
  3
____ _ ____ _ ____ _ ____ _ ____ _ ____ _ ____
 72
65
 73
4
 40
0.6
 49
0.375
 74
0
 49
-0.075
 74
0
 49
0.075
 74
0
 49
-0.075
 74
0
  0
LTYPE
  5
1F6
100
AcDbSymbolTableRecord
100
AcDbLinetypeTableRecord
  2
HIDDEN
 70
64
  3
- - - - - - - - - - - - - - - - - - - -
 72
65
 73
2
 40
0.2
 49
0.1
 74
0
 49
-0.1
 74
0
  0
LTYPE
  5
1F7
100
AcDbSymbolTableRecord
100
AcDbLinetypeTableRecord
  2
PHANTOM
 70
64
  3
_____ _ _ _____ _ _ _____ _ _ _____
 72
65
 73
6
 40
0.8
 49
0.45
 74
0
 49
-0.05
 74
0
 49
0.1
 74
0
 49
-0.05
 74
0
 49
0.1
 74
0
 49
-0.05
 74
0
  0
LTYPE
  5
1F8
100
AcDbSymbolTableRecord
100
AcDbLinetypeTableRecord
  2
DOT
 70
64
  3
. . . . . . . . . . . . . . . . . . . .
 72
65
 73
2
 40
0.2
 49
0.1
 74
0
 49
-0.1
 74
0
  0
LTYPE
  5
1F9
100
AcDbSymbolTableRecord
100
AcDbLinetypeTableRecord
  2
DASHED
 70
64
  3
- - - - - - - - - - - - - - - - - - - -
 72
65
 73
2
 40
0.2
 49
0.1
 74
0
 49
-0.1
 74
0
  0
ENDTAB
  0
TABLE
  2
LAYER
  5
2
100
AcDbSymbolTable
 70
36
  0
LAYER
  5
10
100
AcDbSymbolTableRecord
100
AcDbLayerTableRecord
  2
0
 70
0
 62
7
  6
CONTINUOUS
370
-3
390
F
  0
LAYER
  5
1FA
100
AcDbSymbolTableRecord
100
AcDbLayerTableRecord
  2
DEFAULT_1
 70
0
 62
7
  6
CENTER
370
-3
390
F
  0
LAYER
  5
1FB
100
AcDbSymbolTableRecord
100
AcDbLayerTableRecord
  2
DEFAULT_2
 70
0
 62
8
  6
HIDDEN
370
-3
390
F
  0
LAYER
  5
1FC
100
AcDbSymbolTableRecord
100
AcDbLayerTableRecord
  2
DEFAULT_3
 70
0
 62
7
  6
PHANTOM
370
-3
390
F
  0
LAYER
  5
1FD
100
AcDbSymbolTableRecord
100
AcDbLayerTableRecord
  2
ALL_FEATURES
 70
0
 62
7
  6
CONTINUOUS
370
-3
390
F
  0
LAYER
  5
1FE
100
AcDbSymbolTableRecord
100
AcDbLayerTableRecord
  2
AXES_FEATURES
 70
0
 62
7
  6
CONTINUOUS
370
-3
390
F
  0
LAYER
  5
1FF
100
AcDbSymbolTableRecord
100
AcDbLayerTableRecord
  2
DIMENSIONS
 70
0
 62
7
  6
CONTINUOUS
370
-3
390
F
  0
ENDTAB
  0
TABLE
  2
STYLE
  5
3
100
AcDbSymbolTable
 70
1
  0
STYLE
  5
11
100
AcDbSymbolTableRecord
100
AcDbTextStyleTableRecord
  2
STANDARD
 70
0
 40
0.0
 41
0.8
 50
0.0
 71
0
 42
0.2
  3
txt
  4

  0
STYLE
  5
200
100
AcDbSymbolTableRecord
100
AcDbTextStyleTableRecord
  2
TEXTSTYLE_1
 70
0
 40
0.0
 41
0.8
 50
0.0
 71
0
 42
0.2
  3
gdt
  4

  0
ENDTAB
  0
TABLE
  2
VIEW
  5
6
100
AcDbSymbolTable
 70
0
  0
ENDTAB
  0
TABLE
  2
UCS
  5
7
100
AcDbSymbolTable
 70
0
  0
ENDTAB
  0
TABLE
  2
APPID
  5
9
100
AcDbSymbolTable
 70
1
  0
APPID
  5
201
100
AcDbSymbolTableRecord
100
AcDbRegAppTableRecord
  2
ACAD
 70
0
  0
ENDTAB
  0
TABLE
  2
BLOCK_RECORD
  5
1
100
AcDbSymbolTable
 70
0
  0
BLOCK_RECORD
  5
202
100
AcDbSymbolTableRecord
100
AcDbBlockTableRecord
  2
*Model_Space
  0
BLOCK_RECORD
  5
203
100
AcDbSymbolTableRecord
100
AcDbBlockTableRecord
  2
*Paper_Space
  0
BLOCK_RECORD
  5
204
100
AcDbSymbolTableRecord
100
AcDbBlockTableRecord
  2
_FILLED
  0
ENDTAB
  0
TABLE
  2
DIMSTYLE
  5
A
100
AcDbSymbolTable
 70
1
100
AcDbDimStyleTable
 71
0
  0
DIMSTYLE
105
205
100
AcDbSymbolTableRecord
100
AcDbDimStyleTableRecord
  2
STANDARD
 70
0
  3

  4

 40
1.0
 41
0.1
 42
0.0625
 43
0.38
 44
0.125
 45
0.0
 46
0.0
 47
0.001
 48
0.001
140
0.08
141
0.09
142
0.0
143
25.4
144
1.0
145
0.0
146
1.0
147
0.09
 71
1.0
 72
0.0
 73
1
 74
1
 75
0
 76
0
 77
0
 78
4
 79
1
170
1
171
2
172
0
173
0
174
0
175
0
176
0
177
0
178
0
270
2
179
3
271
3
272
3
273
2
274
2
275
0
280
0
281
0
282
0
283
1
284
4
285
0
286
0
287
3
288
0
340
11
278
46
341
204
342
204
343
204
344
204
  0
ENDTAB
  0
ENDSEC
  0
SECTION
  2
BLOCKS
  0
BLOCK
  5
20
100
AcDbEntity
  8
0
100
AcDbBlockBegin
  2
*Model_Space
 70
0
 10
0.0
 20
0.0
 30
0.0
  3
*Model_Space
  1

  0
ENDBLK
  5
21
100
AcDbEntity
  8
0
100
AcDbBlockEnd
  0
BLOCK
  5
1C
100
AcDbEntity
  8
0
100
AcDbBlockBegin
  2
*Paper_Space
 70
0
 10
0.0
 20
0.0
 30
0.0
  3
*Paper_Space
  1

  0
ENDBLK
  5
1D
100
AcDbEntity
  8
0
100
AcDbBlockEnd
  0
BLOCK
  5
206
100
AcDbEntity
  8
0
100
AcDbBlockBegin
  2
_FILLED
 70
64
 10
0.0
 20
0.0
  3
_FILLED
  1

  0
SOLID
  5
207
100
AcDbEntity
  8
0
  6
BYBLOCK
 62
0
100
AcDbTrace
 10
0.0
 20
0.0
 11
-1.0
 21
0.2
 12
-1.0
 22
-0.2
 13
-1.0
 23
-0.2
  0
ENDBLK
  5
208
100
AcDbEntity
  8
0
  6
BYBLOCK
 62
0
100
AcDbBlockEnd
  0
ENDSEC
  0
SECTION
  2
ENTITIES
  0
LINE
  5
209
100
AcDbEntity
  8
0
100
AcDbLine
 62
7
  6
CONTINUOUS
 10
6.1796320909
 20
7.2781130456
 11
6.1796314393
 21
7.0281695021
  0
LINE
  5
20A
100
AcDbEntity
  8
0
100
AcDbLine
 62
7
  6
CONTINUOUS
 10
6.1966923427
 20
7.0281695021
 11
6.1966923427
 21
6.9661695021
  0
LINE
  5
20B
100
AcDbEntity
  8
0
100
AcDbLine
 62
7
  6
CONTINUOUS
 10
6.4101923427
 20
9.3594535993
 11
6.4101923427
 21
9.2881695021
  0
LINE
  5
20C
100
AcDbEntity
  8
0
100
AcDbLine
 62
7
  6
CONTINUOUS
 10
6.5586611396
 20
7.2781147208
 11
6.558661891
 21
7.0281695021
  0
LINE
  5
20D
100
AcDbEntity
  8
0
100
AcDbLine
 62
7
  6
CONTINUOUS
 10
6.5941923427
 20
8.6371695021
 11
6.5941923427
 21
8.5282695021
  0
LINE
  5
20E
100
AcDbEntity
  8
0
100
AcDbLine
 62
7
  6
CONTINUOUS
 10
6.5941923427
 20
8.3380695021
 11
6.5941923427
 21
8.2781695021
  0
LINE
  5
20F
100
AcDbEntity
  8
0
100
AcDbLine
 62
7
  6
CONTINUOUS
 10
6.4101923427
 20
9.2571695021
 11
6.3801923427
 21
9.1771695021
  0
LINE
  5
210
100
AcDbEntity
  8
0
100
AcDbLine
 62
7
  6
CONTINUOUS
 10
6.3801923427
 20
8.7671695021
 11
6.4101923427
 21
8.6881695021
  0
LINE
  5
211
100
AcDbEntity
  8
0
100
AcDbLine
 62
7
  6
CONTINUOUS
 10
6.7800075305
 20
9.4646760506
 11
6.7800075305
 21
9.4636691359
  0
LINE
  5
212
100
AcDbEntity
  8
0
100
AcDbLine
 62
7
  6
CONTINUOUS
 10
6.7955982481
 20
9.464300249
 11
6.7955982481
 21
9.4653053497
  0
LINE
  5
213
100
AcDbEntity
  8
0
100
AcDbLine
 62
7
  6
CONTINUOUS
 10
6.7987354526
 20
9.4518470654
 11
6.7987354526
 21
9.4501094638
  0
LINE
  5
214
100
AcDbEntity
  8
0
100
AcDbLine
 62
9
  6
CONTINUOUS
 10
6.8061424039
 20
9.4649691648
 11
6.8061424039
 21
9.463963845
  0
LINE
  5
215
100
AcDbEntity
  8
0
100
AcDbLine
 62
9
  6
CONTINUOUS
 10
6.8279474367
 20
9.45587273
 11
6.8279474367
 21
9.4548614424
  0
LINE
  5
216
100
AcDbEntity
  8
0
100
AcDbLine
 62
9
  6
CONTINUOUS
 10
6.8461927253
 20
9.4583666001
 11
6.8461927253
 21
9.4593755812
  0
LINE
  5
217
100
AcDbEntity
  8
0
100
AcDbLine
 62
7
  6
CONTINUOUS
 10
6.8470714049
 20
9.458672691
 11
6.8470714049
 21
9.4596814712
  0
LINE
  5
218
100
AcDbEntity
  8
0
100
AcDbLine
 62
9
  6
CONTINUOUS
 10
6.8716485694
 20
9.4629550554
 11
6.8716485694
 21
9.4639610331
  0
LINE
  5
219
100
AcDbEntity
  8
0
100
AcDbLine
 62
9
  6
CONTINUOUS
 10
6.8758912101
 20
9.4641369596
 11
6.8758912101
 21
9.4631310967
  0
LINE
  5
21A
100
AcDbEntity
  8
0
100
AcDbLine
 62
7
  6
CONTINUOUS
 10
6.8850131009
 20
9.4721990889
 11
6.8850131009
 21
9.4711984623
  0
LINE
  5
21B
100
AcDbEntity
  8
0
100
AcDbLine
 62
9
  6
CONTINUOUS
 10
6.8941364986
 20
9.4654840622
 11
6.8941364986
 21
9.4664883922
  0
LINE
  5
21C
100
AcDbEntity
  8
0
100
AcDbLine
 62
7
  6
CONTINUOUS
 10
6.9062364986
 20
9.4690964522
 11
6.9062364986
 21
9.4680938169
  0
LINE
  5
21D
100
AcDbEntity
  8
0
100
AcDbLine
 62
9
  6
CONTINUOUS
 10
6.9084888327
 20
9.4726194209
 11
6.9084888327
 21
9.4716190658
  0
LINE
  5
21E
100
AcDbEntity
  8
0
100
AcDbLine
 62
7
  6
CONTINUOUS
 10
6.9182364986
 20
9.4692939503
 11
6.9182364986
 21
9.4682914431
  0
LINE
  5
21F
100
AcDbEntity
  8
0
100
AcDbLine
 62
7
  6
CONTINUOUS
 10
6.9928079167
 20
9.4711332657
 11
6.9928079167
 21
9.4721339344
  0
LINE
  5
220
100
AcDbEntity
  8
0
100
AcDbLine
 62
7
  6
CONTINUOUS
 10
7.2811923427
 20
8.6371695021
 11
7.2811923427
 21
8.2781695021
  0
LINE
  5
221
100
AcDbEntity
  8
0
100
AcDbLine
 62
7
  6
CONTINUOUS
 10
7.3167216946
 20
7.2781147209
 11
7.3167227945
 21
7.0281695021
  0
LINE
  5
222
100
AcDbEntity
  8
0
100
AcDbLine
 62
7
  6
CONTINUOUS
 10
7.4651923427
 20
9.3594535993
 11
7.4651923427
 21
9.2881695021
  0
LINE
  5
223
100
AcDbEntity
  8
0
100
AcDbLine
 62
7
  6
CONTINUOUS
 10
6.3541939831
 20
8.8523795484
 11
6.3246074572
 21
8.8113426594
  0
LINE
  5
224
100
AcDbEntity
  8
0
100
AcDbLine
 62
7
  6
CONTINUOUS
 10
6.4244581905
 20
9.3790888542
 11
6.4101923427
 21
9.3594535993
  0
LINE
  5
225
100
AcDbEntity
  8
0
100
AcDbLine
 62
7
  6
CONTINUOUS
 10
7.5788557824
 20
7.3946695021
 11
7.6957488268
 21
7.2781131808
  0
LINE
  5
226
100
AcDbEntity
  8
0
100
AcDbLine
 62
7
  6
CONTINUOUS
 10
6.3541939831
 20
9.0919594558
 11
6.3246074572
 21
9.1329963449
  0
LINE
  5
227
100
AcDbEntity
  8
0
100
AcDbLine
 62
7
  6
CONTINUOUS
 10
7.4781923427
 20
7.9437859409
 11
7.5523263369
 21
7.8378683137
  0
LINE
  5
228
100
AcDbEntity
  8
0
100
AcDbLine
 62
7
  6
CONTINUOUS
 10
7.6786923427
 20
7.0281695021
 11
7.6786923427
 21
6.9661695021
  0
LINE
  5
229
100
AcDbEntity
  8
0
100
AcDbLine
 62
7
  6
CONTINUOUS
 10
7.6957524105
 20
7.2781142608
 11
7.6957532462
 21
7.0281695021
  0
LINE
  5
22A
100
AcDbEntity
  8
0
100
AcDbLine
 62
7
  6
CONTINUOUS
 10
7.4651923427
 20
9.2571695021
 11
7.4951923427
 21
9.1771695021
  0
LINE
  5
22B
100
AcDbEntity
  8
0
100
AcDbLine
 62
7
  6
CONTINUOUS
 10
7.4951923427
 20
8.7671695021
 11
7.4651923427
 21
8.6881695021
  0
LINE
  5
22C
100
AcDbEntity
  8
0
100
AcDbLine
 62
7
  6
CONTINUOUS
 10
6.3971923427
 20
7.9437859409
 11
6.3230583485
 21
7.8378683137
  0
LINE
  5
22D
100
AcDbEntity
  8
0
100
AcDbLine
 62
7
  6
CONTINUOUS
 10
5.7576923427
 20
6.5911695021
 11
8.1176923427
 21
6.5911695021
  0
LINE
  5
22E
100
AcDbEntity
  8
0
100
AcDbLine
 62
7
  6
CONTINUOUS
 10
9.9251923427
 20
6.5911695021
 11
11.9501923427
 21
6.5911695021
  0
LINE
  5
22F
100
AcDbEntity
  8
0
100
AcDbLine
 62
7
  6
CONTINUOUS
 10
13.7576923427
 20
6.5911695021
 11
16.1176923427
 21
6.5911695021
  0
LINE
  5
230
100
AcDbEntity
  8
0
100
AcDbLine
 62
7
  6
CONTINUOUS
 10
7.450926495
 20
9.3790888542
 11
7.4651923427
 21
9.3594535993
  0
LINE
  5
231
100
AcDbEntity
  8
0
100
AcDbLine
 62
7
  6
CONTINUOUS
 10
7.5211907023
 20
8.8523795484
 11
7.5507772283
 21
8.8113426594
  0
LINE
  5
232
100
AcDbEntity
  8
0
100
AcDbLine
 62
7
  6
CONTINUOUS
 10
7.5211907023
 20
9.0919594558
 11
7.5507772283
 21
9.1329963449
  0
LINE
  5
233
100
AcDbEntity
  8
0
100
AcDbLine
 62
7
  6
CONTINUOUS
 10
5.9376923427
 20
6.7781695021
 11
7.9376923427
 21
6.7781695021
  0
LINE
  5
234
100
AcDbEntity
  8
0
100
AcDbLine
 62
7
  6
CONTINUOUS
 10
13.9376923427
 20
6.7781695021
 11
15.9376923427
 21
6.7781695021
  0
LINE
  5
235
100
AcDbEntity
  8
0
100
AcDbLine
 62
9
  6
CONTINUOUS
 10
11.9501923427
 20
6.8401369698
 11
11.6344325794
 21
6.8401369698
  0
LINE
  5
236
100
AcDbEntity
  8
0
100
AcDbLine
 62
9
  6
CONTINUOUS
 10
10.240952106
 20
6.8401369698
 11
9.9251923427
 21
6.8401369698
  0
LINE
  5
237
100
AcDbEntity
  8
0
100
AcDbLine
 62
7
  6
CONTINUOUS
 10
11.9126923427
 20
6.9111695021
 11
11.5924278532
 21
6.9111695021
  0
LINE
  5
238
100
AcDbEntity
  8
0
100
AcDbLine
 62
7
  6
CONTINUOUS
 10
10.2829568323
 20
6.9111695021
 11
9.9626923427
 21
6.9111695021
  0
LINE
  5
239
100
AcDbEntity
  8
0
100
AcDbLine
 62
7
  6
CONTINUOUS
 10
15.7506950166
 20
6.9661695021
 11
14.1246896689
 21
6.9661695021
  0
LINE
  5
23A
100
AcDbEntity
  8
0
100
AcDbLine
 62
7
  6
CONTINUOUS
 10
7.7506950166
 20
6.9661695021
 11
6.1246896689
 21
6.9661695021
  0
LINE
  5
23B
100
AcDbEntity
  8
0
100
AcDbLine
 62
7
  6
CONTINUOUS
 10
6.2965289031
 20
7.3946695021
 11
6.179634882
 21
7.2781122069
  0
LINE
  5
23C
100
AcDbEntity
  8
0
100
AcDbLine
 62
7
  6
CONTINUOUS
 10
6.4370391303
 20
9.2726695021
 11
6.4101923427
 21
9.2571695021
  0
LINE
  5
23D
100
AcDbEntity
  8
0
100
AcDbLine
 62
7
  6
CONTINUOUS
 10
6.1796314393
 20
7.0281695021
 11
7.6957532462
 21
7.0281695021
  0
LINE
  5
23E
100
AcDbEntity
  8
0
100
AcDbLine
 62
7
  6
CONTINUOUS
 10
14.1796314393
 20
7.0281695021
 11
15.6957532462
 21
7.0281695021
  0
LINE
  5
23F
100
AcDbEntity
  8
0
100
AcDbLine
 62
7
  6
CONTINUOUS
 10
11.4326923427
 20
7.0911695021
 11
10.4426923427
 21
7.0911695021
  0
LINE
  5
240
100
AcDbEntity
  8
0
100
AcDbLine
 62
9
  6
CONTINUOUS
 10
11.4001923427
 20
7.1711695021
 11
10.4751923427
 21
7.1711695021
  0
LINE
  5
241
100
AcDbEntity
  8
0
100
AcDbLine
 62
7
  6
CONTINUOUS
 10
10.3576923427
 20
7.3111695021
 11
10.5015473979
 21
7.3111695021
  0
LINE
  5
242
100
AcDbEntity
  8
0
100
AcDbLine
 62
7
  6
CONTINUOUS
 10
11.3738372876
 20
7.3111695021
 11
11.5176923427
 21
7.3111695021
  0
LINE
  5
243
100
AcDbEntity
  8
0
100
AcDbLine
 62
9
  6
CONTINUOUS
 10
10.5104088365
 20
7.3352720662
 11
11.3649804298
 21
7.3352720662
  0
LINE
  5
244
100
AcDbEntity
  8
0
100
AcDbLine
 62
7
  6
CONTINUOUS
 10
11.3558607276
 20
7.3411695021
 11
10.5195284409
 21
7.3411695021
  0
LINE
  5
245
100
AcDbEntity
  8
0
100
AcDbLine
 62
7
  6
CONTINUOUS
 10
6.5671923427
 20
8.6371695021
 11
6.4101923427
 21
8.6881695021
  0
LINE
  5
246
100
AcDbEntity
  8
0
100
AcDbLine
 62
7
  6
CONTINUOUS
 10
6.4370391303
 20
9.2726695021
 11
6.4101923427
 21
9.2881695021
  0
LINE
  5
247
100
AcDbEntity
  8
0
100
AcDbLine
 62
7
  6
CONTINUOUS
 10
7.4383455552
 20
9.2726695021
 11
7.4651923427
 21
9.2881695021
  0
LINE
  5
248
100
AcDbEntity
  8
0
100
AcDbLine
 62
9
  6
CONTINUOUS
 10
15.5788557824
 20
7.3946695021
 11
14.2965289031
 21
7.3946695021
  0
LINE
  5
249
100
AcDbEntity
  8
0
100
AcDbLine
 62
9
  6
CONTINUOUS
 10
7.5788557824
 20
7.3946695021
 11
6.2965289031
 21
7.3946695021
  0
LINE
  5
24A
100
AcDbEntity
  8
0
100
AcDbLine
 62
7
  6
CONTINUOUS
 10
11.5176923427
 20
7.5211695021
 11
10.3576923427
 21
7.5211695021
  0
LINE
  5
24B
100
AcDbEntity
  8
0
100
AcDbLine
 62
9
  6
CONTINUOUS
 10
6.3191923427
 20
7.6096695021
 11
7.5561923427
 21
7.6096695021
  0
LINE
  5
24C
100
AcDbEntity
  8
0
100
AcDbLine
 62
9
  6
CONTINUOUS
 10
14.3191923427
 20
7.6096695021
 11
15.5561923427
 21
7.6096695021
  0
LINE
  5
24D
100
AcDbEntity
  8
0
100
AcDbLine
 62
7
  6
CONTINUOUS
 10
10.9452875011
 20
7.7011983458
 11
10.9300971844
 21
7.7011983458
  0
LINE
  5
24E
100
AcDbEntity
  8
0
100
AcDbLine
 62
9
  6
CONTINUOUS
 10
10.2295001452
 20
7.7519146422
 11
11.6458845403
 21
7.7519146422
  0
LINE
  5
24F
100
AcDbEntity
  8
0
100
AcDbLine
 62
7
  6
CONTINUOUS
 10
7.4383455552
 20
9.2726695021
 11
7.4651923427
 21
9.2571695021
  0
LINE
  5
250
100
AcDbEntity
  8
0
100
AcDbLine
 62
7
  6
CONTINUOUS
 10
6.4831823866
 20
9.3981695021
 11
6.4244581905
 21
9.3790888542
  0
LINE
  5
251
100
AcDbEntity
  8
0
100
AcDbLine
 62
9
  6
CONTINUOUS
 10
6.3230583485
 20
7.8378683137
 11
7.5523263369
 21
7.8378683137
  0
LINE
  5
252
100
AcDbEntity
  8
0
100
AcDbLine
 62
9
  6
CONTINUOUS
 10
14.3230583485
 20
7.8378683137
 11
15.5523263369
 21
7.8378683137
  0
LINE
  5
253
100
AcDbEntity
  8
0
100
AcDbLine
 62
9
  6
CONTINUOUS
 10
10.2808217393
 20
7.894510275
 11
11.5945629461
 21
7.894510275
  0
LINE
  5
254
100
AcDbEntity
  8
0
100
AcDbLine
 62
9
  6
CONTINUOUS
 10
15.4781923427
 20
7.9437859409
 11
14.3971923427
 21
7.9437859409
  0
LINE
  5
255
100
AcDbEntity
  8
0
100
AcDbLine
 62
9
  6
CONTINUOUS
 10
7.4781923427
 20
7.9437859409
 11
6.3971923427
 21
7.9437859409
  0
LINE
  5
256
100
AcDbEntity
  8
0
100
AcDbLine
 62
7
  6
CONTINUOUS
 10
9.8723147386
 20
11.0591695021
 11
9.8723147386
 21
11.6691695021
  0
LINE
  5
257
100
AcDbEntity
  8
0
100
AcDbLine
 62
7
  6
CONTINUOUS
 10
9.9251923427
 20
6.8401369698
 11
9.9251923427
 21
6.5911695021
  0
LINE
  5
258
100
AcDbEntity
  8
0
100
AcDbLine
 62
7
  6
CONTINUOUS
 10
10.0703899294
 20
11.0591695021
 11
10.0703899294
 21
11.6691695021
  0
LINE
  5
259
100
AcDbEntity
  8
0
100
AcDbLine
 62
7
  6
CONTINUOUS
 10
10.1776923427
 20
10.693430271
 11
10.1776923427
 21
10.1340026499
  0
LINE
  5
25A
100
AcDbEntity
  8
0
100
AcDbLine
 62
9
  6
CONTINUOUS
 10
15.3674320703
 20
8.2497687448
 11
14.5079526152
 21
8.2497687448
  0
LINE
  5
25B
100
AcDbEntity
  8
0
100
AcDbLine
 62
9
  6
CONTINUOUS
 10
7.3674320703
 20
8.2497687448
 11
6.5079526152
 21
8.2497687448
  0
LINE
  5
25C
100
AcDbEntity
  8
0
100
AcDbLine
 62
7
  6
CONTINUOUS
 10
15.3365412312
 20
8.2781695021
 11
14.5388434542
 21
8.2781695021
  0
LINE
  5
25D
100
AcDbEntity
  8
0
100
AcDbLine
 62
7
  6
CONTINUOUS
 10
7.3365412312
 20
8.2781695021
 11
6.5388434542
 21
8.2781695021
  0
LINE
  5
25E
100
AcDbEntity
  8
0
100
AcDbLine
 62
7
  6
CONTINUOUS
 10
7.3922022989
 20
9.3981695021
 11
7.450926495
 21
9.3790888542
  0
LINE
  5
25F
100
AcDbEntity
  8
0
100
AcDbLine
 62
7
  6
CONTINUOUS
 10
10.2991642053
 20
11.0432445435
 11
10.2983232992
 21
11.0591695021
  0
LINE
  5
260
100
AcDbEntity
  8
0
100
AcDbLine
 62
7
  6
CONTINUOUS
 10
10.2983232992
 20
11.0591695021
 11
10.2983232992
 21
11.6691695021
  0
LINE
  5
261
100
AcDbEntity
  8
0
100
AcDbLine
 62
7
  6
CONTINUOUS
 10
10.3576923427
 20
7.5211695021
 11
10.3576923427
 21
7.3111695021
  0
LINE
  5
262
100
AcDbEntity
  8
0
100
AcDbLine
 62
7
  6
CONTINUOUS
 10
10.4751923427
 20
7.0911695021
 11
10.4751923427
 21
7.1711695021
  0
LINE
  5
263
100
AcDbEntity
  8
0
100
AcDbLine
 62
7
  6
CONTINUOUS
 10
10.3621034099
 20
10.0591695021
 11
10.2808217393
 21
7.894510275
  0
LINE
  5
264
100
AcDbEntity
  8
0
100
AcDbLine
 62
7
  6
CONTINUOUS
 10
11.9276923427
 20
10.969602573
 11
11.7261611215
 21
10.7633107717
  0
LINE
  5
265
100
AcDbEntity
  8
0
100
AcDbLine
 62
7
  6
CONTINUOUS
 10
7.3081923427
 20
8.6371695021
 11
7.4651923427
 21
8.6881695021
  0
LINE
  5
266
100
AcDbEntity
  8
0
100
AcDbLine
 62
7
  6
CONTINUOUS
 10
6.5671929432
 20
8.6371695021
 11
7.3081917423
 21
8.6371695021
  0
LINE
  5
267
100
AcDbEntity
  8
0
100
AcDbLine
 62
7
  6
CONTINUOUS
 10
14.5671929432
 20
8.6371695021
 11
15.3081917423
 21
8.6371695021
  0
LINE
  5
268
100
AcDbEntity
  8
0
100
AcDbLine
 62
7
  6
CONTINUOUS
 10
15.4651923427
 20
8.6881695021
 11
14.4101923427
 21
8.6881695021
  0
LINE
  5
269
100
AcDbEntity
  8
0
100
AcDbLine
 62
7
  6
CONTINUOUS
 10
7.4651923427
 20
8.6881695021
 11
6.4101923427
 21
8.6881695021
  0
LINE
  5
26A
100
AcDbEntity
  8
0
100
AcDbLine
 62
7
  6
CONTINUOUS
 10
6.3801923427
 20
8.7671695021
 11
7.4951923427
 21
8.7671695021
  0
LINE
  5
26B
100
AcDbEntity
  8
0
100
AcDbLine
 62
7
  6
CONTINUOUS
 10
14.3801923427
 20
8.7671695021
 11
15.4951923427
 21
8.7671695021
  0
LINE
  5
26C
100
AcDbEntity
  8
0
100
AcDbLine
 62
7
  6
CONTINUOUS
 10
14.5872282998
 20
8.7761695021
 11
14.5777707653
 21
8.7761695021
  0
LINE
  5
26D
100
AcDbEntity
  8
0
100
AcDbLine
 62
7
  6
CONTINUOUS
 10
6.5872282998
 20
8.7761695021
 11
6.5777707653
 21
8.7761695021
  0
LINE
  5
26E
100
AcDbEntity
  8
0
100
AcDbLine
 62
7
  6
CONTINUOUS
 10
7.2883457049
 20
8.7761695021
 11
7.2976139201
 21
8.7761695021
  0
LINE
  5
26F
100
AcDbEntity
  8
0
100
AcDbLine
 62
7
  6
CONTINUOUS
 10
15.2883457054
 20
8.7761695021
 11
15.2976139201
 21
8.7761695021
  0
LINE
  5
270
100
AcDbEntity
  8
0
100
AcDbLine
 62
7
  6
CONTINUOUS
 10
10.7765191113
 20
11.0591695021
 11
10.7765191113
 21
11.6691695021
  0
LINE
  5
271
100
AcDbEntity
  8
0
100
AcDbLine
 62
7
  6
CONTINUOUS
 10
14.8931439678
 20
9.4725385483
 11
14.8926288835
 21
9.4725144916
  0
LINE
  5
272
100
AcDbEntity
  8
0
100
AcDbLine
 62
7
  6
CONTINUOUS
 10
14.5870392876
 20
9.1681695021
 11
14.5777707653
 21
9.1681695021
  0
LINE
  5
273
100
AcDbEntity
  8
0
100
AcDbLine
 62
7
  6
CONTINUOUS
 10
6.5870392875
 20
9.1681695021
 11
6.5777707653
 21
9.1681695021
  0
LINE
  5
274
100
AcDbEntity
  8
0
100
AcDbLine
 62
7
  6
CONTINUOUS
 10
7.2881566865
 20
9.1681695021
 11
7.2976139201
 21
9.1681695021
  0
LINE
  5
275
100
AcDbEntity
  8
0
100
AcDbLine
 62
7
  6
CONTINUOUS
 10
15.2881566865
 20
9.1681695021
 11
15.2976139201
 21
9.1681695021
  0
LINE
  5
276
100
AcDbEntity
  8
0
100
AcDbLine
 62
7
  6
CONTINUOUS
 10
15.4951923427
 20
9.1771695021
 11
14.3801923427
 21
9.1771695021
  0
LINE
  5
277
100
AcDbEntity
  8
0
100
AcDbLine
 62
7
  6
CONTINUOUS
 10
7.4951923427
 20
9.1771695021
 11
6.3801923427
 21
9.1771695021
  0
LINE
  5
278
100
AcDbEntity
  8
0
100
AcDbLine
 62
7
  6
CONTINUOUS
 10
6.4101923427
 20
9.2571695021
 11
7.4651923427
 21
9.2571695021
  0
LINE
  5
279
100
AcDbEntity
  8
0
100
AcDbLine
 62
7
  6
CONTINUOUS
 10
14.4101923427
 20
9.2571695021
 11
15.4651923427
 21
9.2571695021
  0
LINE
  5
27A
100
AcDbEntity
  8
0
100
AcDbLine
 62
7
  6
CONTINUOUS
 10
6.4370391303
 20
9.2726695021
 11
7.4383455552
 21
9.2726695021
  0
LINE
  5
27B
100
AcDbEntity
  8
0
100
AcDbLine
 62
7
  6
CONTINUOUS
 10
14.4370391303
 20
9.2726695021
 11
15.4383455552
 21
9.2726695021
  0
LINE
  5
27C
100
AcDbEntity
  8
0
100
AcDbLine
 62
7
  6
CONTINUOUS
 10
6.4101923427
 20
9.2881695021
 11
7.4651923427
 21
9.2881695021
  0
LINE
  5
27D
100
AcDbEntity
  8
0
100
AcDbLine
 62
7
  6
CONTINUOUS
 10
14.4101923427
 20
9.2881695021
 11
15.4651923427
 21
9.2881695021
  0
LINE
  5
27E
100
AcDbEntity
  8
0
100
AcDbLine
 62
7
  6
CONTINUOUS
 10
11.0988655742
 20
11.0591695021
 11
11.0988655742
 21
11.6691695021
  0
LINE
  5
27F
100
AcDbEntity
  8
0
100
AcDbLine
 62
7
  6
CONTINUOUS
 10
14.6834874549
 20
9.4310405855
 11
14.6838420543
 21
9.4310410204
  0
LINE
  5
280
100
AcDbEntity
  8
0
100
AcDbLine
 62
7
  6
CONTINUOUS
 10
15.4651923427
 20
9.3594535993
 11
14.4101923427
 21
9.3594535993
  0
LINE
  5
281
100
AcDbEntity
  8
0
100
AcDbLine
 62
7
  6
CONTINUOUS
 10
7.4651923427
 20
9.3594535993
 11
6.4101923427
 21
9.3594535993
  0
LINE
  5
282
100
AcDbEntity
  8
0
100
AcDbLine
 62
7
  6
CONTINUOUS
 10
6.4244581905
 20
9.3790888542
 11
7.450926495
 21
9.3790888542
  0
LINE
  5
283
100
AcDbEntity
  8
0
100
AcDbLine
 62
7
  6
CONTINUOUS
 10
14.4244581905
 20
9.3790888542
 11
15.450926495
 21
9.3790888542
  0
LINE
  5
284
100
AcDbEntity
  8
0
100
AcDbLine
 62
7
  6
CONTINUOUS
 10
15.392185992
 20
9.3981695021
 11
14.4831986935
 21
9.3981695021
  0
LINE
  5
285
100
AcDbEntity
  8
0
100
AcDbLine
 62
7
  6
CONTINUOUS
 10
7.392185992
 20
9.3981695021
 11
6.4831986935
 21
9.3981695021
  0
LINE
  5
286
100
AcDbEntity
  8
0
100
AcDbLine
 62
9
  6
CONTINUOUS
 10
15.3328369993
 20
9.4219787954
 11
14.5425495315
 21
9.4219792817
  0
LINE
  5
287
100
AcDbEntity
  8
0
100
AcDbLine
 62
9
  6
CONTINUOUS
 10
7.3328238552
 20
9.4219823744
 11
6.5425477032
 21
9.4219789151
  0
LINE
  5
288
100
AcDbEntity
  8
0
100
AcDbLine
 62
7
  6
CONTINUOUS
 10
14.9376923427
 20
9.4731695021
 11
14.9419926563
 21
9.4731635393
  0
LINE
  5
289
100
AcDbEntity
  8
0
100
AcDbLine
 62
7
  6
CONTINUOUS
 10
6.9376923427
 20
9.4731695021
 11
6.9905846143
 21
9.4722671824
  0
LINE
  5
28A
100
AcDbEntity
  8
0
100
AcDbLine
 62
7
  6
CONTINUOUS
 10
11.5132812755
 20
10.0591695021
 11
11.5945629461
 21
7.894510275
  0
LINE
  5
28B
100
AcDbEntity
  8
0
100
AcDbLine
 62
7
  6
CONTINUOUS
 10
11.4001923427
 20
7.0911695021
 11
11.4001923427
 21
7.1711695021
  0
LINE
  5
28C
100
AcDbEntity
  8
0
100
AcDbLine
 62
7
  6
CONTINUOUS
 10
11.5176923427
 20
7.5211695021
 11
11.5176923427
 21
7.3111695021
  0
LINE
  5
28D
100
AcDbEntity
  8
0
100
AcDbLine
 62
7
  6
CONTINUOUS
 10
11.5770613863
 20
11.0591695021
 11
11.5770613863
 21
11.6691695021
  0
LINE
  5
28E
100
AcDbEntity
  8
0
100
AcDbLine
 62
7
  6
CONTINUOUS
 10
11.6976923427
 20
10.693430271
 11
11.6976923427
 21
10.1340026499
  0
LINE
  5
28F
100
AcDbEntity
  8
0
100
AcDbLine
 62
7
  6
CONTINUOUS
 10
11.5770613863
 20
11.0591695021
 11
11.5762204802
 21
11.0432443174
  0
LINE
  5
290
100
AcDbEntity
  8
0
100
AcDbLine
 62
7
  6
CONTINUOUS
 10
10.1976923427
 20
10.0591695021
 11
11.6776923427
 21
10.0591695021
  0
LINE
  5
291
100
AcDbEntity
  8
0
100
AcDbLine
 62
7
  6
CONTINUOUS
 10
14.5671923427
 20
8.6371695021
 11
14.4101923427
 21
8.6881695021
  0
LINE
  5
292
100
AcDbEntity
  8
0
100
AcDbLine
 62
7
  6
CONTINUOUS
 10
9.9476923427
 20
10.969602573
 11
10.149223564
 21
10.7633107717
  0
LINE
  5
293
100
AcDbEntity
  8
0
100
AcDbLine
 62
7
  6
CONTINUOUS
 10
11.8049947561
 20
11.0591695021
 11
11.8049947561
 21
11.6691695021
  0
LINE
  5
294
100
AcDbEntity
  8
0
100
AcDbLine
 62
7
  6
CONTINUOUS
 10
11.9501923427
 20
6.8401369698
 11
11.9501923427
 21
6.5911695021
  0
LINE
  5
295
100
AcDbEntity
  8
0
100
AcDbLine
 62
7
  6
CONTINUOUS
 10
12.0030699469
 20
11.0591695021
 11
12.0030699469
 21
11.6691695021
  0
LINE
  5
296
100
AcDbEntity
  8
0
100
AcDbLine
 62
7
  6
CONTINUOUS
 10
14.4831823866
 20
9.3981695021
 11
14.4244581905
 21
9.3790888542
  0
LINE
  5
297
100
AcDbEntity
  8
0
100
AcDbLine
 62
9
  6
CONTINUOUS
 10
10.1776923427
 20
10.1340026499
 11
11.6976923427
 21
10.1340026499
  0
LINE
  5
298
100
AcDbEntity
  8
0
100
AcDbLine
 62
7
  6
CONTINUOUS
 10
14.7989892732
 20
9.4646604837
 11
14.7998572089
 21
9.464426145
  0
LINE
  5
299
100
AcDbEntity
  8
0
100
AcDbLine
 62
7
  6
CONTINUOUS
 10
14.7998572089
 20
9.4654311118
 11
14.7989892732
 21
9.4656654518
  0
LINE
  5
29A
100
AcDbEntity
  8
0
100
AcDbLine
 62
9
  6
CONTINUOUS
 10
11.6976923427
 20
10.693430271
 11
10.1777068276
 21
10.693430271
  0
LINE
  5
29B
100
AcDbEntity
  8
0
100
AcDbLine
 62
9
  6
CONTINUOUS
 10
10.149223564
 20
10.7633107717
 11
11.7261611215
 21
10.7633107717
  0
LINE
  5
29C
100
AcDbEntity
  8
0
100
AcDbLine
 62
7
  6
CONTINUOUS
 10
15.3922022989
 20
9.3981695021
 11
15.450926495
 21
9.3790888542
  0
LINE
  5
29D
100
AcDbEntity
  8
0
100
AcDbLine
 62
7
  6
CONTINUOUS
 10
14.4370391303
 20
9.2726695021
 11
14.4101923427
 21
9.2571695021
  0
LINE
  5
29E
100
AcDbEntity
  8
0
100
AcDbLine
 62
7
  6
CONTINUOUS
 10
15.3081923427
 20
8.6371695021
 11
15.4651923427
 21
8.6881695021
  0
LINE
  5
29F
100
AcDbEntity
  8
0
100
AcDbLine
 62
7
  6
CONTINUOUS
 10
9.8723147386
 20
11.0591695021
 11
10.0703899294
 21
11.0591695021
  0
LINE
  5
2A0
100
AcDbEntity
  8
0
100
AcDbLine
 62
7
  6
CONTINUOUS
 10
10.2983232992
 20
11.0591695021
 11
10.7765191113
 21
11.0591695021
  0
LINE
  5
2A1
100
AcDbEntity
  8
0
100
AcDbLine
 62
7
  6
CONTINUOUS
 10
11.0988655742
 20
11.0591695021
 11
11.5770613863
 21
11.0591695021
  0
LINE
  5
2A2
100
AcDbEntity
  8
0
100
AcDbLine
 62
7
  6
CONTINUOUS
 10
11.8049947561
 20
11.0591695021
 11
12.0030699469
 21
11.0591695021
  0
LINE
  5
2A3
100
AcDbEntity
  8
0
100
AcDbLine
 62
7
  6
CONTINUOUS
 10
14.4370391303
 20
9.2726695021
 11
14.4101923427
 21
9.2881695021
  0
LINE
  5
2A4
100
AcDbEntity
  8
0
100
AcDbLine
 62
7
  6
CONTINUOUS
 10
15.5788557824
 20
7.3946695021
 11
15.6957488268
 21
7.2781131808
  0
LINE
  5
2A5
100
AcDbEntity
  8
0
100
AcDbLine
 62
7
  6
CONTINUOUS
 10
15.4383455552
 20
9.2726695021
 11
15.4651923427
 21
9.2881695021
  0
LINE
  5
2A6
100
AcDbEntity
  8
0
100
AcDbLine
 62
7
  6
CONTINUOUS
 10
15.4383455552
 20
9.2726695021
 11
15.4651923427
 21
9.2571695021
  0
LINE
  5
2A7
100
AcDbEntity
  8
0
100
AcDbLine
 62
7
  6
CONTINUOUS
 10
14.4244581905
 20
9.3790888542
 11
14.4101923427
 21
9.3594535993
  0
LINE
  5
2A8
100
AcDbEntity
  8
0
100
AcDbLine
 62
9
  6
CONTINUOUS
 10
12.0030699469
 20
11.6691695021
 11
11.8049947561
 21
11.6691695021
  0
LINE
  5
2A9
100
AcDbEntity
  8
0
100
AcDbLine
 62
9
  6
CONTINUOUS
 10
11.5770613863
 20
11.6691695021
 11
11.0988655742
 21
11.6691695021
  0
LINE
  5
2AA
100
AcDbEntity
  8
0
100
AcDbLine
 62
9
  6
CONTINUOUS
 10
10.7765191113
 20
11.6691695021
 11
10.2983232992
 21
11.6691695021
  0
LINE
  5
2AB
100
AcDbEntity
  8
0
100
AcDbLine
 62
9
  6
CONTINUOUS
 10
10.0703899294
 20
11.6691695021
 11
9.8723147386
 21
11.6691695021
  0
LINE
  5
2AC
100
AcDbEntity
  8
0
100
AcDbLine
 62
7
  6
CONTINUOUS
 10
11.8651923427
 20
11.8191695021
 11
10.0101923427
 21
11.8191695021
  0
LINE
  5
2AD
100
AcDbEntity
  8
0
100
AcDbLine
 62
9
  6
CONTINUOUS
 10
10.0285559097
 20
11.8791695021
 11
11.8468287758
 21
11.8791695021
  0
LINE
  5
2AE
100
AcDbEntity
  8
0
100
AcDbLine
 62
7
  6
CONTINUOUS
 10
14.3541939831
 20
9.0919594558
 11
14.3246074572
 21
9.1329963449
  0
LINE
  5
2AF
100
AcDbEntity
  8
0
100
AcDbLine
 62
7
  6
CONTINUOUS
 10
14.3541939831
 20
8.8523795484
 11
14.3246074572
 21
8.8113426594
  0
LINE
  5
2B0
100
AcDbEntity
  8
0
100
AcDbLine
 62
7
  6
CONTINUOUS
 10
15.4781923427
 20
7.9437859409
 11
15.5523263369
 21
7.8378683137
  0
LINE
  5
2B1
100
AcDbEntity
  8
0
100
AcDbLine
 62
7
  6
CONTINUOUS
 10
14.3801923427
 20
8.7671695021
 11
14.4101923427
 21
8.6881695021
  0
LINE
  5
2B2
100
AcDbEntity
  8
0
100
AcDbLine
 62
7
  6
CONTINUOUS
 10
14.1796320909
 20
7.2781130456
 11
14.1796314393
 21
7.0281695021
  0
LINE
  5
2B3
100
AcDbEntity
  8
0
100
AcDbLine
 62
7
  6
CONTINUOUS
 10
14.1966923427
 20
7.0281695021
 11
14.1966923427
 21
6.9661695021
  0
LINE
  5
2B4
100
AcDbEntity
  8
0
100
AcDbLine
 62
7
  6
CONTINUOUS
 10
14.4101923427
 20
9.3594535993
 11
14.4101923427
 21
9.2881695021
  0
LINE
  5
2B5
100
AcDbEntity
  8
0
100
AcDbLine
 62
7
  6
CONTINUOUS
 10
14.4101923427
 20
9.2571695021
 11
14.3801923427
 21
9.1771695021
  0
LINE
  5
2B6
100
AcDbEntity
  8
0
100
AcDbLine
 62
7
  6
CONTINUOUS
 10
15.5211907023
 20
8.8523795484
 11
15.5507772283
 21
8.8113426594
  0
LINE
  5
2B7
100
AcDbEntity
  8
0
100
AcDbLine
 62
7
  6
CONTINUOUS
 10
14.5586611396
 20
7.2781147208
 11
14.558661891
 21
7.0281695021
  0
LINE
  5
2B8
100
AcDbEntity
  8
0
100
AcDbLine
 62
7
  6
CONTINUOUS
 10
14.5941923427
 20
8.6371695021
 11
14.5941923427
 21
8.5282695021
  0
LINE
  5
2B9
100
AcDbEntity
  8
0
100
AcDbLine
 62
7
  6
CONTINUOUS
 10
14.5941923427
 20
8.3380695021
 11
14.5941923427
 21
8.2781695021
  0
LINE
  5
2BA
100
AcDbEntity
  8
0
100
AcDbLine
 62
9
  6
CONTINUOUS
 10
14.6834874549
 20
9.4463112358
 11
14.6834874549
 21
9.4452935984
  0
LINE
  5
2BB
100
AcDbEntity
  8
0
100
AcDbLine
 62
9
  6
CONTINUOUS
 10
14.6945440032
 20
9.4404353586
 11
14.6945440032
 21
9.4394137793
  0
LINE
  5
2BC
100
AcDbEntity
  8
0
100
AcDbLine
 62
9
  6
CONTINUOUS
 10
14.7379372704
 20
9.4403343123
 11
14.7379372704
 21
9.4393126544
  0
LINE
  5
2BD
100
AcDbEntity
  8
0
100
AcDbLine
 62
7
  6
CONTINUOUS
 10
14.7432379779
 20
9.4591362352
 11
14.7432379779
 21
9.4581270968
  0
LINE
  5
2BE
100
AcDbEntity
  8
0
100
AcDbLine
 62
7
  6
CONTINUOUS
 10
14.7592671492
 20
9.4588067609
 11
14.7592671492
 21
9.4598154532
  0
LINE
  5
2BF
100
AcDbEntity
  8
0
100
AcDbLine
 62
9
  6
CONTINUOUS
 10
14.7645392271
 20
9.4595628191
 11
14.7645392271
 21
9.4585539609
  0
LINE
  5
2C0
100
AcDbEntity
  8
0
100
AcDbLine
 62
9
  6
CONTINUOUS
 10
14.7933401787
 20
9.4480299814
 11
14.7933401787
 21
9.4470134913
  0
LINE
  5
2C1
100
AcDbEntity
  8
0
100
AcDbLine
 62
7
  6
CONTINUOUS
 10
14.7989892732
 20
9.4646583602
 11
14.7989892732
 21
9.4656632276
  0
LINE
  5
2C2
100
AcDbEntity
  8
0
100
AcDbLine
 62
9
  6
CONTINUOUS
 10
14.7998572089
 20
9.4654313023
 11
14.7998572089
 21
9.4644262837
  0
LINE
  5
2C3
100
AcDbEntity
  8
0
100
AcDbLine
 62
9
  6
CONTINUOUS
 10
14.8130422298
 20
9.451689026
 11
14.8130422298
 21
9.4527024103
  0
LINE
  5
2C4
100
AcDbEntity
  8
0
100
AcDbLine
 62
7
  6
CONTINUOUS
 10
14.8147995891
 20
9.452429995
 11
14.8147995891
 21
9.4534428888
  0
LINE
  5
2C5
100
AcDbEntity
  8
0
100
AcDbLine
 62
9
  6
CONTINUOUS
 10
14.8315382798
 20
9.4583997415
 11
14.8315382798
 21
9.4594087009
  0
LINE
  5
2C6
100
AcDbEntity
  8
0
100
AcDbLine
 62
7
  6
CONTINUOUS
 10
14.8500111019
 20
9.4600694841
 11
14.8500111019
 21
9.4590609585
  0
LINE
  5
2C7
100
AcDbEntity
  8
0
100
AcDbLine
 62
7
  6
CONTINUOUS
 10
14.3971923427
 20
7.9437859409
 11
14.3230583485
 21
7.8378683137
  0
LINE
  5
2C8
100
AcDbEntity
  8
0
100
AcDbLine
 62
7
  6
CONTINUOUS
 10
15.5211907023
 20
9.0919594558
 11
15.5507772283
 21
9.1329963449
  0
LINE
  5
2C9
100
AcDbEntity
  8
0
100
AcDbLine
 62
7
  6
CONTINUOUS
 10
14.2965289031
 20
7.3946695021
 11
14.179634882
 21
7.2781122069
  0
LINE
  5
2CA
100
AcDbEntity
  8
0
100
AcDbLine
 62
7
  6
CONTINUOUS
 10
15.450926495
 20
9.3790888542
 11
15.4651923427
 21
9.3594535993
  0
LINE
  5
2CB
100
AcDbEntity
  8
0
100
AcDbLine
 62
7
  6
CONTINUOUS
 10
14.8838420869
 20
9.4710811475
 11
14.8838420869
 21
9.4720818498
  0
LINE
  5
2CC
100
AcDbEntity
  8
0
100
AcDbLine
 62
9
  6
CONTINUOUS
 10
14.8926288835
 20
9.4725144916
 11
14.8926288835
 21
9.4715140688
  0
LINE
  5
2CD
100
AcDbEntity
  8
0
100
AcDbLine
 62
7
  6
CONTINUOUS
 10
14.9250745611
 20
9.4691868982
 11
14.9250745611
 21
9.4701888253
  0
LINE
  5
2CE
100
AcDbEntity
  8
0
100
AcDbLine
 62
9
  6
CONTINUOUS
 10
14.9417436087
 20
9.4714019633
 11
14.9417436087
 21
9.4724024585
  0
LINE
  5
2CF
100
AcDbEntity
  8
0
100
AcDbLine
 62
7
  6
CONTINUOUS
 10
14.9772903225
 20
9.4717320376
 11
14.9772903225
 21
9.4707311092
  0
LINE
  5
2D0
100
AcDbEntity
  8
0
100
AcDbLine
 62
7
  6
CONTINUOUS
 10
15.4651923427
 20
9.2571695021
 11
15.4951923427
 21
9.1771695021
  0
LINE
  5
2D1
100
AcDbEntity
  8
0
100
AcDbLine
 62
7
  6
CONTINUOUS
 10
15.2811923427
 20
8.6371695021
 11
15.2811923427
 21
8.2781695021
  0
LINE
  5
2D2
100
AcDbEntity
  8
0
100
AcDbLine
 62
7
  6
CONTINUOUS
 10
15.3167216946
 20
7.2781147209
 11
15.3167227945
 21
7.0281695021
  0
LINE
  5
2D3
100
AcDbEntity
  8
0
100
AcDbLine
 62
7
  6
CONTINUOUS
 10
15.4651923427
 20
9.3594535993
 11
15.4651923427
 21
9.2881695021
  0
LINE
  5
2D4
100
AcDbEntity
  8
0
100
AcDbLine
 62
7
  6
CONTINUOUS
 10
15.4951923427
 20
8.7671695021
 11
15.4651923427
 21
8.6881695021
  0
LINE
  5
2D5
100
AcDbEntity
  8
0
100
AcDbLine
 62
7
  6
CONTINUOUS
 10
15.6786923427
 20
7.0281695021
 11
15.6786923427
 21
6.9661695021
  0
LINE
  5
2D6
100
AcDbEntity
  8
0
100
AcDbLine
 62
7
  6
CONTINUOUS
 10
15.6957524105
 20
7.2781142608
 11
15.6957532462
 21
7.0281695021
  0
ARC
  5
2D7
100
AcDbEntity
  8
0
100
AcDbCircle
 62
7
  6
CONTINUOUS
 10
6.8741725533
 20
3.9409787707
 40
5.5302928343
100
AcDbArc
 50
89.6753570407
 51
89.79208719
  0
ARC
  5
2D8
100
AcDbEntity
  8
0
100
AcDbCircle
 62
7
  6
CONTINUOUS
 10
6.882048116
 20
7.7629396197
 40
1.7083173718
100
AcDbArc
 50
89.9598532938
 51
90.5300874854
  0
ARC
  5
2D9
100
AcDbEntity
  8
0
100
AcDbCircle
 62
7
  6
CONTINUOUS
 10
7.3852172217
 20
7.7209050989
 40
0.2039751211
100
AcDbArc
 50
326.9521644937
 51
34.9889904703
  0
ARC
  5
2DA
100
AcDbEntity
  8
0
100
AcDbCircle
 62
7
  6
CONTINUOUS
 10
6.4901674638
 20
7.7209050989
 40
0.2039751211
100
AcDbArc
 50
145.0110095297
 51
213.0478355063
  0
ARC
  5
2DB
100
AcDbEntity
  8
0
100
AcDbCircle
 62
7
  6
CONTINUOUS
 10
7.9305562316
 20
6.5911695021
 40
0.1871361111
100
AcDbArc
 50
0.0
 51
87.8145949287
  0
ARC
  5
2DC
100
AcDbEntity
  8
0
100
AcDbCircle
 62
7
  6
CONTINUOUS
 10
5.9448284538
 20
6.5911695021
 40
0.1871361111
100
AcDbArc
 50
92.1854050713
 51
180.0
  0
ARC
  5
2DD
100
AcDbEntity
  8
0
100
AcDbCircle
 62
7
  6
CONTINUOUS
 10
6.1246896689
 20
6.7791695021
 40
0.187
100
AcDbArc
 50
90.0
 51
180.3063960032
  0
ARC
  5
2DE
100
AcDbEntity
  8
0
100
AcDbCircle
 62
7
  6
CONTINUOUS
 10
7.7506950166
 20
6.7791695021
 40
0.187
100
AcDbArc
 50
359.6936039968
 51
90.0
  0
ARC
  5
2DF
100
AcDbEntity
  8
0
100
AcDbCircle
 62
7
  6
CONTINUOUS
 10
6.1754178091
 20
7.5161304776
 40
0.1715245336
100
AcDbArc
 50
314.9173576842
 51
33.0478355064
  0
ARC
  5
2E0
100
AcDbEntity
  8
0
100
AcDbCircle
 62
7
  6
CONTINUOUS
 10
7.6999668764
 20
7.5161304776
 40
0.1715245336
100
AcDbArc
 50
146.9521644936
 51
225.0826423158
  0
ARC
  5
2E1
100
AcDbEntity
  8
0
100
AcDbCircle
 62
7
  6
CONTINUOUS
 10
5.8851534407
 20
8.3021728307
 40
0.625
100
AcDbArc
 50
325.0110095299
 51
355.1903004544
  0
ARC
  5
2E2
100
AcDbEntity
  8
0
100
AcDbCircle
 62
7
  6
CONTINUOUS
 10
6.1928051624
 20
8.4330885426
 40
0.4119511638
100
AcDbArc
 50
358.6952488659
 51
359.1963284451
  0
ARC
  5
2E3
100
AcDbEntity
  8
0
100
AcDbCircle
 62
7
  6
CONTINUOUS
 10
6.5388434542
 20
8.2471695021
 40
0.031
100
AcDbArc
 50
90.0
 51
175.1903004544
  0
ARC
  5
2E4
100
AcDbEntity
  8
0
100
AcDbCircle
 62
7
  6
CONTINUOUS
 10
5.4575534538
 20
8.9721695021
 40
0.9451388889
100
AcDbArc
 50
347.4730187713
 51
350.6558033148
  0
ARC
  5
2E5
100
AcDbEntity
  8
0
100
AcDbCircle
 62
7
  6
CONTINUOUS
 10
5.4575534538
 20
8.9721695021
 40
0.9451388889
100
AcDbArc
 50
9.3556020554
 51
12.5269812287
  0
ARC
  5
2E6
100
AcDbEntity
  8
0
100
AcDbCircle
 62
9
  6
CONTINUOUS
 10
6.4391848945
 20
8.9721695137
 40
0.2771787999
100
AcDbArc
 50
359.9999976148
 51
0.4371261493
  0
ARC
  5
2E7
100
AcDbEntity
  8
0
100
AcDbCircle
 62
7
  6
CONTINUOUS
 10
6.101538523
 20
8.9721696676
 40
0.274999648
100
AcDbArc
 50
35.7908158831
 51
324.2093585125
  0
ARC
  5
2E8
100
AcDbEntity
  8
0
100
AcDbCircle
 62
7
  6
CONTINUOUS
 10
6.1016022786
 20
8.9720917857
 40
0.2748998998
100
AcDbArc
 50
301.1007651309
 51
309.179655838
  0
ARC
  5
2E9
100
AcDbEntity
  8
0
100
AcDbCircle
 62
7
  6
CONTINUOUS
 10
6.1016474806
 20
8.9717227489
 40
0.2745405756
100
AcDbArc
 50
278.4219260668
 51
284.5802980757
  0
ARC
  5
2EA
100
AcDbEntity
  8
0
100
AcDbCircle
 62
7
  6
CONTINUOUS
 10
6.1726165893
 20
8.9721710161
 40
0.2688945999
100
AcDbArc
 50
359.374924188
 51
359.8019916726
  0
ARC
  5
2EB
100
AcDbEntity
  8
0
100
AcDbCircle
 62
7
  6
CONTINUOUS
 10
6.1729714676
 20
8.9721695717
 40
0.2685397187
100
AcDbArc
 50
359.8020381703
 51
0.1976970707
  0
ARC
  5
2EC
100
AcDbEntity
  8
0
100
AcDbCircle
 62
7
  6
CONTINUOUS
 10
6.7010933289
 20
8.9140250932
 40
0.2538476737
100
AcDbArc
 50
192.8299654523
 51
194.7600150261
  0
ARC
  5
2ED
100
AcDbEntity
  8
0
100
AcDbCircle
 62
7
  6
CONTINUOUS
 10
6.6968873709
 20
9.0313430714
 40
0.2495183302
100
AcDbArc
 50
165.2907651309
 51
167.2679505901
  0
ARC
  5
2EE
100
AcDbEntity
  8
0
100
AcDbCircle
 62
9
  6
CONTINUOUS
 10
6.4777725154
 20
8.9844041813
 40
0.214563066
100
AcDbArc
 50
22.3892397606
 51
23.3578258888
  0
ARC
  5
2EF
100
AcDbEntity
  8
0
100
AcDbCircle
 62
9
  6
CONTINUOUS
 10
6.4846264357
 20
8.9569012116
 40
0.2070675029
100
AcDbArc
 50
334.6685454741
 51
335.658028371
  0
ARC
  5
2F0
100
AcDbEntity
  8
0
100
AcDbCircle
 62
7
  6
CONTINUOUS
 10
6.6329891963
 20
8.9518615252
 40
0.1991102837
100
AcDbArc
 50
208.8646198993
 51
210.5672902731
  0
ARC
  5
2F1
100
AcDbEntity
  8
0
100
AcDbCircle
 62
7
  6
CONTINUOUS
 10
6.6323653342
 20
8.9928341444
 40
0.1983917697
100
AcDbArc
 50
149.5624886694
 51
151.117248872
  0
ARC
  5
2F2
100
AcDbEntity
  8
0
100
AcDbCircle
 62
7
  6
CONTINUOUS
 10
6.2398786012
 20
8.94892819
 40
0.1972172891
100
AcDbArc
 50
329.6562519021
 51
330.133263969
  0
ARC
  5
2F3
100
AcDbEntity
  8
0
100
AcDbCircle
 62
7
  6
CONTINUOUS
 10
6.2400512222
 20
8.9955094523
 40
0.197018498
100
AcDbArc
 50
29.9861634922
 51
30.3183657639
  0
ARC
  5
2F4
100
AcDbEntity
  8
0
100
AcDbCircle
 62
7
  6
CONTINUOUS
 10
6.6296838973
 20
8.9944052431
 40
0.1952839666
100
AcDbArc
 50
148.9408334447
 51
149.5613625672
  0
ARC
  5
2F5
100
AcDbEntity
  8
0
100
AcDbCircle
 62
7
  6
CONTINUOUS
 10
6.6293939118
 20
8.9497598169
 40
0.1949458042
100
AcDbArc
 50
210.5727988367
 51
211.1487014927
  0
ARC
  5
2F6
100
AcDbEntity
  8
0
100
AcDbCircle
 62
7
  6
CONTINUOUS
 10
6.5222468678
 20
8.9874655645
 40
0.1928747381
100
AcDbArc
 50
64.1113942131
 51
67.7333524918
  0
ARC
  5
2F7
100
AcDbEntity
  8
0
100
AcDbCircle
 62
9
  6
CONTINUOUS
 10
6.6247212958
 20
8.9950590032
 40
0.1903677128
100
AcDbArc
 50
150.5827033486
 51
150.7506874651
  0
ARC
  5
2F8
100
AcDbEntity
  8
0
100
AcDbCircle
 62
9
  6
CONTINUOUS
 10
6.6241083428
 20
8.9489282388
 40
0.1896609653
100
AcDbArc
 50
209.2871567068
 51
209.8442364857
  0
ARC
  5
2F9
100
AcDbEntity
  8
0
100
AcDbCircle
 62
9
  6
CONTINUOUS
 10
6.6236192184
 20
8.9956822027
 40
0.1891016363
100
AcDbArc
 50
149.959683093
 51
150.583171124
  0
ARC
  5
2FA
100
AcDbEntity
  8
0
100
AcDbCircle
 62
7
  6
CONTINUOUS
 10
6.5243774119
 20
8.9519765524
 40
0.1875358387
100
AcDbArc
 50
292.279171087
 51
294.6361893122
  0
ARC
  5
2FB
100
AcDbEntity
  8
0
100
AcDbCircle
 62
9
  6
CONTINUOUS
 10
6.6213961788
 20
8.9473674513
 40
0.1865317684
100
AcDbArc
 50
209.8429750867
 51
211.473778929
  0
ARC
  5
2FC
100
AcDbEntity
  8
0
100
AcDbCircle
 62
9
  6
CONTINUOUS
 10
6.620828655
 20
8.9973066197
 40
0.185872722
100
AcDbArc
 50
148.6798124432
 51
149.9625290659
  0
ARC
  5
2FD
100
AcDbEntity
  8
0
100
AcDbCircle
 62
9
  6
CONTINUOUS
 10
6.5940096762
 20
9.0168507128
 40
0.1526413942
100
AcDbArc
 50
138.3566126732
 51
138.8535106633
  0
ARC
  5
2FE
100
AcDbEntity
  8
0
100
AcDbCircle
 62
7
  6
CONTINUOUS
 10
6.6018766597
 20
8.886255468
 40
0.1200346684
100
AcDbArc
 50
243.0165503864
 51
244.0315083969
  0
ARC
  5
2FF
100
AcDbEntity
  8
0
100
AcDbCircle
 62
7
  6
CONTINUOUS
 10
6.601856484
 20
9.0581249978
 40
0.1199885208
100
AcDbArc
 50
115.9521279671
 51
116.9310668876
  0
ARC
  5
300
100
AcDbEntity
  8
0
100
AcDbCircle
 62
9
  6
CONTINUOUS
 10
6.5777327339
 20
8.8749179791
 40
0.0987484729
100
AcDbArc
 50
270.0220665731
 51
280.4339500183
  0
ARC
  5
301
100
AcDbEntity
  8
0
100
AcDbCircle
 62
9
  6
CONTINUOUS
 10
6.5777538388
 20
9.0697280537
 40
0.0984414385
100
AcDbArc
 50
80.6117744017
 51
89.9901482889
  0
ARC
  5
302
100
AcDbEntity
  8
0
100
AcDbCircle
 62
7
  6
CONTINUOUS
 10
6.5501923427
 20
9.3929692704
 40
0.03
100
AcDbArc
 50
104.7629977427
 51
169.8854427722
  0
ARC
  5
303
100
AcDbEntity
  8
0
100
AcDbCircle
 62
7
  6
CONTINUOUS
 10
6.9376923097
 20
7.9224958884
 40
1.5506736151
100
AcDbArc
 50
75.2370031606
 51
86.8742823349
  0
ARC
  5
304
100
AcDbEntity
  8
0
100
AcDbCircle
 62
7
  6
CONTINUOUS
 10
6.9376923427
 20
7.9224961101
 40
1.550673392
100
AcDbArc
 50
90.0
 51
91.1645806271
  0
ARC
  5
305
100
AcDbEntity
  8
0
100
AcDbCircle
 62
7
  6
CONTINUOUS
 10
6.9376923427
 20
7.9224961101
 40
1.550673392
100
AcDbArc
 50
93.031285079
 51
104.7629977426
  0
ARC
  5
306
100
AcDbEntity
  8
0
100
AcDbCircle
 62
7
  6
CONTINUOUS
 10
6.9376923427
 20
7.9224961101
 40
1.5469201945
100
AcDbArc
 50
90.7206364945
 51
91.165161166
  0
ARC
  5
307
100
AcDbEntity
  8
0
100
AcDbCircle
 62
7
  6
CONTINUOUS
 10
6.9376923427
 20
7.9224961101
 40
1.5459177667
100
AcDbArc
 50
90.7211038054
 51
91.165916802
  0
ARC
  5
308
100
AcDbEntity
  8
0
100
AcDbCircle
 62
7
  6
CONTINUOUS
 10
6.9083362859
 20
8.2942224411
 40
1.1773966346
100
AcDbArc
 50
89.5853761874
 51
89.9925765996
  0
ARC
  5
309
100
AcDbEntity
  8
0
100
AcDbCircle
 62
7
  6
CONTINUOUS
 10
7.3365412312
 20
8.2471695021
 40
0.031
100
AcDbArc
 50
4.8096995456
 51
90.0
  0
ARC
  5
30A
100
AcDbEntity
  8
0
100
AcDbCircle
 62
7
  6
CONTINUOUS
 10
6.9084885042
 20
8.480176643
 40
0.9924427779
100
AcDbArc
 50
89.9999810361
 51
90.1340319918
  0
ARC
  5
30B
100
AcDbEntity
  8
0
100
AcDbCircle
 62
7
  6
CONTINUOUS
 10
6.9084876203
 20
8.481252357
 40
0.9903667088
100
AcDbArc
 50
89.9999298584
 51
90.1346444959
  0
ARC
  5
30C
100
AcDbEntity
  8
0
100
AcDbCircle
 62
7
  6
CONTINUOUS
 10
6.9077509864
 20
8.6142535832
 40
0.8573642237
100
AcDbArc
 50
90.1063041151
 51
90.8859030603
  0
ARC
  5
30D
100
AcDbEntity
  8
0
100
AcDbCircle
 62
7
  6
CONTINUOUS
 10
7.0013631008
 20
8.6680747128
 40
0.8031746371
100
AcDbArc
 50
102.4312256071
 51
103.0274932074
  0
ARC
  5
30E
100
AcDbEntity
  8
0
100
AcDbCircle
 62
7
  6
CONTINUOUS
 10
7.0005883135
 20
8.6716048612
 40
0.7995604661
100
AcDbArc
 50
101.0778811613
 51
102.4314623676
  0
ARC
  5
30F
100
AcDbEntity
  8
0
100
AcDbCircle
 62
7
  6
CONTINUOUS
 10
6.9872126961
 20
8.6750993071
 40
0.7958607984
100
AcDbArc
 50
100.6517619638
 51
101.5437997828
  0
ARC
  5
310
100
AcDbEntity
  8
0
100
AcDbCircle
 62
7
  6
CONTINUOUS
 10
6.9870132958
 20
8.6766154724
 40
0.7953262356
100
AcDbArc
 50
100.1985675802
 51
101.537004033
  0
ARC
  5
311
100
AcDbEntity
  8
0
100
AcDbCircle
 62
7
  6
CONTINUOUS
 10
6.9867856346
 20
8.6773634504
 40
0.7935567314
100
AcDbArc
 50
100.2048507612
 51
100.6516753096
  0
ARC
  5
312
100
AcDbEntity
  8
0
100
AcDbCircle
 62
7
  6
CONTINUOUS
 10
6.8798761646
 20
8.677741388
 40
0.7932514996
100
AcDbArc
 50
99.7885937467
 51
101.0094116918
  0
ARC
  5
313
100
AcDbEntity
  8
0
100
AcDbCircle
 62
7
  6
CONTINUOUS
 10
6.8799593238
 20
8.6767985817
 40
0.7932004642
100
AcDbArc
 50
99.7823961764
 51
100.3492608854
  0
ARC
  5
314
100
AcDbEntity
  8
0
100
AcDbCircle
 62
7
  6
CONTINUOUS
 10
6.9993609955
 20
8.6778513676
 40
0.7931945198
100
AcDbArc
 50
99.239160427
 51
101.0183640844
  0
ARC
  5
315
100
AcDbEntity
  8
0
100
AcDbCircle
 62
7
  6
CONTINUOUS
 10
6.9986305367
 20
8.6821829389
 40
0.7888018641
100
AcDbArc
 50
98.9307834347
 51
99.2373065027
  0
ARC
  5
316
100
AcDbEntity
  8
0
100
AcDbCircle
 62
7
  6
CONTINUOUS
 10
6.9982682716
 20
8.6845118414
 40
0.7864449573
100
AcDbArc
 50
97.6192716251
 51
98.9310506881
  0
ARC
  5
317
100
AcDbEntity
  8
0
100
AcDbCircle
 62
7
  6
CONTINUOUS
 10
6.8787117317
 20
8.6847779023
 40
0.7861193555
100
AcDbArc
 50
97.2130267842
 51
99.6675517172
  0
ARC
  5
318
100
AcDbEntity
  8
0
100
AcDbCircle
 62
7
  6
CONTINUOUS
 10
6.8785497588
 20
8.6851429838
 40
0.7847378799
100
AcDbArc
 50
97.2138719143
 51
99.7536987715
  0
ARC
  5
319
100
AcDbEntity
  8
0
100
AcDbCircle
 62
7
  6
CONTINUOUS
 10
6.9852145068
 20
8.6878335321
 40
0.7839633886
100
AcDbArc
 50
96.6714799916
 51
98.0159920178
  0
ARC
  5
31A
100
AcDbEntity
  8
0
100
AcDbCircle
 62
7
  6
CONTINUOUS
 10
6.9852189502
 20
8.6873004843
 40
0.7834958162
100
AcDbArc
 50
96.6758066409
 51
98.0211354121
  0
ARC
  5
31B
100
AcDbEntity
  8
0
100
AcDbCircle
 62
7
  6
CONTINUOUS
 10
6.9978250252
 20
8.6877466135
 40
0.7831799744
100
AcDbArc
 50
96.6862427947
 51
97.5879100633
  0
ARC
  5
31C
100
AcDbEntity
  8
0
100
AcDbCircle
 62
7
  6
CONTINUOUS
 10
6.997606922
 20
8.6895935981
 40
0.7813201575
100
AcDbArc
 50
95.8182351977
 51
96.6861275773
  0
ARC
  5
31D
100
AcDbEntity
  8
0
100
AcDbCircle
 62
7
  6
CONTINUOUS
 10
6.9974655611
 20
8.6909698477
 40
0.7799366676
100
AcDbArc
 50
95.1772914594
 51
95.8181530496
  0
ARC
  5
31E
100
AcDbEntity
  8
0
100
AcDbCircle
 62
7
  6
CONTINUOUS
 10
6.8402686886
 20
8.6915730087
 40
0.7754480772
100
AcDbArc
 50
94.0362732029
 51
94.4277004282
  0
ARC
  5
31F
100
AcDbEntity
  8
0
100
AcDbCircle
 62
7
  6
CONTINUOUS
 10
6.8402314304
 20
8.6921065116
 40
0.774913275
100
AcDbArc
 50
93.6171022599
 51
94.0363017789
  0
ARC
  5
320
100
AcDbEntity
  8
0
100
AcDbCircle
 62
7
  6
CONTINUOUS
 10
6.840254551
 20
8.6912534589
 40
0.7747630991
100
AcDbArc
 50
93.6212591154
 51
94.0405400016
  0
ARC
  5
321
100
AcDbEntity
  8
0
100
AcDbCircle
 62
7
  6
CONTINUOUS
 10
6.8401790173
 20
8.692934851
 40
0.774083279
100
AcDbArc
 50
93.1992905786
 51
93.6170985565
  0
ARC
  5
322
100
AcDbEntity
  8
0
100
AcDbCircle
 62
7
  6
CONTINUOUS
 10
6.8401813268
 20
8.6922473293
 40
0.7737665394
100
AcDbArc
 50
94.0403169877
 51
94.4253528536
  0
ARC
  5
323
100
AcDbEntity
  8
0
100
AcDbCircle
 62
7
  6
CONTINUOUS
 10
6.8401824789
 20
8.6923808345
 40
0.7736334222
100
AcDbArc
 50
93.3037749319
 51
93.6212056323
  0
ARC
  5
324
100
AcDbEntity
  8
0
100
AcDbCircle
 62
7
  6
CONTINUOUS
 10
6.8269976331
 20
8.6927055898
 40
0.7725468691
100
AcDbArc
 50
86.6866260337
 51
88.5652677588
  0
ARC
  5
325
100
AcDbEntity
  8
0
100
AcDbCircle
 62
7
  6
CONTINUOUS
 10
6.8269966968
 20
8.6921875366
 40
0.7720598148
100
AcDbArc
 50
86.6844638552
 51
88.4986829378
  0
ARC
  5
326
100
AcDbEntity
  8
0
100
AcDbCircle
 62
7
  6
CONTINUOUS
 10
6.8270260961
 20
8.6936039871
 40
0.7716480407
100
AcDbArc
 50
88.5657102803
 51
88.8934529222
  0
ARC
  5
327
100
AcDbEntity
  8
0
100
AcDbCircle
 62
7
  6
CONTINUOUS
 10
6.8270296254
 20
8.6937903686
 40
0.7714616259
100
AcDbArc
 50
88.8934476755
 51
89.9999624151
  0
ARC
  5
328
100
AcDbEntity
  8
0
100
AcDbCircle
 62
7
  6
CONTINUOUS
 10
6.7886525007
 20
8.6874104758
 40
0.771341038
100
AcDbArc
 50
94.0597562072
 51
94.4810034311
  0
ARC
  5
329
100
AcDbEntity
  8
0
100
AcDbCircle
 62
7
  6
CONTINUOUS
 10
6.8270260738
 20
8.6930912283
 40
0.7711556636
100
AcDbArc
 50
88.566957721
 51
88.8943266405
  0
ARC
  5
32A
100
AcDbEntity
  8
0
100
AcDbCircle
 62
7
  6
CONTINUOUS
 10
6.8270295881
 20
8.6932794666
 40
0.7709673925
100
AcDbArc
 50
88.8943178243
 51
89.9999596192
  0
ARC
  5
32B
100
AcDbEntity
  8
0
100
AcDbCircle
 62
7
  6
CONTINUOUS
 10
6.8015301712
 20
8.6904523435
 40
0.7707231051
100
AcDbArc
 50
86.6779116809
 51
87.7832129822
  0
ARC
  5
32C
100
AcDbEntity
  8
0
100
AcDbCircle
 62
7
  6
CONTINUOUS
 10
6.7885918009
 20
8.6882799882
 40
0.7704694101
100
AcDbArc
 50
93.2166645412
 51
94.0598314094
  0
ARC
  5
32D
100
AcDbEntity
  8
0
100
AcDbCircle
 62
7
  6
CONTINUOUS
 10
6.8015544981
 20
8.6910372793
 40
0.770137666
100
AcDbArc
 50
87.7833381969
 51
88.0256155665
  0
ARC
  5
32E
100
AcDbEntity
  8
0
100
AcDbCircle
 62
7
  6
CONTINUOUS
 10
6.8015716988
 20
8.6915761419
 40
0.7695985308
100
AcDbArc
 50
88.025513215
 51
89.9998072841
  0
ARC
  5
32F
100
AcDbEntity
  8
0
100
AcDbCircle
 62
7
  6
CONTINUOUS
 10
7.9902312448
 20
8.3021728307
 40
0.625
100
AcDbArc
 50
184.8096995456
 51
214.9889904701
  0
ARC
  5
330
100
AcDbEntity
  8
0
100
AcDbCircle
 62
7
  6
CONTINUOUS
 10
6.9021393403
 20
8.9661438517
 40
0.505429283
100
AcDbArc
 50
90.8665987567
 51
91.3865972819
  0
ARC
  5
331
100
AcDbEntity
  8
0
100
AcDbCircle
 62
7
  6
CONTINUOUS
 10
7.1707957513
 20
9.0294898338
 40
0.2574390281
100
AcDbArc
 50
12.7789197501
 51
14.3559253182
  0
ARC
  5
332
100
AcDbEntity
  8
0
100
AcDbCircle
 62
7
  6
CONTINUOUS
 10
7.1792090005
 20
8.9128282877
 40
0.2487873234
100
AcDbArc
 50
345.184584649
 51
347.3146238
  0
ARC
  5
333
100
AcDbEntity
  8
0
100
AcDbCircle
 62
7
  6
CONTINUOUS
 10
7.2418292518
 20
8.9921567676
 40
0.1997611212
100
AcDbArc
 50
28.9154579095
 51
30.0687197489
  0
ARC
  5
334
100
AcDbEntity
  8
0
100
AcDbCircle
 62
7
  6
CONTINUOUS
 10
7.2432356005
 20
8.951388378
 40
0.1981463666
100
AcDbArc
 50
329.4444265746
 51
331.1250438294
  0
ARC
  5
335
100
AcDbEntity
  8
0
100
AcDbCircle
 62
7
  6
CONTINUOUS
 10
7.2455938204
 20
8.9500033688
 40
0.195411515
100
AcDbArc
 50
329.1451647146
 51
329.4426158911
  0
ARC
  5
336
100
AcDbEntity
  8
0
100
AcDbCircle
 62
9
  6
CONTINUOUS
 10
7.2500588281
 20
8.9496278645
 40
0.1910651794
100
AcDbArc
 50
330.7109546719
 51
330.9685628887
  0
ARC
  5
337
100
AcDbEntity
  8
0
100
AcDbCircle
 62
9
  6
CONTINUOUS
 10
7.250839808
 20
8.9951571333
 40
0.1901658362
100
AcDbArc
 50
29.2760183406
 51
29.5732018511
  0
ARC
  5
338
100
AcDbEntity
  8
0
100
AcDbCircle
 62
9
  6
CONTINUOUS
 10
7.2527582139
 20
8.9962494294
 40
0.1879582624
100
AcDbArc
 50
29.5722271575
 51
30.8653244968
  0
ARC
  5
339
100
AcDbEntity
  8
0
100
AcDbCircle
 62
9
  6
CONTINUOUS
 10
7.2538138209
 20
8.9474850524
 40
0.1867419196
100
AcDbArc
 50
328.5229021392
 51
330.7207358979
  0
ARC
  5
33A
100
AcDbEntity
  8
0
100
AcDbCircle
 62
7
  6
CONTINUOUS
 10
7.2735115187
 20
9.0580905955
 40
0.1200267919
100
AcDbArc
 50
63.0277355732
 51
64.0315465708
  0
ARC
  5
33B
100
AcDbEntity
  8
0
100
AcDbCircle
 62
7
  6
CONTINUOUS
 10
7.2735227947
 20
8.8862249631
 40
0.1200007377
100
AcDbArc
 50
295.9521295784
 51
296.948227977
  0
ARC
  5
33C
100
AcDbEntity
  8
0
100
AcDbCircle
 62
7
  6
CONTINUOUS
 10
6.8820686769
 20
9.239622379
 40
0.2325019182
100
AcDbArc
 50
78.8358701821
 51
81.0507682382
  0
ARC
  5
33D
100
AcDbEntity
  8
0
100
AcDbCircle
 62
7
  6
CONTINUOUS
 10
6.8821396494
 20
9.239202481
 40
0.2319154607
100
AcDbArc
 50
79.6623937724
 51
80.3069447217
  0
ARC
  5
33E
100
AcDbEntity
  8
0
100
AcDbCircle
 62
7
  6
CONTINUOUS
 10
6.8823445031
 20
9.2404031797
 40
0.2306974121
100
AcDbArc
 50
80.3068870263
 51
81.0495409413
  0
ARC
  5
33F
100
AcDbEntity
  8
0
100
AcDbCircle
 62
7
  6
CONTINUOUS
 10
6.8008248974
 20
9.5822038553
 40
0.1183232579
100
AcDbArc
 50
269.7685547107
 51
270.2602619911
  0
ARC
  5
340
100
AcDbEntity
  8
0
100
AcDbCircle
 62
7
  6
CONTINUOUS
 10
7.7763594559
 20
9.2187569944
 40
2.7892914415
100
AcDbArc
 50
38.8808295249
 51
41.2856606117
  0
ARC
  5
341
100
AcDbEntity
  8
0
100
AcDbCircle
 62
7
  6
CONTINUOUS
 10
7.7738456478
 20
8.9721700836
 40
0.2749995817
100
AcDbArc
 50
215.7921391981
 51
144.2078711207
  0
ARC
  5
342
100
AcDbEntity
  8
0
100
AcDbCircle
 62
7
  6
CONTINUOUS
 10
7.7737989936
 20
8.9717212917
 40
0.2745492958
100
AcDbArc
 50
261.5652658194
 51
266.9221292349
  0
ARC
  5
343
100
AcDbEntity
  8
0
100
AcDbCircle
 62
7
  6
CONTINUOUS
 10
7.7736478916
 20
8.9715126281
 40
0.2743139373
100
AcDbArc
 50
250.4375996743
 51
255.4267230042
  0
ARC
  5
344
100
AcDbEntity
  8
0
100
AcDbCircle
 62
7
  6
CONTINUOUS
 10
7.7734024049
 20
8.9716390439
 40
0.274308871
100
AcDbArc
 50
227.3380177801
 51
230.8221229849
  0
ARC
  5
345
100
AcDbEntity
  8
0
100
AcDbCircle
 62
9
  6
CONTINUOUS
 10
7.4419800853
 20
8.9723007956
 40
0.260698454
100
AcDbArc
 50
171.1104911905
 51
180.2501859325
  0
ARC
  5
346
100
AcDbEntity
  8
0
100
AcDbCircle
 62
9
  6
CONTINUOUS
 10
7.4334736932
 20
8.973542378
 40
0.2521023934
100
AcDbArc
 50
169.2606920891
 51
171.090532264
  0
ARC
  5
347
100
AcDbEntity
  8
0
100
AcDbCircle
 62
9
  6
CONTINUOUS
 10
7.4297291514
 20
8.9742677573
 40
0.2482882694
100
AcDbArc
 50
167.2585521247
 51
169.2641336674
  0
ARC
  5
348
100
AcDbEntity
  8
0
100
AcDbCircle
 62
7
  6
CONTINUOUS
 10
7.6362630911
 20
8.9493723971
 40
0.1980949905
100
AcDbArc
 50
209.4916209136
 51
210.4309231553
  0
ARC
  5
349
100
AcDbEntity
  8
0
100
AcDbCircle
 62
7
  6
CONTINUOUS
 10
7.3531390684
 20
8.9568762966
 40
0.1928778543
100
AcDbArc
 50
244.110278828
 51
247.7334337881
  0
ARC
  5
34A
100
AcDbEntity
  8
0
100
AcDbCircle
 62
7
  6
CONTINUOUS
 10
7.3510076438
 20
8.9923615653
 40
0.1875367982
100
AcDbArc
 50
112.2790916537
 51
114.6366906135
  0
ARC
  5
34B
100
AcDbEntity
  8
0
100
AcDbCircle
 62
7
  6
CONTINUOUS
 10
7.5771509255
 20
8.8817611503
 40
0.1055916481
100
AcDbArc
 50
270.0009736288
 51
272.1462368701
  0
ARC
  5
34C
100
AcDbEntity
  8
0
100
AcDbCircle
 62
7
  6
CONTINUOUS
 10
7.5771508664
 20
9.0625809709
 40
0.1055885312
100
AcDbArc
 50
87.831247317
 51
89.9989942454
  0
ARC
  5
34D
100
AcDbEntity
  8
0
100
AcDbCircle
 62
9
  6
CONTINUOUS
 10
7.297703207
 20
9.0690393158
 40
0.0991314437
100
AcDbArc
 50
90.9158930956
 51
100.2734589893
  0
ARC
  5
34E
100
AcDbEntity
  8
0
100
AcDbCircle
 62
9
  6
CONTINUOUS
 10
7.2976346162
 20
8.8745500788
 40
0.0983805789
100
AcDbArc
 50
260.4282523766
 51
269.9879468189
  0
ARC
  5
34F
100
AcDbEntity
  8
0
100
AcDbCircle
 62
7
  6
CONTINUOUS
 10
7.2976138875
 20
8.874176632
 40
0.0980071298
100
AcDbArc
 50
270.0000190796
 51
270.8742157274
  0
ARC
  5
350
100
AcDbEntity
  8
0
100
AcDbCircle
 62
9
  6
CONTINUOUS
 10
7.2976139528
 20
9.0701623723
 40
0.0980071298
100
AcDbArc
 50
90.0000190797
 51
90.8742157273
  0
ARC
  5
351
100
AcDbEntity
  8
0
100
AcDbCircle
 62
9
  6
CONTINUOUS
 10
7.3132833991
 20
8.8788373249
 40
0.0933457587
100
AcDbArc
 50
270.0000190811
 51
270.8742157287
  0
ARC
  5
352
100
AcDbEntity
  8
0
100
AcDbCircle
 62
9
  6
CONTINUOUS
 10
7.3132834613
 20
9.0655016794
 40
0.0933457587
100
AcDbArc
 50
90.0000190782
 51
90.874215726
  0
ARC
  5
353
100
AcDbEntity
  8
0
100
AcDbCircle
 62
7
  6
CONTINUOUS
 10
7.3251923427
 20
9.3929692704
 40
0.03
100
AcDbArc
 50
10.1145572278
 51
75.2370022573
  0
ARC
  5
354
100
AcDbEntity
  8
0
100
AcDbCircle
 62
7
  6
CONTINUOUS
 10
10.6136723347
 20
6.9616374993
 40
1.3
100
AcDbArc
 50
357.7751307225
 51
37.4382101819
  0
ARC
  5
355
100
AcDbEntity
  8
0
100
AcDbCircle
 62
7
  6
CONTINUOUS
 10
10.9300971844
 20
6.7011983458
 40
1.0
100
AcDbArc
 50
90.0
 51
124.9180935012
  0
ARC
  5
356
100
AcDbEntity
  8
0
100
AcDbCircle
 62
7
  6
CONTINUOUS
 10
9.6871164602
 20
6.6552945249
 40
0.938
100
AcDbArc
 50
32.7915972718
 51
44.3650233311
  0
ARC
  5
357
100
AcDbEntity
  8
0
100
AcDbCircle
 62
7
  6
CONTINUOUS
 10
10.8464719365
 20
6.4082744624
 40
0.9
100
AcDbArc
 50
11.7251268757
 51
49.3560828237
  0
ARC
  5
358
100
AcDbEntity
  8
0
100
AcDbCircle
 62
7
  6
CONTINUOUS
 10
10.8751923427
 20
7.1711695021
 40
0.4
100
AcDbArc
 50
155.7790568907
 51
180.0
  0
ARC
  5
359
100
AcDbEntity
  8
0
100
AcDbCircle
 62
7
  6
CONTINUOUS
 10
10.0112172848
 20
6.8401369698
 40
0.0860249421
100
AcDbArc
 50
124.338423378
 51
180.0
  0
ARC
  5
35A
100
AcDbEntity
  8
0
100
AcDbCircle
 62
7
  6
CONTINUOUS
 10
10.5195239579
 20
7.3311695021
 40
0.01
100
AcDbArc
 50
90.0
 51
155.7790568908
  0
ARC
  5
35B
100
AcDbEntity
  8
0
100
AcDbCircle
 62
7
  6
CONTINUOUS
 10
8.4178312316
 20
8.9721695021
 40
0.9451388889
100
AcDbArc
 50
189.3454314595
 51
192.5269812287
  0
ARC
  5
35C
100
AcDbEntity
  8
0
100
AcDbCircle
 62
7
  6
CONTINUOUS
 10
8.4178312316
 20
8.9721695021
 40
0.9451388889
100
AcDbArc
 50
167.4730187713
 51
170.6448301548
  0
ARC
  5
35D
100
AcDbEntity
  8
0
100
AcDbCircle
 62
7
  6
CONTINUOUS
 10
10.0309977979
 20
7.9038910159
 40
0.25
100
AcDbArc
 50
322.5617898181
 51
357.849587733
  0
ARC
  5
35E
100
AcDbEntity
  8
0
100
AcDbCircle
 62
7
  6
CONTINUOUS
 10
10.0101923427
 20
11.6691695021
 40
0.15
100
AcDbArc
 50
90.0
 51
114.6243183522
  0
ARC
  5
35F
100
AcDbEntity
  8
0
100
AcDbCircle
 62
7
  6
CONTINUOUS
 10
10.3276923427
 20
10.1340026499
 40
0.15
100
AcDbArc
 50
180.0
 51
209.9264348665
  0
ARC
  5
360
100
AcDbEntity
  8
0
100
AcDbCircle
 62
7
  6
CONTINUOUS
 10
10.0776923427
 20
10.693430271
 40
0.1
100
AcDbArc
 50
0.0
 51
44.3312080467
  0
ARC
  5
361
100
AcDbEntity
  8
0
100
AcDbCircle
 62
7
  6
CONTINUOUS
 10
10.0328456949
 20
11.8493228543
 40
0.0301533521
100
AcDbArc
 50
98.1789688981
 51
270.0
  0
ARC
  5
362
100
AcDbEntity
  8
0
100
AcDbCircle
 62
7
  6
CONTINUOUS
 10
6.9875743568
 20
21.1175015974
 40
11.646608738
100
AcDbArc
 50
269.7571114273
 51
269.9657763256
  0
ARC
  5
363
100
AcDbEntity
  8
0
100
AcDbCircle
 62
7
  6
CONTINUOUS
 10
10.9376923427
 20
5.553753703
 40
6.3904157991
100
AcDbArc
 50
81.821031102
 51
98.178968898
  0
ARC
  5
364
100
AcDbEntity
  8
0
100
AcDbCircle
 62
7
  6
CONTINUOUS
 10
11.2617123508
 20
6.9616374993
 40
1.3
100
AcDbArc
 50
142.5617898182
 51
182.2248692774
  0
ARC
  5
365
100
AcDbEntity
  8
0
100
AcDbCircle
 62
7
  6
CONTINUOUS
 10
10.9452875011
 20
6.7011983458
 40
1.0
100
AcDbArc
 50
55.0819064988
 51
90.0
  0
ARC
  5
366
100
AcDbEntity
  8
0
100
AcDbCircle
 62
7
  6
CONTINUOUS
 10
12.1882682253
 20
6.6552945249
 40
0.938
100
AcDbArc
 50
135.6349766689
 51
147.2084027282
  0
ARC
  5
367
100
AcDbEntity
  8
0
100
AcDbCircle
 62
7
  6
CONTINUOUS
 10
11.028912749
 20
6.4082744624
 40
0.9
100
AcDbArc
 50
130.6439171763
 51
168.2748731243
  0
ARC
  5
368
100
AcDbEntity
  8
0
100
AcDbCircle
 62
7
  6
CONTINUOUS
 10
11.0001923427
 20
7.1711695021
 40
0.4
100
AcDbArc
 50
0.0
 51
24.2209431093
  0
ARC
  5
369
100
AcDbEntity
  8
0
100
AcDbCircle
 62
7
  6
CONTINUOUS
 10
11.8443868875
 20
7.9038910159
 40
0.25
100
AcDbArc
 50
182.150412267
 51
217.4382101819
  0
ARC
  5
36A
100
AcDbEntity
  8
0
100
AcDbCircle
 62
7
  6
CONTINUOUS
 10
11.8641674007
 20
6.8401369698
 40
0.0860249421
100
AcDbArc
 50
0.0
 51
55.661576622
  0
ARC
  5
36B
100
AcDbEntity
  8
0
100
AcDbCircle
 62
7
  6
CONTINUOUS
 10
11.3558607276
 20
7.3311695021
 40
0.01
100
AcDbArc
 50
24.2209431092
 51
90.0
  0
ARC
  5
36C
100
AcDbEntity
  8
0
100
AcDbCircle
 62
7
  6
CONTINUOUS
 10
13.4575534538
 20
8.9721695021
 40
0.9451388889
100
AcDbArc
 50
347.4730187713
 51
350.6558033148
  0
ARC
  5
36D
100
AcDbEntity
  8
0
100
AcDbCircle
 62
7
  6
CONTINUOUS
 10
13.4575534538
 20
8.9721695021
 40
0.9451388889
100
AcDbArc
 50
9.3556020554
 51
12.5269812287
  0
ARC
  5
36E
100
AcDbEntity
  8
0
100
AcDbCircle
 62
7
  6
CONTINUOUS
 10
11.8651923427
 20
11.6691695021
 40
0.15
100
AcDbArc
 50
65.3756816478
 51
90.0
  0
ARC
  5
36F
100
AcDbEntity
  8
0
100
AcDbCircle
 62
7
  6
CONTINUOUS
 10
11.5476923427
 20
10.1340026499
 40
0.15
100
AcDbArc
 50
330.0735651335
 51
360.0
  0
ARC
  5
370
100
AcDbEntity
  8
0
100
AcDbCircle
 62
7
  6
CONTINUOUS
 10
11.7976923427
 20
10.693430271
 40
0.1
100
AcDbArc
 50
135.6687919533
 51
180.0
  0
ARC
  5
371
100
AcDbEntity
  8
0
100
AcDbCircle
 62
7
  6
CONTINUOUS
 10
11.8425389906
 20
11.8493228543
 40
0.0301533521
100
AcDbArc
 50
270.0
 51
81.8210311019
  0
ARC
  5
372
100
AcDbEntity
  8
0
100
AcDbCircle
 62
7
  6
CONTINUOUS
 10
14.9192292082
 20
7.5519402641
 40
1.9214472048
100
AcDbArc
 50
88.1087038726
 51
88.4342520075
  0
ARC
  5
373
100
AcDbEntity
  8
0
100
AcDbCircle
 62
7
  6
CONTINUOUS
 10
13.9448284538
 20
6.5911695021
 40
0.1871361111
100
AcDbArc
 50
92.1854050713
 51
180.0
  0
ARC
  5
374
100
AcDbEntity
  8
0
100
AcDbCircle
 62
7
  6
CONTINUOUS
 10
14.1246896689
 20
6.7791695021
 40
0.187
100
AcDbArc
 50
90.0
 51
180.3063960032
  0
ARC
  5
375
100
AcDbEntity
  8
0
100
AcDbCircle
 62
7
  6
CONTINUOUS
 10
14.1754178091
 20
7.5161304776
 40
0.1715245336
100
AcDbArc
 50
314.9173576842
 51
33.0478355064
  0
ARC
  5
376
100
AcDbEntity
  8
0
100
AcDbCircle
 62
7
  6
CONTINUOUS
 10
13.8851534407
 20
8.3021728307
 40
0.625
100
AcDbArc
 50
325.0110095299
 51
355.1903004544
  0
ARC
  5
377
100
AcDbEntity
  8
0
100
AcDbCircle
 62
7
  6
CONTINUOUS
 10
14.1928051621
 20
8.4330885426
 40
0.4119511641
100
AcDbArc
 50
358.6952488662
 51
359.1963284449
  0
ARC
  5
378
100
AcDbEntity
  8
0
100
AcDbCircle
 62
7
  6
CONTINUOUS
 10
14.9376923188
 20
7.9224995678
 40
1.5506699308
100
AcDbArc
 50
99.2740199157
 51
104.7630311788
  0
ARC
  5
379
100
AcDbEntity
  8
0
100
AcDbCircle
 62
7
  6
CONTINUOUS
 10
14.9376915732
 20
7.9225050133
 40
1.5506644371
100
AcDbArc
 50
96.4043146293
 51
96.5869327869
  0
ARC
  5
37A
100
AcDbEntity
  8
0
100
AcDbCircle
 62
7
  6
CONTINUOUS
 10
14.9376878399
 20
7.9225298157
 40
1.550639354
100
AcDbArc
 50
98.4739776514
 51
98.7266636134
  0
ARC
  5
37B
100
AcDbEntity
  8
0
100
AcDbCircle
 62
7
  6
CONTINUOUS
 10
14.9337116871
 20
8.119713922
 40
1.3534902146
100
AcDbArc
 50
88.3903619744
 51
89.2382295518
  0
ARC
  5
37C
100
AcDbEntity
  8
0
100
AcDbCircle
 62
7
  6
CONTINUOUS
 10
14.4901674638
 20
7.7209050989
 40
0.2039751211
100
AcDbArc
 50
145.0110095297
 51
213.0478355063
  0
ARC
  5
37D
100
AcDbEntity
  8
0
100
AcDbCircle
 62
7
  6
CONTINUOUS
 10
14.5388434542
 20
8.2471695021
 40
0.031
100
AcDbArc
 50
90.0
 51
175.1903004544
  0
ARC
  5
37E
100
AcDbEntity
  8
0
100
AcDbCircle
 62
7
  6
CONTINUOUS
 10
14.803215197
 20
8.6892264781
 40
0.7722621294
100
AcDbArc
 50
85.5794155081
 51
86.5259834733
  0
ARC
  5
37F
100
AcDbEntity
  8
0
100
AcDbCircle
 62
7
  6
CONTINUOUS
 10
14.8034500743
 20
8.6894957675
 40
0.771992193
100
AcDbArc
 50
93.2872277863
 51
94.4733696214
  0
ARC
  5
380
100
AcDbEntity
  8
0
100
AcDbCircle
 62
7
  6
CONTINUOUS
 10
14.8032144454
 20
8.6887238727
 40
0.7717571923
100
AcDbArc
 50
85.8632710718
 51
86.2079808567
  0
ARC
  5
381
100
AcDbEntity
  8
0
100
AcDbCircle
 62
7
  6
CONTINUOUS
 10
14.8034517043
 20
8.6889681661
 40
0.771512251
100
AcDbArc
 50
93.2804606656
 51
94.4762795088
  0
ARC
  5
382
100
AcDbEntity
  8
0
100
AcDbCircle
 62
7
  6
CONTINUOUS
 10
14.8032437424
 20
8.6891649195
 40
0.7713151734
100
AcDbArc
 50
86.2079856291
 51
86.5238374782
  0
ARC
  5
383
100
AcDbEntity
  8
0
100
AcDbCircle
 62
7
  6
CONTINUOUS
 10
14.796264431
 20
8.6908706035
 40
0.7693471593
100
AcDbArc
 50
87.3721207733
 51
89.999511792
  0
ARC
  5
384
100
AcDbEntity
  8
0
100
AcDbCircle
 62
7
  6
CONTINUOUS
 10
14.7962759838
 20
8.6909527713
 40
0.7692649916
100
AcDbArc
 50
90.0003722055
 51
92.3644627805
  0
ARC
  5
385
100
AcDbEntity
  8
0
100
AcDbCircle
 62
7
  6
CONTINUOUS
 10
14.7962912271
 20
8.6900414574
 40
0.7691681595
100
AcDbArc
 50
91.9224386437
 51
92.3658970654
  0
ARC
  5
386
100
AcDbEntity
  8
0
100
AcDbCircle
 62
7
  6
CONTINUOUS
 10
14.7962820803
 20
8.690310809
 40
0.7688986526
100
AcDbArc
 50
91.577514262
 51
91.9224307569
  0
ARC
  5
387
100
AcDbEntity
  8
0
100
AcDbCircle
 62
7
  6
CONTINUOUS
 10
14.7962648763
 20
8.6903858406
 40
0.7688234941
100
AcDbArc
 50
87.3703628182
 51
89.9995446423
  0
ARC
  5
388
100
AcDbEntity
  8
0
100
AcDbCircle
 62
7
  6
CONTINUOUS
 10
14.7962724825
 20
8.6906729564
 40
0.7685363782
100
AcDbArc
 50
90.0001115305
 51
91.5775422606
  0
ARC
  5
389
100
AcDbEntity
  8
0
100
AcDbCircle
 62
7
  6
CONTINUOUS
 10
14.7705773368
 20
8.687522869
 40
0.7675399506
100
AcDbArc
 50
86.828435958
 51
87.8849656031
  0
ARC
  5
38A
100
AcDbEntity
  8
0
100
AcDbCircle
 62
7
  6
CONTINUOUS
 10
14.7706471137
 20
8.6876879187
 40
0.7673747465
100
AcDbArc
 50
92.032506936
 51
92.9073578876
  0
ARC
  5
38B
100
AcDbEntity
  8
0
100
AcDbCircle
 62
7
  6
CONTINUOUS
 10
14.7706199566
 20
8.6884667226
 40
0.7665954675
100
AcDbArc
 50
90.4522494966
 51
91.9387274921
  0
ARC
  5
38C
100
AcDbEntity
  8
0
100
AcDbCircle
 62
7
  6
CONTINUOUS
 10
14.7706131743
 20
8.688515418
 40
0.7665467493
100
AcDbArc
 50
88.0913275575
 51
89.9998020293
  0
ARC
  5
38D
100
AcDbEntity
  8
0
100
AcDbCircle
 62
7
  6
CONTINUOUS
 10
14.7706158778
 20
8.6887677841
 40
0.7662943831
100
AcDbArc
 50
90.0000041084
 51
90.4521222185
  0
ARC
  5
38E
100
AcDbEntity
  8
0
100
AcDbCircle
 62
7
  6
CONTINUOUS
 10
14.8834444544
 20
8.6614213317
 40
0.8099598529
100
AcDbArc
 50
103.9457515254
 51
104.2925332603
  0
ARC
  5
38F
100
AcDbEntity
  8
0
100
AcDbCircle
 62
7
  6
CONTINUOUS
 10
14.8834598857
 20
8.6608678869
 40
0.8095138479
100
AcDbArc
 50
103.9382065741
 51
104.3017025671
  0
ARC
  5
390
100
AcDbEntity
  8
0
100
AcDbCircle
 62
7
  6
CONTINUOUS
 10
14.8996465777
 20
8.6650805059
 40
0.8073379269
100
AcDbArc
 50
102.6212058337
 51
104.0582453793
  0
ARC
  5
391
100
AcDbEntity
  8
0
100
AcDbCircle
 62
7
  6
CONTINUOUS
 10
14.8825592461
 20
8.6650304687
 40
0.8062437597
100
AcDbArc
 50
102.8772676401
 51
103.9465117071
  0
ARC
  5
392
100
AcDbEntity
  8
0
100
AcDbCircle
 62
7
  6
CONTINUOUS
 10
14.8824973686
 20
8.6647947419
 40
0.8054707684
100
AcDbArc
 50
102.8509996183
 51
103.9390392264
  0
ARC
  5
393
100
AcDbEntity
  8
0
100
AcDbCircle
 62
7
  6
CONTINUOUS
 10
14.8811212881
 20
8.6714327872
 40
0.7996819391
100
AcDbArc
 50
101.4233450972
 51
102.7484973625
  0
ARC
  5
394
100
AcDbEntity
  8
0
100
AcDbCircle
 62
7
  6
CONTINUOUS
 10
14.8811761182
 20
8.6706598575
 40
0.7994586961
100
AcDbArc
 50
101.3920072182
 51
102.8521708492
  0
ARC
  5
395
100
AcDbEntity
  8
0
100
AcDbCircle
 62
7
  6
CONTINUOUS
 10
14.8804250785
 20
8.6743636354
 40
0.7956795415
100
AcDbArc
 50
100.7965780289
 51
101.3916708761
  0
ARC
  5
396
100
AcDbEntity
  8
0
100
AcDbCircle
 62
7
  6
CONTINUOUS
 10
14.8803120339
 20
8.6754232974
 40
0.7956101956
100
AcDbArc
 50
100.8025774711
 51
101.28815784
  0
ARC
  5
397
100
AcDbEntity
  8
0
100
AcDbCircle
 62
7
  6
CONTINUOUS
 10
14.8799079362
 20
8.6775614408
 40
0.7934342044
100
AcDbArc
 50
99.9187318426
 51
100.8028523123
  0
ARC
  5
398
100
AcDbEntity
  8
0
100
AcDbCircle
 62
7
  6
CONTINUOUS
 10
14.8798445685
 20
8.6774306664
 40
0.7925580591
100
AcDbArc
 50
99.9251570835
 51
100.7968881894
  0
ARC
  5
399
100
AcDbEntity
  8
0
100
AcDbCircle
 62
7
  6
CONTINUOUS
 10
14.8786257834
 20
8.6852316629
 40
0.7856577526
100
AcDbArc
 50
96.0401034782
 51
98.3288296704
  0
ARC
  5
39A
100
AcDbEntity
  8
0
100
AcDbCircle
 62
7
  6
CONTINUOUS
 10
14.8942139016
 20
8.6900722744
 40
0.78186959
100
AcDbArc
 50
95.4981511742
 51
96.3471800437
  0
ARC
  5
39B
100
AcDbEntity
  8
0
100
AcDbCircle
 62
7
  6
CONTINUOUS
 10
14.8940083251
 20
8.6921011273
 40
0.7798303743
100
AcDbArc
 50
95.0955166174
 51
95.4973989018
  0
ARC
  5
39C
100
AcDbEntity
  8
0
100
AcDbCircle
 62
7
  6
CONTINUOUS
 10
14.8779754148
 20
8.6902626731
 40
0.7795885252
100
AcDbArc
 50
96.5600711686
 51
97.4238080171
  0
ARC
  5
39D
100
AcDbEntity
  8
0
100
AcDbCircle
 62
7
  6
CONTINUOUS
 10
14.8778583959
 20
8.6924174352
 40
0.7784311104
100
AcDbArc
 50
95.5717913401
 51
95.8243709406
  0
ARC
  5
39E
100
AcDbEntity
  8
0
100
AcDbCircle
 62
7
  6
CONTINUOUS
 10
14.9304954908
 20
8.695061126
 40
0.7780793412
100
AcDbArc
 50
85.6126097005
 51
86.552067202
  0
ARC
  5
39F
100
AcDbEntity
  8
0
100
AcDbCircle
 62
7
  6
CONTINUOUS
 10
14.8777489987
 20
8.6935322148
 40
0.7773109761
100
AcDbArc
 50
95.3160607987
 51
95.5717439377
  0
ARC
  5
3A0
100
AcDbEntity
  8
0
100
AcDbCircle
 62
7
  6
CONTINUOUS
 10
14.8746159228
 20
8.6935520923
 40
0.7770651157
100
AcDbArc
 50
85.6055311414
 51
86.2370444661
  0
ARC
  5
3A1
100
AcDbEntity
  8
0
100
AcDbCircle
 62
7
  6
CONTINUOUS
 10
14.8776983642
 20
8.6940918776
 40
0.7767490267
100
AcDbArc
 50
94.4469074197
 51
95.168065843
  0
ARC
  5
3A2
100
AcDbEntity
  8
0
100
AcDbCircle
 62
7
  6
CONTINUOUS
 10
14.8775845609
 20
8.693516768
 40
0.7763110832
100
AcDbArc
 50
96.0263890093
 51
96.5588510739
  0
ARC
  5
3A3
100
AcDbEntity
  8
0
100
AcDbCircle
 62
7
  6
CONTINUOUS
 10
14.877657155
 20
8.6946251234
 40
0.7762141879
100
AcDbArc
 50
93.2494331876
 51
94.2457404572
  0
ARC
  5
3A4
100
AcDbEntity
  8
0
100
AcDbCircle
 62
7
  6
CONTINUOUS
 10
14.8746893315
 20
8.6946640785
 40
0.7759507091
100
AcDbArc
 50
86.2370645636
 51
86.5466861737
  0
ARC
  5
3A5
100
AcDbEntity
  8
0
100
AcDbCircle
 62
7
  6
CONTINUOUS
 10
14.9154113138
 20
8.697333932
 40
0.7755156605
100
AcDbArc
 50
88.7267582333
 51
89.3753322392
  0
ARC
  5
3A6
100
AcDbEntity
  8
0
100
AcDbCircle
 62
7
  6
CONTINUOUS
 10
14.9154191617
 20
8.6974745652
 40
0.7753748875
100
AcDbArc
 50
88.0543997033
 51
88.7271070909
  0
ARC
  5
3A7
100
AcDbEntity
  8
0
100
AcDbCircle
 62
7
  6
CONTINUOUS
 10
14.9154203269
 20
8.6978557539
 40
0.7749937712
100
AcDbArc
 50
89.3755779499
 51
89.9352281732
  0
ARC
  5
3A8
100
AcDbEntity
  8
0
100
AcDbCircle
 62
7
  6
CONTINUOUS
 10
14.915415474
 20
8.6969354272
 40
0.7749139125
100
AcDbArc
 50
88.0530335822
 51
89.3508970988
  0
ARC
  5
3A9
100
AcDbEntity
  8
0
100
AcDbCircle
 62
7
  6
CONTINUOUS
 10
14.8899621386
 20
8.696953829
 40
0.7747458535
100
AcDbArc
 50
88.120344524
 51
89.9999632887
  0
ARC
  5
3AA
100
AcDbEntity
  8
0
100
AcDbCircle
 62
7
  6
CONTINUOUS
 10
14.9154184403
 20
8.6971558246
 40
0.7746934957
100
AcDbArc
 50
89.3509318104
 51
89.9354571555
  0
ARC
  5
3AB
100
AcDbEntity
  8
0
100
AcDbCircle
 62
7
  6
CONTINUOUS
 10
15.9305562316
 20
6.5911695021
 40
0.1871361111
100
AcDbArc
 50
0.0
 51
87.8145949287
  0
ARC
  5
3AC
100
AcDbEntity
  8
0
100
AcDbCircle
 62
7
  6
CONTINUOUS
 10
15.7506950166
 20
6.7791695021
 40
0.187
100
AcDbArc
 50
359.6936039968
 51
90.0
  0
ARC
  5
3AD
100
AcDbEntity
  8
0
100
AcDbCircle
 62
7
  6
CONTINUOUS
 10
15.6999668764
 20
7.5161304776
 40
0.1715245336
100
AcDbArc
 50
146.9521644936
 51
225.0826423158
  0
ARC
  5
3AE
100
AcDbEntity
  8
0
100
AcDbCircle
 62
7
  6
CONTINUOUS
 10
14.937697373
 20
7.9224680132
 40
1.5507018874
100
AcDbArc
 50
98.7266653163
 51
99.2740163306
  0
ARC
  5
3AF
100
AcDbEntity
  8
0
100
AcDbCircle
 62
7
  6
CONTINUOUS
 10
14.9376924672
 20
7.922497869
 40
1.5506716338
100
AcDbArc
 50
96.6209982766
 51
98.4739728167
  0
ARC
  5
3B0
100
AcDbEntity
  8
0
100
AcDbCircle
 62
7
  6
CONTINUOUS
 10
14.9376923427
 20
7.9224994867
 40
1.5506700155
100
AcDbArc
 50
75.2369687319
 51
85.5826306402
  0
ARC
  5
3B1
100
AcDbEntity
  8
0
100
AcDbCircle
 62
7
  6
CONTINUOUS
 10
14.9376923484
 20
7.9225035187
 40
1.5506659834
100
AcDbArc
 50
90.0000002084
 51
90.3595812307
  0
ARC
  5
3B2
100
AcDbEntity
  8
0
100
AcDbCircle
 62
7
  6
CONTINUOUS
 10
14.9523517492
 20
8.0094895582
 40
1.4624839943
100
AcDbArc
 50
95.8701682819
 51
96.1264483417
  0
ARC
  5
3B3
100
AcDbEntity
  8
0
100
AcDbCircle
 62
7
  6
CONTINUOUS
 10
14.9387917388
 20
8.4916207689
 40
0.9815487077
100
AcDbArc
 50
89.2461155595
 51
89.6430171111
  0
ARC
  5
3B4
100
AcDbEntity
  8
0
100
AcDbCircle
 62
7
  6
CONTINUOUS
 10
14.983465844
 20
8.5066681586
 40
0.9647113256
100
AcDbArc
 50
85.6208764187
 51
86.2329742185
  0
ARC
  5
3B5
100
AcDbEntity
  8
0
100
AcDbCircle
 62
7
  6
CONTINUOUS
 10
14.9396203801
 20
8.6220412813
 40
0.851125564
100
AcDbArc
 50
89.6440970186
 51
89.8403898376
  0
ARC
  5
3B6
100
AcDbEntity
  8
0
100
AcDbCircle
 62
7
  6
CONTINUOUS
 10
15.0027648866
 20
8.6621623848
 40
0.8092508839
100
AcDbArc
 50
103.511293052
 51
104.2921249333
  0
ARC
  5
3B7
100
AcDbEntity
  8
0
100
AcDbCircle
 62
7
  6
CONTINUOUS
 10
14.9898740854
 20
8.6632587185
 40
0.8090064966
100
AcDbArc
 50
103.5743908505
 51
104.0596790849
  0
ARC
  5
3B8
100
AcDbEntity
  8
0
100
AcDbCircle
 62
7
  6
CONTINUOUS
 10
14.9898833388
 20
8.6627284009
 40
0.8085371462
100
AcDbArc
 50
103.5898967105
 51
104.0686846478
  0
ARC
  5
3B9
100
AcDbEntity
  8
0
100
AcDbCircle
 62
7
  6
CONTINUOUS
 10
14.9893086181
 20
8.6656009711
 40
0.8065969529
100
AcDbArc
 50
103.0949513614
 51
103.574396043
  0
ARC
  5
3BA
100
AcDbEntity
  8
0
100
AcDbCircle
 62
7
  6
CONTINUOUS
 10
14.989323892
 20
8.6650423301
 40
0.8061565478
100
AcDbArc
 50
103.1101607785
 51
103.5898911648
  0
ARC
  5
3BB
100
AcDbEntity
  8
0
100
AcDbCircle
 62
7
  6
CONTINUOUS
 10
14.988793669
 20
8.6678131998
 40
0.8043255815
100
AcDbArc
 50
102.621405916
 51
103.0949268825
  0
ARC
  5
3BC
100
AcDbEntity
  8
0
100
AcDbCircle
 62
7
  6
CONTINUOUS
 10
14.9888036745
 20
8.6672756893
 40
0.8038634015
100
AcDbArc
 50
102.62951321
 51
103.1101551584
  0
ARC
  5
3BD
100
AcDbEntity
  8
0
100
AcDbCircle
 62
7
  6
CONTINUOUS
 10
15.0009590631
 20
8.6698067949
 40
0.8013960577
100
AcDbArc
 50
100.8275369966
 51
103.361997927
  0
ARC
  5
3BE
100
AcDbEntity
  8
0
100
AcDbCircle
 62
7
  6
CONTINUOUS
 10
14.9994799668
 20
8.6772052014
 40
0.7938515136
100
AcDbArc
 50
99.9186660915
 51
100.8229937351
  0
ARC
  5
3BF
100
AcDbEntity
  8
0
100
AcDbCircle
 62
7
  6
CONTINUOUS
 10
14.9971310468
 20
8.6951702248
 40
0.7757229238
100
AcDbArc
 50
91.5233373047
 51
94.6564732701
  0
ARC
  5
3C0
100
AcDbEntity
  8
0
100
AcDbCircle
 62
7
  6
CONTINUOUS
 10
14.9970939535
 20
8.6968011595
 40
0.7740915727
100
AcDbArc
 50
90.5237286159
 51
91.4658375609
  0
ARC
  5
3C1
100
AcDbEntity
  8
0
100
AcDbCircle
 62
7
  6
CONTINUOUS
 10
15.9902312448
 20
8.3021728307
 40
0.625
100
AcDbArc
 50
184.8096995456
 51
214.9889904701
  0
ARC
  5
3C2
100
AcDbEntity
  8
0
100
AcDbCircle
 62
7
  6
CONTINUOUS
 10
15.3852172217
 20
7.7209050989
 40
0.2039751211
100
AcDbArc
 50
326.9521644937
 51
34.9889904703
  0
ARC
  5
3C3
100
AcDbEntity
  8
0
100
AcDbCircle
 62
7
  6
CONTINUOUS
 10
15.3365412312
 20
8.2471695021
 40
0.031
100
AcDbArc
 50
4.8096995456
 51
90.0
  0
ARC
  5
3C4
100
AcDbEntity
  8
0
100
AcDbCircle
 62
9
  6
CONTINUOUS
 10
14.4391848947
 20
8.9721695137
 40
0.2771787998
100
AcDbArc
 50
359.9999976147
 51
0.4371261495
  0
ARC
  5
3C5
100
AcDbEntity
  8
0
100
AcDbCircle
 62
7
  6
CONTINUOUS
 10
14.101538523
 20
8.9721696676
 40
0.274999648
100
AcDbArc
 50
35.7908158831
 51
324.2093585124
  0
ARC
  5
3C6
100
AcDbEntity
  8
0
100
AcDbCircle
 62
7
  6
CONTINUOUS
 10
14.1016022786
 20
8.9720917857
 40
0.2748998998
100
AcDbArc
 50
301.1007651309
 51
309.179655838
  0
ARC
  5
3C7
100
AcDbEntity
  8
0
100
AcDbCircle
 62
7
  6
CONTINUOUS
 10
14.1016474806
 20
8.9717227489
 40
0.2745405756
100
AcDbArc
 50
278.4219260668
 51
284.5802980757
  0
ARC
  5
3C8
100
AcDbEntity
  8
0
100
AcDbCircle
 62
7
  6
CONTINUOUS
 10
14.1726165891
 20
8.9721710161
 40
0.2688946
100
AcDbArc
 50
359.3749241882
 51
359.8019916726
  0
ARC
  5
3C9
100
AcDbEntity
  8
0
100
AcDbCircle
 62
7
  6
CONTINUOUS
 10
14.172971468
 20
8.9721695717
 40
0.2685397182
100
AcDbArc
 50
359.80203817
 51
0.1976970707
  0
ARC
  5
3CA
100
AcDbEntity
  8
0
100
AcDbCircle
 62
9
  6
CONTINUOUS
 10
14.4777725155
 20
8.9844041813
 40
0.2145630658
100
AcDbArc
 50
22.3892397603
 51
23.3578258891
  0
ARC
  5
3CB
100
AcDbEntity
  8
0
100
AcDbCircle
 62
9
  6
CONTINUOUS
 10
14.4846264356
 20
8.9569012116
 40
0.2070675029
100
AcDbArc
 50
334.6685454743
 51
335.6580283707
  0
ARC
  5
3CC
100
AcDbEntity
  8
0
100
AcDbCircle
 62
7
  6
CONTINUOUS
 10
14.6329891963
 20
8.9518615252
 40
0.1991102837
100
AcDbArc
 50
208.8646198992
 51
210.5672902731
  0
ARC
  5
3CD
100
AcDbEntity
  8
0
100
AcDbCircle
 62
7
  6
CONTINUOUS
 10
14.6323653342
 20
8.9928341444
 40
0.1983917697
100
AcDbArc
 50
149.5624886694
 51
151.1172488719
  0
ARC
  5
3CE
100
AcDbEntity
  8
0
100
AcDbCircle
 62
7
  6
CONTINUOUS
 10
14.2398786012
 20
8.94892819
 40
0.1972172891
100
AcDbArc
 50
329.6562519021
 51
330.1332639691
  0
ARC
  5
3CF
100
AcDbEntity
  8
0
100
AcDbCircle
 62
7
  6
CONTINUOUS
 10
14.2400512217
 20
8.995509452
 40
0.1970184986
100
AcDbArc
 50
29.9861634929
 51
30.3183657636
  0
ARC
  5
3D0
100
AcDbEntity
  8
0
100
AcDbCircle
 62
7
  6
CONTINUOUS
 10
14.6296838974
 20
8.994405243
 40
0.1952839667
100
AcDbArc
 50
148.9408334449
 51
149.5613625671
  0
ARC
  5
3D1
100
AcDbEntity
  8
0
100
AcDbCircle
 62
7
  6
CONTINUOUS
 10
14.6293939119
 20
8.949759817
 40
0.1949458043
100
AcDbArc
 50
210.5727988369
 51
211.1487014926
  0
ARC
  5
3D2
100
AcDbEntity
  8
0
100
AcDbCircle
 62
7
  6
CONTINUOUS
 10
14.522246868
 20
8.987465565
 40
0.1928747376
100
AcDbArc
 50
64.1113944163
 51
67.7333524887
  0
ARC
  5
3D3
100
AcDbEntity
  8
0
100
AcDbCircle
 62
9
  6
CONTINUOUS
 10
14.624721296
 20
8.9950590031
 40
0.190367713
100
AcDbArc
 50
150.5827033485
 51
150.7506874649
  0
ARC
  5
3D4
100
AcDbEntity
  8
0
100
AcDbCircle
 62
9
  6
CONTINUOUS
 10
14.6241083427
 20
8.9489282387
 40
0.1896609652
100
AcDbArc
 50
209.2871567066
 51
209.8442364858
  0
ARC
  5
3D5
100
AcDbEntity
  8
0
100
AcDbCircle
 62
9
  6
CONTINUOUS
 10
14.6236192184
 20
8.9956822028
 40
0.1891016362
100
AcDbArc
 50
149.9596830929
 51
150.5831711241
  0
ARC
  5
3D6
100
AcDbEntity
  8
0
100
AcDbCircle
 62
7
  6
CONTINUOUS
 10
14.5243774119
 20
8.9519765524
 40
0.1875358387
100
AcDbArc
 50
292.279171087
 51
294.6361893121
  0
ARC
  5
3D7
100
AcDbEntity
  8
0
100
AcDbCircle
 62
9
  6
CONTINUOUS
 10
14.6213961788
 20
8.9473674514
 40
0.1865317684
100
AcDbArc
 50
209.8429750868
 51
211.473778929
  0
ARC
  5
3D8
100
AcDbEntity
  8
0
100
AcDbCircle
 62
9
  6
CONTINUOUS
 10
14.6208286551
 20
8.9973066197
 40
0.185872722
100
AcDbArc
 50
148.6798124434
 51
149.9625290658
  0
ARC
  5
3D9
100
AcDbEntity
  8
0
100
AcDbCircle
 62
9
  6
CONTINUOUS
 10
14.5940096762
 20
9.0168507128
 40
0.1526413942
100
AcDbArc
 50
138.3566126733
 51
138.8535106633
  0
ARC
  5
3DA
100
AcDbEntity
  8
0
100
AcDbCircle
 62
7
  6
CONTINUOUS
 10
14.6018766597
 20
8.886255468
 40
0.1200346683
100
AcDbArc
 50
243.0165503864
 51
244.0315083969
  0
ARC
  5
3DB
100
AcDbEntity
  8
0
100
AcDbCircle
 62
7
  6
CONTINUOUS
 10
14.601856484
 20
9.0581249978
 40
0.1199885208
100
AcDbArc
 50
115.9521279672
 51
116.9310668875
  0
ARC
  5
3DC
100
AcDbEntity
  8
0
100
AcDbCircle
 62
9
  6
CONTINUOUS
 10
14.5777327339
 20
8.8749179791
 40
0.0987484729
100
AcDbArc
 50
270.0220665731
 51
280.4339500184
  0
ARC
  5
3DD
100
AcDbEntity
  8
0
100
AcDbCircle
 62
9
  6
CONTINUOUS
 10
14.5777538388
 20
9.0697280537
 40
0.0984414385
100
AcDbArc
 50
80.6117743028
 51
89.9901482887
  0
ARC
  5
3DE
100
AcDbEntity
  8
0
100
AcDbCircle
 62
7
  6
CONTINUOUS
 10
14.0990265948
 20
9.2187558456
 40
2.7892932253
100
AcDbArc
 50
138.7143401574
 51
141.119169706
  0
ARC
  5
3DF
100
AcDbEntity
  8
0
100
AcDbCircle
 62
7
  6
CONTINUOUS
 10
14.5501923427
 20
9.3929691552
 40
0.03
100
AcDbArc
 50
104.7630312683
 51
169.885217471
  0
ARC
  5
3E0
100
AcDbEntity
  8
0
100
AcDbCircle
 62
7
  6
CONTINUOUS
 10
14.7969991366
 20
8.9551523928
 40
0.5084699784
100
AcDbArc
 50
92.4485765064
 51
93.6284519578
  0
ARC
  5
3E1
100
AcDbEntity
  8
0
100
AcDbCircle
 62
7
  6
CONTINUOUS
 10
14.7969543038
 20
8.9562445365
 40
0.5073769165
100
AcDbArc
 50
90.0771639587
 51
92.4487873927
  0
ARC
  5
3E2
100
AcDbEntity
  8
0
100
AcDbCircle
 62
7
  6
CONTINUOUS
 10
15.1707957513
 20
9.0294898338
 40
0.2574390281
100
AcDbArc
 50
12.7789197501
 51
14.3559253183
  0
ARC
  5
3E3
100
AcDbEntity
  8
0
100
AcDbCircle
 62
7
  6
CONTINUOUS
 10
14.7010933292
 20
8.9140250932
 40
0.253847674
100
AcDbArc
 50
192.8299654208
 51
194.7600150351
  0
ARC
  5
3E4
100
AcDbEntity
  8
0
100
AcDbCircle
 62
7
  6
CONTINUOUS
 10
14.6968873709
 20
9.0313430714
 40
0.2495183303
100
AcDbArc
 50
165.290765131
 51
167.2679505901
  0
ARC
  5
3E5
100
AcDbEntity
  8
0
100
AcDbCircle
 62
7
  6
CONTINUOUS
 10
15.1792090005
 20
8.9128282877
 40
0.2487873234
100
AcDbArc
 50
345.1845846489
 51
347.3146238001
  0
ARC
  5
3E6
100
AcDbEntity
  8
0
100
AcDbCircle
 62
7
  6
CONTINUOUS
 10
15.2418292518
 20
8.9921567675
 40
0.1997611212
100
AcDbArc
 50
28.9154579095
 51
30.0687197489
  0
ARC
  5
3E7
100
AcDbEntity
  8
0
100
AcDbCircle
 62
7
  6
CONTINUOUS
 10
15.2432356004
 20
8.951388378
 40
0.1981463666
100
AcDbArc
 50
329.4444265746
 51
331.1250438294
  0
ARC
  5
3E8
100
AcDbEntity
  8
0
100
AcDbCircle
 62
7
  6
CONTINUOUS
 10
15.2455938206
 20
8.9500033687
 40
0.1954115148
100
AcDbArc
 50
329.1451647142
 51
329.442615891
  0
ARC
  5
3E9
100
AcDbEntity
  8
0
100
AcDbCircle
 62
9
  6
CONTINUOUS
 10
15.2500588284
 20
8.9496278643
 40
0.1910651791
100
AcDbArc
 50
330.7109546715
 51
330.9685628887
  0
ARC
  5
3EA
100
AcDbEntity
  8
0
100
AcDbCircle
 62
9
  6
CONTINUOUS
 10
15.2508398079
 20
8.9951571332
 40
0.1901658363
100
AcDbArc
 50
29.2760183407
 51
29.573201851
  0
ARC
  5
3EB
100
AcDbEntity
  8
0
100
AcDbCircle
 62
9
  6
CONTINUOUS
 10
15.2527582139
 20
8.9962494294
 40
0.1879582625
100
AcDbArc
 50
29.5722271576
 51
30.8653244967
  0
ARC
  5
3EC
100
AcDbEntity
  8
0
100
AcDbCircle
 62
9
  6
CONTINUOUS
 10
15.2538138209
 20
8.9474850524
 40
0.1867419196
100
AcDbArc
 50
328.5229021391
 51
330.7207358979
  0
ARC
  5
3ED
100
AcDbEntity
  8
0
100
AcDbCircle
 62
7
  6
CONTINUOUS
 10
14.8307077231
 20
9.260004913
 40
0.2084097741
100
AcDbArc
 50
96.3171350848
 51
96.9816724443
  0
ARC
  5
3EE
100
AcDbEntity
  8
0
100
AcDbCircle
 62
7
  6
CONTINUOUS
 10
14.7911599955
 20
9.3751506025
 40
0.090699166
100
AcDbArc
 50
80.5947810887
 51
83.1982805863
  0
ARC
  5
3EF
100
AcDbEntity
  8
0
100
AcDbCircle
 62
7
  6
CONTINUOUS
 10
14.7913150569
 20
9.3763822958
 40
0.0894577772
100
AcDbArc
 50
83.2034658766
 51
84.5205871498
  0
ARC
  5
3F0
100
AcDbEntity
  8
0
100
AcDbCircle
 62
7
  6
CONTINUOUS
 10
14.7913146712
 20
9.3754317603
 40
0.0894035802
100
AcDbArc
 50
83.2008837032
 51
84.5170070187
  0
ARC
  5
3F1
100
AcDbEntity
  8
0
100
AcDbCircle
 62
7
  6
CONTINUOUS
 10
14.6570502851
 20
10.1061643904
 40
0.6761231116
100
AcDbArc
 50
276.9102304958
 51
277.2923409232
  0
ARC
  5
3F2
100
AcDbEntity
  8
0
100
AcDbCircle
 62
7
  6
CONTINUOUS
 10
14.6609847892
 20
10.0718655163
 40
0.6416000504
100
AcDbArc
 50
275.3992423296
 51
276.9299406312
  0
ARC
  5
3F3
100
AcDbEntity
  8
0
100
AcDbCircle
 62
7
  6
CONTINUOUS
 10
16.4178312316
 20
8.9721695021
 40
0.9451388889
100
AcDbArc
 50
189.3454314595
 51
192.5269812287
  0
ARC
  5
3F4
100
AcDbEntity
  8
0
100
AcDbCircle
 62
7
  6
CONTINUOUS
 10
16.4178312316
 20
8.9721695021
 40
0.9451388889
100
AcDbArc
 50
167.4730187713
 51
170.6448301548
  0
ARC
  5
3F5
100
AcDbEntity
  8
0
100
AcDbCircle
 62
7
  6
CONTINUOUS
 10
15.7738456478
 20
8.9721700836
 40
0.2749995817
100
AcDbArc
 50
215.7921391981
 51
144.2078711207
  0
ARC
  5
3F6
100
AcDbEntity
  8
0
100
AcDbCircle
 62
7
  6
CONTINUOUS
 10
15.7737197821
 20
8.9719856587
 40
0.2747775101
100
AcDbArc
 50
238.8989757818
 51
243.4061992336
  0
ARC
  5
3F7
100
AcDbEntity
  8
0
100
AcDbCircle
 62
7
  6
CONTINUOUS
 10
15.7737989936
 20
8.9717212917
 40
0.2745492958
100
AcDbArc
 50
261.5652658194
 51
266.9221292349
  0
ARC
  5
3F8
100
AcDbEntity
  8
0
100
AcDbCircle
 62
7
  6
CONTINUOUS
 10
15.7736478916
 20
8.9715126281
 40
0.2743139373
100
AcDbArc
 50
250.4375996744
 51
255.4267230042
  0
ARC
  5
3F9
100
AcDbEntity
  8
0
100
AcDbCircle
 62
7
  6
CONTINUOUS
 10
15.7734024049
 20
8.9716390439
 40
0.274308871
100
AcDbArc
 50
227.3380177801
 51
230.8221229849
  0
ARC
  5
3FA
100
AcDbEntity
  8
0
100
AcDbCircle
 62
9
  6
CONTINUOUS
 10
15.4419800853
 20
8.9723007956
 40
0.260698454
100
AcDbArc
 50
171.1104911905
 51
180.2501859325
  0
ARC
  5
3FB
100
AcDbEntity
  8
0
100
AcDbCircle
 62
9
  6
CONTINUOUS
 10
15.4334736932
 20
8.973542378
 40
0.2521023934
100
AcDbArc
 50
169.2606920891
 51
171.090532264
  0
ARC
  5
3FC
100
AcDbEntity
  8
0
100
AcDbCircle
 62
9
  6
CONTINUOUS
 10
15.4297291515
 20
8.9742677573
 40
0.2482882694
100
AcDbArc
 50
167.2585521249
 51
169.2641336672
  0
ARC
  5
3FD
100
AcDbEntity
  8
0
100
AcDbCircle
 62
7
  6
CONTINUOUS
 10
15.6362630911
 20
8.9493723971
 40
0.1980949905
100
AcDbArc
 50
209.4916209137
 51
210.4309231552
  0
ARC
  5
3FE
100
AcDbEntity
  8
0
100
AcDbCircle
 62
7
  6
CONTINUOUS
 10
15.3531390708
 20
8.9568763019
 40
0.1928778601
100
AcDbArc
 50
244.1102767458
 51
247.733433819
  0
ARC
  5
3FF
100
AcDbEntity
  8
0
100
AcDbCircle
 62
7
  6
CONTINUOUS
 10
15.3510076438
 20
8.9923615653
 40
0.1875367982
100
AcDbArc
 50
112.2790916537
 51
114.6366906134
  0
ARC
  5
400
100
AcDbEntity
  8
0
100
AcDbCircle
 62
7
  6
CONTINUOUS
 10
15.2735115187
 20
9.0580905955
 40
0.1200267919
100
AcDbArc
 50
63.0277355733
 51
64.0315465709
  0
ARC
  5
401
100
AcDbEntity
  8
0
100
AcDbCircle
 62
7
  6
CONTINUOUS
 10
15.2735227947
 20
8.8862249631
 40
0.1200007377
100
AcDbArc
 50
295.9521295783
 51
296.948227977
  0
ARC
  5
402
100
AcDbEntity
  8
0
100
AcDbCircle
 62
7
  6
CONTINUOUS
 10
15.5771509255
 20
8.8817611503
 40
0.1055916481
100
AcDbArc
 50
270.0009736288
 51
272.1462368701
  0
ARC
  5
403
100
AcDbEntity
  8
0
100
AcDbCircle
 62
7
  6
CONTINUOUS
 10
15.5771508664
 20
9.0625809709
 40
0.1055885312
100
AcDbArc
 50
87.831247317
 51
89.9989942454
  0
ARC
  5
404
100
AcDbEntity
  8
0
100
AcDbCircle
 62
9
  6
CONTINUOUS
 10
15.297703207
 20
9.0690393158
 40
0.0991314437
100
AcDbArc
 50
90.9158930955
 51
100.2734589893
  0
ARC
  5
405
100
AcDbEntity
  8
0
100
AcDbCircle
 62
9
  6
CONTINUOUS
 10
15.2976346162
 20
8.8745500787
 40
0.0983805787
100
AcDbArc
 50
260.4282534314
 51
269.9879468218
  0
ARC
  5
406
100
AcDbEntity
  8
0
100
AcDbCircle
 62
7
  6
CONTINUOUS
 10
15.2976138875
 20
8.874176632
 40
0.0980071298
100
AcDbArc
 50
270.0000190796
 51
270.8742157274
  0
ARC
  5
407
100
AcDbEntity
  8
0
100
AcDbCircle
 62
9
  6
CONTINUOUS
 10
15.2976139528
 20
9.0701623723
 40
0.0980071298
100
AcDbArc
 50
90.0000190797
 51
90.8742157273
  0
ARC
  5
408
100
AcDbEntity
  8
0
100
AcDbCircle
 62
9
  6
CONTINUOUS
 10
15.3132833991
 20
8.8788373249
 40
0.0933457587
100
AcDbArc
 50
270.000019081
 51
270.8742157288
  0
ARC
  5
409
100
AcDbEntity
  8
0
100
AcDbCircle
 62
9
  6
CONTINUOUS
 10
15.3132834613
 20
9.0655016794
 40
0.0933457587
100
AcDbArc
 50
90.0000190782
 51
90.874215726
  0
ARC
  5
40A
100
AcDbEntity
  8
0
100
AcDbCircle
 62
7
  6
CONTINUOUS
 10
15.3251923427
 20
9.3929691552
 40
0.03
100
AcDbArc
 50
10.114782529
 51
75.2369687317
  0
SPLINE
  5
40B
100
AcDbEntity
  8
0
100
AcDbSpline
 62
7
  6
CONTINUOUS
 70
0
 71
3
 72
11
 73
7
 74
0
 42
0.0000001
 43
0.0000001
 44
0.0000000001
 40
0.0
 40
0.0
 40
0.0
 40
0.0
 40
0.2326538662
 40
0.4802803609
 40
0.7379522233
 40
1.0
 40
1.0
 40
1.0
 40
1.0
 10
11.5762205717
 20
11.7356951319
 30
0.0
 10
11.5762198355
 20
11.7305355073
 30
0.0
 10
11.5763593478
 20
11.7198844539
 30
0.0
 10
11.5767082978
 20
11.7035225874
 30
0.0
 10
11.5769819323
 20
11.6865069876
 30
0.0
 10
11.5770613863
 20
11.6749810031
 30
0.0
 10
11.5770613863
 20
11.6691695021
 30
0.0
  0
SPLINE
  5
40C
100
AcDbEntity
  8
0
100
AcDbSpline
 62
7
  6
CONTINUOUS
 70
0
 71
3
 72
11
 73
7
 74
0
 42
0.0000001
 43
0.0000001
 44
0.0000000001
 40
0.0
 40
0.0
 40
0.0
 40
0.0
 40
0.2620300159
 40
0.5197023434
 40
0.7673431887
 40
1.0
 40
1.0
 40
1.0
 40
1.0
 10
10.2983232992
 20
11.6691695021
 30
0.0
 10
10.2983232992
 20
11.6749806239
 30
0.0
 10
10.2984029679
 20
11.686506252
 30
0.0
 10
10.2986763105
 20
11.703521835
 30
0.0
 10
10.2990255349
 20
11.7198841283
 30
0.0
 10
10.2991653466
 20
11.7305355957
 30
0.0
 10
10.29916424
 20
11.7356952987
 30
0.0
  0
SPLINE
  5
40D
100
AcDbEntity
  8
0
100
AcDbSpline
 62
7
  6
CONTINUOUS
 70
0
 71
3
 72
17
 73
13
 74
0
 42
0.0000001
 43
0.0000001
 44
0.0000000001
 40
0.0
 40
0.0
 40
0.0
 40
0.0
 40
0.0984997464
 40
0.1965005949
 40
0.2930556002
 40
0.3873024716
 40
0.4782822739
 40
0.5647895054
 40
0.6455581296
 40
0.7194279625
 40
0.9304075596
 40
1.0
 40
1.0
 40
1.0
 40
1.0
 10
9.8723147386
 20
11.6691695021
 30
0.0
 10
9.8723147386
 20
11.6745212869
 30
0.0
 10
9.8728349361
 20
11.6852043895
 30
0.0
 10
9.8751151526
 20
11.7009862872
 30
0.0
 10
9.8788467809
 20
11.7162522973
 30
0.0
 10
9.8838598197
 20
11.7307418322
 30
0.0
 10
9.8899720953
 20
11.7442039902
 30
0.0
 10
9.896890236
 20
11.7564319753
 30
0.0
 10
9.9043254151
 20
11.7672424343
 30
0.0
 10
9.9168762712
 20
11.7826490257
 30
0.0
 10
9.9314056976
 20
11.7956660146
 30
0.0
 10
9.9443883396
 20
11.8036932666
 30
0.0
 10
9.9476923427
 20
11.8055284036
 30
0.0
  0
SPLINE
  5
40E
100
AcDbEntity
  8
0
100
AcDbSpline
 62
7
  6
CONTINUOUS
 70
0
 71
3
 72
24
 73
20
 74
0
 42
0.0000001
 43
0.0000001
 44
0.0000000001
 40
0.0
 40
0.0
 40
0.0
 40
0.0
 40
0.0043112973
 40
0.0172897001
 40
0.0390114589
 40
0.069559078
 40
0.1090642455
 40
0.1576148451
 40
0.2149852212
 40
0.2809751663
 40
0.354824632
 40
0.4355455621
 40
0.4781669419
 40
0.5220584654
 40
0.6129771065
 40
0.7071756493
 40
0.803683915
 40
0.9016086831
 40
1.0
 40
1.0
 40
1.0
 40
1.0
 10
11.9276923427
 20
11.8055284036
 30
0.0
 10
11.9278984894
 20
11.8054168666
 30
0.0
 10
11.9287220115
 20
11.8049638171
 30
0.0
 10
11.9305560554
 20
11.8038984776
 30
0.0
 10
11.9335910389
 20
11.8020621463
 30
0.0
 10
11.9377719521
 20
11.7993371147
 30
0.0
 10
11.9430056667
 20
11.7955670974
 30
0.0
 10
11.9491762445
 20
11.7906180439
 30
0.0
 10
11.956084729
 20
11.7843134394
 30
0.0
 10
11.9634779988
 20
11.7765363821
 30
0.0
 10
11.9710680642
 20
11.7672385507
 30
0.0
 10
11.9771446755
 20
11.7583899732
 30
0.0
 10
11.9818004023
 20
11.7505784606
 30
0.0
 10
11.9863757399
 20
11.7420840194
 30
0.0
 10
11.9915297764
 20
11.7307305189
 30
0.0
 10
11.9965397944
 20
11.7162407298
 30
0.0
 10
12.0002717354
 20
11.7009754267
 30
0.0
 10
12.0025490818
 20
11.6851971033
 30
0.0
 10
12.0030699469
 20
11.6745183063
 30
0.0
 10
12.0030699469
 20
11.6691695021
 30
0.0
  0
SPLINE
  5
40F
100
AcDbEntity
  8
0
100
AcDbSpline
 62
7
  6
CONTINUOUS
 70
0
 71
3
 72
39
 73
35
 74
0
 42
0.0000001
 43
0.0000001
 44
0.0000000001
 40
0.0
 40
0.0
 40
0.0
 40
0.0
 40
0.0394030312
 40
0.0788879675
 40
0.1183730079
 40
0.1578294393
 40
0.197273141
 40
0.236727045
 40
0.2761605541
 40
0.2958531775
 40
0.3155105349
 40
0.3546633615
 40
0.3934844801
 40
0.431767661
 40
0.4693612263
 40
0.541629387
 40
0.5759973415
 40
0.6089472545
 40
0.6403317722
 40
0.6700374462
 40
0.697947242
 40
0.723981096
 40
0.7481044805
 40
0.7703400586
 40
0.7908493866
 40
0.8099744258
 40
0.8282872106
 40
0.8466445931
 40
0.8660364877
 40
0.8873757612
 40
0.9112553882
 40
0.9380119198
 40
0.9676769825
 40
1.0
 40
1.0
 40
1.0
 40
1.0
 10
11.8049947561
 20
11.6691695021
 30
0.0
 10
11.8049947561
 20
11.6737948411
 30
0.0
 10
11.8044909967
 20
11.6830627053
 30
0.0
 10
11.8022455223
 20
11.6968015419
 30
0.0
 10
11.7985104177
 20
11.7102217131
 30
0.0
 10
11.7933125102
 20
11.7231403087
 30
0.0
 10
11.7867123556
 20
11.7353991943
 30
0.0
 10
11.7787684962
 20
11.7468285894
 30
0.0
 10
11.7711458805
 20
11.7555678081
 30
0.0
 10
11.7645204989
 20
11.762025471
 30
0.0
 10
11.7575813919
 20
11.7680949566
 30
0.0
 10
11.7483825104
 20
11.7749646174
 30
0.0
 10
11.7367101645
 20
11.7820707496
 30
0.0
 10
11.724620663
 20
11.78803438
 30
0.0
 10
11.7084554849
 20
11.7944814265
 30
0.0
 10
11.6921211614
 20
11.7991301755
 30
0.0
 10
11.6760352233
 20
11.802270051
 30
0.0
 10
11.6645640169
 20
11.8039324133
 30
0.0
 10
11.6535736288
 20
11.8050073497
 30
0.0
 10
11.6431357861
 20
11.8055335652
 30
0.0
 10
11.6333126047
 20
11.8055661073
 30
0.0
 10
11.6241552931
 20
11.8050891734
 30
0.0
 10
11.6157111609
 20
11.8040679968
 30
0.0
 10
11.6080131492
 20
11.8024736894
 30
0.0
 10
11.6010927949
 20
11.8002056506
 30
0.0
 10
11.5949829813
 20
11.7971450615
 30
0.0
 10
11.5897321019
 20
11.7931584925
 30
0.0
 10
11.5853939077
 20
11.7881458348
 30
0.0
 10
11.5819994457
 20
11.7820470488
 30
0.0
 10
11.5795254077
 20
11.7748464935
 30
0.0
 10
11.5778231466
 20
11.7665545268
 30
0.0
 10
11.576789833
 20
11.7571758959
 30
0.0
 10
11.5762938131
 20
11.7467665397
 30
0.0
 10
11.5762211131
 20
11.7394893809
 30
0.0
 10
11.5762205717
 20
11.7356951319
 30
0.0
  0
SPLINE
  5
410
100
AcDbEntity
  8
0
100
AcDbSpline
 62
7
  6
CONTINUOUS
 70
0
 71
3
 72
30
 73
26
 74
0
 42
0.0000001
 43
0.0000001
 44
0.0000000001
 40
0.0
 40
0.0
 40
0.0
 40
0.0
 40
0.0813579753
 40
0.1627145896
 40
0.2435885734
 40
0.3233527337
 40
0.4011369386
 40
0.47578943
 40
0.5115235688
 40
0.5459443848
 40
0.5788838837
 40
0.6102089658
 40
0.6398461367
 40
0.6678039307
 40
0.6941822628
 40
0.719169979
 40
0.7430283707
 40
0.7660584769
 40
0.7885664965
 40
0.8108376484
 40
0.8331137324
 40
0.8555858073
 40
0.9016040919
 40
0.9496497689
 40
1.0
 40
1.0
 40
1.0
 40
1.0
 10
10.0703899294
 20
11.0591695021
 30
0.0
 10
10.0765385322
 20
11.0537682282
 30
0.0
 10
10.0890153319
 20
11.0431678737
 30
0.0
 10
10.1082706886
 20
11.028003605
 30
0.0
 10
10.128033326
 20
11.0137750962
 30
0.0
 10
10.1482020204
 20
11.0007722402
 30
0.0
 10
10.1686076793
 20
10.9893696927
 30
0.0
 10
10.1858401526
 20
10.9814651232
 30
0.0
 10
10.1995245014
 20
10.9764518974
 30
0.0
 10
10.2094653782
 20
10.9734723004
 30
0.0
 10
10.2191565882
 20
10.9712801537
 30
0.0
 10
10.2285167041
 20
10.969928851
 30
0.0
 10
10.2374627192
 20
10.9694544671
 30
0.0
 10
10.2459160936
 20
10.9698726079
 30
0.0
 10
10.2538076101
 20
10.9711772097
 30
0.0
 10
10.261081191
 20
10.9733397292
 30
0.0
 10
10.2676974869
 20
10.9763099584
 30
0.0
 10
10.2736345544
 20
10.9800234727
 30
0.0
 10
10.2788878383
 20
10.9844066099
 30
0.0
 10
10.2834690772
 20
10.9893823339
 30
0.0
 10
10.2874001342
 20
10.9948789953
 30
0.0
 10
10.291847058
 20
11.0028720146
 30
0.0
 10
10.2959209743
 20
11.0139448935
 30
0.0
 10
10.298631919
 20
11.0282656344
 30
0.0
 10
10.2991641431
 20
11.0381777725
 30
0.0
 10
10.2991642597
 20
11.043242673
 30
0.0
  0
SPLINE
  5
411
100
AcDbEntity
  8
0
100
AcDbSpline
 62
7
  6
CONTINUOUS
 70
0
 71
3
 72
21
 73
17
 74
0
 42
0.0000001
 43
0.0000001
 44
0.0000000001
 40
0.0
 40
0.0
 40
0.0
 40
0.0
 40
0.1143910108
 40
0.1741407521
 40
0.2357520946
 40
0.2993213028
 40
0.3648128984
 40
0.4319268609
 40
0.4999999114
 40
0.5680728646
 40
0.6351868982
 40
0.700678385
 40
0.7642475594
 40
0.8258589489
 40
0.8856087475
 40
1.0
 40
1.0
 40
1.0
 40
1.0
 10
10.7765191113
 20
11.0591695021
 30
0.0
 10
10.7851360827
 20
11.0474087839
 30
0.0
 10
10.7998268597
 20
11.0305687051
 30
0.0
 10
10.8225692927
 20
11.0108750535
 30
0.0
 10
10.8419258655
 20
10.9973402935
 30
0.0
 10
10.8633560862
 20
10.9857567167
 30
0.0
 10
10.8867546863
 20
10.9767322932
 30
0.0
 10
10.9117607259
 20
10.9709367903
 30
0.0
 10
10.9376922972
 20
10.9689310841
 30
0.0
 10
10.9636238768
 20
10.970936782
 30
0.0
 10
10.9886299061
 20
10.9767322556
 30
0.0
 10
11.0120284987
 20
10.9857566733
 30
0.0
 10
11.0334587173
 20
10.9973402277
 30
0.0
 10
11.0528153053
 20
11.0108749819
 30
0.0
 10
11.0755577828
 20
11.0305686499
 30
0.0
 10
11.0902485846
 20
11.047408759
 30
0.0
 10
11.0988655742
 20
11.0591695021
 30
0.0
  0
SPLINE
  5
412
100
AcDbEntity
  8
0
100
AcDbSpline
 62
7
  6
CONTINUOUS
 70
0
 71
3
 72
43
 73
39
 74
0
 42
0.0000001
 43
0.0000001
 44
0.0000000001
 40
0.0
 40
0.0
 40
0.0
 40
0.0
 40
0.0330338295
 40
0.065838131
 40
0.0980621029
 40
0.1295049349
 40
0.1601100417
 40
0.1899668335
 40
0.2046884579
 40
0.2193181597
 40
0.2484842921
 40
0.2631317254
 40
0.2778691624
 40
0.3077417898
 40
0.3383021942
 40
0.3695852757
 40
0.4015409962
 40
0.4340326187
 40
0.4668953704
 40
0.4999524253
 40
0.533009371
 40
0.5658782653
 40
0.5983832356
 40
0.6303473695
 40
0.6616443802
 40
0.692221329
 40
0.7221067104
 40
0.7368512932
 40
0.7515057673
 40
0.7806830932
 40
0.7953163652
 40
0.8100404569
 40
0.8399007279
 40
0.8705062197
 40
0.9019457402
 40
0.9341651503
 40
0.9669668199
 40
1.0
 40
1.0
 40
1.0
 40
1.0
 10
11.0988655742
 20
11.6691695021
 30
0.0
 10
11.0988655742
 20
11.6745170256
 30
0.0
 10
11.0984415309
 20
11.6851801142
 30
0.0
 10
11.0965034096
 20
11.7009542438
 30
0.0
 10
11.0932204308
 20
11.7162457169
 30
0.0
 10
11.08852296
 20
11.7307972062
 30
0.0
 10
11.0823228714
 20
11.7443617482
 30
0.0
 10
11.0758411612
 20
11.7547125316
 30
0.0
 10
11.0699031701
 20
11.7622463743
 30
0.0
 10
11.0634950055
 20
11.7692325523
 30
0.0
 10
11.0563381257
 20
11.7754798941
 30
0.0
 10
11.0485740335
 20
11.7809264201
 30
0.0
 10
11.0403552128
 20
11.7858866402
 30
0.0
 10
11.0293458206
 20
11.7911447359
 30
0.0
 10
11.0153118917
 20
11.7960603663
 30
0.0
 10
11.0005722615
 20
11.7997780018
 30
0.0
 10
10.9852977249
 20
11.8024569792
 30
0.0
 10
10.9696423065
 20
11.8042698161
 30
0.0
 10
10.953739285
 20
11.8053063133
 30
0.0
 10
10.9377157495
 20
11.8056392145
 30
0.0
 10
10.9216907811
 20
11.8053131677
 30
0.0
 10
10.9057854148
 20
11.8042668113
 30
0.0
 10
10.8901239393
 20
11.8024681374
 30
0.0
 10
10.874843605
 20
11.7997867984
 30
0.0
 10
10.8600986187
 20
11.7960653753
 30
0.0
 10
10.8460565383
 20
11.791152356
 30
0.0
 10
10.8350402065
 20
11.7858944053
 30
0.0
 10
10.8268190526
 20
11.7809295564
 30
0.0
 10
10.819052053
 20
11.7754801123
 30
0.0
 10
10.8118917067
 20
11.7692315074
 30
0.0
 10
10.8054801014
 20
11.7622446855
 30
0.0
 10
10.7995403467
 20
11.7547101998
 30
0.0
 10
10.7930599221
 20
11.744357324
 30
0.0
 10
10.7868601213
 20
11.730792673
 30
0.0
 10
10.7821631172
 20
11.7162422718
 30
0.0
 10
10.778881105
 20
11.7009523388
 30
0.0
 10
10.7769432282
 20
11.6851794762
 30
0.0
 10
10.7765191113
 20
11.6745169205
 30
0.0
 10
10.7765191113
 20
11.6691695021
 30
0.0
  0
SPLINE
  5
413
100
AcDbEntity
  8
0
100
AcDbSpline
 62
7
  6
CONTINUOUS
 70
0
 71
3
 72
38
 73
34
 74
0
 42
0.0000001
 43
0.0000001
 44
0.0000000001
 40
0.0
 40
0.0
 40
0.0
 40
0.0
 40
0.0323248383
 40
0.061989367
 40
0.0887478803
 40
0.1126255567
 40
0.1339563234
 40
0.1533401565
 40
0.1716925388
 40
0.190003102
 40
0.209117373
 40
0.2296140924
 40
0.2518451238
 40
0.2759588048
 40
0.3019857822
 40
0.3298945257
 40
0.3595959491
 40
0.3909868582
 40
0.4583008787
 40
0.4939196125
 40
0.5306465732
 40
0.5682553073
 40
0.6065571498
 40
0.6454017141
 40
0.6845726554
 40
0.7042365595
 40
0.7239342911
 40
0.7633760166
 40
0.802836392
 40
0.8422818514
 40
0.8817368976
 40
0.9212212777
 40
1.0
 40
1.0
 40
1.0
 40
1.0
 10
10.29916424
 20
11.7356952987
 30
0.0
 10
10.2991634263
 20
11.7394893779
 30
0.0
 10
10.2990902683
 20
11.7467659474
 30
0.0
 10
10.2985941953
 20
11.7571746101
 30
0.0
 10
10.2975627543
 20
11.7665523735
 30
0.0
 10
10.2958627537
 20
11.7748429851
 30
0.0
 10
10.2933884602
 20
11.782040473
 30
0.0
 10
10.2899961441
 20
11.7881362167
 30
0.0
 10
10.2856648043
 20
11.7931515487
 30
0.0
 10
10.2804160608
 20
11.7971369516
 30
0.0
 10
10.2743094057
 20
11.8001954311
 30
0.0
 10
10.2673936619
 20
11.8024635213
 30
0.0
 10
10.2597018762
 20
11.8040686498
 30
0.0
 10
10.2512602312
 20
11.8050858622
 30
0.0
 10
10.2421060828
 20
11.8055592805
 30
0.0
 10
10.2322853363
 20
11.8055412128
 30
0.0
 10
10.2218481082
 20
11.805009646
 30
0.0
 10
10.206845326
 20
11.8035383715
 30
0.0
 10
10.1912668263
 20
11.8009154637
 30
0.0
 10
10.1753708819
 20
11.7968801474
 30
0.0
 10
10.1630707965
 20
11.7929420878
 30
0.0
 10
10.1507785725
 20
11.7880427763
 30
0.0
 10
10.1386854013
 20
11.7820753536
 30
0.0
 10
10.1270086162
 20
11.7749654787
 30
0.0
 10
10.1178051857
 20
11.7680945415
 30
0.0
 10
10.1108630726
 20
11.7620245815
 30
0.0
 10
10.1042361652
 20
11.755566433
 30
0.0
 10
10.0966140675
 20
11.7468252134
 30
0.0
 10
10.0886703525
 20
11.7353949967
 30
0.0
 10
10.0820699818
 20
11.723137592
 30
0.0
 10
10.0768732629
 20
11.7102174095
 30
0.0
 10
10.071901327
 20
11.6923589068
 30
0.0
 10
10.0703899294
 20
11.6784160362
 30
0.0
 10
10.0703899294
 20
11.6691695021
 30
0.0
  0
SPLINE
  5
414
100
AcDbEntity
  8
0
100
AcDbSpline
 62
7
  6
CONTINUOUS
 70
0
 71
3
 72
30
 73
26
 74
0
 42
0.0000001
 43
0.0000001
 44
0.0000000001
 40
0.0
 40
0.0
 40
0.0
 40
0.0
 40
0.0503501105
 40
0.0983957565
 40
0.1444140062
 40
0.166886098
 40
0.1891621812
 40
0.2114333345
 40
0.2339413561
 40
0.2569715638
 40
0.2808299408
 40
0.3058175815
 40
0.3321959429
 40
0.3601537663
 40
0.3897908847
 40
0.4211158975
 40
0.4540554916
 40
0.4884762847
 40
0.5242102531
 40
0.5988626985
 40
0.6766468488
 40
0.7564110556
 40
0.837285082
 40
0.9186418762
 40
1.0
 40
1.0
 40
1.0
 40
1.0
 10
11.5762204276
 20
11.0432426746
 30
0.0
 10
11.5762205431
 20
11.0381777863
 30
0.0
 10
11.5767527681
 20
11.0282656636
 30
0.0
 10
11.5794636998
 20
11.0139449398
 30
0.0
 10
11.5835376046
 20
11.0028720618
 30
0.0
 10
11.587984523
 20
10.9948790415
 30
0.0
 10
11.5919155765
 20
10.9893823758
 30
0.0
 10
11.596496807
 20
10.9844066437
 30
0.0
 10
11.6017500965
 20
10.9800234955
 30
0.0
 10
11.6076871739
 20
10.9763099813
 30
0.0
 10
11.6143034617
 20
10.9733397307
 30
0.0
 10
11.6215770406
 20
10.9711772245
 30
0.0
 10
11.6294685525
 20
10.9698726093
 30
0.0
 10
11.6379219282
 20
10.9694544674
 30
0.0
 10
11.6468679338
 20
10.9699288481
 30
0.0
 10
11.6562280489
 20
10.9712801398
 30
0.0
 10
11.6659192573
 20
10.9734722947
 30
0.0
 10
11.6758601294
 20
10.9764518727
 30
0.0
 10
11.6895444541
 20
10.9814650952
 30
0.0
 10
11.7067769082
 20
10.9893696402
 30
0.0
 10
11.7271825649
 20
11.0007721813
 30
0.0
 10
11.747351267
 20
11.0137750318
 30
0.0
 10
11.7671139299
 20
11.0280035517
 30
0.0
 10
11.7863693187
 20
11.0431678404
 30
0.0
 10
11.798846142
 20
11.0537682184
 30
0.0
 10
11.8049947561
 20
11.0591695021
 30
0.0
  0
LINE
  5
415
100
AcDbEntity
  8
0
100
AcDbLine
 62
7
  6
CONTINUOUS
 10
6.8878335671
 20
9.4723677395
 11
6.8854130587
 21
9.4722590439
  0
LINE
  5
416
100
AcDbEntity
  8
0
100
AcDbLine
 62
7
  6
CONTINUOUS
 10
6.8854130587
 20
9.4722590439
 11
6.8850137347
 21
9.4721991084
  0
LINE
  5
417
100
AcDbEntity
  8
0
100
AcDbLine
 62
7
  6
CONTINUOUS
 10
6.9905846334
 20
9.4722671811
 11
6.9922241363
 21
9.4721973732
  0
LINE
  5
418
100
AcDbEntity
  8
0
100
AcDbLine
 62
7
  6
CONTINUOUS
 10
6.9922241363
 20
9.4721973732
 11
6.992807897
 21
9.4721339351
  0
SPLINE
  5
419
100
AcDbEntity
  8
0
100
AcDbSpline
 62
7
  6
CONTINUOUS
 70
0
 71
3
 72
12
 73
8
 74
0
 42
0.0000001
 43
0.0000001
 44
0.0000000001
 40
0.0
 40
0.0
 40
0.0
 40
0.0
 40
0.2671773466
 40
0.5352027632
 40
0.7853872471
 40
0.8982526337
 40
1.0
 40
1.0
 40
1.0
 40
1.0
 10
6.7453592983
 20
9.4575355131
 30
0.0
 10
6.7484884078
 20
9.4579892247
 30
0.0
 10
6.7547685676
 20
9.4588168898
 30
0.0
 10
6.7640099077
 20
9.459815709
 30
0.0
 10
6.7714536583
 20
9.4604344849
 30
0.0
 10
6.7769449144
 20
9.460757105
 30
0.0
 10
6.7794829042
 20
9.4608584078
 30
0.0
 10
6.7806865598
 20
9.4608910933
 30
0.0
  0
SPLINE
  5
41A
100
AcDbEntity
  8
0
100
AcDbSpline
 62
7
  6
CONTINUOUS
 70
0
 71
3
 72
16
 73
12
 74
0
 42
0.0000001
 43
0.0000001
 44
0.0000000001
 40
0.0
 40
0.0
 40
0.0
 40
0.0
 40
0.1250249499
 40
0.1875399331
 40
0.2500488169
 40
0.3437945855
 40
0.4375324484
 40
0.6250220151
 40
0.7187652757
 40
0.8125127065
 40
1.0
 40
1.0
 40
1.0
 40
1.0
 10
6.7806865598
 20
9.4608910933
 30
0.0
 10
6.7815568851
 20
9.4609147272
 30
0.0
 10
6.7828621075
 20
9.4609599557
 30
0.0
 10
6.7846023446
 20
9.4610202806
 30
0.0
 10
6.7861250772
 20
9.4610675257
 30
0.0
 10
6.7878656548
 20
9.4611047517
 30
0.0
 10
6.7904769659
 20
9.4611129299
 30
0.0
 10
6.7930881023
 20
9.4610868138
 30
0.0
 10
6.7956994165
 20
9.4611016363
 30
0.0
 10
6.7983103327
 20
9.461143071
 30
0.0
 10
6.8002686673
 20
9.4611746726
 30
0.0
 10
6.8015742874
 20
9.4611746726
 30
0.0
  0
LINE
  5
41B
100
AcDbEntity
  8
0
100
AcDbLine
 62
7
  6
CONTINUOUS
 10
6.8461927253
 20
9.4598802875
 11
6.8470719161
 21
9.4596814972
  0
SPLINE
  5
41C
100
AcDbEntity
  8
0
100
AcDbSpline
 62
7
  6
CONTINUOUS
 70
0
 71
3
 72
16
 73
12
 74
0
 42
0.0000001
 43
0.0000001
 44
0.0000000001
 40
0.0
 40
0.0
 40
0.0
 40
0.0
 40
0.1250156553
 40
0.1875287335
 40
0.2500332766
 40
0.3437660143
 40
0.4375006522
 40
0.6250070628
 40
0.7187458794
 40
0.8124970429
 40
1.0
 40
1.0
 40
1.0
 40
1.0
 10
6.7987354526
 20
9.4501094638
 30
0.0
 10
6.799634548
 20
9.4501363766
 30
0.0
 10
6.8009826306
 20
9.4501951139
 30
0.0
 10
6.8027797188
 20
9.4502779773
 30
0.0
 10
6.8043522613
 20
9.4503439969
 30
0.0
 10
6.8061502706
 20
9.450395614
 30
0.0
 10
6.8088484121
 20
9.4504012378
 30
0.0
 10
6.8115462939
 20
9.4503604558
 30
0.0
 10
6.8142444289
 20
9.4503973455
 30
0.0
 10
6.8169411019
 20
9.4504849337
 30
0.0
 10
6.8189636393
 20
9.4505591347
 30
0.0
 10
6.8203126171
 20
9.4505772496
 30
0.0
  0
LINE
  5
41D
100
AcDbEntity
  8
0
100
AcDbLine
 62
7
  6
CONTINUOUS
 10
6.8469582649
 20
9.4562670478
 11
6.847762795
 21
9.4564241207
  0
LINE
  5
41E
100
AcDbEntity
  8
0
100
AcDbLine
 62
7
  6
CONTINUOUS
 10
6.8939937066
 20
9.4640132756
 11
6.8944082776
 21
9.4640686141
  0
LINE
  5
41F
100
AcDbEntity
  8
0
100
AcDbLine
 62
7
  6
CONTINUOUS
 10
6.8832451206
 20
9.4712565721
 11
6.8849227754
 21
9.4712559948
  0
LINE
  5
420
100
AcDbEntity
  8
0
100
AcDbLine
 62
7
  6
CONTINUOUS
 10
6.8849227754
 20
9.4712559948
 11
6.8876737956
 21
9.4712527216
  0
LINE
  5
421
100
AcDbEntity
  8
0
100
AcDbLine
 62
7
  6
CONTINUOUS
 10
6.8876737956
 20
9.4712527216
 11
6.8942406317
 21
9.4712351938
  0
LINE
  5
422
100
AcDbEntity
  8
0
100
AcDbLine
 62
7
  6
CONTINUOUS
 10
6.9055075144
 20
9.4711828314
 11
6.916754365
 21
9.4711167363
  0
LINE
  5
423
100
AcDbEntity
  8
0
100
AcDbLine
 62
7
  6
CONTINUOUS
 10
6.916754365
 20
9.4711167363
 11
6.9276599564
 21
9.4710519191
  0
LINE
  5
424
100
AcDbEntity
  8
0
100
AcDbLine
 62
7
  6
CONTINUOUS
 10
6.9276599564
 20
9.4710519191
 11
6.938202139
 21
9.470997509
  0
LINE
  5
425
100
AcDbEntity
  8
0
100
AcDbLine
 62
7
  6
CONTINUOUS
 10
6.9806176538
 20
9.4708949371
 11
6.9905824003
 21
9.4708781222
  0
LINE
  5
426
100
AcDbEntity
  8
0
100
AcDbLine
 62
7
  6
CONTINUOUS
 10
6.9905824003
 20
9.4708781222
 11
6.9994151524
 21
9.4708633603
  0
LINE
  5
427
100
AcDbEntity
  8
0
100
AcDbLine
 62
7
  6
CONTINUOUS
 10
6.9994151524
 20
9.4708633603
 11
7.0133067393
 21
9.4708436076
  0
LINE
  5
428
100
AcDbEntity
  8
0
100
AcDbLine
 62
7
  6
CONTINUOUS
 10
7.0133067393
 20
9.4708436076
 11
7.0222763305
 21
9.470846107
  0
SPLINE
  5
429
100
AcDbEntity
  8
0
100
AcDbSpline
 62
7
  6
CONTINUOUS
 70
0
 71
3
 72
25
 73
21
 74
0
 42
0.0000001
 43
0.0000001
 44
0.0000000001
 40
0.0
 40
0.0
 40
0.0
 40
0.0
 40
0.0262682965
 40
0.0526087618
 40
0.0791057349
 40
0.1058390556
 40
0.1602625342
 40
0.216421922
 40
0.2746820995
 40
0.3352244076
 40
0.3980438887
 40
0.462951973
 40
0.5296093716
 40
0.5975483107
 40
0.6662217494
 40
0.7350302445
 40
0.8033695766
 40
0.8371915976
 40
0.8706859764
 40
1.0
 40
1.0
 40
1.0
 40
1.0
 10
7.5771527198
 20
9.1681695021
 30
0.0
 10
7.5737091108
 20
9.1681695021
 30
0.0
 10
7.566807759
 20
9.1678306032
 30
0.0
 10
7.5565329255
 20
9.1663199438
 30
0.0
 10
7.5463883813
 20
9.1638214248
 30
0.0
 10
7.5330470107
 20
9.1591664977
 30
0.0
 10
7.5169301436
 20
9.1509202313
 30
0.0
 10
7.499134717
 20
9.1376009363
 30
0.0
 10
7.4830414749
 20
9.1211415022
 30
0.0
 10
7.4688978586
 20
9.10190012
 30
0.0
 10
7.4569062886
 20
9.0802574617
 30
0.0
 10
7.447238662
 20
9.0566205503
 30
0.0
 10
7.4400473351
 20
9.0314227851
 30
0.0
 10
7.4354390137
 20
9.0051294906
 30
0.0
 10
7.4334908301
 20
8.9782250327
 30
0.0
 10
7.4342364574
 20
8.9512094967
 30
0.0
 10
7.4370972657
 20
8.928938403
 30
0.0
 10
7.4407275512
 20
8.9115195959
 30
0.0
 10
7.4472999067
 20
8.8865981919
 30
0.0
 10
7.4554900198
 20
8.8666065901
 30
0.0
 10
7.4638357242
 20
8.8518509719
 30
0.0
  0
SPLINE
  5
42A
100
AcDbEntity
  8
0
100
AcDbSpline
 62
7
  6
CONTINUOUS
 70
0
 71
3
 72
15
 73
11
 74
0
 42
0.0000001
 43
0.0000001
 44
0.0000000001
 40
0.0
 40
0.0
 40
0.0
 40
0.0
 40
0.1368892641
 40
0.2697293927
 40
0.398607576
 40
0.5238153005
 40
0.6458619358
 40
0.7653601005
 40
0.8831077912
 40
1.0
 40
1.0
 40
1.0
 40
1.0
 10
7.465457581
 20
8.8490374432
 30
0.0
 10
7.4686831851
 20
8.8435467682
 30
0.0
 10
7.4755709478
 20
8.8330281406
 30
0.0
 10
7.487325254
 20
8.8186405323
 30
0.0
 10
7.5002523705
 20
8.8060551735
 30
0.0
 10
7.5142216273
 20
8.7954401523
 30
0.0
 10
7.5290923729
 20
8.7869704846
 30
0.0
 10
7.5446819438
 20
8.7807815763
 30
0.0
 10
7.5607817575
 20
8.7770188457
 30
0.0
 10
7.571714929
 20
8.7761695021
 30
0.0
 10
7.5771527198
 20
8.7761695021
 30
0.0
  0
SPLINE
  5
42B
100
AcDbEntity
  8
0
100
AcDbSpline
 62
7
  6
CONTINUOUS
 70
0
 71
3
 72
11
 73
7
 74
0
 42
0.0000001
 43
0.0000001
 44
0.0000000001
 40
0.0
 40
0.0
 40
0.0
 40
0.0
 40
0.2159081516
 40
0.4601628966
 40
0.7239068032
 40
1.0
 40
1.0
 40
1.0
 40
1.0
 10
7.4626434047
 20
8.8565394628
 30
0.0
 10
7.4610697567
 20
8.8571563429
 30
0.0
 10
7.4576521824
 20
8.8583142027
 30
0.0
 10
7.4521274566
 20
8.8596139207
 30
0.0
 10
7.44604039
 20
8.8604645795
 30
0.0
 10
7.4418118458
 20
8.8606695021
 30
0.0
 10
7.4396504471
 20
8.8606695021
 30
0.0
  0
SPLINE
  5
42C
100
AcDbEntity
  8
0
100
AcDbSpline
 62
7
  6
CONTINUOUS
 70
0
 71
3
 72
11
 73
7
 74
0
 42
0.0000001
 43
0.0000001
 44
0.0000000001
 40
0.0
 40
0.0
 40
0.0
 40
0.0
 40
0.2767987839
 40
0.5407175998
 40
0.7845909121
 40
1.0
 40
1.0
 40
1.0
 40
1.0
 10
7.4396504471
 20
9.0836695021
 30
0.0
 10
7.4418229941
 20
9.0836695021
 30
0.0
 10
7.4460695452
 20
9.0838770673
 30
0.0
 10
7.4521751605
 20
9.0847370072
 30
0.0
 10
7.4577093713
 20
9.0860370632
 30
0.0
 10
7.4611268099
 20
9.0872037953
 30
0.0
 10
7.4626993114
 20
9.0878248733
 30
0.0
  0
SPLINE
  5
42D
100
AcDbEntity
  8
0
100
AcDbSpline
 62
7
  6
CONTINUOUS
 70
0
 71
3
 72
31
 73
27
 74
0
 42
0.0000001
 43
0.0000001
 44
0.0000000001
 40
0.0
 40
0.0
 40
0.0
 40
0.0
 40
0.0210742758
 40
0.0373929561
 40
0.0491051216
 40
0.0532780969
 40
0.0563513853
 40
0.0592627226
 40
0.060563673
 40
0.0659222486
 40
0.0751388095
 40
0.0880156454
 40
0.1043607923
 40
0.1239886398
 40
0.1467206019
 40
0.1723858565
 40
0.2008211029
 40
0.2318538187
 40
0.2653004232
 40
0.3387034861
 40
0.4196105993
 40
0.5066582307
 40
0.5986591512
 40
0.6947694759
 40
0.7942100776
 40
1.0
 40
1.0
 40
1.0
 40
1.0
 10
7.410788334
 20
9.0902199636
 30
0.0
 10
7.4106234657
 20
9.0903904068
 30
0.0
 10
7.4103289368
 20
9.0906886634
 30
0.0
 10
7.4099263688
 20
9.0910752017
 30
0.0
 10
7.4096678728
 20
9.0913129054
 30
0.0
 10
7.4094951843
 20
9.0914628625
 30
0.0
 10
7.4094314364
 20
9.0915190696
 30
0.0
 10
7.409305197
 20
9.0916200122
 30
0.0
 10
7.4094237958
 20
9.0915301312
 30
0.0
 10
7.4095430936
 20
9.0914452823
 30
0.0
 10
7.4098119816
 20
9.0912569187
 30
0.0
 10
7.4101653816
 20
9.0910226657
 30
0.0
 10
7.4106323041
 20
9.0907263666
 30
0.0
 10
7.4111975079
 20
9.0903865859
 30
0.0
 10
7.4118633612
 20
9.0900081045
 30
0.0
 10
7.4126258218
 20
9.0896006059
 30
0.0
 10
7.4134830057
 20
9.0891725887
 30
0.0
 10
7.4144306454
 20
9.0887306861
 30
0.0
 10
7.415852806
 20
9.0881101891
 30
0.0
 10
7.4178200955
 20
9.0873375451
 30
0.0
 10
7.4203930573
 20
9.0864651479
 30
0.0
 10
7.4232077528
 20
9.0856641955
 30
0.0
 10
7.4262276941
 20
9.0849752709
 30
0.0
 10
7.4294155692
 20
9.0844132863
 30
0.0
 10
7.4338970919
 20
9.0838472745
 30
0.0
 10
7.4373348394
 20
9.0836695021
 30
0.0
 10
7.4396504471
 20
9.0836695021
 30
0.0
  0
SPLINE
  5
42E
100
AcDbEntity
  8
0
100
AcDbSpline
 62
7
  6
CONTINUOUS
 70
0
 71
3
 72
31
 73
27
 74
0
 42
0.0000001
 43
0.0000001
 44
0.0000000001
 40
0.0
 40
0.0
 40
0.0
 40
0.0
 40
0.1880491709
 40
0.3684674011
 40
0.4545786009
 40
0.5372500666
 40
0.6159423263
 40
0.6899239763
 40
0.758290032
 40
0.8200869451
 40
0.8743258165
 40
0.9199951695
 40
0.9393188902
 40
0.9561599479
 40
0.9704086217
 40
0.9819501847
 40
0.9866687256
 40
0.9906653864
 40
0.9939245962
 40
0.9964305516
 40
0.9981672502
 40
0.9991186225
 40
0.999295168
 40
0.9993283015
 40
0.9995609185
 40
1.0
 40
1.0
 40
1.0
 40
1.0
 10
7.4396504471
 20
8.8606695021
 30
0.0
 10
7.4376583742
 20
8.8606695021
 30
0.0
 10
7.4337532498
 20
8.8604943141
 30
0.0
 10
7.4289718745
 20
8.8598754153
 30
0.0
 10
7.425339767
 20
8.8591690241
 30
0.0
 10
7.4227892294
 20
8.8585590065
 30
0.0
 10
7.420392526
 20
8.8578693446
 30
0.0
 10
7.4181724652
 20
8.8571226476
 30
0.0
 10
7.4161522996
 20
8.8563492028
 30
0.0
 10
7.4143569924
 20
8.8555779467
 30
0.0
 10
7.4128111155
 20
8.8548388569
 30
0.0
 10
7.4116962751
 20
8.8542440323
 30
0.0
 10
7.4109478796
 20
8.8538063476
 30
0.0
 10
7.4104931421
 20
8.8535262646
 30
0.0
 10
7.4101138094
 20
8.8532810218
 30
0.0
 10
7.4098461057
 20
8.8531001824
 30
0.0
 10
7.4096699647
 20
8.852977184
 30
0.0
 10
7.4095669372
 20
8.8529041284
 30
0.0
 10
7.409482141
 20
8.8528423078
 30
0.0
 10
7.4094205382
 20
8.8527984418
 30
0.0
 10
7.4093708921
 20
8.852759031
 30
0.0
 10
7.409354772
 20
8.8527514737
 30
0.0
 10
7.4093379453
 20
8.8527360798
 30
0.0
 10
7.4093395506
 20
8.8527412906
 30
0.0
 10
7.4093464262
 20
8.85274481
 30
0.0
 10
7.4093510954
 20
8.85275026
 30
0.0
 10
7.4093545789
 20
8.8527533422
 30
0.0
  0
SPLINE
  5
42F
100
AcDbEntity
  8
0
100
AcDbSpline
 62
7
  6
CONTINUOUS
 70
0
 71
3
 72
15
 73
11
 74
0
 42
0.0000001
 43
0.0000001
 44
0.0000000001
 40
0.0
 40
0.0
 40
0.0
 40
0.0
 40
0.1193533697
 40
0.2391784106
 40
0.3602215367
 40
0.4830197427
 40
0.6079972781
 40
0.7356387296
 40
0.8662471105
 40
1.0
 40
1.0
 40
1.0
 40
1.0
 10
7.2993087976
 20
8.7761822095
 30
0.0
 10
7.3049482595
 20
8.7762667564
 30
0.0
 10
7.31625423
 20
8.7772846142
 30
0.0
 10
7.3328561341
 20
8.7812973595
 30
0.0
 10
7.3488629748
 20
8.787706175
 30
0.0
 10
7.3640605591
 20
8.7963417443
 30
0.0
 10
7.3782609726
 20
8.8070523437
 30
0.0
 10
7.3913350363
 20
8.8196426708
 30
0.0
 10
7.4031733
 20
8.8339359878
 30
0.0
 10
7.4101070374
 20
8.8443577068
 30
0.0
 10
7.4133486362
 20
8.8497837002
 30
0.0
  0
SPLINE
  5
430
100
AcDbEntity
  8
0
100
AcDbSpline
 62
7
  6
CONTINUOUS
 70
0
 71
3
 72
15
 73
11
 74
0
 42
0.0000001
 43
0.0000001
 44
0.0000000001
 40
0.0
 40
0.0
 40
0.0
 40
0.0
 40
0.1340303055
 40
0.2648140637
 40
0.3925247213
 40
0.5174761323
 40
0.6401698662
 40
0.761071333
 40
0.8807551296
 40
1.0
 40
1.0
 40
1.0
 40
1.0
 10
7.4147075377
 20
9.0922447479
 30
0.0
 10
7.4114361154
 20
9.0978947457
 30
0.0
 10
7.4044126356
 20
9.1087465603
 30
0.0
 10
7.3923449611
 20
9.1236261129
 30
0.0
 10
7.3789582005
 20
9.1367154566
 30
0.0
 10
7.3643696645
 20
9.1478204318
 30
0.0
 10
7.3487196626
 20
9.1567291461
 30
0.0
 10
7.3322110162
 20
9.1632725496
 30
0.0
 10
7.3150800423
 20
9.1672679541
 30
0.0
 10
7.3034224638
 20
9.1681695021
 30
0.0
 10
7.2976139201
 20
9.1681695021
 30
0.0
  0
SPLINE
  5
431
100
AcDbEntity
  8
0
100
AcDbSpline
 62
7
  6
CONTINUOUS
 70
0
 71
3
 72
12
 73
8
 74
0
 42
0.0000001
 43
0.0000001
 44
0.0000000001
 40
0.0
 40
0.0
 40
0.0
 40
0.0
 40
0.1290481552
 40
0.2578339332
 40
0.5123375924
 40
0.7604459247
 40
1.0
 40
1.0
 40
1.0
 40
1.0
 10
6.4415095877
 20
8.9730960203
 30
0.0
 10
6.441490879
 20
8.9785184753
 30
0.0
 10
6.4411256772
 20
8.9893544976
 30
0.0
 10
6.439109311
 20
9.0107974105
 30
0.0
 10
6.4342201261
 20
9.0369507862
 30
0.0
 10
6.4246307008
 20
9.0667102952
 30
0.0
 10
6.4157288731
 20
9.0852590143
 30
0.0
 10
6.4106980308
 20
9.0939774942
 30
0.0
  0
SPLINE
  5
432
100
AcDbEntity
  8
0
100
AcDbSpline
 62
7
  6
CONTINUOUS
 70
0
 71
3
 72
18
 73
14
 74
0
 42
0.0000001
 43
0.0000001
 44
0.0000000001
 40
0.0
 40
0.0
 40
0.0
 40
0.0
 40
0.1371193692
 40
0.2041292589
 40
0.2700936614
 40
0.3989193388
 40
0.523974709
 40
0.6458182111
 40
0.7057860267
 40
0.7652340785
 40
0.8829373102
 40
0.941500173
 40
1.0
 40
1.0
 40
1.0
 40
1.0
 10
6.4101242457
 20
9.0949652478
 30
0.0
 10
6.4067971515
 20
9.100654663
 30
0.0
 10
6.4014121097
 20
9.1088854208
 30
0.0
 10
6.3934301558
 20
9.1191309265
 30
0.0
 10
6.3851418605
 20
9.1286072546
 30
0.0
 10
6.3740128701
 20
9.1392739028
 30
0.0
 10
6.3594534707
 20
9.1500444682
 30
0.0
 10
6.34645511
 20
9.15713087
 30
0.0
 10
6.3357162682
 20
9.1615334448
 30
0.0
 10
6.3248673965
 20
9.1650542289
 30
0.0
 10
6.313705557
 20
9.167297602
 30
0.0
 10
6.3024485509
 20
9.1681978354
 30
0.0
 10
6.2968142202
 20
9.168197252
 30
0.0
 10
6.2940046078
 20
9.168084526
 30
0.0
  0
SPLINE
  5
433
100
AcDbEntity
  8
0
100
AcDbSpline
 62
7
  6
CONTINUOUS
 70
0
 71
3
 72
17
 73
13
 74
0
 42
0.0000001
 43
0.0000001
 44
0.0000000001
 40
0.0
 40
0.0
 40
0.0
 40
0.0
 40
0.0585152786
 40
0.1170900794
 40
0.1758453621
 40
0.2348930156
 40
0.3542230487
 40
0.4760612145
 40
0.6011102976
 40
0.7299353623
 40
0.8628630702
 40
1.0
 40
1.0
 40
1.0
 40
1.0
 10
6.2936299211
 20
8.7762698632
 30
0.0
 10
6.2964452789
 20
8.7761470214
 30
0.0
 10
6.3020913625
 20
8.7761273232
 30
0.0
 10
6.3105434802
 20
8.7767757539
 30
0.0
 10
6.318944079
 20
8.7780935625
 30
0.0
 10
6.3300633905
 20
8.7807400455
 30
0.0
 10
6.3436994962
 20
8.7857247247
 30
0.0
 10
6.3592519244
 20
8.7941640051
 30
0.0
 10
6.373859013
 20
8.8049329006
 30
0.0
 10
6.3873571893
 20
8.8178387709
 30
0.0
 10
6.399600222
 20
8.8326937987
 30
0.0
 10
6.4067426296
 20
8.8435970123
 30
0.0
 10
6.4100791073
 20
8.8492966344
 30
0.0
  0
SPLINE
  5
434
100
AcDbEntity
  8
0
100
AcDbSpline
 62
7
  6
CONTINUOUS
 70
0
 71
3
 72
12
 73
8
 74
0
 42
0.0000001
 43
0.0000001
 44
0.0000000001
 40
0.0
 40
0.0
 40
0.0
 40
0.0
 40
0.2396712179
 40
0.4877460506
 40
0.7421548205
 40
0.8709196732
 40
1.0
 40
1.0
 40
1.0
 40
1.0
 10
6.4109026748
 20
8.8507170635
 30
0.0
 10
6.4158218645
 20
8.8592831807
 30
0.0
 10
6.4245443916
 20
8.8774817176
 30
0.0
 10
6.4340066159
 20
8.9066502799
 30
0.0
 10
6.4389081045
 20
8.9322743908
 30
0.0
 10
6.4410062574
 20
8.9532916122
 30
0.0
 10
6.441437154
 20
8.9639177788
 30
0.0
 10
6.4414951874
 20
8.9692375334
 30
0.0
  0
SPLINE
  5
435
100
AcDbEntity
  8
0
100
AcDbSpline
 62
7
  6
CONTINUOUS
 70
0
 71
3
 72
38
 73
34
 74
0
 42
0.0000001
 43
0.0000001
 44
0.0000000001
 40
0.0
 40
0.0
 40
0.0
 40
0.0
 40
0.000585019
 40
0.0008857164
 40
0.0009305143
 40
0.0009558531
 40
0.0012143371
 40
0.0017476554
 40
0.0025528155
 40
0.004966969
 40
0.008431101
 40
0.0129101917
 40
0.018367659
 40
0.024767441
 40
0.0320740529
 40
0.040252637
 40
0.0590891383
 40
0.0810129488
 40
0.1057730806
 40
0.1331323188
 40
0.1628569198
 40
0.1947141984
 40
0.228475421
 40
0.3008140697
 40
0.3781928288
 40
0.4590861989
 40
0.5420098987
 40
0.6254920009
 40
0.7081096522
 40
0.788425973
 40
0.8649104341
 40
0.9359779572
 40
1.0
 40
1.0
 40
1.0
 40
1.0
 10
6.4660060833
 20
8.8527754035
 30
0.0
 10
6.4660144221
 20
8.8527685664
 30
0.0
 10
6.4660295152
 20
8.85275645
 30
0.0
 10
6.4660378203
 20
8.8527497043
 30
0.0
 10
6.4660471243
 20
8.8527427201
 30
0.0
 10
6.4660410424
 20
8.8527485307
 30
0.0
 10
6.4660313327
 20
8.852755375
 30
0.0
 10
6.4660066349
 20
8.8527753514
 30
0.0
 10
6.4659525783
 20
8.8528158882
 30
0.0
 10
6.4658523203
 20
8.8528896245
 30
0.0
 10
6.4656964347
 20
8.852998785
 30
0.0
 10
6.4654918025
 20
8.8531375771
 30
0.0
 10
6.4652400352
 20
8.8533026262
 30
0.0
 10
6.4649417558
 20
8.8534919316
 30
0.0
 10
6.4645979728
 20
8.8537029912
 30
0.0
 10
6.4640538912
 20
8.8540258444
 30
0.0
 10
6.4632671527
 20
8.8544674998
 30
0.0
 10
6.4621954013
 20
8.8550246582
 30
0.0
 10
6.4609633123
 20
8.855612413
 30
0.0
 10
6.4595785391
 20
8.8562117646
 30
0.0
 10
6.4580525798
 20
8.8568118125
 30
0.0
 10
6.456396779
 20
8.8574016924
 30
0.0
 10
6.4539748919
 20
8.8581779186
 30
0.0
 10
6.4507049923
 20
8.8590521592
 30
0.0
 10
6.4465288265
 20
8.8598628697
 30
0.0
 10
6.4421139844
 20
8.8604135317
 30
0.0
 10
6.4375609224
 20
8.8606886438
 30
0.0
 10
6.4329672394
 20
8.8606680521
 30
0.0
 10
6.4284342703
 20
8.8603274235
 30
0.0
 10
6.4240622258
 20
8.8597050096
 30
0.0
 10
6.4199470815
 20
8.8588500675
 30
0.0
 10
6.4161855392
 20
8.857809355
 30
0.0
 10
6.4138370459
 20
8.8569747073
 30
0.0
 10
6.4127394188
 20
8.8565413225
 30
0.0
  0
SPLINE
  5
436
100
AcDbEntity
  8
0
100
AcDbSpline
 62
7
  6
CONTINUOUS
 70
0
 71
3
 72
22
 73
18
 74
0
 42
0.0000001
 43
0.0000001
 44
0.0000000001
 40
0.0
 40
0.0
 40
0.0
 40
0.0
 40
0.0593502214
 40
0.1247175492
 40
0.1947724228
 40
0.2683009371
 40
0.3441616026
 40
0.4212131965
 40
0.4983350142
 40
0.5744429691
 40
0.6484183978
 40
0.7190775892
 40
0.785200625
 40
0.8455432962
 40
0.8987361934
 40
0.9432707932
 40
1.0
 40
1.0
 40
1.0
 40
1.0
 10
6.4129337459
 20
9.0877203192
 30
0.0
 10
6.4139400433
 20
9.0873319548
 30
0.0
 10
6.4160807396
 20
9.086582314
 30
0.0
 10
6.4194854603
 20
9.0856066344
 30
0.0
 10
6.4231957522
 20
9.0847852691
 30
0.0
 10
6.427139432
 20
9.0841741136
 30
0.0
 10
6.4312385938
 20
9.0837841849
 30
0.0
 10
6.4354189172
 20
9.0836319643
 30
0.0
 10
6.4396056805
 20
9.0837329559
 30
0.0
 10
6.4437214093
 20
9.0840990243
 30
0.0
 10
6.447691423
 20
9.0846921924
 30
0.0
 10
6.4514425122
 20
9.0854776691
 30
0.0
 10
6.4549018635
 20
9.0864185248
 30
0.0
 10
6.4579918227
 20
9.0874800776
 30
0.0
 10
6.4606498294
 20
9.0885753905
 30
0.0
 10
6.463180353
 20
9.0897904296
 30
0.0
 10
6.4647827113
 20
9.0907090223
 30
0.0
 10
6.4656271832
 20
9.0913004921
 30
0.0
  0
SPLINE
  5
437
100
AcDbEntity
  8
0
100
AcDbSpline
 62
7
  6
CONTINUOUS
 70
0
 71
3
 72
15
 73
11
 74
0
 42
0.0000001
 43
0.0000001
 44
0.0000000001
 40
0.0
 40
0.0
 40
0.0
 40
0.0
 40
0.1194589323
 40
0.2393238818
 40
0.3603590683
 40
0.4831273597
 40
0.6080628532
 40
0.7356633943
 40
0.8662458324
 40
1.0
 40
1.0
 40
1.0
 40
1.0
 10
6.5777707653
 20
9.1681695021
 30
0.0
 10
6.5720862281
 20
9.1681695021
 30
0.0
 10
6.5606799245
 20
9.1673063987
 30
0.0
 10
6.5439036741
 20
9.1634798888
 30
0.0
 10
6.527712121
 20
9.1572071218
 30
0.0
 10
6.5123278661
 20
9.148659635
 30
0.0
 10
6.4979455077
 20
9.137991823
 30
0.0
 10
6.4847002473
 20
9.1254030133
 30
0.0
 10
6.4727052732
 20
9.1110744193
 30
0.0
 10
6.4656806088
 20
9.100608992
 30
0.0
 10
6.4623968187
 20
9.0951567242
 30
0.0
  0
SPLINE
  5
438
100
AcDbEntity
  8
0
100
AcDbSpline
 62
7
  6
CONTINUOUS
 70
0
 71
3
 72
15
 73
11
 74
0
 42
0.0000001
 43
0.0000001
 44
0.0000000001
 40
0.0
 40
0.0
 40
0.0
 40
0.0
 40
0.1337281524
 40
0.2642909066
 40
0.3918798841
 40
0.5168126581
 40
0.6395857292
 40
0.7606335584
 40
0.8805211035
 40
1.0
 40
1.0
 40
1.0
 40
1.0
 10
6.4625538885
 20
8.8489219611
 30
0.0
 10
6.4658385488
 20
8.8434874657
 30
0.0
 10
6.4728628442
 20
8.8330567622
 30
0.0
 10
6.4848506575
 20
8.8187776654
 30
0.0
 10
6.4980825712
 20
8.8062337205
 30
0.0
 10
6.5124458373
 20
8.7956050863
 30
0.0
 10
6.5278056428
 20
8.787089564
 30
0.0
 10
6.5439687417
 20
8.7808407866
 30
0.0
 10
6.5607133823
 20
8.7770294401
 30
0.0
 10
6.5720973662
 20
8.7761695021
 30
0.0
 10
6.5777707653
 20
8.7761695021
 30
0.0
  0
SPLINE
  5
439
100
AcDbEntity
  8
0
100
AcDbSpline
 62
7
  6
CONTINUOUS
 70
0
 71
3
 72
9
 73
5
 74
0
 42
0.0000001
 43
0.0000001
 44
0.0000000001
 40
0.0
 40
0.0
 40
0.0
 40
0.0
 40
0.4831339698
 40
1.0
 40
1.0
 40
1.0
 40
1.0
 10
6.543480269
 20
8.7671695021
 30
0.0
 10
6.5492297914
 20
8.7671694996
 30
0.0
 10
6.5611410001
 20
8.7681748027
 30
0.0
 10
6.572779094
 20
8.7708273976
 30
0.0
 10
6.57868463
 20
8.7725475223
 30
0.0
  0
SPLINE
  5
43A
100
AcDbEntity
  8
0
100
AcDbSpline
 62
7
  6
CONTINUOUS
 70
0
 71
3
 72
9
 73
5
 74
0
 42
0.0000001
 43
0.0000001
 44
0.0000000001
 40
0.0
 40
0.0
 40
0.0
 40
0.0
 40
0.2453140873
 40
1.0
 40
1.0
 40
1.0
 40
1.0
 10
6.57868463
 20
8.7725475223
 30
0.0
 10
6.5800820983
 20
8.7729545674
 30
0.0
 10
6.5857552421
 20
8.7746939399
 30
0.0
 10
6.5913322317
 20
8.7767434892
 30
0.0
 10
6.5954759597
 20
8.7784407137
 30
0.0
  0
SPLINE
  5
43B
100
AcDbEntity
  8
0
100
AcDbSpline
 62
7
  6
CONTINUOUS
 70
0
 71
3
 72
20
 73
16
 74
0
 42
0.0000001
 43
0.0000001
 44
0.0000000001
 40
0.0
 40
0.0
 40
0.0
 40
0.0
 40
0.114926625
 40
0.2350330425
 40
0.2965591072
 40
0.3588272714
 40
0.4849815726
 40
0.5487242497
 40
0.6127557517
 40
0.6770061414
 40
0.7414344647
 40
0.8059830024
 40
0.870640476
 40
0.935356036
 40
1.0
 40
1.0
 40
1.0
 40
1.0
 10
6.6025526646
 20
8.7815115393
 30
0.0
 10
6.6110244796
 20
8.7853937728
 30
0.0
 10
6.6277958334
 20
8.7945806845
 30
0.0
 10
6.6473315483
 20
8.8087047647
 30
0.0
 10
6.6622637585
 20
8.8216891896
 30
0.0
 10
6.6767318931
 20
8.8358955007
 30
0.0
 10
6.6899760114
 20
8.8515601979
 30
0.0
 10
6.7016692026
 20
8.8685227548
 30
0.0
 10
6.7096099338
 20
8.8819321474
 30
0.0
 10
6.7165812312
 20
8.8959331503
 30
0.0
 10
6.7224757309
 20
8.910467498
 30
0.0
 10
6.7272004577
 20
8.9254593644
 30
0.0
 10
6.7306465841
 20
8.9408218193
 30
0.0
 10
6.7327437094
 20
8.9564327733
 30
0.0
 10
6.7332211287
 20
8.9669277594
 30
0.0
 10
6.7332211287
 20
8.9721695021
 30
0.0
  0
SPLINE
  5
43C
100
AcDbEntity
  8
0
100
AcDbSpline
 62
7
  6
CONTINUOUS
 70
0
 71
3
 72
18
 73
14
 74
0
 42
0.0000001
 43
0.0000001
 44
0.0000000001
 40
0.0
 40
0.0
 40
0.0
 40
0.0
 40
0.0645190348
 40
0.1290992533
 40
0.1936207853
 40
0.2580455148
 40
0.3223568172
 40
0.3865033179
 40
0.5140437152
 40
0.6401287605
 40
0.7639574698
 40
0.8844005174
 40
1.0
 40
1.0
 40
1.0
 40
1.0
 10
6.7332211287
 20
8.9721695021
 30
0.0
 10
6.7332211287
 20
8.977307654
 30
0.0
 10
6.7327633498
 20
8.9875942053
 30
0.0
 10
6.7307487559
 20
9.0028997621
 30
0.0
 10
6.7274333283
 20
9.0179701504
 30
0.0
 10
6.7228881626
 20
9.0326916015
 30
0.0
 10
6.7172102588
 20
9.0469814234
 30
0.0
 10
6.7082647006
 20
9.0653188128
 30
0.0
 10
6.69475875
 20
9.0868225543
 30
0.0
 10
6.675561996
 20
9.1100509438
 30
0.0
 10
6.654119653
 20
9.1304061657
 30
0.0
 10
6.6311078771
 20
9.1475935732
 30
0.0
 10
6.6147434861
 20
9.1569665302
 30
0.0
 10
6.6064603929
 20
9.1609842862
 30
0.0
  0
SPLINE
  5
43D
100
AcDbEntity
  8
0
100
AcDbSpline
 62
7
  6
CONTINUOUS
 70
0
 71
3
 72
9
 73
5
 74
0
 42
0.0000001
 43
0.0000001
 44
0.0000000001
 40
0.0
 40
0.0
 40
0.0
 40
0.0
 40
0.2546016811
 40
1.0
 40
1.0
 40
1.0
 40
1.0
 10
6.5953304854
 20
9.1659577196
 30
0.0
 10
6.593953497
 20
9.1665203858
 30
0.0
 10
6.5885184521
 20
9.1686642564
 30
0.0
 10
6.5829759861
 20
9.170538547
 30
0.0
 10
6.5787956135
 20
9.1717593859
 30
0.0
  0
SPLINE
  5
43E
100
AcDbEntity
  8
0
100
AcDbSpline
 62
7
  6
CONTINUOUS
 70
0
 71
3
 72
9
 73
5
 74
0
 42
0.0000001
 43
0.0000001
 44
0.0000000001
 40
0.0
 40
0.0
 40
0.0
 40
0.0
 40
0.5169476826
 40
1.0
 40
1.0
 40
1.0
 40
1.0
 10
6.5787956135
 20
9.1717593859
 30
0.0
 10
6.5728713205
 20
9.1734895205
 30
0.0
 10
6.5611968616
 20
9.1761561181
 30
0.0
 10
6.5492474
 20
9.1771695021
 30
0.0
 10
6.5434803122
 20
9.1771695021
 30
0.0
  0
SPLINE
  5
43F
100
AcDbEntity
  8
0
100
AcDbSpline
 62
7
  6
CONTINUOUS
 70
0
 71
3
 72
9
 73
5
 74
0
 42
0.0000001
 43
0.0000001
 44
0.0000000001
 40
0.0
 40
0.0
 40
0.0
 40
0.0
 40
0.4825894367
 40
1.0
 40
1.0
 40
1.0
 40
1.0
 10
7.3319043821
 20
9.1771695021
 30
0.0
 10
7.325938417
 20
9.1771695021
 30
0.0
 10
7.3135643288
 20
9.1760864514
 30
0.0
 10
7.3014933594
 20
9.1732403792
 30
0.0
 10
7.2953682609
 20
9.1713971248
 30
0.0
  0
SPLINE
  5
440
100
AcDbEntity
  8
0
100
AcDbSpline
 62
7
  6
CONTINUOUS
 70
0
 71
3
 72
9
 73
5
 74
0
 42
0.0000001
 43
0.0000001
 44
0.0000000001
 40
0.0
 40
0.0
 40
0.0
 40
0.0
 40
0.2457162698
 40
1.0
 40
1.0
 40
1.0
 40
1.0
 10
7.2953682609
 20
9.1713971248
 30
0.0
 10
7.2940810742
 20
9.1710097657
 30
0.0
 10
7.2888628796
 20
9.1693662904
 30
0.0
 10
7.2837274517
 20
9.1674623901
 30
0.0
 10
7.2799089728
 20
9.1658983904
 30
0.0
  0
SPLINE
  5
441
100
AcDbEntity
  8
0
100
AcDbSpline
 62
7
  6
CONTINUOUS
 70
0
 71
3
 72
20
 73
16
 74
0
 42
0.0000001
 43
0.0000001
 44
0.0000000001
 40
0.0
 40
0.0
 40
0.0
 40
0.0
 40
0.1149268647
 40
0.2350333759
 40
0.2965594555
 40
0.3588276188
 40
0.4849818901
 40
0.548724536
 40
0.6127559932
 40
0.6770063352
 40
0.7414346025
 40
0.8059830893
 40
0.8706405409
 40
0.9353560773
 40
1.0
 40
1.0
 40
1.0
 40
1.0
 10
7.2728304997
 20
9.1628267665
 30
0.0
 10
7.2643587586
 20
9.1589444787
 30
0.0
 10
7.2475875659
 20
9.1497574942
 30
0.0
 10
7.2280520478
 20
9.1356333781
 30
0.0
 10
7.2131200022
 20
9.1226489581
 30
0.0
 10
7.1986520366
 20
9.1084426758
 30
0.0
 10
7.1854080823
 20
9.0927780321
 30
0.0
 10
7.1737150427
 20
9.0758155533
 30
0.0
 10
7.1657744189
 20
9.0624062335
 30
0.0
 10
7.1588032189
 20
9.048405316
 30
0.0
 10
7.1529087993
 20
9.033871066
 30
0.0
 10
7.1481841378
 20
9.0188793033
 30
0.0
 10
7.1447380673
 20
9.0035169551
 30
0.0
 10
7.1426409707
 20
8.9879061141
 30
0.0
 10
7.1421635568
 20
8.9774112055
 30
0.0
 10
7.1421635568
 20
8.9721695021
 30
0.0
  0
SPLINE
  5
442
100
AcDbEntity
  8
0
100
AcDbSpline
 62
7
  6
CONTINUOUS
 70
0
 71
3
 72
18
 73
14
 74
0
 42
0.0000001
 43
0.0000001
 44
0.0000000001
 40
0.0
 40
0.0
 40
0.0
 40
0.0
 40
0.0645189251
 40
0.1290990322
 40
0.1936204463
 40
0.258045051
 40
0.3223562338
 40
0.386502636
 40
0.5140428919
 40
0.6401278738
 40
0.7639566489
 40
0.8843999556
 40
1.0
 40
1.0
 40
1.0
 40
1.0
 10
7.1421635568
 20
8.9721695021
 30
0.0
 10
7.1421635568
 20
8.9670314423
 30
0.0
 10
7.1426213191
 20
8.9567450755
 30
0.0
 10
7.144635841
 20
8.9414397894
 30
0.0
 10
7.1479511515
 20
8.9263696609
 30
0.0
 10
7.1524961614
 20
8.9116484537
 30
0.0
 10
7.1581738758
 20
8.8973588546
 30
0.0
 10
7.1671191418
 20
8.8790217232
 30
0.0
 10
7.1806246684
 20
8.8575182322
 30
0.0
 10
7.1998208718
 20
8.8342900376
 30
0.0
 10
7.221262642
 20
8.8139348814
 30
0.0
 10
7.2442738611
 20
8.7967473922
 30
0.0
 10
7.2606378832
 20
8.7873742813
 30
0.0
 10
7.2689208047
 20
8.7833564108
 30
0.0
  0
SPLINE
  5
443
100
AcDbEntity
  8
0
100
AcDbSpline
 62
7
  6
CONTINUOUS
 70
0
 71
3
 72
9
 73
5
 74
0
 42
0.0000001
 43
0.0000001
 44
0.0000000001
 40
0.0
 40
0.0
 40
0.0
 40
0.0
 40
0.2546015853
 40
1.0
 40
1.0
 40
1.0
 40
1.0
 10
7.2800545233
 20
8.7783811539
 30
0.0
 10
7.2814314812
 20
8.7778185032
 30
0.0
 10
7.2868664072
 20
8.7756746898
 30
0.0
 10
7.2924087492
 20
8.7738004446
 30
0.0
 10
7.2965890277
 20
8.7725796316
 30
0.0
  0
SPLINE
  5
444
100
AcDbEntity
  8
0
100
AcDbSpline
 62
7
  6
CONTINUOUS
 70
0
 71
3
 72
9
 73
5
 74
0
 42
0.0000001
 43
0.0000001
 44
0.0000000001
 40
0.0
 40
0.0
 40
0.0
 40
0.0
 40
0.5169476417
 40
1.0
 40
1.0
 40
1.0
 40
1.0
 10
7.2965890277
 20
8.7725796316
 30
0.0
 10
7.3025133156
 20
8.7708494962
 30
0.0
 10
7.3141877655
 20
8.768182896
 30
0.0
 10
7.3261372182
 20
8.7671695064
 30
0.0
 10
7.3319043025
 20
8.7671695021
 30
0.0
  0
SPLINE
  5
445
100
AcDbEntity
  8
0
100
AcDbSpline
 62
7
  6
CONTINUOUS
 70
0
 71
3
 72
11
 73
7
 74
0
 42
0.0000001
 43
0.0000001
 44
0.0000000001
 40
0.0
 40
0.0
 40
0.0
 40
0.0
 40
0.0841599587
 40
0.3108662114
 40
0.6308945728
 40
1.0
 40
1.0
 40
1.0
 40
1.0
 10
6.5941923427
 20
8.3380695021
 30
0.0
 10
6.5947060661
 20
8.3404380167
 30
0.0
 10
6.5965419857
 20
8.3492004395
 30
0.0
 10
6.5997919232
 20
8.367081038
 30
0.0
 10
6.6031990007
 20
8.3932499959
 30
0.0
 10
6.6044076156
 20
8.4130815632
 30
0.0
 10
6.6046495174
 20
8.4237083177
 30
0.0
  0
SPLINE
  5
446
100
AcDbEntity
  8
0
100
AcDbSpline
 62
7
  6
CONTINUOUS
 70
0
 71
3
 72
11
 73
7
 74
0
 42
0.0000001
 43
0.0000001
 44
0.0000000001
 40
0.0
 40
0.0
 40
0.0
 40
0.0
 40
0.3578588507
 40
0.6783406546
 40
0.9116026576
 40
1.0
 40
1.0
 40
1.0
 40
1.0
 10
6.6047158015
 20
8.4273104106
 30
0.0
 10
6.6048858177
 20
8.4394414919
 30
0.0
 10
6.6041989871
 20
8.4624636224
 30
0.0
 10
6.6007757252
 20
8.49320572
 30
0.0
 10
6.597046292
 20
8.5146632015
 30
0.0
 10
6.594827606
 20
8.5253408366
 30
0.0
 10
6.5941923427
 20
8.5282695021
 30
0.0
  0
LINE
  5
447
100
AcDbEntity
  8
0
100
AcDbLine
 62
7
  6
CONTINUOUS
 10
6.7955981967
 20
9.4653052332
 11
6.7964100845
 21
9.4656780134
  0
LINE
  5
448
100
AcDbEntity
  8
0
100
AcDbLine
 62
7
  6
CONTINUOUS
 10
6.7964100845
 20
9.4656780134
 11
6.7969780933
 21
9.4658117667
  0
LINE
  5
449
100
AcDbEntity
  8
0
100
AcDbLine
 62
7
  6
CONTINUOUS
 10
6.8556908247
 20
9.4709998136
 11
6.8662433788
 21
9.4711838801
  0
SPLINE
  5
44A
100
AcDbEntity
  8
0
100
AcDbSpline
 62
7
  6
CONTINUOUS
 70
0
 71
3
 72
9
 73
5
 74
0
 42
0.0000001
 43
0.0000001
 44
0.0000000001
 40
0.0
 40
0.0
 40
0.0
 40
0.0
 40
0.5171762295
 40
1.0
 40
1.0
 40
1.0
 40
1.0
 10
6.7987354526
 20
9.4508331141
 30
0.0
 10
6.802295257
 20
9.4511567726
 30
0.0
 10
6.8091697421
 20
9.451881526
 30
0.0
 10
6.8160197979
 20
9.4528128753
 30
0.0
 10
6.8193169141
 20
9.4533276452
 30
0.0
  0
LINE
  5
44B
100
AcDbEntity
  8
0
100
AcDbLine
 62
7
  6
CONTINUOUS
 10
6.8193169141
 20
9.4533276452
 11
6.8279474367
 21
9.4548614424
  0
LINE
  5
44C
100
AcDbEntity
  8
0
100
AcDbLine
 62
7
  6
CONTINUOUS
 10
6.8461927253
 20
9.4583666001
 11
6.8470718821
 21
9.4586727148
  0
SPLINE
  5
44D
100
AcDbEntity
  8
0
100
AcDbSpline
 62
7
  6
CONTINUOUS
 70
0
 71
3
 72
19
 73
15
 74
0
 42
0.0000001
 43
0.0000001
 44
0.0000000001
 40
0.0
 40
0.0
 40
0.0
 40
0.0
 40
0.1273245344
 40
0.1882421201
 40
0.247660318
 40
0.3060315855
 40
0.3638398736
 40
0.4215517474
 40
0.4796462072
 40
0.5385743979
 40
0.5987158432
 40
0.7238262004
 40
0.8571742721
 40
1.0
 40
1.0
 40
1.0
 40
1.0
 10
7.3319042942
 20
8.7671695021
 30
0.0
 10
7.337453363
 20
8.7671694981
 30
0.0
 10
7.3456886077
 20
8.7678456688
 30
0.0
 10
7.3562201872
 20
8.7702694575
 30
0.0
 10
7.3636106384
 20
8.7727719635
 30
0.0
 10
7.3705816447
 20
8.7759620342
 30
0.0
 10
7.3771234748
 20
8.779814659
 30
0.0
 10
7.3832272358
 20
8.7843080957
 30
0.0
 10
7.3888922623
 20
8.7894148994
 30
0.0
 10
7.3941263842
 20
8.7951057802
 30
0.0
 10
7.4006271388
 20
8.8035458527
 30
0.0
 10
7.407722072
 20
8.8155468824
 30
0.0
 10
7.4145882434
 20
8.8316707706
 30
0.0
 10
7.4181322239
 20
8.8431945749
 30
0.0
 10
7.4197252964
 20
8.8492119084
 30
0.0
  0
SPLINE
  5
44E
100
AcDbEntity
  8
0
100
AcDbSpline
 62
7
  6
CONTINUOUS
 70
0
 71
3
 72
18
 73
14
 74
0
 42
0.0000001
 43
0.0000001
 44
0.0000000001
 40
0.0
 40
0.0
 40
0.0
 40
0.0
 40
0.1433956218
 40
0.2771577643
 40
0.402492246
 40
0.521458881
 40
0.5794840975
 40
0.6370941977
 40
0.6947632141
 40
0.7529731384
 40
0.8122320219
 40
0.8729911841
 40
1.0
 40
1.0
 40
1.0
 40
1.0
 10
7.4201960343
 20
9.0933204848
 30
0.0
 10
7.4186221599
 20
9.0994598517
 30
0.0
 10
7.4151137404
 20
9.1112169675
 30
0.0
 10
7.4082793854
 20
9.1276840701
 30
0.0
 10
7.3998901894
 20
9.1422007243
 30
0.0
 10
7.3913807262
 20
9.1526026216
 30
0.0
 10
7.3837288942
 20
9.1596221645
 30
0.0
 10
7.3775852628
 20
9.1642196059
 30
0.0
 10
7.3709935818
 20
9.1681641022
 30
0.0
 10
7.3639607769
 20
9.1714315674
 30
0.0
 10
7.3564959184
 20
9.1739934648
 30
0.0
 10
7.345849467
 20
9.1764759389
 30
0.0
 10
7.3375179929
 20
9.1771695021
 30
0.0
 10
7.3319043732
 20
9.1771695021
 30
0.0
  0
SPLINE
  5
44F
100
AcDbEntity
  8
0
100
AcDbSpline
 62
9
  6
CONTINUOUS
 70
0
 71
3
 72
16
 73
12
 74
0
 42
0.0000001
 43
0.0000001
 44
0.0000000001
 40
0.0
 40
0.0
 40
0.0
 40
0.0
 40
0.1152660573
 40
0.2362055288
 40
0.3616939915
 40
0.4257189758
 40
0.4902992875
 40
0.6201824971
 40
0.7495866929
 40
0.8767312603
 40
1.0
 40
1.0
 40
1.0
 40
1.0
 10
7.5507775634
 20
8.8113431427
 30
0.0
 10
7.5442467953
 20
8.8204003548
 30
0.0
 10
7.5323655604
 20
8.8400777727
 30
0.0
 10
7.5186601137
 20
8.8724317214
 30
0.0
 10
7.5106149924
 20
8.9015022416
 30
0.0
 10
7.5062546081
 20
8.9257403092
 30
0.0
 10
7.5033147426
 20
8.9506212621
 30
0.0
 10
7.5024350684
 20
8.9820626879
 30
0.0
 10
7.505811172
 20
9.0194332264
 30
0.0
 10
7.5135241131
 20
9.0554998065
 30
0.0
 10
7.5215804174
 20
9.0784699892
 30
0.0
 10
7.5263085033
 20
9.0894355416
 30
0.0
  0
SPLINE
  5
450
100
AcDbEntity
  8
0
100
AcDbSpline
 62
9
  6
CONTINUOUS
 70
0
 71
3
 72
9
 73
5
 74
0
 42
0.0000001
 43
0.0000001
 44
0.0000000001
 40
0.0
 40
0.0
 40
0.0
 40
0.0
 40
0.2570611322
 40
1.0
 40
1.0
 40
1.0
 40
1.0
 10
7.5263085033
 20
9.0894355416
 30
0.0
 10
7.528005408
 20
9.093371066
 30
0.0
 10
7.5349887959
 20
9.1085107344
 30
0.0
 10
7.543533128
 20
9.1229488983
 30
0.0
 10
7.5507775634
 20
9.1329958616
 30
0.0
  0
SPLINE
  5
451
100
AcDbEntity
  8
0
100
AcDbSpline
 62
9
  6
CONTINUOUS
 70
0
 71
3
 72
14
 73
10
 74
0
 42
0.0000001
 43
0.0000001
 44
0.0000000001
 40
0.0
 40
0.0
 40
0.0
 40
0.0
 40
0.2339280142
 40
0.3561114484
 40
0.4811805221
 40
0.6086647213
 40
0.7380661543
 40
0.8687886704
 40
1.0
 40
1.0
 40
1.0
 40
1.0
 10
6.3246072591
 20
9.1329960593
 30
0.0
 10
6.3323749463
 20
9.1222207639
 30
0.0
 10
6.3426342877
 20
9.1046348652
 30
0.0
 10
6.3534098503
 20
9.079509458
 30
0.0
 10
6.3602385763
 20
9.0593305622
 30
0.0
 10
6.3656158974
 20
9.038299253
 30
0.0
 10
6.3694972387
 20
9.0166144598
 30
0.0
 10
6.3718359248
 20
8.9944987943
 30
0.0
 10
6.3723607061
 20
8.9796201235
 30
0.0
 10
6.3723607061
 20
8.9721695021
 30
0.0
  0
LINE
  5
452
100
AcDbEntity
  8
0
100
AcDbLine
 62
7
  6
CONTINUOUS
 10
6.847224608
 20
9.463982321
 11
6.8463116732
 21
9.4640057003
  0
SPLINE
  5
453
100
AcDbEntity
  8
0
100
AcDbSpline
 62
9
  6
CONTINUOUS
 70
0
 71
3
 72
13
 73
9
 74
0
 42
0.0000001
 43
0.0000001
 44
0.0000000001
 40
0.0
 40
0.0
 40
0.0
 40
0.0
 40
0.2339716229
 40
0.3561721073
 40
0.4812554119
 40
0.738034608
 40
0.8687870565
 40
1.0
 40
1.0
 40
1.0
 40
1.0
 10
6.3541935156
 20
8.8523802226
 30
0.0
 10
6.3599796294
 20
8.8604058733
 30
0.0
 10
6.3676196014
 20
8.8735048452
 30
0.0
 10
6.3756478544
 20
8.8922189521
 30
0.0
 10
6.3824855449
 20
8.9124285587
 30
0.0
 10
6.3870629438
 20
8.9337121658
 30
0.0
 10
6.389371092
 20
8.9555384007
 30
0.0
 10
6.3897624204
 20
8.9666209067
 30
0.0
 10
6.3897624204
 20
8.9721695021
 30
0.0
  0
LINE
  5
454
100
AcDbEntity
  8
0
100
AcDbLine
 62
7
  6
CONTINUOUS
 10
6.7456048609
 20
9.4585375754
 11
6.7451892269
 21
9.4584660285
  0
SPLINE
  5
455
100
AcDbEntity
  8
0
100
AcDbSpline
 62
7
  6
CONTINUOUS
 70
0
 71
3
 72
19
 73
15
 74
0
 42
0.0000001
 43
0.0000001
 44
0.0000000001
 40
0.0
 40
0.0
 40
0.0
 40
0.0
 40
0.1272460399
 40
0.1881199013
 40
0.2474942162
 40
0.3058247757
 40
0.3635978478
 40
0.4212823357
 40
0.4793599463
 40
0.538282746
 40
0.5984304629
 40
0.7235913382
 40
0.8570367073
 40
1.0
 40
1.0
 40
1.0
 40
1.0
 10
6.5434803047
 20
9.1771695021
 30
0.0
 10
6.5379159105
 20
9.1771695021
 30
0.0
 10
6.5296579861
 20
9.17648959
 30
0.0
 10
6.5190994883
 20
9.1740519073
 30
0.0
 10
6.5116918522
 20
9.1715351783
 30
0.0
 10
6.5047062243
 20
9.1683272232
 30
0.0
 10
6.4981523758
 20
9.164453222
 30
0.0
 10
6.492039245
 20
9.1599350909
 30
0.0
 10
6.4863672823
 20
9.1548006893
 30
0.0
 10
6.4811285249
 20
9.1490795033
 30
0.0
 10
6.4746238197
 20
9.1405941867
 30
0.0
 10
6.4675295583
 20
9.128530231
 30
0.0
 10
6.4606709421
 20
9.112325326
 30
0.0
 10
6.4571351482
 20
9.1007457245
 30
0.0
 10
6.4555465448
 20
9.0946992299
 30
0.0
  0
SPLINE
  5
456
100
AcDbEntity
  8
0
100
AcDbSpline
 62
7
  6
CONTINUOUS
 70
0
 71
3
 72
18
 73
14
 74
0
 42
0.0000001
 43
0.0000001
 44
0.0000000001
 40
0.0
 40
0.0
 40
0.0
 40
0.0
 40
0.1428642993
 40
0.2762481149
 40
0.4013865745
 40
0.5203475703
 40
0.5784382625
 40
0.6361543569
 40
0.6939593841
 40
0.7523274833
 40
0.811757383
 40
0.8726860783
 40
1.0
 40
1.0
 40
1.0
 40
1.0
 10
6.4556222677
 20
8.8493520727
 30
0.0
 10
6.4572136663
 20
8.843326167
 30
0.0
 10
6.460754181
 20
8.8317861874
 30
0.0
 10
6.4676185237
 20
8.8156344548
 30
0.0
 10
6.4760147525
 20
8.8014028575
 30
0.0
 10
6.484500094
 20
8.7912155577
 30
0.0
 10
6.4921133803
 20
8.7843433388
 30
0.0
 10
6.4982208965
 20
8.7798420557
 30
0.0
 10
6.5047661684
 20
8.7759808517
 30
0.0
 10
6.5117424659
 20
8.7727831992
 30
0.0
 10
6.5191407627
 20
8.7702768471
 30
0.0
 10
6.5296827585
 20
8.7678484416
 30
0.0
 10
6.5379261517
 20
8.7671695046
 30
0.0
 10
6.5434802639
 20
8.7671695021
 30
0.0
  0
LINE
  5
457
100
AcDbEntity
  8
0
100
AcDbLine
 62
7
  6
CONTINUOUS
 10
6.8470719161
 20
9.4596814972
 11
6.8461927253
 21
9.4593755812
  0
LINE
  5
458
100
AcDbEntity
  8
0
100
AcDbLine
 62
7
  6
CONTINUOUS
 10
6.7804773403
 20
9.4637070441
 11
6.7800075305
 21
9.4636705396
  0
SPLINE
  5
459
100
AcDbEntity
  8
0
100
AcDbSpline
 62
7
  6
CONTINUOUS
 70
0
 71
3
 72
16
 73
12
 74
0
 42
0.0000001
 43
0.0000001
 44
0.0000000001
 40
0.0
 40
0.0
 40
0.0
 40
0.0
 40
0.0247892187
 40
0.0463156472
 40
0.0749972622
 40
0.1110836253
 40
0.1546788319
 40
0.264526297
 40
0.4045225431
 40
0.5741803534
 40
1.0
 40
1.0
 40
1.0
 40
1.0
 10
6.7955981966
 20
9.4643001311
 30
0.0
 10
6.7955981116
 20
9.4642603082
 30
0.0
 10
6.7956709753
 20
9.4642029749
 30
0.0
 10
6.7957778832
 20
9.4641608833
 30
0.0
 10
6.795913114
 20
9.4641215042
 30
0.0
 10
6.7960829853
 20
9.4640865112
 30
0.0
 10
6.7963840807
 20
9.4640385834
 30
0.0
 10
6.7968530043
 20
9.4639898508
 30
0.0
 10
6.7975255654
 20
9.4639449196
 30
0.0
 10
6.7987061472
 20
9.4638965712
 30
0.0
 10
6.7996628768
 20
9.4638843963
 30
0.0
 10
6.800346934
 20
9.4638815628
 30
0.0
  0
LINE
  5
45A
100
AcDbEntity
  8
0
100
AcDbLine
 62
7
  6
CONTINUOUS
 10
6.8013623705
 20
9.4638818182
 11
6.8061424039
 21
9.4639637612
  0
LINE
  5
45B
100
AcDbEntity
  8
0
100
AcDbLine
 62
7
  6
CONTINUOUS
 10
6.8279474367
 20
9.45587273
 11
6.8193269938
 21
9.454341518
  0
SPLINE
  5
45C
100
AcDbEntity
  8
0
100
AcDbSpline
 62
7
  6
CONTINUOUS
 70
0
 71
3
 72
9
 73
5
 74
0
 42
0.0000001
 43
0.0000001
 44
0.0000000001
 40
0.0
 40
0.0
 40
0.0
 40
0.0
 40
0.4828029832
 40
1.0
 40
1.0
 40
1.0
 40
1.0
 10
6.8193269938
 20
9.454341518
 30
0.0
 10
6.8160283992
 20
9.4538267182
 30
0.0
 10
6.8091749804
 20
9.4528953587
 30
0.0
 10
6.802297136
 20
9.4521706801
 30
0.0
 10
6.7987354526
 20
9.4518470654
 30
0.0
  0
LINE
  5
45D
100
AcDbEntity
  8
0
100
AcDbLine
 62
7
  6
CONTINUOUS
 10
6.8061424039
 20
9.46496904
 11
6.800348514
 21
9.4648869295
  0
LINE
  5
45E
100
AcDbEntity
  8
0
100
AcDbLine
 62
7
  6
CONTINUOUS
 10
6.800348514
 20
9.4648869295
 11
6.7967560379
 21
9.4650074066
  0
LINE
  5
45F
100
AcDbEntity
  8
0
100
AcDbLine
 62
7
  6
CONTINUOUS
 10
6.7967560379
 20
9.4650074066
 11
6.7955981967
 21
9.4653052332
  0
SPLINE
  5
460
100
AcDbEntity
  8
0
100
AcDbSpline
 62
7
  6
CONTINUOUS
 70
0
 71
3
 72
9
 73
5
 74
0
 42
0.0000001
 43
0.0000001
 44
0.0000000001
 40
0.0
 40
0.0
 40
0.0
 40
0.0
 40
0.1934796899
 40
1.0
 40
1.0
 40
1.0
 40
1.0
 10
7.0223194058
 20
9.4708575838
 30
0.0
 10
7.0223146942
 20
9.4708580166
 30
0.0
 10
7.0222903214
 20
9.4708600258
 30
0.0
 10
7.0222659059
 20
9.4708614625
 30
0.0
 10
7.0222462124
 20
9.4708625429
 30
0.0
  0
LINE
  5
461
100
AcDbEntity
  8
0
100
AcDbLine
 62
7
  6
CONTINUOUS
 10
6.9061668854
 20
9.4726167055
 11
6.8878335671
 21
9.4723677395
  0
LINE
  5
462
100
AcDbEntity
  8
0
100
AcDbLine
 62
7
  6
CONTINUOUS
 10
6.7804032766
 20
9.4647067959
 11
6.7800075305
 21
9.4646760506
  0
SPLINE
  5
463
100
AcDbEntity
  8
0
100
AcDbSpline
 62
9
  6
CONTINUOUS
 70
0
 71
3
 72
24
 73
20
 74
0
 42
0.0000001
 43
0.0000001
 44
0.0000000001
 40
0.0
 40
0.0
 40
0.0
 40
0.0
 40
0.135790761
 40
0.1998130369
 40
0.2613585503
 40
0.3207556659
 40
0.3498155098
 40
0.378530664
 40
0.4352147596
 40
0.4634056241
 40
0.4916035255
 40
0.5483431047
 40
0.5771052899
 40
0.6062238318
 40
0.6657686989
 40
0.7274922909
 40
0.7917111542
 40
0.8585822775
 40
1.0
 40
1.0
 40
1.0
 40
1.0
 10
6.4623071147
 20
8.8499776661
 30
0.0
 10
6.468664821
 20
8.8395943985
 30
0.0
 10
6.4795983561
 20
8.8251497858
 30
0.0
 10
6.4969592554
 20
8.8093359006
 30
0.0
 10
6.51061219
 20
8.7998302539
 30
0.0
 10
6.5226716338
 20
8.7937590067
 30
0.0
 10
6.5325398703
 20
8.7901272697
 30
0.0
 10
6.5424243585
 20
8.7873379197
 30
0.0
 10
6.5525354215
 20
8.7857410692
 30
0.0
 10
6.5626768588
 20
8.785390317
 30
0.0
 10
6.572818205
 20
8.7858661207
 30
0.0
 10
6.582918502
 20
8.7875881642
 30
0.0
 10
6.5927830843
 20
8.7904984272
 30
0.0
 10
6.6026298265
 20
8.7942520221
 30
0.0
 10
6.6146519146
 20
8.8004727343
 30
0.0
 10
6.6282424724
 20
8.8101428927
 30
0.0
 10
6.6409453921
 20
8.8219387176
 30
0.0
 10
6.6567592971
 20
8.8406200218
 30
0.0
 10
6.6663587786
 20
8.8568461648
 30
0.0
 10
6.6717839427
 20
8.868306526
 30
0.0
  0
SPLINE
  5
464
100
AcDbEntity
  8
0
100
AcDbSpline
 62
9
  6
CONTINUOUS
 70
0
 71
3
 72
9
 73
5
 74
0
 42
0.0000001
 43
0.0000001
 44
0.0000000001
 40
0.0
 40
0.0
 40
0.0
 40
0.0
 40
0.2456683717
 40
1.0
 40
1.0
 40
1.0
 40
1.0
 10
6.6732859647
 20
8.8715517368
 30
0.0
 10
6.6745256949
 20
8.8742918095
 30
0.0
 10
6.6793314936
 20
8.8855531897
 30
0.0
 10
6.683183413
 20
8.8972171459
 30
0.0
 10
6.6855688887
 20
8.9061382661
 30
0.0
  0
SPLINE
  5
465
100
AcDbEntity
  8
0
100
AcDbSpline
 62
9
  6
CONTINUOUS
 70
0
 71
3
 72
10
 73
6
 74
0
 42
0.0000001
 43
0.0000001
 44
0.0000000001
 40
0.0
 40
0.0
 40
0.0
 40
0.0
 40
0.4959175133
 40
0.7476246068
 40
1.0
 40
1.0
 40
1.0
 40
1.0
 10
6.6855688887
 20
8.9061382661
 30
0.0
 10
6.688418756
 20
8.9167961021
 30
0.0
 10
6.6916132537
 20
8.9331842274
 30
0.0
 10
6.6937419981
 20
8.9553369748
 30
0.0
 10
6.6941024896
 20
8.9665551085
 30
0.0
 10
6.6941024896
 20
8.9721695021
 30
0.0
  0
SPLINE
  5
466
100
AcDbEntity
  8
0
100
AcDbSpline
 62
9
  6
CONTINUOUS
 70
0
 71
3
 72
9
 73
5
 74
0
 42
0.0000001
 43
0.0000001
 44
0.0000000001
 40
0.0
 40
0.0
 40
0.0
 40
0.0
 40
0.4957401342
 40
1.0
 40
1.0
 40
1.0
 40
1.0
 10
7.5653407331
 20
9.1505778223
 30
0.0
 10
7.5619977131
 20
9.1497870773
 30
0.0
 10
7.5553369226
 20
9.1478214358
 30
0.0
 10
7.5489231259
 20
9.1451616832
 30
0.0
 10
7.5457663766
 20
9.1436633165
 30
0.0
  0
SPLINE
  5
467
100
AcDbEntity
  8
0
100
AcDbSpline
 62
9
  6
CONTINUOUS
 70
0
 71
3
 72
28
 73
24
 74
0
 42
0.0000001
 43
0.0000001
 44
0.0000000001
 40
0.0
 40
0.0
 40
0.0
 40
0.0
 40
0.0261614124
 40
0.0529659152
 40
0.0804877875
 40
0.1087712548
 40
0.1676650655
 40
0.2296746616
 40
0.2945047143
 40
0.3616352139
 40
0.4303850203
 40
0.4999715434
 40
0.5695583644
 40
0.6383089205
 40
0.7054409479
 40
0.7381970624
 40
0.7703067953
 40
0.8323205604
 40
0.8912194219
 40
0.9195054897
 40
0.9470297752
 40
0.973836436
 40
1.0
 40
1.0
 40
1.0
 40
1.0
 10
7.5457663766
 20
9.1436633165
 30
0.0
 10
7.5425823556
 20
9.1421520052
 30
0.0
 10
7.536286832
 20
9.1387641614
 30
0.0
 10
7.5272610425
 20
9.132727942
 30
0.0
 10
7.5185984858
 20
9.1257167616
 30
0.0
 10
7.5074522387
 20
9.1149915658
 30
0.0
 10
7.4947461082
 20
9.0993040638
 30
0.0
 10
7.4819474759
 20
9.0777137716
 30
0.0
 10
7.4716713166
 20
9.053610103
 30
0.0
 10
7.4641585191
 20
9.0275695056
 30
0.0
 10
7.4595779224
 20
9.0002109324
 30
0.0
 10
7.4580368608
 20
8.9721851577
 30
0.0
 10
7.4595745205
 20
8.9441584107
 30
0.0
 10
7.4641515861
 20
8.9168009349
 30
0.0
 10
7.4704619713
 20
8.8949146714
 30
0.0
 10
7.4769519816
 20
8.8783469961
 30
0.0
 10
7.4841865073
 20
8.8628493567
 30
0.0
 10
7.4947314748
 20
8.8450563994
 30
0.0
 10
7.5074351691
 20
8.8293665526
 30
0.0
 10
7.518580518
 20
8.8186382519
 30
0.0
 10
7.5272423976
 20
8.8116247417
 30
0.0
 10
7.5362678388
 20
8.8055863561
 30
0.0
 10
7.5425631737
 20
8.8021969492
 30
0.0
 10
7.5457471441
 20
8.8006848553
 30
0.0
  0
SPLINE
  5
468
100
AcDbEntity
  8
0
100
AcDbSpline
 62
9
  6
CONTINUOUS
 70
0
 71
3
 72
9
 73
5
 74
0
 42
0.0000001
 43
0.0000001
 44
0.0000000001
 40
0.0
 40
0.0
 40
0.0
 40
0.0
 40
0.5042603598
 40
1.0
 40
1.0
 40
1.0
 40
1.0
 10
7.5457471441
 20
8.8006848553
 30
0.0
 10
7.5489003845
 20
8.7991873554
 30
0.0
 10
7.5553069443
 20
8.7965286199
 30
0.0
 10
7.5619601947
 20
8.7945624478
 30
0.0
 10
7.5652994642
 20
8.7937710034
 30
0.0
  0
SPLINE
  5
469
100
AcDbEntity
  8
0
100
AcDbSpline
 62
7
  6
CONTINUOUS
 70
0
 71
3
 72
32
 73
28
 74
0
 42
0.0000001
 43
0.0000001
 44
0.0000000001
 40
0.0
 40
0.0
 40
0.0
 40
0.0
 40
0.0256830509
 40
0.051784574
 40
0.078472714
 40
0.1059018279
 40
0.1341903893
 40
0.1634069084
 40
0.1935873168
 40
0.2247327919
 40
0.2897242073
 40
0.3578906617
 40
0.4283502206
 40
0.4641228369
 40
0.5000467835
 40
0.5359705208
 40
0.5717423964
 40
0.6421992499
 40
0.7103620514
 40
0.7753497834
 40
0.806493793
 40
0.8366726836
 40
0.894100695
 40
0.9215286378
 40
0.9482161134
 40
0.9743172938
 40
1.0
 40
1.0
 40
1.0
 40
1.0
 10
7.5736929347
 20
8.7839456437
 30
0.0
 10
7.569579745
 20
8.7845043362
 30
0.0
 10
7.5613500478
 20
8.7861700395
 30
0.0
 10
7.5493069013
 20
8.7902454717
 30
0.0
 10
7.5375927675
 20
8.7958732678
 30
0.0
 10
7.5263063659
 20
8.8029967076
 30
0.0
 10
7.5155427747
 20
8.8115570578
 30
0.0
 10
7.5053850479
 20
8.8214721919
 30
0.0
 10
7.4959241024
 20
8.8326643057
 30
0.0
 10
7.4841746725
 20
8.8493878098
 30
0.0
 10
7.4717399115
 20
8.8729933397
 30
0.0
 10
7.4608945597
 20
8.9041764076
 30
0.0
 10
7.4553766468
 20
8.9319133926
 30
0.0
 10
7.4531331746
 20
8.954792154
 30
0.0
 10
7.4525660372
 20
8.972189662
 30
0.0
 10
7.4531358521
 20
8.9895869555
 30
0.0
 10
7.4553825898
 20
9.0124648173
 30
0.0
 10
7.4609045532
 20
9.0401997227
 30
0.0
 10
7.4717548856
 20
9.0713798691
 30
0.0
 10
7.4841923546
 20
9.0949807075
 30
0.0
 10
7.4959463368
 20
9.1117032831
 30
0.0
 10
7.5083503413
 20
9.1263715137
 30
0.0
 10
7.5223446831
 20
9.1388458791
 30
0.0
 10
7.5376200621
 20
9.1484806824
 30
0.0
 10
7.549336312
 20
9.1541056352
 30
0.0
 10
7.5613803266
 20
9.1581770388
 30
0.0
 10
7.5696104885
 20
9.1598401505
 30
0.0
 10
7.5737238018
 20
9.160397518
 30
0.0
  0
SPLINE
  5
46A
100
AcDbEntity
  8
0
100
AcDbSpline
 62
9
  6
CONTINUOUS
 70
0
 71
3
 72
15
 73
11
 74
0
 42
0.0000001
 43
0.0000001
 44
0.0000000001
 40
0.0
 40
0.0
 40
0.0
 40
0.0
 40
0.1171883458
 40
0.2354516052
 40
0.3554003745
 40
0.4776517423
 40
0.6028116268
 40
0.7313849162
 40
0.8637166906
 40
1.0
 40
1.0
 40
1.0
 40
1.0
 10
7.3147076081
 20
8.7855024317
 30
0.0
 10
7.3183805135
 20
8.7855584766
 30
0.0
 10
7.3257603979
 20
8.7861117868
 30
0.0
 10
7.3367197949
 20
8.788238373
 30
0.0
 10
7.3475165102
 20
8.7916517404
 30
0.0
 10
7.3580628685
 20
8.7963307041
 30
0.0
 10
7.3682887752
 20
8.802231696
 30
0.0
 10
7.3781231345
 20
8.809317229
 30
0.0
 10
7.3875004172
 20
8.8175325919
 30
0.0
 10
7.3933208532
 20
8.8236340622
 30
0.0
 10
7.3961376362
 20
8.826845705
 30
0.0
  0
SPLINE
  5
46B
100
AcDbEntity
  8
0
100
AcDbSpline
 62
9
  6
CONTINUOUS
 70
0
 71
3
 72
9
 73
5
 74
0
 42
0.0000001
 43
0.0000001
 44
0.0000000001
 40
0.0
 40
0.0
 40
0.0
 40
0.0
 40
0.244460541
 40
1.0
 40
1.0
 40
1.0
 40
1.0
 10
7.3961376362
 20
8.826845705
 30
0.0
 10
7.3976791414
 20
8.8286033
 30
0.0
 10
7.4038195869
 20
8.8359370695
 30
0.0
 10
7.4093033377
 20
8.8438144159
 30
0.0
 10
7.4130764707
 20
8.8499763197
 30
0.0
  0
SPLINE
  5
46C
100
AcDbEntity
  8
0
100
AcDbSpline
 62
9
  6
CONTINUOUS
 70
0
 71
3
 72
9
 73
5
 74
0
 42
0.0000001
 43
0.0000001
 44
0.0000000001
 40
0.0
 40
0.0
 40
0.0
 40
0.0
 40
0.256367692
 40
1.0
 40
1.0
 40
1.0
 40
1.0
 10
7.4140969898
 20
9.092676126
 30
0.0
 10
7.4126955787
 20
9.0950206139
 30
0.0
 10
7.4070286871
 20
9.1040431912
 30
0.0
 10
7.4005455505
 20
9.1125617752
 30
0.0
 10
7.3952706869
 20
9.1184733979
 30
0.0
  0
SPLINE
  5
46D
100
AcDbEntity
  8
0
100
AcDbSpline
 62
9
  6
CONTINUOUS
 70
0
 71
3
 72
15
 73
11
 74
0
 42
0.0000001
 43
0.0000001
 44
0.0000000001
 40
0.0
 40
0.0
 40
0.0
 40
0.0
 40
0.1361895047
 40
0.2684204205
 40
0.3969016393
 40
0.5219945633
 40
0.6442228357
 40
0.7642117503
 40
0.8825961899
 40
1.0
 40
1.0
 40
1.0
 40
1.0
 10
7.3952706869
 20
9.1184733979
 30
0.0
 10
7.3924250449
 20
9.1216625537
 30
0.0
 10
7.3865471307
 20
9.1277148622
 30
0.0
 10
7.3770845106
 20
9.1358418623
 30
0.0
 10
7.367168739
 20
9.1428252317
 30
0.0
 10
7.3568663177
 20
9.1486102264
 30
0.0
 10
7.3462494887
 20
9.1531599378
 30
0.0
 10
7.3353895241
 20
9.1564313566
 30
0.0
 10
7.3243751854
 20
9.1584041652
 30
0.0
 10
7.3169680164
 20
9.1588474381
 30
0.0
 10
7.3132834302
 20
9.1588474381
 30
0.0
  0
SPLINE
  5
46E
100
AcDbEntity
  8
0
100
AcDbSpline
 62
9
  6
CONTINUOUS
 70
0
 71
3
 72
12
 73
8
 74
0
 42
0.0000001
 43
0.0000001
 44
0.0000000001
 40
0.0
 40
0.0
 40
0.0
 40
0.0
 40
0.2364555499
 40
0.4840282821
 40
0.7398191426
 40
0.8697098167
 40
1.0
 40
1.0
 40
1.0
 40
1.0
 10
6.6811884597
 20
9.1026509276
 30
0.0
 10
6.6868530543
 20
9.0936730242
 30
0.0
 10
6.696924088
 20
9.074300675
 30
0.0
 10
6.7078364809
 20
9.0428267212
 30
0.0
 10
6.7134711886
 20
9.0148680999
 30
0.0
 10
6.7158493302
 20
8.99181478
 30
0.0
 10
6.7163110016
 20
8.9801333236
 30
0.0
 10
6.7163556277
 20
8.9742841708
 30
0.0
  0
SPLINE
  5
46F
100
AcDbEntity
  8
0
100
AcDbSpline
 62
7
  6
CONTINUOUS
 70
0
 71
3
 72
17
 73
13
 74
0
 42
0.0000001
 43
0.0000001
 44
0.0000000001
 40
0.0
 40
0.0
 40
0.0
 40
0.0
 40
0.028211864
 40
0.051475856
 40
0.08182039
 40
0.1194817067
 40
0.1645457488
 40
0.2169896038
 40
0.2767334445
 40
0.4177082761
 40
0.5865050548
 40
1.0
 40
1.0
 40
1.0
 40
1.0
 10
6.9062364986
 20
9.469096454
 30
0.0
 10
6.9062364986
 20
9.4689786628
 30
0.0
 10
6.9060535424
 20
9.4687991319
 30
0.0
 10
6.9057672344
 20
9.4686356787
 30
0.0
 10
6.905414112
 20
9.4684800227
 30
0.0
 10
6.9049697225
 20
9.4683245089
 30
0.0
 10
6.9044278764
 20
9.4681641892
 30
0.0
 10
6.9037918453
 20
9.4680015417
 30
0.0
 10
6.9027607211
 20
9.4677682355
 30
0.0
 10
6.9012449133
 20
9.467478941
 30
0.0
 10
6.8982634266
 20
9.4669979059
 30
0.0
 10
6.8958512487
 20
9.4666889678
 30
0.0
 10
6.8941364986
 20
9.4664883987
 30
0.0
  0
SPLINE
  5
470
100
AcDbEntity
  8
0
100
AcDbSpline
 62
9
  6
CONTINUOUS
 70
0
 71
3
 72
20
 73
16
 74
0
 42
0.0000001
 43
0.0000001
 44
0.0000000001
 40
0.0
 40
0.0
 40
0.0
 40
0.0
 40
0.0533746412
 40
0.1071906738
 40
0.1616931614
 40
0.2171255912
 40
0.2737366824
 40
0.3317408774
 40
0.3913023767
 40
0.4525183206
 40
0.5800030853
 40
0.7142472352
 40
0.7837597542
 40
0.8546721581
 40
1.0
 40
1.0
 40
1.0
 40
1.0
 10
7.3118592523
 20
9.1588365726
 30
0.0
 10
7.3084207885
 20
9.1587841051
 30
0.0
 10
7.3015154461
 20
9.1582928544
 30
0.0
 10
7.291248003
 20
9.1564187491
 30
0.0
 10
7.281112806
 20
9.1534164866
 30
0.0
 10
7.2711833631
 20
9.149299229
 30
0.0
 10
7.2615187731
 20
9.1441016558
 30
0.0
 10
7.2521765194
 20
9.1378548287
 30
0.0
 10
7.2432128934
 20
9.1305961192
 30
0.0
 10
7.2316801341
 20
9.1194884311
 30
0.0
 10
7.2185392707
 20
9.1032386667
 30
0.0
 10
7.2076398323
 20
9.0848087404
 30
0.0
 10
7.2001683598
 20
9.0687551649
 30
0.0
 10
7.1934713766
 20
9.0515955569
 30
0.0
 10
7.1896202636
 20
9.038160867
 30
0.0
 10
7.1875549182
 20
9.0290281946
 30
0.0
  0
SPLINE
  5
471
100
AcDbEntity
  8
0
100
AcDbSpline
 62
9
  6
CONTINUOUS
 70
0
 71
3
 72
21
 73
17
 74
0
 42
0.0000001
 43
0.0000001
 44
0.0000000001
 40
0.0
 40
0.0
 40
0.0
 40
0.0
 40
0.0726909816
 40
0.1450174695
 40
0.2166397382
 40
0.2872407537
 40
0.4241261994
 40
0.5538783715
 40
0.615787558
 40
0.6756149015
 40
0.7334165615
 40
0.7893243313
 40
0.8435805642
 40
0.8965249326
 40
0.9485406864
 40
1.0
 40
1.0
 40
1.0
 40
1.0
 10
7.1812841166
 20
8.9711624416
 30
0.0
 10
7.1813073136
 20
8.965081399
 30
0.0
 10
7.1817741782
 20
8.9529472064
 30
0.0
 10
7.183722704
 20
8.9349150513
 30
0.0
 10
7.1869081927
 20
8.9172348676
 30
0.0
 10
7.1926968007
 20
8.8945976037
 30
0.0
 10
7.2026943781
 20
8.8680919001
 30
0.0
 10
7.2165071993
 20
8.8441551124
 30
0.0
 10
7.2294781918
 20
8.8275539394
 30
0.0
 10
7.2398685095
 20
8.8166712906
 30
0.0
 10
7.2509657971
 20
8.8072668271
 30
0.0
 10
7.2626711802
 20
8.7994351643
 30
0.0
 10
7.2748758698
 20
8.7932550972
 30
0.0
 10
7.2874664416
 20
8.7887914024
 30
0.0
 10
7.3003107767
 20
8.7860981388
 30
0.0
 10
7.3089785144
 20
8.7854915662
 30
0.0
 10
7.3132834302
 20
8.7854915662
 30
0.0
  0
LINE
  5
472
100
AcDbEntity
  8
0
100
AcDbLine
 62
7
  6
CONTINUOUS
 10
6.8758912101
 20
9.4641369596
 11
6.8716485694
 21
9.4639610331
  0
SPLINE
  5
473
100
AcDbEntity
  8
0
100
AcDbSpline
 62
9
  6
CONTINUOUS
 70
0
 71
3
 72
17
 73
13
 74
0
 42
0.0000001
 43
0.0000001
 44
0.0000000001
 40
0.0
 40
0.0
 40
0.0
 40
0.0
 40
0.1181247915
 40
0.2419499757
 40
0.3698875158
 40
0.4348289294
 40
0.5000408028
 40
0.5652514222
 40
0.6301885344
 40
0.7581096192
 40
0.8819086207
 40
1.0
 40
1.0
 40
1.0
 40
1.0
 10
7.1945899498
 20
8.8410669538
 30
0.0
 10
7.188771872
 20
8.8502095287
 30
0.0
 10
7.1784453991
 20
8.8699827721
 30
0.0
 10
7.1673412785
 20
8.9021588262
 30
0.0
 10
7.1616948819
 20
8.9307575398
 30
0.0
 10
7.1594027802
 20
8.9543367651
 30
0.0
 10
7.1588266588
 20
8.9722634169
 30
0.0
 10
7.1594150618
 20
8.9901892654
 30
0.0
 10
7.1617226043
 20
9.0137649566
 30
0.0
 10
7.167388392
 20
9.0423555
 30
0.0
 10
7.1785142553
 20
9.0745167314
 30
0.0
 10
7.1888546398
 20
9.0942766283
 30
0.0
 10
7.1946789772
 20
9.1034115817
 30
0.0
  0
SPLINE
  5
474
100
AcDbEntity
  8
0
100
AcDbSpline
 62
7
  6
CONTINUOUS
 70
0
 71
3
 72
9
 73
5
 74
0
 42
0.0000001
 43
0.0000001
 44
0.0000000001
 40
0.0
 40
0.0
 40
0.0
 40
0.0
 40
0.4955043156
 40
1.0
 40
1.0
 40
1.0
 40
1.0
 10
7.3030741314
 20
9.1742896592
 30
0.0
 10
7.3070064604
 20
9.1733489072
 30
0.0
 10
7.3148403462
 20
9.1709973788
 30
0.0
 10
7.3223673392
 20
9.16780144
 30
0.0
 10
7.3260683956
 20
9.1659989152
 30
0.0
  0
SPLINE
  5
475
100
AcDbEntity
  8
0
100
AcDbSpline
 62
7
  6
CONTINUOUS
 70
0
 71
3
 72
9
 73
5
 74
0
 42
0.0000001
 43
0.0000001
 44
0.0000000001
 40
0.0
 40
0.0
 40
0.0
 40
0.0
 40
0.5045152411
 40
1.0
 40
1.0
 40
1.0
 40
1.0
 10
7.3260375241
 20
8.778325101
 30
0.0
 10
7.3223117973
 20
8.7765118729
 30
0.0
 10
7.3147337163
 20
8.7732998867
 30
0.0
 10
7.3068453891
 20
8.7709442453
 30
0.0
 10
7.3028860026
 20
8.770004578
 30
0.0
  0
SPLINE
  5
476
100
AcDbEntity
  8
0
100
AcDbSpline
 62
9
  6
CONTINUOUS
 70
0
 71
3
 72
10
 73
6
 74
0
 42
0.0000001
 43
0.0000001
 44
0.0000000001
 40
0.0
 40
0.0
 40
0.0
 40
0.0
 40
0.2559334653
 40
0.5096544517
 40
1.0
 40
1.0
 40
1.0
 40
1.0
 10
6.3723607061
 20
8.9721695021
 30
0.0
 10
6.3723607061
 20
8.9618525696
 30
0.0
 10
6.3713592269
 20
8.9412888364
 30
0.0
 10
6.3654815456
 20
8.9013756339
 30
0.0
 10
6.356672128
 20
8.8723938705
 30
0.0
 10
6.3487982663
 20
8.8542635209
 30
0.0
  0
SPLINE
  5
477
100
AcDbEntity
  8
0
100
AcDbSpline
 62
9
  6
CONTINUOUS
 70
0
 71
3
 72
9
 73
5
 74
0
 42
0.0000001
 43
0.0000001
 44
0.0000000001
 40
0.0
 40
0.0
 40
0.0
 40
0.0
 40
0.2569919022
 40
1.0
 40
1.0
 40
1.0
 40
1.0
 10
6.3487982663
 20
8.8542635209
 30
0.0
 10
6.3471152442
 20
8.8503881951
 30
0.0
 10
6.3401955261
 20
8.8354745243
 30
0.0
 10
6.3317504167
 20
8.8212518962
 30
0.0
 10
6.3246072591
 20
8.811342945
 30
0.0
  0
SPLINE
  5
478
100
AcDbEntity
  8
0
100
AcDbSpline
 62
9
  6
CONTINUOUS
 70
0
 71
3
 72
13
 73
9
 74
0
 42
0.0000001
 43
0.0000001
 44
0.0000000001
 40
0.0
 40
0.0
 40
0.0
 40
0.0
 40
0.1312129435
 40
0.261965392
 40
0.5187445881
 40
0.6438278927
 40
0.7660283771
 40
1.0
 40
1.0
 40
1.0
 40
1.0
 10
6.3897624204
 20
8.9721695021
 30
0.0
 10
6.3897624204
 20
8.9777180976
 30
0.0
 10
6.389371092
 20
8.9888006036
 30
0.0
 10
6.3870629438
 20
9.0106268385
 30
0.0
 10
6.3824855449
 20
9.0319104456
 30
0.0
 10
6.3756478544
 20
9.0521200521
 30
0.0
 10
6.3676196014
 20
9.0708341591
 30
0.0
 10
6.3599796294
 20
9.083933131
 30
0.0
 10
6.3541935156
 20
9.0919587817
 30
0.0
  0
SPLINE
  5
479
100
AcDbEntity
  8
0
100
AcDbSpline
 62
9
  6
CONTINUOUS
 70
0
 71
3
 72
9
 73
5
 74
0
 42
0.0000001
 43
0.0000001
 44
0.0000000001
 40
0.0
 40
0.0
 40
0.0
 40
0.0
 40
0.4955657787
 40
1.0
 40
1.0
 40
1.0
 40
1.0
 10
6.309652066
 20
8.7936685652
 30
0.0
 10
6.3130550364
 20
8.7944585378
 30
0.0
 10
6.3198376662
 20
8.7964376688
 30
0.0
 10
6.3263661969
 20
8.7991354893
 30
0.0
 10
6.3295793
 20
8.8006589543
 30
0.0
  0
SPLINE
  5
47A
100
AcDbEntity
  8
0
100
AcDbSpline
 62
9
  6
CONTINUOUS
 70
0
 71
3
 72
18
 73
14
 74
0
 42
0.0000001
 43
0.0000001
 44
0.0000000001
 40
0.0
 40
0.0
 40
0.0
 40
0.0
 40
0.0523246358
 40
0.1059352666
 40
0.1609749452
 40
0.2175354182
 40
0.3353141105
 40
0.459334701
 40
0.5235534421
 40
0.5890605155
 40
0.7233029982
 40
0.8608687679
 40
1.0
 40
1.0
 40
1.0
 40
1.0
 10
6.3295793
 20
8.8006589543
 30
0.0
 10
6.3327650022
 20
8.8021694274
 30
0.0
 10
6.3390641613
 20
8.8055554318
 30
0.0
 10
6.3480950373
 20
8.8115897997
 30
0.0
 10
6.3567617293
 20
8.8186001401
 30
0.0
 10
6.367912635
 20
8.8293254163
 30
0.0
 10
6.3806240148
 20
8.8450135039
 30
0.0
 10
6.3911758421
 20
8.8628074647
 30
0.0
 10
6.3984155098
 20
8.878307334
 30
0.0
 10
6.4049103854
 20
8.8948766218
 30
0.0
 10
6.4112291045
 20
8.9167709756
 30
0.0
 10
6.4158061214
 20
8.9441340286
 30
0.0
 10
6.416833053
 20
8.9627947897
 30
0.0
 10
6.416833053
 20
8.9721695021
 30
0.0
  0
SPLINE
  5
47B
100
AcDbEntity
  8
0
100
AcDbSpline
 62
9
  6
CONTINUOUS
 70
0
 71
3
 72
18
 73
14
 74
0
 42
0.0000001
 43
0.0000001
 44
0.0000000001
 40
0.0
 40
0.0
 40
0.0
 40
0.0
 40
0.1391220656
 40
0.2766770274
 40
0.4109117638
 40
0.4764168362
 40
0.5406345089
 40
0.664656458
 40
0.7824419272
 40
0.8390077371
 40
0.8940532092
 40
0.94766959
 40
1.0
 40
1.0
 40
1.0
 40
1.0
 10
6.416833053
 20
8.9721695021
 30
0.0
 10
6.416833053
 20
8.9815402085
 30
0.0
 10
6.4158070484
 20
9.0001928646
 30
0.0
 10
6.4112339876
 20
9.0275444696
 30
0.0
 10
6.4049207144
 20
9.0494303081
 30
0.0
 10
6.3984315249
 20
9.0659941164
 30
0.0
 10
6.3911979894
 20
9.0814898869
 30
0.0
 10
6.3806545811
 20
9.0992806169
 30
0.0
 10
6.3679530452
 20
9.1149682851
 30
0.0
 10
6.3568103798
 20
9.1256957532
 30
0.0
 10
6.3481497381
 20
9.1327089571
 30
0.0
 10
6.3391245818
 20
9.1387468769
 30
0.0
 10
6.3328293512
 20
9.1421363079
 30
0.0
 10
6.3296455263
 20
9.1436486715
 30
0.0
  0
SPLINE
  5
47C
100
AcDbEntity
  8
0
100
AcDbSpline
 62
9
  6
CONTINUOUS
 70
0
 71
3
 72
9
 73
5
 74
0
 42
0.0000001
 43
0.0000001
 44
0.0000000001
 40
0.0
 40
0.0
 40
0.0
 40
0.0
 40
0.5044182638
 40
1.0
 40
1.0
 40
1.0
 40
1.0
 10
6.3296455263
 20
9.1436486715
 30
0.0
 10
6.3264573649
 20
9.145163095
 30
0.0
 10
6.3199802959
 20
9.1478480665
 30
0.0
 10
6.3132519481
 20
9.1498257004
 30
0.0
 10
6.3098759635
 20
9.1506181168
 30
0.0
  0
SPLINE
  5
47D
100
AcDbEntity
  8
0
100
AcDbSpline
 62
7
  6
CONTINUOUS
 70
0
 71
3
 72
19
 73
15
 74
0
 42
0.0000001
 43
0.0000001
 44
0.0000000001
 40
0.0
 40
0.0
 40
0.0
 40
0.0
 40
0.0513404167
 40
0.1035157394
 40
0.1568839705
 40
0.211736964
 40
0.3265722745
 40
0.386924034
 40
0.4492124256
 40
0.5792123318
 40
0.7155632869
 40
0.8565671367
 40
0.9281829169
 40
1.0
 40
1.0
 40
1.0
 40
1.0
 10
6.3013560232
 20
9.160439154
 30
0.0
 10
6.3054743098
 20
9.1598949695
 30
0.0
 10
6.3137158877
 20
9.1582556711
 30
0.0
 10
6.3257813822
 20
9.1542128441
 30
0.0
 10
6.337524387
 20
9.1486127937
 30
0.0
 10
6.3528395677
 20
9.1390029137
 30
0.0
 10
6.3668721517
 20
9.1265382749
 30
0.0
 10
6.3793101541
 20
9.1118700395
 30
0.0
 10
6.3910998581
 20
9.0951392168
 30
0.0
 10
6.4035733997
 20
9.0715143476
 30
0.0
 10
6.4144603317
 20
9.0402908544
 30
0.0
 10
6.4199972467
 20
9.0125062645
 30
0.0
 10
6.4222482021
 20
8.989590031
 30
0.0
 10
6.4226293214
 20
8.9779804067
 30
0.0
 10
6.4226293214
 20
8.9721695021
 30
0.0
  0
SPLINE
  5
47E
100
AcDbEntity
  8
0
100
AcDbSpline
 62
7
  6
CONTINUOUS
 70
0
 71
3
 72
27
 73
23
 74
0
 42
0.0000001
 43
0.0000001
 44
0.0000000001
 40
0.0
 40
0.0
 40
0.0
 40
0.0
 40
0.0699643864
 40
0.1378625361
 40
0.2035092792
 40
0.2667911068
 40
0.3277246374
 40
0.3865284384
 40
0.4152873483
 40
0.4437165426
 40
0.4719166372
 40
0.4999991303
 40
0.5280816259
 40
0.5562817264
 40
0.5847109287
 40
0.6134698485
 40
0.6722736843
 40
0.7332072537
 40
0.7964891308
 40
0.862135862
 40
0.9300342118
 40
1.0
 40
1.0
 40
1.0
 40
1.0
 10
6.5586611396
 20
7.2781147208
 30
0.0
 10
6.5513810992
 20
7.2853737865
 30
0.0
 10
6.5367222094
 20
7.2993687186
 30
0.0
 10
6.5140227086
 20
7.3188613948
 30
0.0
 10
6.4908890845
 20
7.3362607644
 30
0.0
 10
6.467308959
 20
7.351237538
 30
0.0
 10
6.4432896824
 20
7.3634382604
 30
0.0
 10
6.4227734221
 20
7.3710499362
 30
0.0
 10
6.40626971
 20
7.3753546266
 30
0.0
 10
6.3939264848
 20
7.3776676298
 30
0.0
 10
6.3815461293
 20
7.3790654094
 30
0.0
 10
6.369146436
 20
7.3795323416
 30
0.0
 10
6.3567467429
 20
7.3790653763
 30
0.0
 10
6.3443663893
 20
7.3776675593
 30
0.0
 10
6.3320231661
 20
7.3753545267
 30
0.0
 10
6.3155194582
 20
7.3710497892
 30
0.0
 10
6.295003204
 20
7.3634380635
 30
0.0
 10
6.2709839325
 20
7.3512372923
 30
0.0
 10
6.2474038285
 20
7.3362604579
 30
0.0
 10
6.2242702078
 20
7.318861049
 30
0.0
 10
6.2015703261
 20
7.2993684082
 30
0.0
 10
6.1869122753
 20
7.2853722586
 30
0.0
 10
6.1796320909
 20
7.2781130456
 30
0.0
  0
SPLINE
  5
47F
100
AcDbEntity
  8
0
100
AcDbSpline
 62
7
  6
CONTINUOUS
 70
0
 71
3
 72
19
 73
15
 74
0
 42
0.0000001
 43
0.0000001
 44
0.0000000001
 40
0.0
 40
0.0
 40
0.0
 40
0.0
 40
0.0718367827
 40
0.1434703189
 40
0.284500218
 40
0.4208651884
 40
0.5508617554
 40
0.6131430638
 40
0.6734842341
 40
0.7882928248
 40
0.8431325832
 40
0.8964901934
 40
0.9486590693
 40
1.0
 40
1.0
 40
1.0
 40
1.0
 10
6.4226293214
 20
8.9721695021
 30
0.0
 10
6.4226293214
 20
8.9663501564
 30
0.0
 10
6.4222471236
 20
8.9547238083
 30
0.0
 10
6.4199897854
 20
8.9317757364
 30
0.0
 10
6.4144373626
 20
8.9039551339
 30
0.0
 10
6.4035208138
 20
8.872697147
 30
0.0
 10
6.3910134751
 20
8.8490536867
 30
0.0
 10
6.379193458
 20
8.8323166654
 30
0.0
 10
6.3667242807
 20
8.8176498202
 30
0.0
 10
6.3526581696
 20
8.8051946836
 30
0.0
 10
6.33730861
 20
8.7956070112
 30
0.0
 10
6.3255411486
 20
8.7900280592
 30
0.0
 10
6.3134519088
 20
8.786012795
 30
0.0
 10
6.3051963594
 20
8.7843951976
 30
0.0
 10
6.3010715752
 20
8.7838626529
 30
0.0
  0
SPLINE
  5
480
100
AcDbEntity
  8
0
100
AcDbSpline
 62
9
  6
CONTINUOUS
 70
0
 71
3
 72
21
 73
17
 74
0
 42
0.0000001
 43
0.0000001
 44
0.0000000001
 40
0.0
 40
0.0
 40
0.0
 40
0.0
 40
0.1169622274
 40
0.1780514929
 40
0.2405914347
 40
0.3043427364
 40
0.3690286
 40
0.4343532946
 40
0.5
 40
0.5656467054
 40
0.6309714
 40
0.6956572636
 40
0.7594085653
 40
0.8219485071
 40
0.8830377726
 40
1.0
 40
1.0
 40
1.0
 40
1.0
 10
7.5211911632
 20
9.0919587914
 30
0.0
 10
7.5154052707
 20
9.0839333164
 30
0.0
 10
7.5077650769
 20
9.0708344198
 30
0.0
 10
7.4997366785
 20
9.0521210037
 30
0.0
 10
7.4946517763
 20
9.0370894284
 30
0.0
 10
7.4906466768
 20
9.0214245469
 30
0.0
 10
7.4877556471
 20
9.0052767601
 30
0.0
 10
7.4860124481
 20
8.9888045456
 30
0.0
 10
7.4854266939
 20
8.9721695021
 30
0.0
 10
7.4860124481
 20
8.9555344587
 30
0.0
 10
7.4877556471
 20
8.9390622442
 30
0.0
 10
7.4906466768
 20
8.9229144574
 30
0.0
 10
7.4946517763
 20
8.9072495759
 30
0.0
 10
7.4997366785
 20
8.8922180005
 30
0.0
 10
7.5077650769
 20
8.8735045845
 30
0.0
 10
7.5154052707
 20
8.8604056878
 30
0.0
 10
7.5211911632
 20
8.8523802129
 30
0.0
  0
SPLINE
  5
481
100
AcDbEntity
  8
0
100
AcDbSpline
 62
7
  6
CONTINUOUS
 70
0
 71
3
 72
27
 73
23
 74
0
 42
0.0000001
 43
0.0000001
 44
0.0000000001
 40
0.0
 40
0.0
 40
0.0
 40
0.0
 40
0.0699649392
 40
0.1378632269
 40
0.2035100358
 40
0.2667919482
 40
0.32772556
 40
0.3865294401
 40
0.415288388
 40
0.4437176188
 40
0.471917748
 40
0.5000002736
 40
0.5280827996
 40
0.556282928
 40
0.5847121561
 40
0.6134710996
 40
0.6722749778
 40
0.7332085857
 40
0.7964904917
 40
0.8621373075
 40
0.9300355324
 40
1.0
 40
1.0
 40
1.0
 40
1.0
 10
7.6957524105
 20
7.2781142608
 30
0.0
 10
7.6884723305
 20
7.2853733699
 30
0.0
 10
7.6738137408
 20
7.2993686983
 30
0.0
 10
7.6511141318
 20
7.3188613349
 30
0.0
 10
7.6279805321
 20
7.3362606938
 30
0.0
 10
7.604400438
 20
7.3512374679
 30
0.0
 10
7.5803811886
 20
7.3634381921
 30
0.0
 10
7.5598649528
 20
7.3710498789
 30
0.0
 10
7.5433612596
 20
7.3753545826
 30
0.0
 10
7.5310180485
 20
7.3776675982
 30
0.0
 10
7.5186377069
 20
7.3790653923
 30
0.0
 10
7.5062380272
 20
7.3795323412
 30
0.0
 10
7.4938383473
 20
7.3790653948
 30
0.0
 10
7.4814580065
 20
7.3776675983
 30
0.0
 10
7.4691147957
 20
7.3753545881
 30
0.0
 10
7.4526111043
 20
7.3710498822
 30
0.0
 10
7.4320948686
 20
7.3634382
 30
0.0
 10
7.4080756206
 20
7.3512374763
 30
0.0
 10
7.3844955241
 20
7.3362607092
 30
0.0
 10
7.3613619272
 20
7.3188613542
 30
0.0
 10
7.3386624524
 20
7.299368697
 30
0.0
 10
7.3240035789
 20
7.2853737791
 30
0.0
 10
7.316723546
 20
7.2781147209
 30
0.0
  0
SPLINE
  5
482
100
AcDbEntity
  8
0
100
AcDbSpline
 62
7
  6
CONTINUOUS
 70
0
 71
3
 72
21
 73
17
 74
0
 42
0.0000001
 43
0.0000001
 44
0.0000000001
 40
0.0
 40
0.0
 40
0.0
 40
0.0
 40
0.062507566
 40
0.1250150899
 40
0.2499846819
 40
0.3124896962
 40
0.3749938211
 40
0.4374971647
 40
0.500000011
 40
0.5625028568
 40
0.6250061933
 40
0.6875103176
 40
0.7500153297
 40
0.8749849129
 40
0.9374924329
 40
1.0
 40
1.0
 40
1.0
 40
1.0
 10
7.3167216946
 20
7.2781147209
 30
0.0
 10
7.3019590638
 20
7.2854747776
 30
0.0
 10
7.2721687274
 20
7.2996756169
 30
0.0
 10
7.2115241804
 20
7.3256663509
 30
0.0
 10
7.1491020365
 20
7.3474562011
 30
0.0
 10
7.0851073272
 20
7.3636275986
 30
0.0
 10
7.0364047654
 20
7.3726068167
 30
0.0
 10
6.9871870939
 20
7.3781325421
 30
0.0
 10
6.9376923342
 20
7.3799990905
 30
0.0
 10
6.8881975766
 20
7.3781325399
 30
0.0
 10
6.8389799073
 20
7.3726068145
 30
0.0
 10
6.7902773482
 20
7.363627596
 30
0.0
 10
6.726282642
 20
7.3474561991
 30
0.0
 10
6.663860502
 20
7.3256663496
 30
0.0
 10
6.6032159575
 20
7.2996756175
 30
0.0
 10
6.5734256222
 20
7.2854747776
 30
0.0
 10
6.5586629911
 20
7.2781147208
 30
0.0
  0
SPLINE
  5
483
100
AcDbEntity
  8
0
100
AcDbSpline
 62
9
  6
CONTINUOUS
 70
0
 71
3
 72
9
 73
5
 74
0
 42
0.0000001
 43
0.0000001
 44
0.0000000001
 40
0.0
 40
0.0
 40
0.0
 40
0.0
 40
0.2558562338
 40
1.0
 40
1.0
 40
1.0
 40
1.0
 10
6.6941024896
 20
8.9721695021
 30
0.0
 10
6.6941024896
 20
8.9803560667
 30
0.0
 10
6.6926159728
 20
9.0123227111
 30
0.0
 10
6.6852307514
 20
9.0441153463
 30
0.0
 10
6.6761612988
 20
9.0661305533
 30
0.0
  0
SPLINE
  5
484
100
AcDbEntity
  8
0
100
AcDbSpline
 62
9
  6
CONTINUOUS
 70
0
 71
3
 72
24
 73
20
 74
0
 42
0.0000001
 43
0.0000001
 44
0.0000000001
 40
0.0
 40
0.0
 40
0.0
 40
0.0
 40
0.0734568638
 40
0.1446426716
 40
0.2134067937
 40
0.2796875469
 40
0.343542176
 40
0.4051387843
 40
0.4647791054
 40
0.5228811085
 40
0.5799716428
 40
0.6366484084
 40
0.6935438884
 40
0.7512697561
 40
0.8103813808
 40
0.8713299248
 40
0.9026204352
 40
0.9344867002
 40
1.0
 40
1.0
 40
1.0
 40
1.0
 10
6.6747514319
 20
9.0694724817
 30
0.0
 10
6.6723578112
 20
9.0750145042
 30
0.0
 10
6.6671780759
 20
9.0857341846
 30
0.0
 10
6.6581162399
 20
9.1007792846
 30
0.0
 10
6.6479792484
 20
9.1143986881
 30
0.0
 10
6.6368707066
 20
9.1264342406
 30
0.0
 10
6.6249152917
 20
9.1367540886
 30
0.0
 10
6.6122386701
 20
9.1452351114
 30
0.0
 10
6.5989818554
 20
9.1517778614
 30
0.0
 10
6.5852924295
 20
9.1563004305
 30
0.0
 10
6.5713280673
 20
9.1587421444
 30
0.0
 10
6.5572535247
 20
9.1590738021
 30
0.0
 10
6.5432374049
 20
9.1572847857
 30
0.0
 10
6.5294441401
 20
9.1534073347
 30
0.0
 10
6.516037961
 20
9.1474840177
 30
0.0
 10
6.5053993314
 20
9.1409680608
 30
0.0
 10
6.497232308
 20
9.1348497778
 30
0.0
 10
6.4891623168
 20
9.1280089907
 30
0.0
 10
6.4835191765
 20
9.1223031701
 30
0.0
 10
6.4799415077
 20
9.1182797429
 30
0.0
  0
SPLINE
  5
485
100
AcDbEntity
  8
0
100
AcDbSpline
 62
9
  6
CONTINUOUS
 70
0
 71
3
 72
9
 73
5
 74
0
 42
0.0000001
 43
0.0000001
 44
0.0000000001
 40
0.0
 40
0.0
 40
0.0
 40
0.0
 40
0.2444249202
 40
1.0
 40
1.0
 40
1.0
 40
1.0
 10
6.4790661645
 20
9.1172866841
 30
0.0
 10
6.4775154943
 20
9.1155120515
 30
0.0
 10
6.4713390458
 20
9.1081059814
 30
0.0
 10
6.4658291272
 20
9.1001503497
 30
0.0
 10
6.4620420998
 20
9.0939270039
 30
0.0
  0
SPLINE
  5
486
100
AcDbEntity
  8
0
100
AcDbSpline
 62
9
  6
CONTINUOUS
 70
0
 71
3
 72
12
 73
8
 74
0
 42
0.0000001
 43
0.0000001
 44
0.0000000001
 40
0.0
 40
0.0
 40
0.0
 40
0.0
 40
0.1302842618
 40
0.2602111404
 40
0.5161026412
 40
0.7637112419
 40
1.0
 40
1.0
 40
1.0
 40
1.0
 10
6.7163636945
 20
8.9721695021
 30
0.0
 10
6.7163636945
 20
8.966207033
 30
0.0
 10
6.7159766063
 20
8.9542943068
 30
0.0
 10
6.7136898781
 20
8.9307737576
 30
0.0
 10
6.7080626076
 20
8.9022383414
 30
0.0
 10
6.6969971904
 20
8.8701315832
 30
0.0
 10
6.6867143899
 20
8.8503942104
 30
0.0
 10
6.6809199114
 20
8.8412639474
 30
0.0
  0
LINE
  5
487
100
AcDbEntity
  8
0
100
AcDbLine
 62
7
  6
CONTINUOUS
 10
6.7466978281
 20
9.4597333657
 11
6.7450128403
 21
9.4594445448
  0
SPLINE
  5
488
100
AcDbEntity
  8
0
100
AcDbSpline
 62
7
  6
CONTINUOUS
 70
0
 71
3
 72
9
 73
5
 74
0
 42
0.0000001
 43
0.0000001
 44
0.0000000001
 40
0.0
 40
0.0
 40
0.0
 40
0.0
 40
0.4955042891
 40
1.0
 40
1.0
 40
1.0
 40
1.0
 10
6.5723106399
 20
8.7700493258
 30
0.0
 10
6.5683782912
 20
8.7709900784
 30
0.0
 10
6.5605443656
 20
8.773341613
 30
0.0
 10
6.5530173359
 20
8.7765375674
 30
0.0
 10
6.5493162619
 20
8.7783401021
 30
0.0
  0
SPLINE
  5
489
100
AcDbEntity
  8
0
100
AcDbSpline
 62
7
  6
CONTINUOUS
 70
0
 71
3
 72
9
 73
5
 74
0
 42
0.0000001
 43
0.0000001
 44
0.0000000001
 40
0.0
 40
0.0
 40
0.0
 40
0.0
 40
0.5045153104
 40
1.0
 40
1.0
 40
1.0
 40
1.0
 10
6.549347104
 20
9.1660138764
 30
0.0
 10
6.5530728874
 20
9.1678271346
 30
0.0
 10
6.5606510858
 20
9.1710391683
 30
0.0
 10
6.56853954
 20
9.173394828
 30
0.0
 10
6.5724989895
 20
9.174334497
 30
0.0
  0
SPLINE
  5
48A
100
AcDbEntity
  8
0
100
AcDbSpline
 62
7
  6
CONTINUOUS
 70
0
 71
3
 72
36
 73
32
 74
0
 42
0.0000001
 43
0.0000001
 44
0.0000000001
 40
0.0
 40
0.0
 40
0.0
 40
0.0
 40
0.0001398465
 40
0.0004880363
 40
0.0010584371
 40
0.0018512035
 40
0.002864711
 40
0.0040968429
 40
0.0072076405
 40
0.0111675594
 40
0.0159726324
 40
0.0216218218
 40
0.0281140104
 40
0.0354487495
 40
0.0436285835
 40
0.0625368472
 40
0.0848707919
 40
0.1106786571
 40
0.1398966578
 40
0.1722490009
 40
0.2072823507
 40
0.2444450727
 40
0.3234677986
 40
0.4064773181
 40
0.4911910311
 40
0.5753426801
 40
0.6567053378
 40
0.7338468152
 40
0.8063364962
 40
0.874436333
 40
1.0
 40
1.0
 40
1.0
 40
1.0
 10
6.992807897
 20
9.4721339351
 30
0.0
 10
6.9928082396
 20
9.472130019
 30
0.0
 10
6.9927909932
 20
9.4721230642
 30
0.0
 10
6.9927658032
 20
9.4721178932
 30
0.0
 10
6.9927159909
 20
9.4721105436
 30
0.0
 10
6.9926504572
 20
9.4721040985
 30
0.0
 10
6.9925649441
 20
9.4720973128
 30
0.0
 10
6.9924148455
 20
9.4720878559
 30
0.0
 10
6.992181592
 20
9.4720768632
 30
0.0
 10
6.9918480314
 20
9.4720648833
 30
0.0
 10
6.9914429974
 20
9.4720534574
 30
0.0
 10
6.9909667693
 20
9.4720426535
 30
0.0
 10
6.990419397
 20
9.4720325412
 30
0.0
 10
6.9898008703
 20
9.4720231713
 30
0.0
 10
6.9888333368
 20
9.472011215
 30
0.0
 10
6.9874441595
 20
9.4719991639
 30
0.0
 10
6.9855594413
 20
9.4719896379
 30
0.0
 10
6.9833849014
 20
9.4719857793
 30
0.0
 10
6.9809287489
 20
9.4719883954
 30
0.0
 10
6.978213289
 20
9.4719978089
 30
0.0
 10
6.9752745331
 20
9.4720133061
 30
0.0
 10
6.9710239484
 20
9.4720408591
 30
0.0
 10
6.9654248621
 20
9.4720846885
 30
0.0
 10
6.9584892433
 20
9.4721457036
 30
0.0
 10
6.9514095081
 20
9.4722134074
 30
0.0
 10
6.9443761415
 20
9.4722884824
 30
0.0
 10
6.9375557016
 20
9.4723690056
 30
0.0
 10
6.9310630778
 20
9.4724478183
 30
0.0
 10
6.9249431852
 20
9.4725181539
 30
0.0
 10
6.9174621267
 20
9.4725904803
 30
0.0
 10
6.912018355
 20
9.4726194209
 30
0.0
 10
6.9084888327
 20
9.4726194209
 30
0.0
  0
SPLINE
  5
48B
100
AcDbEntity
  8
0
100
AcDbSpline
 62
7
  6
CONTINUOUS
 70
0
 71
3
 72
16
 73
12
 74
0
 42
0.0000001
 43
0.0000001
 44
0.0000000001
 40
0.0
 40
0.0
 40
0.0
 40
0.0
 40
0.1249896414
 40
0.1874883375
 40
0.2499871154
 40
0.3437313923
 40
0.437475854
 40
0.6249602988
 40
0.718700755
 40
0.8124603563
 40
1.0
 40
1.0
 40
1.0
 40
1.0
 10
6.8270301315
 20
9.4652519945
 30
0.0
 10
6.8261597319
 20
9.4652519945
 30
0.0
 10
6.8248541219
 20
9.4652378641
 30
0.0
 10
6.8231134974
 20
9.465210168
 30
0.0
 10
6.8215904183
 20
9.4651862873
 30
0.0
 10
6.8198496122
 20
9.4651682574
 30
0.0
 10
6.8172383758
 20
9.4651754729
 30
0.0
 10
6.8146271297
 20
9.4651971462
 30
0.0
 10
6.8120159628
 20
9.4651581904
 30
0.0
 10
6.8094054303
 20
9.4650792275
 30
0.0
 10
6.8074479089
 20
9.4650045223
 30
0.0
 10
6.8061424039
 20
9.4649691648
 30
0.0
  0
SPLINE
  5
48C
100
AcDbEntity
  8
0
100
AcDbSpline
 62
7
  6
CONTINUOUS
 70
0
 71
3
 72
16
 73
12
 74
0
 42
0.0000001
 43
0.0000001
 44
0.0000000001
 40
0.0
 40
0.0
 40
0.0
 40
0.0
 40
0.1250248612
 40
0.1875397934
 40
0.2500486433
 40
0.3437944147
 40
0.4375323238
 40
0.6250219389
 40
0.7187652272
 40
0.8125126654
 40
1.0
 40
1.0
 40
1.0
 40
1.0
 10
6.8061424039
 20
9.463963845
 30
0.0
 10
6.8070127293
 20
9.4639874317
 30
0.0
 10
6.8083179526
 20
9.4640325822
 30
0.0
 10
6.8100581909
 20
9.4640928047
 30
0.0
 10
6.8115809245
 20
9.4641399676
 30
0.0
 10
6.8133215026
 20
9.46417711
 30
0.0
 10
6.8159328124
 20
9.464185245
 30
0.0
 10
6.8185439483
 20
9.4641591732
 30
0.0
 10
6.8211552611
 20
9.4641739892
 30
0.0
 10
6.8237661777
 20
9.4642153344
 30
0.0
 10
6.825724512
 20
9.4642468591
 30
0.0
 10
6.8270301315
 20
9.4642468591
 30
0.0
  0
LINE
  5
48D
100
AcDbEntity
  8
0
100
AcDbLine
 62
7
  6
CONTINUOUS
 10
6.8716485694
 20
9.4629550554
 11
6.8758912101
 21
9.4631310967
  0
SPLINE
  5
48E
100
AcDbEntity
  8
0
100
AcDbSpline
 62
7
  6
CONTINUOUS
 70
0
 71
3
 72
17
 73
13
 74
0
 42
0.0000001
 43
0.0000001
 44
0.0000000001
 40
0.0
 40
0.0
 40
0.0
 40
0.0
 40
0.4134691891
 40
0.5822454181
 40
0.7232179384
 40
0.7829661351
 40
0.8354152493
 40
0.8804836629
 40
0.918150372
 40
0.9485017111
 40
0.9717732162
 40
1.0
 40
1.0
 40
1.0
 40
1.0
 10
6.8941364986
 20
9.4654840887
 30
0.0
 10
6.8958511936
 20
9.4656847844
 30
0.0
 10
6.8982632532
 20
9.4659938789
 30
0.0
 10
6.9012446077
 20
9.4664752009
 30
0.0
 10
6.9027603669
 20
9.4667646616
 30
0.0
 10
6.9037915314
 20
9.4669981148
 30
0.0
 10
6.9044276208
 20
9.4671608755
 30
0.0
 10
6.9049695176
 20
9.4673213222
 30
0.0
 10
6.9054139574
 20
9.4674769613
 30
0.0
 10
6.9057671313
 20
9.4676327363
 30
0.0
 10
6.9060535205
 20
9.4677963315
 30
0.0
 10
6.9062364986
 20
9.4679759818
 30
0.0
 10
6.9062364986
 20
9.4680938399
 30
0.0
  0
SPLINE
  5
48F
100
AcDbEntity
  8
0
100
AcDbSpline
 62
7
  6
CONTINUOUS
 70
0
 71
3
 72
11
 73
7
 74
0
 42
0.0000001
 43
0.0000001
 44
0.0000000001
 40
0.0
 40
0.0
 40
0.0
 40
0.0
 40
0.2197247436
 40
0.4626456775
 40
0.7242207998
 40
1.0
 40
1.0
 40
1.0
 40
1.0
 10
14.6838420543
 20
9.4310410204
 30
0.0
 10
14.6865946857
 20
9.4310464699
 30
0.0
 10
14.6923904714
 20
9.4311577297
 30
0.0
 10
14.7014549487
 20
9.4315628439
 30
0.0
 10
14.7112090292
 20
9.4322126456
 30
0.0
 10
14.7179166477
 20
9.4327875958
 30
0.0
 10
14.721356241
 20
9.4331121112
 30
0.0
  0
SPLINE
  5
490
100
AcDbEntity
  8
0
100
AcDbSpline
 62
7
  6
CONTINUOUS
 70
0
 71
3
 72
9
 73
5
 74
0
 42
0.0000001
 43
0.0000001
 44
0.0000000001
 40
0.0
 40
0.0
 40
0.0
 40
0.0
 40
0.5167749388
 40
1.0
 40
1.0
 40
1.0
 40
1.0
 10
14.742871954
 20
9.4355101552
 30
0.0
 10
14.7501867025
 20
9.4364461933
 30
0.0
 10
14.7643131003
 20
9.4384844384
 30
0.0
 10
14.7783651167
 20
9.4409911065
 30
0.0
 10
14.7851258854
 20
9.4423482464
 30
0.0
  0
SPLINE
  5
491
100
AcDbEntity
  8
0
100
AcDbSpline
 62
7
  6
CONTINUOUS
 70
0
 71
3
 72
9
 73
5
 74
0
 42
0.0000001
 43
0.0000001
 44
0.0000000001
 40
0.0
 40
0.0
 40
0.0
 40
0.0
 40
0.5245548018
 40
1.0
 40
1.0
 40
1.0
 40
1.0
 10
14.7851258854
 20
9.4423482464
 30
0.0
 10
14.7882648867
 20
9.4429783618
 30
0.0
 10
14.7942369086
 20
9.4442409899
 30
0.0
 10
14.8001764331
 20
9.4456503201
 30
0.0
 10
14.8029885009
 20
9.4463666879
 30
0.0
  0
LINE
  5
492
100
AcDbEntity
  8
0
100
AcDbLine
 62
7
  6
CONTINUOUS
 10
14.8136939262
 20
9.4490163517
 11
14.814193924
 21
9.4491363222
  0
LINE
  5
493
100
AcDbEntity
  8
0
100
AcDbLine
 62
7
  6
CONTINUOUS
 10
14.814193924
 20
9.4491363222
 11
14.8157543121
 21
9.4495085593
  0
LINE
  5
494
100
AcDbEntity
  8
0
100
AcDbLine
 62
7
  6
CONTINUOUS
 10
14.9153740293
 20
9.4712828117
 11
14.9162877646
 21
9.4712522823
  0
SPLINE
  5
495
100
AcDbEntity
  8
0
100
AcDbSpline
 62
7
  6
CONTINUOUS
 70
0
 71
3
 72
16
 73
12
 74
0
 42
0.0000001
 43
0.0000001
 44
0.0000000001
 40
0.0
 40
0.0
 40
0.0
 40
0.0
 40
0.2088452684
 40
0.3963869625
 40
0.5607499662
 40
0.7004567398
 40
0.8146033732
 40
0.9024549338
 40
0.963841975
 40
0.9848821654
 40
1.0
 40
1.0
 40
1.0
 40
1.0
 10
14.9162877646
 20
9.4712523763
 30
0.0
 10
14.9169029907
 20
9.4712314562
 30
0.0
 10
14.9180704947
 20
9.4711854966
 30
0.0
 10
14.9197210713
 20
9.4710982687
 30
0.0
 10
14.9211667445
 20
9.470997371
 30
0.0
 10
14.9223941927
 20
9.47088362
 30
0.0
 10
14.9233943329
 20
9.4707594516
 30
0.0
 10
14.9241584942
 20
9.4706250509
 30
0.0
 10
14.9246471063
 20
9.4704990984
 30
0.0
 10
14.924910215
 20
9.4703829081
 30
0.0
 10
14.9249996702
 20
9.4703214161
 30
0.0
 10
14.925029734
 20
9.4702885252
 30
0.0
  0
LINE
  5
496
100
AcDbEntity
  8
0
100
AcDbLine
 62
7
  6
CONTINUOUS
 10
14.925029734
 20
9.4702885252
 11
14.9250746801
 21
9.4701888464
  0
LINE
  5
497
100
AcDbEntity
  8
0
100
AcDbLine
 62
7
  6
CONTINUOUS
 10
14.976509136
 20
9.4706189925
 11
14.9772919937
 21
9.4706394148
  0
SPLINE
  5
498
100
AcDbEntity
  8
0
100
AcDbSpline
 62
7
  6
CONTINUOUS
 70
0
 71
3
 72
25
 73
21
 74
0
 42
0.0000001
 43
0.0000001
 44
0.0000000001
 40
0.0
 40
0.0
 40
0.0
 40
0.0
 40
0.0262682965
 40
0.0526087618
 40
0.0791057349
 40
0.1058390556
 40
0.1602625342
 40
0.216421922
 40
0.2746820995
 40
0.3352244076
 40
0.3980438887
 40
0.462951973
 40
0.5296093716
 40
0.5975483107
 40
0.6662217494
 40
0.7350302445
 40
0.8033695766
 40
0.8371915976
 40
0.8706859764
 40
1.0
 40
1.0
 40
1.0
 40
1.0
 10
15.5771527198
 20
9.1681695021
 30
0.0
 10
15.5737091108
 20
9.1681695021
 30
0.0
 10
15.566807759
 20
9.1678306032
 30
0.0
 10
15.5565329255
 20
9.1663199438
 30
0.0
 10
15.5463883813
 20
9.1638214248
 30
0.0
 10
15.5330470107
 20
9.1591664977
 30
0.0
 10
15.5169301436
 20
9.1509202313
 30
0.0
 10
15.499134717
 20
9.1376009363
 30
0.0
 10
15.4830414749
 20
9.1211415022
 30
0.0
 10
15.4688978586
 20
9.10190012
 30
0.0
 10
15.4569062886
 20
9.0802574617
 30
0.0
 10
15.447238662
 20
9.0566205503
 30
0.0
 10
15.4400473351
 20
9.0314227851
 30
0.0
 10
15.4354390137
 20
9.0051294906
 30
0.0
 10
15.4334908301
 20
8.9782250327
 30
0.0
 10
15.4342364574
 20
8.9512094967
 30
0.0
 10
15.4370972657
 20
8.928938403
 30
0.0
 10
15.4407275512
 20
8.9115195959
 30
0.0
 10
15.4472999067
 20
8.8865981919
 30
0.0
 10
15.4554900198
 20
8.8666065901
 30
0.0
 10
15.4638357242
 20
8.8518509719
 30
0.0
  0
SPLINE
  5
499
100
AcDbEntity
  8
0
100
AcDbSpline
 62
7
  6
CONTINUOUS
 70
0
 71
3
 72
15
 73
11
 74
0
 42
0.0000001
 43
0.0000001
 44
0.0000000001
 40
0.0
 40
0.0
 40
0.0
 40
0.0
 40
0.1368892641
 40
0.2697293927
 40
0.398607576
 40
0.5238153005
 40
0.6458619358
 40
0.7653601005
 40
0.8831077912
 40
1.0
 40
1.0
 40
1.0
 40
1.0
 10
15.465457581
 20
8.8490374432
 30
0.0
 10
15.4686831851
 20
8.8435467682
 30
0.0
 10
15.4755709478
 20
8.8330281406
 30
0.0
 10
15.487325254
 20
8.8186405323
 30
0.0
 10
15.5002523705
 20
8.8060551735
 30
0.0
 10
15.5142216273
 20
8.7954401523
 30
0.0
 10
15.5290923729
 20
8.7869704846
 30
0.0
 10
15.5446819438
 20
8.7807815763
 30
0.0
 10
15.5607817575
 20
8.7770188457
 30
0.0
 10
15.571714929
 20
8.7761695021
 30
0.0
 10
15.5771527198
 20
8.7761695021
 30
0.0
  0
SPLINE
  5
49A
100
AcDbEntity
  8
0
100
AcDbSpline
 62
7
  6
CONTINUOUS
 70
0
 71
3
 72
11
 73
7
 74
0
 42
0.0000001
 43
0.0000001
 44
0.0000000001
 40
0.0
 40
0.0
 40
0.0
 40
0.0
 40
0.2159081516
 40
0.4601628966
 40
0.7239068032
 40
1.0
 40
1.0
 40
1.0
 40
1.0
 10
15.4626434047
 20
8.8565394628
 30
0.0
 10
15.4610697567
 20
8.8571563429
 30
0.0
 10
15.4576521824
 20
8.8583142027
 30
0.0
 10
15.4521274566
 20
8.8596139207
 30
0.0
 10
15.44604039
 20
8.8604645795
 30
0.0
 10
15.4418118458
 20
8.8606695021
 30
0.0
 10
15.4396504471
 20
8.8606695021
 30
0.0
  0
SPLINE
  5
49B
100
AcDbEntity
  8
0
100
AcDbSpline
 62
7
  6
CONTINUOUS
 70
0
 71
3
 72
11
 73
7
 74
0
 42
0.0000001
 43
0.0000001
 44
0.0000000001
 40
0.0
 40
0.0
 40
0.0
 40
0.0
 40
0.2767987839
 40
0.5407175998
 40
0.7845909121
 40
1.0
 40
1.0
 40
1.0
 40
1.0
 10
15.4396504471
 20
9.0836695021
 30
0.0
 10
15.4418229941
 20
9.0836695021
 30
0.0
 10
15.4460695452
 20
9.0838770673
 30
0.0
 10
15.4521751605
 20
9.0847370072
 30
0.0
 10
15.4577093713
 20
9.0860370632
 30
0.0
 10
15.4611268099
 20
9.0872037953
 30
0.0
 10
15.4626993114
 20
9.0878248733
 30
0.0
  0
SPLINE
  5
49C
100
AcDbEntity
  8
0
100
AcDbSpline
 62
7
  6
CONTINUOUS
 70
0
 71
3
 72
31
 73
27
 74
0
 42
0.0000001
 43
0.0000001
 44
0.0000000001
 40
0.0
 40
0.0
 40
0.0
 40
0.0
 40
0.0210742758
 40
0.0373929561
 40
0.0491051216
 40
0.0532780969
 40
0.0563513853
 40
0.0592627226
 40
0.060563673
 40
0.0659222486
 40
0.0751388095
 40
0.0880156454
 40
0.1043607923
 40
0.1239886398
 40
0.1467206019
 40
0.1723858565
 40
0.2008211029
 40
0.2318538187
 40
0.2653004232
 40
0.3387034861
 40
0.4196105993
 40
0.5066582307
 40
0.5986591512
 40
0.6947694759
 40
0.7942100776
 40
1.0
 40
1.0
 40
1.0
 40
1.0
 10
15.410788334
 20
9.0902199636
 30
0.0
 10
15.4106234657
 20
9.0903904068
 30
0.0
 10
15.4103289368
 20
9.0906886634
 30
0.0
 10
15.4099263688
 20
9.0910752017
 30
0.0
 10
15.4096678728
 20
9.0913129054
 30
0.0
 10
15.4094951843
 20
9.0914628625
 30
0.0
 10
15.4094314364
 20
9.0915190696
 30
0.0
 10
15.409305197
 20
9.0916200122
 30
0.0
 10
15.4094237958
 20
9.0915301312
 30
0.0
 10
15.4095430936
 20
9.0914452823
 30
0.0
 10
15.4098119816
 20
9.0912569187
 30
0.0
 10
15.4101653816
 20
9.0910226657
 30
0.0
 10
15.4106323041
 20
9.0907263666
 30
0.0
 10
15.4111975079
 20
9.0903865859
 30
0.0
 10
15.4118633612
 20
9.0900081045
 30
0.0
 10
15.4126258218
 20
9.0896006059
 30
0.0
 10
15.4134830057
 20
9.0891725887
 30
0.0
 10
15.4144306454
 20
9.0887306861
 30
0.0
 10
15.415852806
 20
9.0881101891
 30
0.0
 10
15.4178200955
 20
9.0873375451
 30
0.0
 10
15.4203930573
 20
9.0864651479
 30
0.0
 10
15.4232077528
 20
9.0856641955
 30
0.0
 10
15.4262276941
 20
9.0849752709
 30
0.0
 10
15.4294155692
 20
9.0844132863
 30
0.0
 10
15.4338970919
 20
9.0838472745
 30
0.0
 10
15.4373348394
 20
9.0836695021
 30
0.0
 10
15.4396504471
 20
9.0836695021
 30
0.0
  0
SPLINE
  5
49D
100
AcDbEntity
  8
0
100
AcDbSpline
 62
7
  6
CONTINUOUS
 70
0
 71
3
 72
31
 73
27
 74
0
 42
0.0000001
 43
0.0000001
 44
0.0000000001
 40
0.0
 40
0.0
 40
0.0
 40
0.0
 40
0.1880491709
 40
0.3684674011
 40
0.4545786009
 40
0.5372500666
 40
0.6159423263
 40
0.6899239763
 40
0.758290032
 40
0.8200869451
 40
0.8743258165
 40
0.9199951695
 40
0.9393188902
 40
0.9561599479
 40
0.9704086217
 40
0.9819501847
 40
0.9866687256
 40
0.9906653864
 40
0.9939245962
 40
0.9964305516
 40
0.9981672502
 40
0.9991186225
 40
0.999295168
 40
0.9993283015
 40
0.9995609185
 40
1.0
 40
1.0
 40
1.0
 40
1.0
 10
15.4396504471
 20
8.8606695021
 30
0.0
 10
15.4376583742
 20
8.8606695021
 30
0.0
 10
15.4337532498
 20
8.8604943141
 30
0.0
 10
15.4289718745
 20
8.8598754153
 30
0.0
 10
15.425339767
 20
8.8591690241
 30
0.0
 10
15.4227892294
 20
8.8585590065
 30
0.0
 10
15.420392526
 20
8.8578693446
 30
0.0
 10
15.4181724652
 20
8.8571226476
 30
0.0
 10
15.4161522996
 20
8.8563492028
 30
0.0
 10
15.4143569924
 20
8.8555779467
 30
0.0
 10
15.4128111155
 20
8.8548388569
 30
0.0
 10
15.4116962751
 20
8.8542440323
 30
0.0
 10
15.4109478796
 20
8.8538063476
 30
0.0
 10
15.4104931421
 20
8.8535262646
 30
0.0
 10
15.4101138094
 20
8.8532810218
 30
0.0
 10
15.4098461057
 20
8.8531001824
 30
0.0
 10
15.4096699647
 20
8.852977184
 30
0.0
 10
15.4095669372
 20
8.8529041284
 30
0.0
 10
15.409482141
 20
8.8528423078
 30
0.0
 10
15.4094205382
 20
8.8527984418
 30
0.0
 10
15.4093708921
 20
8.852759031
 30
0.0
 10
15.409354772
 20
8.8527514737
 30
0.0
 10
15.4093379453
 20
8.8527360798
 30
0.0
 10
15.4093395506
 20
8.8527412906
 30
0.0
 10
15.4093464262
 20
8.85274481
 30
0.0
 10
15.4093510954
 20
8.85275026
 30
0.0
 10
15.4093545789
 20
8.8527533422
 30
0.0
  0
SPLINE
  5
49E
100
AcDbEntity
  8
0
100
AcDbSpline
 62
7
  6
CONTINUOUS
 70
0
 71
3
 72
15
 73
11
 74
0
 42
0.0000001
 43
0.0000001
 44
0.0000000001
 40
0.0
 40
0.0
 40
0.0
 40
0.0
 40
0.1193533697
 40
0.2391784106
 40
0.3602215367
 40
0.4830197427
 40
0.6079972781
 40
0.7356387296
 40
0.8662471105
 40
1.0
 40
1.0
 40
1.0
 40
1.0
 10
15.2993087976
 20
8.7761822095
 30
0.0
 10
15.3049482595
 20
8.7762667564
 30
0.0
 10
15.31625423
 20
8.7772846142
 30
0.0
 10
15.3328561341
 20
8.7812973595
 30
0.0
 10
15.3488629748
 20
8.787706175
 30
0.0
 10
15.3640605591
 20
8.7963417443
 30
0.0
 10
15.3782609726
 20
8.8070523437
 30
0.0
 10
15.3913350363
 20
8.8196426708
 30
0.0
 10
15.4031733
 20
8.8339359878
 30
0.0
 10
15.4101070374
 20
8.8443577068
 30
0.0
 10
15.4133486362
 20
8.8497837002
 30
0.0
  0
SPLINE
  5
49F
100
AcDbEntity
  8
0
100
AcDbSpline
 62
7
  6
CONTINUOUS
 70
0
 71
3
 72
15
 73
11
 74
0
 42
0.0000001
 43
0.0000001
 44
0.0000000001
 40
0.0
 40
0.0
 40
0.0
 40
0.0
 40
0.1340303055
 40
0.2648140637
 40
0.3925247213
 40
0.5174761323
 40
0.6401698662
 40
0.761071333
 40
0.8807551296
 40
1.0
 40
1.0
 40
1.0
 40
1.0
 10
15.4147075377
 20
9.0922447479
 30
0.0
 10
15.4114361154
 20
9.0978947457
 30
0.0
 10
15.4044126356
 20
9.1087465603
 30
0.0
 10
15.3923449611
 20
9.1236261129
 30
0.0
 10
15.3789582005
 20
9.1367154566
 30
0.0
 10
15.3643696645
 20
9.1478204318
 30
0.0
 10
15.3487196626
 20
9.1567291461
 30
0.0
 10
15.3322110162
 20
9.1632725496
 30
0.0
 10
15.3150800423
 20
9.1672679541
 30
0.0
 10
15.3034224638
 20
9.1681695021
 30
0.0
 10
15.2976139201
 20
9.1681695021
 30
0.0
  0
SPLINE
  5
4A0
100
AcDbEntity
  8
0
100
AcDbSpline
 62
7
  6
CONTINUOUS
 70
0
 71
3
 72
12
 73
8
 74
0
 42
0.0000001
 43
0.0000001
 44
0.0000000001
 40
0.0
 40
0.0
 40
0.0
 40
0.0
 40
0.1290481552
 40
0.2578339332
 40
0.5123375924
 40
0.7604459247
 40
1.0
 40
1.0
 40
1.0
 40
1.0
 10
14.4415095877
 20
8.9730960203
 30
0.0
 10
14.441490879
 20
8.9785184753
 30
0.0
 10
14.4411256772
 20
8.9893544976
 30
0.0
 10
14.439109311
 20
9.0107974105
 30
0.0
 10
14.4342201261
 20
9.0369507862
 30
0.0
 10
14.4246307008
 20
9.0667102952
 30
0.0
 10
14.4157288731
 20
9.0852590143
 30
0.0
 10
14.4106980308
 20
9.0939774942
 30
0.0
  0
SPLINE
  5
4A1
100
AcDbEntity
  8
0
100
AcDbSpline
 62
7
  6
CONTINUOUS
 70
0
 71
3
 72
18
 73
14
 74
0
 42
0.0000001
 43
0.0000001
 44
0.0000000001
 40
0.0
 40
0.0
 40
0.0
 40
0.0
 40
0.1371193692
 40
0.2041292589
 40
0.2700936614
 40
0.3989193388
 40
0.523974709
 40
0.6458182111
 40
0.7057860267
 40
0.7652340785
 40
0.8829373102
 40
0.941500173
 40
1.0
 40
1.0
 40
1.0
 40
1.0
 10
14.4101242457
 20
9.0949652478
 30
0.0
 10
14.4067971515
 20
9.100654663
 30
0.0
 10
14.4014121097
 20
9.1088854208
 30
0.0
 10
14.3934301558
 20
9.1191309265
 30
0.0
 10
14.3851418605
 20
9.1286072546
 30
0.0
 10
14.3740128701
 20
9.1392739028
 30
0.0
 10
14.3594534707
 20
9.1500444682
 30
0.0
 10
14.34645511
 20
9.15713087
 30
0.0
 10
14.3357162682
 20
9.1615334448
 30
0.0
 10
14.3248673965
 20
9.1650542289
 30
0.0
 10
14.313705557
 20
9.167297602
 30
0.0
 10
14.3024485509
 20
9.1681978354
 30
0.0
 10
14.2968142202
 20
9.168197252
 30
0.0
 10
14.2940046078
 20
9.168084526
 30
0.0
  0
SPLINE
  5
4A2
100
AcDbEntity
  8
0
100
AcDbSpline
 62
7
  6
CONTINUOUS
 70
0
 71
3
 72
17
 73
13
 74
0
 42
0.0000001
 43
0.0000001
 44
0.0000000001
 40
0.0
 40
0.0
 40
0.0
 40
0.0
 40
0.0585152786
 40
0.1170900794
 40
0.1758453621
 40
0.2348930156
 40
0.3542230487
 40
0.4760612145
 40
0.6011102976
 40
0.7299353623
 40
0.8628630702
 40
1.0
 40
1.0
 40
1.0
 40
1.0
 10
14.2936299211
 20
8.7762698632
 30
0.0
 10
14.2964452789
 20
8.7761470214
 30
0.0
 10
14.3020913625
 20
8.7761273232
 30
0.0
 10
14.3105434802
 20
8.7767757539
 30
0.0
 10
14.318944079
 20
8.7780935625
 30
0.0
 10
14.3300633905
 20
8.7807400455
 30
0.0
 10
14.3436994962
 20
8.7857247247
 30
0.0
 10
14.3592519244
 20
8.7941640051
 30
0.0
 10
14.373859013
 20
8.8049329006
 30
0.0
 10
14.3873571893
 20
8.8178387709
 30
0.0
 10
14.399600222
 20
8.8326937987
 30
0.0
 10
14.4067426296
 20
8.8435970123
 30
0.0
 10
14.4100791073
 20
8.8492966344
 30
0.0
  0
SPLINE
  5
4A3
100
AcDbEntity
  8
0
100
AcDbSpline
 62
7
  6
CONTINUOUS
 70
0
 71
3
 72
12
 73
8
 74
0
 42
0.0000001
 43
0.0000001
 44
0.0000000001
 40
0.0
 40
0.0
 40
0.0
 40
0.0
 40
0.2396712179
 40
0.4877460506
 40
0.7421548205
 40
0.8709196732
 40
1.0
 40
1.0
 40
1.0
 40
1.0
 10
14.4109026748
 20
8.8507170635
 30
0.0
 10
14.4158218645
 20
8.8592831807
 30
0.0
 10
14.4245443916
 20
8.8774817176
 30
0.0
 10
14.4340066159
 20
8.9066502799
 30
0.0
 10
14.4389081045
 20
8.9322743908
 30
0.0
 10
14.4410062574
 20
8.9532916122
 30
0.0
 10
14.441437154
 20
8.9639177788
 30
0.0
 10
14.4414951874
 20
8.9692375334
 30
0.0
  0
SPLINE
  5
4A4
100
AcDbEntity
  8
0
100
AcDbSpline
 62
7
  6
CONTINUOUS
 70
0
 71
3
 72
38
 73
34
 74
0
 42
0.0000001
 43
0.0000001
 44
0.0000000001
 40
0.0
 40
0.0
 40
0.0
 40
0.0
 40
0.000585019
 40
0.0008857164
 40
0.0009305143
 40
0.0009558531
 40
0.0012143371
 40
0.0017476554
 40
0.0025528155
 40
0.004966969
 40
0.008431101
 40
0.0129101917
 40
0.018367659
 40
0.024767441
 40
0.0320740529
 40
0.040252637
 40
0.0590891383
 40
0.0810129488
 40
0.1057730806
 40
0.1331323188
 40
0.1628569198
 40
0.1947141984
 40
0.228475421
 40
0.3008140697
 40
0.3781928288
 40
0.4590861989
 40
0.5420098987
 40
0.6254920009
 40
0.7081096522
 40
0.788425973
 40
0.8649104341
 40
0.9359779572
 40
1.0
 40
1.0
 40
1.0
 40
1.0
 10
14.4660060833
 20
8.8527754035
 30
0.0
 10
14.4660144221
 20
8.8527685664
 30
0.0
 10
14.4660295152
 20
8.85275645
 30
0.0
 10
14.4660378203
 20
8.8527497043
 30
0.0
 10
14.4660471243
 20
8.8527427201
 30
0.0
 10
14.4660410424
 20
8.8527485307
 30
0.0
 10
14.4660313327
 20
8.852755375
 30
0.0
 10
14.4660066349
 20
8.8527753514
 30
0.0
 10
14.4659525783
 20
8.8528158882
 30
0.0
 10
14.4658523203
 20
8.8528896245
 30
0.0
 10
14.4656964347
 20
8.852998785
 30
0.0
 10
14.4654918025
 20
8.8531375771
 30
0.0
 10
14.4652400352
 20
8.8533026262
 30
0.0
 10
14.4649417558
 20
8.8534919316
 30
0.0
 10
14.4645979728
 20
8.8537029912
 30
0.0
 10
14.4640538912
 20
8.8540258444
 30
0.0
 10
14.4632671527
 20
8.8544674998
 30
0.0
 10
14.4621954013
 20
8.8550246582
 30
0.0
 10
14.4609633123
 20
8.855612413
 30
0.0
 10
14.4595785391
 20
8.8562117646
 30
0.0
 10
14.4580525798
 20
8.8568118125
 30
0.0
 10
14.456396779
 20
8.8574016924
 30
0.0
 10
14.4539748919
 20
8.8581779186
 30
0.0
 10
14.4507049923
 20
8.8590521592
 30
0.0
 10
14.4465288265
 20
8.8598628697
 30
0.0
 10
14.4421139844
 20
8.8604135317
 30
0.0
 10
14.4375609224
 20
8.8606886438
 30
0.0
 10
14.4329672394
 20
8.8606680521
 30
0.0
 10
14.4284342703
 20
8.8603274235
 30
0.0
 10
14.4240622258
 20
8.8597050096
 30
0.0
 10
14.4199470815
 20
8.8588500675
 30
0.0
 10
14.4161855392
 20
8.857809355
 30
0.0
 10
14.4138370459
 20
8.8569747073
 30
0.0
 10
14.4127394188
 20
8.8565413225
 30
0.0
  0
SPLINE
  5
4A5
100
AcDbEntity
  8
0
100
AcDbSpline
 62
7
  6
CONTINUOUS
 70
0
 71
3
 72
22
 73
18
 74
0
 42
0.0000001
 43
0.0000001
 44
0.0000000001
 40
0.0
 40
0.0
 40
0.0
 40
0.0
 40
0.0593502214
 40
0.1247175492
 40
0.1947724228
 40
0.2683009371
 40
0.3441616026
 40
0.4212131965
 40
0.4983350142
 40
0.5744429691
 40
0.6484183978
 40
0.7190775892
 40
0.785200625
 40
0.8455432962
 40
0.8987361934
 40
0.9432707932
 40
1.0
 40
1.0
 40
1.0
 40
1.0
 10
14.4129337459
 20
9.0877203192
 30
0.0
 10
14.4139400433
 20
9.0873319548
 30
0.0
 10
14.4160807396
 20
9.086582314
 30
0.0
 10
14.4194854603
 20
9.0856066344
 30
0.0
 10
14.4231957522
 20
9.0847852691
 30
0.0
 10
14.427139432
 20
9.0841741136
 30
0.0
 10
14.4312385938
 20
9.0837841849
 30
0.0
 10
14.4354189172
 20
9.0836319643
 30
0.0
 10
14.4396056805
 20
9.0837329559
 30
0.0
 10
14.4437214093
 20
9.0840990243
 30
0.0
 10
14.447691423
 20
9.0846921924
 30
0.0
 10
14.4514425122
 20
9.0854776691
 30
0.0
 10
14.4549018635
 20
9.0864185248
 30
0.0
 10
14.4579918227
 20
9.0874800776
 30
0.0
 10
14.4606498294
 20
9.0885753905
 30
0.0
 10
14.463180353
 20
9.0897904296
 30
0.0
 10
14.4647827113
 20
9.0907090223
 30
0.0
 10
14.4656271832
 20
9.0913004921
 30
0.0
  0
SPLINE
  5
4A6
100
AcDbEntity
  8
0
100
AcDbSpline
 62
7
  6
CONTINUOUS
 70
0
 71
3
 72
15
 73
11
 74
0
 42
0.0000001
 43
0.0000001
 44
0.0000000001
 40
0.0
 40
0.0
 40
0.0
 40
0.0
 40
0.1194589323
 40
0.2393238818
 40
0.3603590683
 40
0.4831273597
 40
0.6080628532
 40
0.7356633943
 40
0.8662458324
 40
1.0
 40
1.0
 40
1.0
 40
1.0
 10
14.5777707653
 20
9.1681695021
 30
0.0
 10
14.5720862281
 20
9.1681695021
 30
0.0
 10
14.5606799245
 20
9.1673063987
 30
0.0
 10
14.5439036741
 20
9.1634798888
 30
0.0
 10
14.527712121
 20
9.1572071218
 30
0.0
 10
14.5123278661
 20
9.148659635
 30
0.0
 10
14.4979455077
 20
9.137991823
 30
0.0
 10
14.4847002473
 20
9.1254030133
 30
0.0
 10
14.4727052732
 20
9.1110744193
 30
0.0
 10
14.4656806088
 20
9.100608992
 30
0.0
 10
14.4623968187
 20
9.0951567242
 30
0.0
  0
SPLINE
  5
4A7
100
AcDbEntity
  8
0
100
AcDbSpline
 62
7
  6
CONTINUOUS
 70
0
 71
3
 72
15
 73
11
 74
0
 42
0.0000001
 43
0.0000001
 44
0.0000000001
 40
0.0
 40
0.0
 40
0.0
 40
0.0
 40
0.1337281524
 40
0.2642909066
 40
0.3918798841
 40
0.5168126581
 40
0.6395857292
 40
0.7606335584
 40
0.8805211035
 40
1.0
 40
1.0
 40
1.0
 40
1.0
 10
14.4625538885
 20
8.8489219611
 30
0.0
 10
14.4658385488
 20
8.8434874657
 30
0.0
 10
14.4728628442
 20
8.8330567622
 30
0.0
 10
14.4848506575
 20
8.8187776654
 30
0.0
 10
14.4980825712
 20
8.8062337205
 30
0.0
 10
14.5124458373
 20
8.7956050863
 30
0.0
 10
14.5278056428
 20
8.787089564
 30
0.0
 10
14.5439687417
 20
8.7808407866
 30
0.0
 10
14.5607133823
 20
8.7770294401
 30
0.0
 10
14.5720973662
 20
8.7761695021
 30
0.0
 10
14.5777707653
 20
8.7761695021
 30
0.0
  0
LINE
  5
4A8
100
AcDbEntity
  8
0
100
AcDbLine
 62
7
  6
CONTINUOUS
 10
14.8926288835
 20
9.4725144975
 11
14.8869016117
 21
9.4723139453
  0
LINE
  5
4A9
100
AcDbEntity
  8
0
100
AcDbLine
 62
7
  6
CONTINUOUS
 10
14.8869016117
 20
9.4723139453
 11
14.8841405778
 21
9.4721456277
  0
LINE
  5
4AA
100
AcDbEntity
  8
0
100
AcDbLine
 62
7
  6
CONTINUOUS
 10
14.8841405778
 20
9.4721456277
 11
14.8838423471
 21
9.47208186
  0
LINE
  5
4AB
100
AcDbEntity
  8
0
100
AcDbLine
 62
7
  6
CONTINUOUS
 10
14.8201903147
 20
9.468709117
 11
14.8174729122
 21
9.468502586
  0
LINE
  5
4AC
100
AcDbEntity
  8
0
100
AcDbLine
 62
7
  6
CONTINUOUS
 10
14.8027767555
 20
9.4643045825
 11
14.8059816746
 21
9.4646305251
  0
SPLINE
  5
4AD
100
AcDbEntity
  8
0
100
AcDbSpline
 62
7
  6
CONTINUOUS
 70
0
 71
3
 72
12
 73
8
 74
0
 42
0.0000001
 43
0.0000001
 44
0.0000000001
 40
0.0
 40
0.0
 40
0.0
 40
0.0
 40
0.2296727174
 40
0.5002868034
 40
0.7707958602
 40
0.8930128246
 40
1.0
 40
1.0
 40
1.0
 40
1.0
 10
14.8247466325
 20
9.468849758
 30
0.0
 10
14.8279878686
 20
9.4691387744
 30
0.0
 10
14.8350556097
 20
9.469683462
 30
0.0
 10
14.8459537755
 20
9.4703904078
 30
0.0
 10
14.8553389744
 20
9.4708950898
 30
0.0
 10
14.8624123986
 20
9.4712043227
 30
0.0
 10
14.8656578581
 20
9.4713200537
 30
0.0
 10
14.8671730394
 20
9.4713646579
 30
0.0
  0
SPLINE
  5
4AE
100
AcDbEntity
  8
0
100
AcDbSpline
 62
7
  6
CONTINUOUS
 70
0
 71
3
 72
16
 73
12
 74
0
 42
0.0000001
 43
0.0000001
 44
0.0000000001
 40
0.0
 40
0.0
 40
0.0
 40
0.0
 40
0.1250288111
 40
0.1875459935
 40
0.250056349
 40
0.3438020306
 40
0.4375378895
 40
0.6250253159
 40
0.718767354
 40
0.8125144648
 40
1.0
 40
1.0
 40
1.0
 40
1.0
 10
14.8671730394
 20
9.4713643986
 30
0.0
 10
14.8681226042
 20
9.4713923521
 30
0.0
 10
14.8695466287
 20
9.4714452651
 30
0.0
 10
14.8714452617
 20
9.471515738
 30
0.0
 10
14.8731065952
 20
9.471571024
 30
0.0
 10
14.875005629
 20
9.4716154415
 30
0.0
 10
14.8778547656
 20
9.4716264144
 30
0.0
 10
14.8807036758
 20
9.4715959144
 30
0.0
 10
14.8835528207
 20
9.4716122876
 30
0.0
 10
14.8864014518
 20
9.4716616104
 30
0.0
 10
14.888538109
 20
9.4716996825
 30
0.0
 10
14.889962635
 20
9.4716996825
 30
0.0
  0
LINE
  5
4AF
100
AcDbEntity
  8
0
100
AcDbLine
 62
7
  6
CONTINUOUS
 10
14.7989041132
 20
9.4545399284
 11
14.796144131
 21
9.4546368764
  0
LINE
  5
4B0
100
AcDbEntity
  8
0
100
AcDbLine
 62
7
  6
CONTINUOUS
 10
14.7446854789
 20
9.4546233734
 11
14.7434310184
 21
9.4545798835
  0
LINE
  5
4B1
100
AcDbEntity
  8
0
100
AcDbLine
 62
7
  6
CONTINUOUS
 10
14.8130422298
 20
9.4538872135
 11
14.8145909009
 21
9.4536443178
  0
LINE
  5
4B2
100
AcDbEntity
  8
0
100
AcDbLine
 62
7
  6
CONTINUOUS
 10
14.8145909009
 20
9.4536443178
 11
14.8148005836
 21
9.4534429707
  0
SPLINE
  5
4B3
100
AcDbEntity
  8
0
100
AcDbSpline
 62
7
  6
CONTINUOUS
 70
0
 71
3
 72
11
 73
7
 74
0
 42
0.0000001
 43
0.0000001
 44
0.0000000001
 40
0.0
 40
0.0
 40
0.0
 40
0.0
 40
0.2300203504
 40
0.5003679665
 40
0.7708007605
 40
1.0
 40
1.0
 40
1.0
 40
1.0
 10
14.7232396685
 20
9.452909885
 30
0.0
 10
14.7238810255
 20
9.4530534762
 30
0.0
 10
14.7252865033
 20
9.4533190701
 30
0.0
 10
14.7274634735
 20
9.4536547344
 30
0.0
 10
14.7296478852
 20
9.4539189201
 30
0.0
 10
14.7310709045
 20
9.4540417242
 30
0.0
 10
14.7317249499
 20
9.4540749402
 30
0.0
  0
SPLINE
  5
4B4
100
AcDbEntity
  8
0
100
AcDbSpline
 62
7
  6
CONTINUOUS
 70
0
 71
3
 72
9
 73
5
 74
0
 42
0.0000001
 43
0.0000001
 44
0.0000000001
 40
0.0
 40
0.0
 40
0.0
 40
0.0
 40
0.4831339698
 40
1.0
 40
1.0
 40
1.0
 40
1.0
 10
14.543480269
 20
8.7671695021
 30
0.0
 10
14.5492297914
 20
8.7671694996
 30
0.0
 10
14.5611410001
 20
8.7681748027
 30
0.0
 10
14.572779094
 20
8.7708273976
 30
0.0
 10
14.57868463
 20
8.7725475223
 30
0.0
  0
SPLINE
  5
4B5
100
AcDbEntity
  8
0
100
AcDbSpline
 62
7
  6
CONTINUOUS
 70
0
 71
3
 72
9
 73
5
 74
0
 42
0.0000001
 43
0.0000001
 44
0.0000000001
 40
0.0
 40
0.0
 40
0.0
 40
0.0
 40
0.2453140873
 40
1.0
 40
1.0
 40
1.0
 40
1.0
 10
14.57868463
 20
8.7725475223
 30
0.0
 10
14.5800820983
 20
8.7729545674
 30
0.0
 10
14.5857552421
 20
8.7746939399
 30
0.0
 10
14.5913322317
 20
8.7767434892
 30
0.0
 10
14.5954759597
 20
8.7784407137
 30
0.0
  0
SPLINE
  5
4B6
100
AcDbEntity
  8
0
100
AcDbSpline
 62
7
  6
CONTINUOUS
 70
0
 71
3
 72
20
 73
16
 74
0
 42
0.0000001
 43
0.0000001
 44
0.0000000001
 40
0.0
 40
0.0
 40
0.0
 40
0.0
 40
0.114926625
 40
0.2350330425
 40
0.2965591072
 40
0.3588272714
 40
0.4849815726
 40
0.5487242497
 40
0.6127557517
 40
0.6770061414
 40
0.7414344647
 40
0.8059830024
 40
0.870640476
 40
0.935356036
 40
1.0
 40
1.0
 40
1.0
 40
1.0
 10
14.6025526646
 20
8.7815115393
 30
0.0
 10
14.6110244796
 20
8.7853937728
 30
0.0
 10
14.6277958334
 20
8.7945806845
 30
0.0
 10
14.6473315483
 20
8.8087047647
 30
0.0
 10
14.6622637585
 20
8.8216891896
 30
0.0
 10
14.6767318931
 20
8.8358955007
 30
0.0
 10
14.6899760114
 20
8.8515601979
 30
0.0
 10
14.7016692026
 20
8.8685227548
 30
0.0
 10
14.7096099338
 20
8.8819321474
 30
0.0
 10
14.7165812312
 20
8.8959331503
 30
0.0
 10
14.7224757309
 20
8.910467498
 30
0.0
 10
14.7272004577
 20
8.9254593644
 30
0.0
 10
14.7306465841
 20
8.9408218193
 30
0.0
 10
14.7327437094
 20
8.9564327733
 30
0.0
 10
14.7332211287
 20
8.9669277594
 30
0.0
 10
14.7332211287
 20
8.9721695021
 30
0.0
  0
SPLINE
  5
4B7
100
AcDbEntity
  8
0
100
AcDbSpline
 62
7
  6
CONTINUOUS
 70
0
 71
3
 72
18
 73
14
 74
0
 42
0.0000001
 43
0.0000001
 44
0.0000000001
 40
0.0
 40
0.0
 40
0.0
 40
0.0
 40
0.0645190348
 40
0.1290992533
 40
0.1936207854
 40
0.2580455149
 40
0.3223568173
 40
0.386503318
 40
0.5140437153
 40
0.6401287607
 40
0.76395747
 40
0.8844005175
 40
1.0
 40
1.0
 40
1.0
 40
1.0
 10
14.7332211287
 20
8.9721695021
 30
0.0
 10
14.7332211287
 20
8.977307654
 30
0.0
 10
14.7327633498
 20
8.9875942053
 30
0.0
 10
14.7307487559
 20
9.0028997622
 30
0.0
 10
14.7274333282
 20
9.0179701506
 30
0.0
 10
14.7228881625
 20
9.0326916017
 30
0.0
 10
14.7172102587
 20
9.0469814237
 30
0.0
 10
14.7082647004
 20
9.0653188131
 30
0.0
 10
14.6947587498
 20
9.0868225546
 30
0.0
 10
14.6755619957
 20
9.1100509442
 30
0.0
 10
14.6541196526
 20
9.1304061661
 30
0.0
 10
14.6311078766
 20
9.1475935735
 30
0.0
 10
14.6147434855
 20
9.1569665306
 30
0.0
 10
14.6064603923
 20
9.1609842865
 30
0.0
  0
SPLINE
  5
4B8
100
AcDbEntity
  8
0
100
AcDbSpline
 62
7
  6
CONTINUOUS
 70
0
 71
3
 72
9
 73
5
 74
0
 42
0.0000001
 43
0.0000001
 44
0.0000000001
 40
0.0
 40
0.0
 40
0.0
 40
0.0
 40
0.2546016811
 40
1.0
 40
1.0
 40
1.0
 40
1.0
 10
14.5953304854
 20
9.1659577196
 30
0.0
 10
14.593953497
 20
9.1665203858
 30
0.0
 10
14.5885184522
 20
9.1686642564
 30
0.0
 10
14.5829759861
 20
9.170538547
 30
0.0
 10
14.5787956135
 20
9.1717593859
 30
0.0
  0
SPLINE
  5
4B9
100
AcDbEntity
  8
0
100
AcDbSpline
 62
7
  6
CONTINUOUS
 70
0
 71
3
 72
9
 73
5
 74
0
 42
0.0000001
 43
0.0000001
 44
0.0000000001
 40
0.0
 40
0.0
 40
0.0
 40
0.0
 40
0.5169476826
 40
1.0
 40
1.0
 40
1.0
 40
1.0
 10
14.5787956135
 20
9.1717593859
 30
0.0
 10
14.5728713205
 20
9.1734895205
 30
0.0
 10
14.5611968616
 20
9.1761561181
 30
0.0
 10
14.5492474
 20
9.1771695021
 30
0.0
 10
14.5434803122
 20
9.1771695021
 30
0.0
  0
SPLINE
  5
4BA
100
AcDbEntity
  8
0
100
AcDbSpline
 62
7
  6
CONTINUOUS
 70
0
 71
3
 72
9
 73
5
 74
0
 42
0.0000001
 43
0.0000001
 44
0.0000000001
 40
0.0
 40
0.0
 40
0.0
 40
0.0
 40
0.4825894367
 40
1.0
 40
1.0
 40
1.0
 40
1.0
 10
15.3319043821
 20
9.1771695021
 30
0.0
 10
15.325938417
 20
9.1771695021
 30
0.0
 10
15.3135643288
 20
9.1760864514
 30
0.0
 10
15.3014933594
 20
9.1732403792
 30
0.0
 10
15.2953682609
 20
9.1713971248
 30
0.0
  0
SPLINE
  5
4BB
100
AcDbEntity
  8
0
100
AcDbSpline
 62
7
  6
CONTINUOUS
 70
0
 71
3
 72
9
 73
5
 74
0
 42
0.0000001
 43
0.0000001
 44
0.0000000001
 40
0.0
 40
0.0
 40
0.0
 40
0.0
 40
0.2457162698
 40
1.0
 40
1.0
 40
1.0
 40
1.0
 10
15.2953682609
 20
9.1713971248
 30
0.0
 10
15.2940810742
 20
9.1710097657
 30
0.0
 10
15.2888628796
 20
9.1693662904
 30
0.0
 10
15.2837274517
 20
9.1674623901
 30
0.0
 10
15.2799089728
 20
9.1658983904
 30
0.0
  0
SPLINE
  5
4BC
100
AcDbEntity
  8
0
100
AcDbSpline
 62
7
  6
CONTINUOUS
 70
0
 71
3
 72
20
 73
16
 74
0
 42
0.0000001
 43
0.0000001
 44
0.0000000001
 40
0.0
 40
0.0
 40
0.0
 40
0.0
 40
0.1149268647
 40
0.2350333759
 40
0.2965594555
 40
0.3588276188
 40
0.4849818901
 40
0.548724536
 40
0.6127559932
 40
0.6770063352
 40
0.7414346025
 40
0.8059830893
 40
0.8706405409
 40
0.9353560773
 40
1.0
 40
1.0
 40
1.0
 40
1.0
 10
15.2728304997
 20
9.1628267665
 30
0.0
 10
15.2643587586
 20
9.1589444787
 30
0.0
 10
15.2475875659
 20
9.1497574942
 30
0.0
 10
15.2280520478
 20
9.1356333781
 30
0.0
 10
15.2131200022
 20
9.1226489581
 30
0.0
 10
15.1986520366
 20
9.1084426758
 30
0.0
 10
15.1854080823
 20
9.0927780321
 30
0.0
 10
15.1737150427
 20
9.0758155533
 30
0.0
 10
15.1657744189
 20
9.0624062335
 30
0.0
 10
15.1588032189
 20
9.048405316
 30
0.0
 10
15.1529087993
 20
9.033871066
 30
0.0
 10
15.1481841378
 20
9.0188793033
 30
0.0
 10
15.1447380673
 20
9.0035169551
 30
0.0
 10
15.1426409707
 20
8.9879061141
 30
0.0
 10
15.1421635568
 20
8.9774112055
 30
0.0
 10
15.1421635568
 20
8.9721695021
 30
0.0
  0
SPLINE
  5
4BD
100
AcDbEntity
  8
0
100
AcDbSpline
 62
7
  6
CONTINUOUS
 70
0
 71
3
 72
18
 73
14
 74
0
 42
0.0000001
 43
0.0000001
 44
0.0000000001
 40
0.0
 40
0.0
 40
0.0
 40
0.0
 40
0.0645189248
 40
0.1290990317
 40
0.1936204454
 40
0.2580450499
 40
0.3223562325
 40
0.3865026345
 40
0.5140428902
 40
0.640127872
 40
0.7639566472
 40
0.8843999545
 40
1.0
 40
1.0
 40
1.0
 40
1.0
 10
15.1421635568
 20
8.9721695021
 30
0.0
 10
15.1421635568
 20
8.9670314425
 30
0.0
 10
15.1426213191
 20
8.9567450761
 30
0.0
 10
15.1446358408
 20
8.9414397905
 30
0.0
 10
15.1479511511
 20
8.9263696625
 30
0.0
 10
15.1524961607
 20
8.9116484557
 30
0.0
 10
15.1581738747
 20
8.8973588571
 30
0.0
 10
15.1671191402
 20
8.8790217261
 30
0.0
 10
15.180624666
 20
8.8575182356
 30
0.0
 10
15.1998208684
 20
8.8342900413
 30
0.0
 10
15.2212626375
 20
8.8139348853
 30
0.0
 10
15.2442738556
 20
8.7967473958
 30
0.0
 10
15.260637877
 20
8.7873742847
 30
0.0
 10
15.2689207982
 20
8.783356414
 30
0.0
  0
SPLINE
  5
4BE
100
AcDbEntity
  8
0
100
AcDbSpline
 62
7
  6
CONTINUOUS
 70
0
 71
3
 72
9
 73
5
 74
0
 42
0.0000001
 43
0.0000001
 44
0.0000000001
 40
0.0
 40
0.0
 40
0.0
 40
0.0
 40
0.2546015852
 40
1.0
 40
1.0
 40
1.0
 40
1.0
 10
15.2800545236
 20
8.7783811538
 30
0.0
 10
15.2814314814
 20
8.7778185031
 30
0.0
 10
15.2868664073
 20
8.7756746897
 30
0.0
 10
15.2924087491
 20
8.7738004446
 30
0.0
 10
15.2965890276
 20
8.7725796316
 30
0.0
  0
SPLINE
  5
4BF
100
AcDbEntity
  8
0
100
AcDbSpline
 62
7
  6
CONTINUOUS
 70
0
 71
3
 72
9
 73
5
 74
0
 42
0.0000001
 43
0.0000001
 44
0.0000000001
 40
0.0
 40
0.0
 40
0.0
 40
0.0
 40
0.5169476419
 40
1.0
 40
1.0
 40
1.0
 40
1.0
 10
15.2965890276
 20
8.7725796316
 30
0.0
 10
15.3025133155
 20
8.7708494962
 30
0.0
 10
15.3141877654
 20
8.768182896
 30
0.0
 10
15.3261372182
 20
8.7671695064
 30
0.0
 10
15.3319043025
 20
8.7671695021
 30
0.0
  0
SPLINE
  5
4C0
100
AcDbEntity
  8
0
100
AcDbSpline
 62
7
  6
CONTINUOUS
 70
0
 71
3
 72
11
 73
7
 74
0
 42
0.0000001
 43
0.0000001
 44
0.0000000001
 40
0.0
 40
0.0
 40
0.0
 40
0.0
 40
0.0841599587
 40
0.3108662114
 40
0.6308945728
 40
1.0
 40
1.0
 40
1.0
 40
1.0
 10
14.5941923427
 20
8.3380695021
 30
0.0
 10
14.5947060661
 20
8.3404380167
 30
0.0
 10
14.5965419857
 20
8.3492004395
 30
0.0
 10
14.5997919232
 20
8.367081038
 30
0.0
 10
14.6031990007
 20
8.3932499959
 30
0.0
 10
14.6044076156
 20
8.4130815632
 30
0.0
 10
14.6046495174
 20
8.4237083177
 30
0.0
  0
SPLINE
  5
4C1
100
AcDbEntity
  8
0
100
AcDbSpline
 62
7
  6
CONTINUOUS
 70
0
 71
3
 72
11
 73
7
 74
0
 42
0.0000001
 43
0.0000001
 44
0.0000000001
 40
0.0
 40
0.0
 40
0.0
 40
0.0
 40
0.3578588507
 40
0.6783406546
 40
0.9116026576
 40
1.0
 40
1.0
 40
1.0
 40
1.0
 10
14.6047158015
 20
8.4273104106
 30
0.0
 10
14.6048858177
 20
8.4394414919
 30
0.0
 10
14.6041989871
 20
8.4624636224
 30
0.0
 10
14.6007757252
 20
8.49320572
 30
0.0
 10
14.597046292
 20
8.5146632015
 30
0.0
 10
14.594827606
 20
8.5253408366
 30
0.0
 10
14.5941923427
 20
8.5282695021
 30
0.0
  0
SPLINE
  5
4C2
100
AcDbEntity
  8
0
100
AcDbSpline
 62
7
  6
CONTINUOUS
 70
0
 71
3
 72
15
 73
11
 74
0
 42
0.0000001
 43
0.0000001
 44
0.0000000001
 40
0.0
 40
0.0
 40
0.0
 40
0.0
 40
0.0566166403
 40
0.1268169686
 40
0.2161920513
 40
0.3272671597
 40
0.4610165667
 40
0.6177534787
 40
0.7974730086
 40
1.0
 40
1.0
 40
1.0
 40
1.0
 10
14.689479193
 20
9.4423369683
 30
0.0
 10
14.6894792818
 20
9.4424562628
 30
0.0
 10
14.6895529654
 20
9.4427234988
 30
0.0
 10
14.6898240278
 20
9.4430956517
 30
0.0
 10
14.6902484321
 20
9.4434801857
 30
0.0
 10
14.6908295986
 20
9.4438801722
 30
0.0
 10
14.6915668345
 20
9.4442968762
 30
0.0
 10
14.6924590202
 20
9.4447288137
 30
0.0
 10
14.6935038843
 20
9.4451745935
 30
0.0
 10
14.6942561203
 20
9.4454628896
 30
0.0
 10
14.6946567259
 20
9.4456099225
 30
0.0
  0
SPLINE
  5
4C3
100
AcDbEntity
  8
0
100
AcDbSpline
 62
7
  6
CONTINUOUS
 70
0
 71
3
 72
9
 73
5
 74
0
 42
0.0000001
 43
0.0000001
 44
0.0000000001
 40
0.0
 40
0.0
 40
0.0
 40
0.0
 40
0.4501329992
 40
1.0
 40
1.0
 40
1.0
 40
1.0
 10
14.6946567259
 20
9.4456099225
 30
0.0
 10
14.695961707
 20
9.4460888853
 30
0.0
 10
14.6989066741
 20
9.4470268436
 30
0.0
 10
14.7018903733
 20
9.4478256243
 30
0.0
 10
14.7035376175
 20
9.4482380915
 30
0.0
  0
LINE
  5
4C4
100
AcDbEntity
  8
0
100
AcDbLine
 62
7
  6
CONTINUOUS
 10
14.7592679478
 20
9.4598155418
 11
14.7595848142
 21
9.4600603059
  0
LINE
  5
4C5
100
AcDbEntity
  8
0
100
AcDbLine
 62
7
  6
CONTINUOUS
 10
14.7595848142
 20
9.4600603059
 11
14.7602085407
 21
9.4602759649
  0
SPLINE
  5
4C6
100
AcDbEntity
  8
0
100
AcDbSpline
 62
7
  6
CONTINUOUS
 70
0
 71
3
 72
13
 73
9
 74
0
 42
0.0000001
 43
0.0000001
 44
0.0000000001
 40
0.0
 40
0.0
 40
0.0
 40
0.0
 40
0.0869712385
 40
0.1770239122
 40
0.2755121838
 40
0.3865360921
 40
0.6562376941
 40
1.0
 40
1.0
 40
1.0
 40
1.0
 10
14.6587379942
 20
9.4355176046
 30
0.0
 10
14.6587379494
 20
9.435398319
 30
0.0
 10
14.6587704262
 20
9.4351542019
 30
0.0
 10
14.6589192463
 20
9.4348027096
 30
0.0
 10
14.6591634584
 20
9.4344686112
 30
0.0
 10
14.6596440803
 20
9.4340161832
 30
0.0
 10
14.6605065515
 20
9.4335038299
 30
0.0
 10
14.6612911484
 20
9.4331954548
 30
0.0
 10
14.6617375612
 20
9.4330437433
 30
0.0
  0
SPLINE
  5
4C7
100
AcDbEntity
  8
0
100
AcDbSpline
 62
7
  6
CONTINUOUS
 70
0
 71
3
 72
13
 73
9
 74
0
 42
0.0000001
 43
0.0000001
 44
0.0000000001
 40
0.0
 40
0.0
 40
0.0
 40
0.0
 40
0.076484079
 40
0.1672086073
 40
0.2721830493
 40
0.3912891282
 40
0.67050379
 40
1.0
 40
1.0
 40
1.0
 40
1.0
 10
14.6617375612
 20
9.4330437433
 30
0.0
 10
14.662266466
 20
9.4328639972
 30
0.0
 10
14.6634449678
 20
9.4325364898
 30
0.0
 10
14.665394117
 20
9.4321410283
 30
0.0
 10
14.6676691675
 20
9.4318024252
 30
0.0
 10
14.6713247543
 20
9.431409561
 30
0.0
 10
14.6766347087
 20
9.4311058426
 30
0.0
 10
14.6810809282
 20
9.4310394575
 30
0.0
 10
14.6834874549
 20
9.4310405855
 30
0.0
  0
LINE
  5
4C8
100
AcDbEntity
  8
0
100
AcDbLine
 62
7
  6
CONTINUOUS
 10
14.7989914738
 20
9.4656634255
 11
14.7991339568
 21
9.4657939094
  0
LINE
  5
4C9
100
AcDbEntity
  8
0
100
AcDbLine
 62
7
  6
CONTINUOUS
 10
14.7991339568
 20
9.4657939094
 11
14.80185279
 21
9.4663879017
  0
LINE
  5
4CA
100
AcDbEntity
  8
0
100
AcDbLine
 62
7
  6
CONTINUOUS
 10
14.80185279
 20
9.4663879017
 11
14.8053751305
 21
9.4668693461
  0
LINE
  5
4CB
100
AcDbEntity
  8
0
100
AcDbLine
 62
7
  6
CONTINUOUS
 10
14.759813936
 20
9.4629334415
 11
14.7588984452
 21
9.4628274515
  0
SPLINE
  5
4CC
100
AcDbEntity
  8
0
100
AcDbSpline
 62
7
  6
CONTINUOUS
 70
0
 71
3
 72
11
 73
7
 74
0
 42
0.0000001
 43
0.0000001
 44
0.0000000001
 40
0.0
 40
0.0
 40
0.0
 40
0.0
 40
0.2619070223
 40
0.5245280476
 40
0.7739241242
 40
1.0
 40
1.0
 40
1.0
 40
1.0
 10
14.9826434034
 20
9.4723407433
 30
0.0
 10
14.988252016
 20
9.4721562786
 30
0.0
 10
14.9994831233
 20
9.4717433582
 30
0.0
 10
15.0160498947
 20
9.4710258753
 30
0.0
 10
15.0318441069
 20
9.4702229448
 30
0.0
 10
15.0420136372
 20
9.4696143049
 30
0.0
 10
15.0468470367
 20
9.4692951717
 30
0.0
  0
SPLINE
  5
4CD
100
AcDbEntity
  8
0
100
AcDbSpline
 62
7
  6
CONTINUOUS
 70
0
 71
3
 72
11
 73
7
 74
0
 42
0.0000001
 43
0.0000001
 44
0.0000000001
 40
0.0
 40
0.0
 40
0.0
 40
0.0
 40
0.2544195923
 40
0.524016697
 40
0.7812873813
 40
1.0
 40
1.0
 40
1.0
 40
1.0
 10
14.9772903225
 20
9.4717320237
 30
0.0
 10
14.97427519
 20
9.471752206
 30
0.0
 10
14.9680652076
 20
9.4718171706
 30
0.0
 10
14.9588070863
 20
9.4719653791
 30
0.0
 10
14.9499730196
 20
9.4721560966
 30
0.0
 10
14.9443341404
 20
9.4723144492
 30
0.0
 10
14.9417436087
 20
9.4724024588
 30
0.0
  0
LINE
  5
4CE
100
AcDbEntity
  8
0
100
AcDbLine
 62
7
  6
CONTINUOUS
 10
14.916296443
 20
9.47284903
 11
14.9154184791
 21
9.4728495268
  0
SPLINE
  5
4CF
100
AcDbEntity
  8
0
100
AcDbSpline
 62
7
  6
CONTINUOUS
 70
0
 71
3
 72
19
 73
15
 74
0
 42
0.0000001
 43
0.0000001
 44
0.0000000001
 40
0.0
 40
0.0
 40
0.0
 40
0.0
 40
0.1273245344
 40
0.1882421201
 40
0.247660318
 40
0.3060315855
 40
0.3638398736
 40
0.4215517474
 40
0.4796462072
 40
0.5385743979
 40
0.5987158432
 40
0.7238262004
 40
0.8571742721
 40
1.0
 40
1.0
 40
1.0
 40
1.0
 10
15.3319042942
 20
8.7671695021
 30
0.0
 10
15.337453363
 20
8.7671694981
 30
0.0
 10
15.3456886077
 20
8.7678456688
 30
0.0
 10
15.3562201872
 20
8.7702694575
 30
0.0
 10
15.3636106384
 20
8.7727719635
 30
0.0
 10
15.3705816447
 20
8.7759620342
 30
0.0
 10
15.3771234748
 20
8.779814659
 30
0.0
 10
15.3832272358
 20
8.7843080957
 30
0.0
 10
15.3888922623
 20
8.7894148994
 30
0.0
 10
15.3941263842
 20
8.7951057802
 30
0.0
 10
15.4006271388
 20
8.8035458527
 30
0.0
 10
15.407722072
 20
8.8155468824
 30
0.0
 10
15.4145882434
 20
8.8316707706
 30
0.0
 10
15.4181322239
 20
8.8431945749
 30
0.0
 10
15.4197252964
 20
8.8492119084
 30
0.0
  0
SPLINE
  5
4D0
100
AcDbEntity
  8
0
100
AcDbSpline
 62
7
  6
CONTINUOUS
 70
0
 71
3
 72
18
 73
14
 74
0
 42
0.0000001
 43
0.0000001
 44
0.0000000001
 40
0.0
 40
0.0
 40
0.0
 40
0.0
 40
0.1433956218
 40
0.2771577643
 40
0.402492246
 40
0.521458881
 40
0.5794840975
 40
0.6370941977
 40
0.6947632141
 40
0.7529731384
 40
0.8122320219
 40
0.8729911841
 40
1.0
 40
1.0
 40
1.0
 40
1.0
 10
15.4201960343
 20
9.0933204848
 30
0.0
 10
15.4186221599
 20
9.0994598517
 30
0.0
 10
15.4151137404
 20
9.1112169675
 30
0.0
 10
15.4082793854
 20
9.1276840701
 30
0.0
 10
15.3998901894
 20
9.1422007243
 30
0.0
 10
15.3913807262
 20
9.1526026216
 30
0.0
 10
15.3837288942
 20
9.1596221645
 30
0.0
 10
15.3775852628
 20
9.1642196059
 30
0.0
 10
15.3709935818
 20
9.1681641022
 30
0.0
 10
15.3639607769
 20
9.1714315674
 30
0.0
 10
15.3564959184
 20
9.1739934648
 30
0.0
 10
15.345849467
 20
9.1764759389
 30
0.0
 10
15.3375179929
 20
9.1771695021
 30
0.0
 10
15.3319043732
 20
9.1771695021
 30
0.0
  0
SPLINE
  5
4D1
100
AcDbEntity
  8
0
100
AcDbSpline
 62
9
  6
CONTINUOUS
 70
0
 71
3
 72
21
 73
17
 74
0
 42
0.0000001
 43
0.0000001
 44
0.0000000001
 40
0.0
 40
0.0
 40
0.0
 40
0.0
 40
0.1169622274
 40
0.1780514929
 40
0.2405914347
 40
0.3043427364
 40
0.3690286
 40
0.4343532946
 40
0.5
 40
0.5656467054
 40
0.6309714
 40
0.6956572636
 40
0.7594085653
 40
0.8219485071
 40
0.8830377726
 40
1.0
 40
1.0
 40
1.0
 40
1.0
 10
15.5211911632
 20
9.0919587914
 30
0.0
 10
15.5154052707
 20
9.0839333164
 30
0.0
 10
15.5077650769
 20
9.0708344198
 30
0.0
 10
15.4997366785
 20
9.0521210037
 30
0.0
 10
15.4946517763
 20
9.0370894284
 30
0.0
 10
15.4906466768
 20
9.0214245469
 30
0.0
 10
15.4877556471
 20
9.0052767601
 30
0.0
 10
15.4860124481
 20
8.9888045456
 30
0.0
 10
15.4854266939
 20
8.9721695021
 30
0.0
 10
15.4860124481
 20
8.9555344587
 30
0.0
 10
15.4877556471
 20
8.9390622442
 30
0.0
 10
15.4906466768
 20
8.9229144574
 30
0.0
 10
15.4946517763
 20
8.9072495759
 30
0.0
 10
15.4997366785
 20
8.8922180005
 30
0.0
 10
15.5077650769
 20
8.8735045845
 30
0.0
 10
15.5154052707
 20
8.8604056878
 30
0.0
 10
15.5211911632
 20
8.8523802129
 30
0.0
  0
SPLINE
  5
4D2
100
AcDbEntity
  8
0
100
AcDbSpline
 62
9
  6
CONTINUOUS
 70
0
 71
3
 72
14
 73
10
 74
0
 42
0.0000001
 43
0.0000001
 44
0.0000000001
 40
0.0
 40
0.0
 40
0.0
 40
0.0
 40
0.2339280142
 40
0.3561114484
 40
0.4811805221
 40
0.6086647213
 40
0.7380661543
 40
0.8687886704
 40
1.0
 40
1.0
 40
1.0
 40
1.0
 10
14.3246072591
 20
9.1329960593
 30
0.0
 10
14.3323749463
 20
9.1222207639
 30
0.0
 10
14.3426342877
 20
9.1046348652
 30
0.0
 10
14.3534098503
 20
9.079509458
 30
0.0
 10
14.3602385763
 20
9.0593305622
 30
0.0
 10
14.3656158974
 20
9.038299253
 30
0.0
 10
14.3694972387
 20
9.0166144598
 30
0.0
 10
14.3718359248
 20
8.9944987943
 30
0.0
 10
14.3723607061
 20
8.9796201235
 30
0.0
 10
14.3723607061
 20
8.9721695021
 30
0.0
  0
LINE
  5
4D3
100
AcDbEntity
  8
0
100
AcDbLine
 62
7
  6
CONTINUOUS
 10
14.7645392271
 20
9.4595628191
 11
14.7607994918
 21
9.4595169639
  0
SPLINE
  5
4D4
100
AcDbEntity
  8
0
100
AcDbSpline
 62
7
  6
CONTINUOUS
 70
0
 71
3
 72
13
 73
9
 74
0
 42
0.0000001
 43
0.0000001
 44
0.0000000001
 40
0.0
 40
0.0
 40
0.0
 40
0.0
 40
0.4173797085
 40
0.5831902468
 40
0.7203195852
 40
0.8289550591
 40
0.9098247691
 40
1.0
 40
1.0
 40
1.0
 40
1.0
 10
14.7607994918
 20
9.4595169639
 30
0.0
 10
14.760577231
 20
9.4595254684
 30
0.0
 10
14.7602668962
 20
9.4595420236
 30
0.0
 10
14.7598846532
 20
9.4595831557
 30
0.0
 10
14.7596687547
 20
9.4596159015
 30
0.0
 10
14.7594962265
 20
9.4596565252
 30
0.0
 10
14.7593621702
 20
9.4597001421
 30
0.0
 10
14.7592671467
 20
9.4597674937
 30
0.0
 10
14.7592679478
 20
9.4598155418
 30
0.0
  0
LINE
  5
4D5
100
AcDbEntity
  8
0
100
AcDbLine
 62
7
  6
CONTINUOUS
 10
14.7245765397
 20
9.4556425225
 11
14.7227388948
 21
9.4552734734
  0
LINE
  5
4D6
100
AcDbEntity
  8
0
100
AcDbLine
 62
7
  6
CONTINUOUS
 10
14.7046539907
 20
9.4514010537
 11
14.7028770548
 21
9.4509969503
  0
SPLINE
  5
4D7
100
AcDbEntity
  8
0
100
AcDbSpline
 62
7
  6
CONTINUOUS
 70
0
 71
3
 72
19
 73
15
 74
0
 42
0.0000001
 43
0.0000001
 44
0.0000000001
 40
0.0
 40
0.0
 40
0.0
 40
0.0
 40
0.2076269343
 40
0.3938638744
 40
0.5567516989
 40
0.6947774353
 40
0.7542406466
 40
0.8072601241
 40
0.8538290597
 40
0.8940247214
 40
0.9280745711
 40
0.9564177647
 40
0.9798844097
 40
1.0
 40
1.0
 40
1.0
 40
1.0
 10
14.6834874549
 20
9.4463112358
 30
0.0
 10
14.6816327383
 20
9.4458387339
 30
0.0
 10
14.6781242221
 20
9.4449029125
 30
0.0
 10
14.6732037492
 20
9.4434406035
 30
0.0
 10
14.668946884
 20
9.4420072132
 30
0.0
 10
14.6658508586
 20
9.4407966072
 30
0.0
 10
14.6637488638
 20
9.4398390544
 30
0.0
 10
14.6624421858
 20
9.4391727193
 30
0.0
 10
14.6613280596
 20
9.4385236013
 30
0.0
 10
14.6604087084
 20
9.4378926699
 30
0.0
 10
14.6596846785
 20
9.4372809928
 30
0.0
 10
14.6591559862
 20
9.4366869373
 30
0.0
 10
14.6588229173
 20
9.436106098
 30
0.0
 10
14.6587380639
 20
9.4357030351
 30
0.0
 10
14.6587379942
 20
9.4355176046
 30
0.0
  0
SPLINE
  5
4D8
100
AcDbEntity
  8
0
100
AcDbSpline
 62
7
  6
CONTINUOUS
 70
0
 71
3
 72
12
 73
8
 74
0
 42
0.0000001
 43
0.0000001
 44
0.0000000001
 40
0.0
 40
0.0
 40
0.0
 40
0.0
 40
0.1140715913
 40
0.2019986178
 40
0.314319951
 40
0.6117218991
 40
1.0
 40
1.0
 40
1.0
 40
1.0
 10
14.8148005836
 20
9.4534429707
 30
0.0
 10
14.8148005525
 20
9.4533866937
 30
0.0
 10
14.8147285271
 20
9.4532972304
 30
0.0
 10
14.8146039549
 20
9.4532108842
 30
0.0
 10
14.8143852511
 20
9.4530947332
 30
0.0
 10
14.8140163363
 20
9.4529572535
 30
0.0
 10
14.8136909992
 20
9.4528629906
 30
0.0
 10
14.8135056923
 20
9.4528144608
 30
0.0
  0
LINE
  5
4D9
100
AcDbEntity
  8
0
100
AcDbLine
 62
7
  6
CONTINUOUS
 10
14.8135056923
 20
9.4528144608
 11
14.8130422298
 21
9.4527024103
  0
SPLINE
  5
4DA
100
AcDbEntity
  8
0
100
AcDbSpline
 62
7
  6
CONTINUOUS
 70
0
 71
3
 72
11
 73
7
 74
0
 42
0.0000001
 43
0.0000001
 44
0.0000000001
 40
0.0
 40
0.0
 40
0.0
 40
0.0
 40
0.2132924178
 40
0.4395313132
 40
0.6974127021
 40
1.0
 40
1.0
 40
1.0
 40
1.0
 10
14.6894792297
 20
9.4413166725
 30
0.0
 10
14.6894791769
 20
9.4412437254
 30
0.0
 10
14.6895040959
 20
9.4410922056
 30
0.0
 10
14.6896178763
 20
9.4408787638
 30
0.0
 10
14.689802666
 20
9.4406802143
 30
0.0
 10
14.6899581341
 20
9.4405665023
 30
0.0
 10
14.690045328
 20
9.4405107647
 30
0.0
  0
SPLINE
  5
4DB
100
AcDbEntity
  8
0
100
AcDbSpline
 62
7
  6
CONTINUOUS
 70
0
 71
3
 72
11
 73
7
 74
0
 42
0.0000001
 43
0.0000001
 44
0.0000000001
 40
0.0
 40
0.0
 40
0.0
 40
0.0
 40
0.1697390121
 40
0.3922281418
 40
0.6690111169
 40
1.0
 40
1.0
 40
1.0
 40
1.0
 10
14.690045328
 20
9.4405107647
 30
0.0
 10
14.6902674374
 20
9.440368784
 30
0.0
 10
14.6908288773
 20
9.440118953
 30
0.0
 10
14.6918285849
 20
9.4398329205
 30
0.0
 10
14.6930964144
 20
9.4395896321
 30
0.0
 10
14.6940329254
 20
9.4394688772
 30
0.0
 10
14.6945440032
 20
9.4394137793
 30
0.0
  0
SPLINE
  5
4DC
100
AcDbEntity
  8
0
100
AcDbSpline
 62
7
  6
CONTINUOUS
 70
0
 71
3
 72
13
 73
9
 74
0
 42
0.0000001
 43
0.0000001
 44
0.0000000001
 40
0.0
 40
0.0
 40
0.0
 40
0.0
 40
0.0901454196
 40
0.1710158342
 40
0.2796572984
 40
0.4167948823
 40
0.5826134559
 40
1.0
 40
1.0
 40
1.0
 40
1.0
 10
14.7592679501
 20
9.4588068501
 30
0.0
 10
14.7592671484
 20
9.4587586912
 30
0.0
 10
14.759362467
 20
9.4586912208
 30
0.0
 10
14.759496869
 20
9.458647546
 30
0.0
 10
14.7596698774
 20
9.4586068662
 30
0.0
 10
14.7598863638
 20
9.4585740897
 30
0.0
 10
14.7602696377
 20
9.458532937
 30
0.0
 10
14.7605808017
 20
9.4585163997
 30
0.0
 10
14.760803654
 20
9.4585079154
 30
0.0
  0
LINE
  5
4DD
100
AcDbEntity
  8
0
100
AcDbLine
 62
7
  6
CONTINUOUS
 10
14.760803654
 20
9.4585079154
 11
14.7645392271
 21
9.4585539609
  0
LINE
  5
4DE
100
AcDbEntity
  8
0
100
AcDbLine
 62
7
  6
CONTINUOUS
 10
14.9162911208
 20
9.4718488288
 11
14.9154184791
 21
9.4718493203
  0
SPLINE
  5
4DF
100
AcDbEntity
  8
0
100
AcDbSpline
 62
7
  6
CONTINUOUS
 70
0
 71
3
 72
11
 73
7
 74
0
 42
0.0000001
 43
0.0000001
 44
0.0000000001
 40
0.0
 40
0.0
 40
0.0
 40
0.0
 40
0.2187052574
 40
0.4759797142
 40
0.745583988
 40
1.0
 40
1.0
 40
1.0
 40
1.0
 10
14.9417436087
 20
9.4714019711
 30
0.0
 10
14.9443340521
 20
9.4713139099
 30
0.0
 10
14.949972887
 20
9.4711554398
 30
0.0
 10
14.9588069961
 20
9.4709646085
 30
0.0
 10
14.9680652055
 20
9.4708162943
 30
0.0
 10
14.9742752318
 20
9.4707512957
 30
0.0
 10
14.9772903225
 20
9.4707311005
 30
0.0
  0
SPLINE
  5
4E0
100
AcDbEntity
  8
0
100
AcDbSpline
 62
9
  6
CONTINUOUS
 70
0
 71
3
 72
13
 73
9
 74
0
 42
0.0000001
 43
0.0000001
 44
0.0000000001
 40
0.0
 40
0.0
 40
0.0
 40
0.0
 40
0.2339716229
 40
0.3561721073
 40
0.4812554119
 40
0.738034608
 40
0.8687870565
 40
1.0
 40
1.0
 40
1.0
 40
1.0
 10
14.3541935156
 20
8.8523802226
 30
0.0
 10
14.3599796294
 20
8.8604058733
 30
0.0
 10
14.3676196014
 20
8.8735048452
 30
0.0
 10
14.3756478544
 20
8.8922189521
 30
0.0
 10
14.3824855449
 20
8.9124285587
 30
0.0
 10
14.3870629438
 20
8.9337121658
 30
0.0
 10
14.389371092
 20
8.9555384007
 30
0.0
 10
14.3897624204
 20
8.9666209067
 30
0.0
 10
14.3897624204
 20
8.9721695021
 30
0.0
  0
SPLINE
  5
4E1
100
AcDbEntity
  8
0
100
AcDbSpline
 62
7
  6
CONTINUOUS
 70
0
 71
3
 72
19
 73
15
 74
0
 42
0.0000001
 43
0.0000001
 44
0.0000000001
 40
0.0
 40
0.0
 40
0.0
 40
0.0
 40
0.1272460399
 40
0.1881199013
 40
0.2474942162
 40
0.3058247757
 40
0.3635978478
 40
0.4212823357
 40
0.4793599463
 40
0.538282746
 40
0.5984304629
 40
0.7235913382
 40
0.8570367073
 40
1.0
 40
1.0
 40
1.0
 40
1.0
 10
14.5434803047
 20
9.1771695021
 30
0.0
 10
14.5379159105
 20
9.1771695021
 30
0.0
 10
14.5296579861
 20
9.17648959
 30
0.0
 10
14.5190994883
 20
9.1740519073
 30
0.0
 10
14.5116918522
 20
9.1715351783
 30
0.0
 10
14.5047062243
 20
9.1683272232
 30
0.0
 10
14.4981523758
 20
9.164453222
 30
0.0
 10
14.492039245
 20
9.1599350909
 30
0.0
 10
14.4863672823
 20
9.1548006893
 30
0.0
 10
14.4811285249
 20
9.1490795033
 30
0.0
 10
14.4746238197
 20
9.1405941867
 30
0.0
 10
14.4675295583
 20
9.128530231
 30
0.0
 10
14.4606709421
 20
9.112325326
 30
0.0
 10
14.4571351482
 20
9.1007457245
 30
0.0
 10
14.4555465448
 20
9.0946992299
 30
0.0
  0
SPLINE
  5
4E2
100
AcDbEntity
  8
0
100
AcDbSpline
 62
7
  6
CONTINUOUS
 70
0
 71
3
 72
18
 73
14
 74
0
 42
0.0000001
 43
0.0000001
 44
0.0000000001
 40
0.0
 40
0.0
 40
0.0
 40
0.0
 40
0.1428642993
 40
0.2762481148
 40
0.4013865745
 40
0.5203475703
 40
0.5784382625
 40
0.6361543568
 40
0.693959384
 40
0.7523274833
 40
0.8117573829
 40
0.8726860783
 40
1.0
 40
1.0
 40
1.0
 40
1.0
 10
14.4556222678
 20
8.8493520727
 30
0.0
 10
14.4572136664
 20
8.843326167
 30
0.0
 10
14.460754181
 20
8.8317861874
 30
0.0
 10
14.4676185237
 20
8.8156344548
 30
0.0
 10
14.4760147525
 20
8.8014028575
 30
0.0
 10
14.484500094
 20
8.7912155577
 30
0.0
 10
14.4921133803
 20
8.7843433387
 30
0.0
 10
14.4982208965
 20
8.7798420557
 30
0.0
 10
14.5047661684
 20
8.7759808517
 30
0.0
 10
14.5117424659
 20
8.7727831992
 30
0.0
 10
14.5191407627
 20
8.7702768471
 30
0.0
 10
14.5296827585
 20
8.7678484416
 30
0.0
 10
14.5379261517
 20
8.7671695046
 30
0.0
 10
14.5434802639
 20
8.7671695021
 30
0.0
  0
LINE
  5
4E3
100
AcDbEntity
  8
0
100
AcDbLine
 62
7
  6
CONTINUOUS
 10
14.9249163357
 20
9.46899286
 11
14.9250743101
 21
9.4691869076
  0
SPLINE
  5
4E4
100
AcDbEntity
  8
0
100
AcDbSpline
 62
7
  6
CONTINUOUS
 70
0
 71
3
 72
15
 73
11
 74
0
 42
0.0000001
 43
0.0000001
 44
0.0000000001
 40
0.0
 40
0.0
 40
0.0
 40
0.0
 40
0.0338374631
 40
0.0581975918
 40
0.0888424282
 40
0.1705161803
 40
0.2805578071
 40
0.4190956678
 40
0.5856295174
 40
1.0
 40
1.0
 40
1.0
 40
1.0
 10
14.9250746801
 20
9.4701888464
 30
0.0
 10
14.9250746973
 20
9.470145471
 30
0.0
 10
14.9250282685
 20
9.4700751807
 30
0.0
 10
14.924939026
 20
9.4700069231
 30
0.0
 10
14.9247862897
 20
9.4699187219
 30
0.0
 10
14.9245202916
 20
9.4698146776
 30
0.0
 10
14.9241141529
 20
9.469694209
 30
0.0
 10
14.9235960558
 20
9.4695719783
 30
0.0
 10
14.9226911649
 20
9.4693933277
 30
0.0
 10
14.9219548708
 20
9.4692798963
 30
0.0
 10
14.9214288868
 20
9.4692058362
 30
0.0
  0
LINE
  5
4E5
100
AcDbEntity
  8
0
100
AcDbLine
 62
7
  6
CONTINUOUS
 10
14.8971684467
 20
9.4716727583
 11
14.9003977095
 21
9.4717561928
  0
LINE
  5
4E6
100
AcDbEntity
  8
0
100
AcDbLine
 62
7
  6
CONTINUOUS
 10
14.9003977095
 20
9.4717561928
 11
14.9079959124
 21
9.4717561928
  0
LINE
  5
4E7
100
AcDbEntity
  8
0
100
AcDbLine
 62
7
  6
CONTINUOUS
 10
14.9079959124
 20
9.4717561928
 11
14.9154184791
 21
9.4718493203
  0
LINE
  5
4E8
100
AcDbEntity
  8
0
100
AcDbLine
 62
7
  6
CONTINUOUS
 10
14.8077307508
 20
9.4676832319
 11
14.8057313706
 21
9.4674997947
  0
LINE
  5
4E9
100
AcDbEntity
  8
0
100
AcDbLine
 62
7
  6
CONTINUOUS
 10
14.7988636243
 20
9.4668299995
 11
14.795955307
 21
9.4665278273
  0
LINE
  5
4EA
100
AcDbEntity
  8
0
100
AcDbLine
 62
7
  6
CONTINUOUS
 10
14.7960823741
 20
9.4655376819
 11
14.7989760591
 21
9.4658377049
  0
LINE
  5
4EB
100
AcDbEntity
  8
0
100
AcDbLine
 62
7
  6
CONTINUOUS
 10
14.9785036726
 20
9.4706570071
 11
14.9772903225
 21
9.4707311092
  0
SPLINE
  5
4EC
100
AcDbEntity
  8
0
100
AcDbSpline
 62
9
  6
CONTINUOUS
 70
0
 71
3
 72
9
 73
5
 74
0
 42
0.0000001
 43
0.0000001
 44
0.0000000001
 40
0.0
 40
0.0
 40
0.0
 40
0.0
 40
0.4957401342
 40
1.0
 40
1.0
 40
1.0
 40
1.0
 10
15.5653407331
 20
9.1505778223
 30
0.0
 10
15.5619977131
 20
9.1497870773
 30
0.0
 10
15.5553369226
 20
9.1478214358
 30
0.0
 10
15.5489231259
 20
9.1451616832
 30
0.0
 10
15.5457663766
 20
9.1436633165
 30
0.0
  0
SPLINE
  5
4ED
100
AcDbEntity
  8
0
100
AcDbSpline
 62
9
  6
CONTINUOUS
 70
0
 71
3
 72
28
 73
24
 74
0
 42
0.0000001
 43
0.0000001
 44
0.0000000001
 40
0.0
 40
0.0
 40
0.0
 40
0.0
 40
0.0261614124
 40
0.0529659152
 40
0.0804877875
 40
0.1087712548
 40
0.1676650655
 40
0.2296746616
 40
0.2945047143
 40
0.3616352139
 40
0.4303850203
 40
0.4999715434
 40
0.5695583644
 40
0.6383089205
 40
0.7054409479
 40
0.7381970624
 40
0.7703067953
 40
0.8323205604
 40
0.8912194219
 40
0.9195054897
 40
0.9470297752
 40
0.973836436
 40
1.0
 40
1.0
 40
1.0
 40
1.0
 10
15.5457663766
 20
9.1436633165
 30
0.0
 10
15.5425823556
 20
9.1421520052
 30
0.0
 10
15.536286832
 20
9.1387641614
 30
0.0
 10
15.5272610425
 20
9.132727942
 30
0.0
 10
15.5185984858
 20
9.1257167616
 30
0.0
 10
15.5074522387
 20
9.1149915658
 30
0.0
 10
15.4947461082
 20
9.0993040638
 30
0.0
 10
15.4819474759
 20
9.0777137716
 30
0.0
 10
15.4716713166
 20
9.053610103
 30
0.0
 10
15.4641585191
 20
9.0275695056
 30
0.0
 10
15.4595779224
 20
9.0002109324
 30
0.0
 10
15.4580368608
 20
8.9721851577
 30
0.0
 10
15.4595745205
 20
8.9441584107
 30
0.0
 10
15.4641515861
 20
8.9168009349
 30
0.0
 10
15.4704619713
 20
8.8949146714
 30
0.0
 10
15.4769519816
 20
8.8783469961
 30
0.0
 10
15.4841865073
 20
8.8628493567
 30
0.0
 10
15.4947314748
 20
8.8450563994
 30
0.0
 10
15.5074351691
 20
8.8293665526
 30
0.0
 10
15.518580518
 20
8.8186382519
 30
0.0
 10
15.5272423976
 20
8.8116247417
 30
0.0
 10
15.5362678388
 20
8.8055863561
 30
0.0
 10
15.5425631737
 20
8.8021969492
 30
0.0
 10
15.5457471441
 20
8.8006848553
 30
0.0
  0
SPLINE
  5
4EE
100
AcDbEntity
  8
0
100
AcDbSpline
 62
9
  6
CONTINUOUS
 70
0
 71
3
 72
9
 73
5
 74
0
 42
0.0000001
 43
0.0000001
 44
0.0000000001
 40
0.0
 40
0.0
 40
0.0
 40
0.0
 40
0.5042603598
 40
1.0
 40
1.0
 40
1.0
 40
1.0
 10
15.5457471441
 20
8.8006848553
 30
0.0
 10
15.5489003845
 20
8.7991873554
 30
0.0
 10
15.5553069443
 20
8.7965286199
 30
0.0
 10
15.5619601947
 20
8.7945624478
 30
0.0
 10
15.5652994642
 20
8.7937710034
 30
0.0
  0
SPLINE
  5
4EF
100
AcDbEntity
  8
0
100
AcDbSpline
 62
7
  6
CONTINUOUS
 70
0
 71
3
 72
32
 73
28
 74
0
 42
0.0000001
 43
0.0000001
 44
0.0000000001
 40
0.0
 40
0.0
 40
0.0
 40
0.0
 40
0.0256830509
 40
0.051784574
 40
0.078472714
 40
0.1059018279
 40
0.1341903893
 40
0.1634069084
 40
0.1935873168
 40
0.2247327919
 40
0.2897242073
 40
0.3578906617
 40
0.4283502206
 40
0.4641228369
 40
0.5000467835
 40
0.5359705208
 40
0.5717423964
 40
0.6421992499
 40
0.7103620514
 40
0.7753497834
 40
0.806493793
 40
0.8366726836
 40
0.894100695
 40
0.9215286378
 40
0.9482161134
 40
0.9743172938
 40
1.0
 40
1.0
 40
1.0
 40
1.0
 10
15.5736929347
 20
8.7839456437
 30
0.0
 10
15.569579745
 20
8.7845043362
 30
0.0
 10
15.5613500478
 20
8.7861700395
 30
0.0
 10
15.5493069013
 20
8.7902454717
 30
0.0
 10
15.5375927675
 20
8.7958732678
 30
0.0
 10
15.5263063659
 20
8.8029967076
 30
0.0
 10
15.5155427747
 20
8.8115570578
 30
0.0
 10
15.5053850479
 20
8.8214721919
 30
0.0
 10
15.4959241024
 20
8.8326643057
 30
0.0
 10
15.4841746725
 20
8.8493878098
 30
0.0
 10
15.4717399115
 20
8.8729933397
 30
0.0
 10
15.4608945597
 20
8.9041764076
 30
0.0
 10
15.4553766468
 20
8.9319133926
 30
0.0
 10
15.4531331746
 20
8.954792154
 30
0.0
 10
15.4525660372
 20
8.972189662
 30
0.0
 10
15.4531358521
 20
8.9895869555
 30
0.0
 10
15.4553825898
 20
9.0124648173
 30
0.0
 10
15.4609045532
 20
9.0401997227
 30
0.0
 10
15.4717548856
 20
9.0713798691
 30
0.0
 10
15.4841923546
 20
9.0949807075
 30
0.0
 10
15.4959463368
 20
9.1117032831
 30
0.0
 10
15.5083503413
 20
9.1263715137
 30
0.0
 10
15.5223446831
 20
9.1388458791
 30
0.0
 10
15.5376200621
 20
9.1484806824
 30
0.0
 10
15.549336312
 20
9.1541056352
 30
0.0
 10
15.5613803266
 20
9.1581770388
 30
0.0
 10
15.5696104885
 20
9.1598401505
 30
0.0
 10
15.5737238018
 20
9.160397518
 30
0.0
  0
SPLINE
  5
4F0
100
AcDbEntity
  8
0
100
AcDbSpline
 62
9
  6
CONTINUOUS
 70
0
 71
3
 72
15
 73
11
 74
0
 42
0.0000001
 43
0.0000001
 44
0.0000000001
 40
0.0
 40
0.0
 40
0.0
 40
0.0
 40
0.1171883458
 40
0.2354516052
 40
0.3554003745
 40
0.4776517423
 40
0.6028116268
 40
0.7313849162
 40
0.8637166906
 40
1.0
 40
1.0
 40
1.0
 40
1.0
 10
15.3147076081
 20
8.7855024317
 30
0.0
 10
15.3183805135
 20
8.7855584766
 30
0.0
 10
15.3257603979
 20
8.7861117868
 30
0.0
 10
15.3367197949
 20
8.788238373
 30
0.0
 10
15.3475165102
 20
8.7916517404
 30
0.0
 10
15.3580628685
 20
8.7963307041
 30
0.0
 10
15.3682887752
 20
8.802231696
 30
0.0
 10
15.3781231345
 20
8.809317229
 30
0.0
 10
15.3875004172
 20
8.8175325919
 30
0.0
 10
15.3933208532
 20
8.8236340622
 30
0.0
 10
15.3961376362
 20
8.826845705
 30
0.0
  0
SPLINE
  5
4F1
100
AcDbEntity
  8
0
100
AcDbSpline
 62
9
  6
CONTINUOUS
 70
0
 71
3
 72
9
 73
5
 74
0
 42
0.0000001
 43
0.0000001
 44
0.0000000001
 40
0.0
 40
0.0
 40
0.0
 40
0.0
 40
0.244460541
 40
1.0
 40
1.0
 40
1.0
 40
1.0
 10
15.3961376362
 20
8.826845705
 30
0.0
 10
15.3976791414
 20
8.8286033
 30
0.0
 10
15.4038195869
 20
8.8359370695
 30
0.0
 10
15.4093033377
 20
8.8438144159
 30
0.0
 10
15.4130764707
 20
8.8499763197
 30
0.0
  0
SPLINE
  5
4F2
100
AcDbEntity
  8
0
100
AcDbSpline
 62
9
  6
CONTINUOUS
 70
0
 71
3
 72
9
 73
5
 74
0
 42
0.0000001
 43
0.0000001
 44
0.0000000001
 40
0.0
 40
0.0
 40
0.0
 40
0.0
 40
0.256367692
 40
1.0
 40
1.0
 40
1.0
 40
1.0
 10
15.4140969898
 20
9.092676126
 30
0.0
 10
15.4126955787
 20
9.0950206139
 30
0.0
 10
15.4070286871
 20
9.1040431912
 30
0.0
 10
15.4005455505
 20
9.1125617752
 30
0.0
 10
15.3952706869
 20
9.1184733979
 30
0.0
  0
SPLINE
  5
4F3
100
AcDbEntity
  8
0
100
AcDbSpline
 62
9
  6
CONTINUOUS
 70
0
 71
3
 72
15
 73
11
 74
0
 42
0.0000001
 43
0.0000001
 44
0.0000000001
 40
0.0
 40
0.0
 40
0.0
 40
0.0
 40
0.1361895047
 40
0.2684204205
 40
0.3969016393
 40
0.5219945633
 40
0.6442228357
 40
0.7642117503
 40
0.8825961899
 40
1.0
 40
1.0
 40
1.0
 40
1.0
 10
15.3952706869
 20
9.1184733979
 30
0.0
 10
15.3924250449
 20
9.1216625537
 30
0.0
 10
15.3865471307
 20
9.1277148622
 30
0.0
 10
15.3770845106
 20
9.1358418623
 30
0.0
 10
15.367168739
 20
9.1428252317
 30
0.0
 10
15.3568663177
 20
9.1486102264
 30
0.0
 10
15.3462494887
 20
9.1531599378
 30
0.0
 10
15.3353895241
 20
9.1564313566
 30
0.0
 10
15.3243751854
 20
9.1584041652
 30
0.0
 10
15.3169680164
 20
9.1588474381
 30
0.0
 10
15.3132834302
 20
9.1588474381
 30
0.0
  0
SPLINE
  5
4F4
100
AcDbEntity
  8
0
100
AcDbSpline
 62
7
  6
CONTINUOUS
 70
0
 71
3
 72
11
 73
7
 74
0
 42
0.0000001
 43
0.0000001
 44
0.0000000001
 40
0.0
 40
0.0
 40
0.0
 40
0.0
 40
0.2647865636
 40
0.5333867104
 40
0.7849074786
 40
1.0
 40
1.0
 40
1.0
 40
1.0
 10
14.8500111019
 20
9.4600694841
 30
0.0
 10
14.8483861025
 20
9.459912388
 30
0.0
 10
14.8451073406
 20
9.4596500828
 30
0.0
 10
14.8402736336
 20
9.4594005268
 30
0.0
 10
14.8357409868
 20
9.4593051487
 30
0.0
 10
14.8328630657
 20
9.4593479015
 30
0.0
 10
14.8315382798
 20
9.4594087009
 30
0.0
  0
SPLINE
  5
4F5
100
AcDbEntity
  8
0
100
AcDbSpline
 62
9
  6
CONTINUOUS
 70
0
 71
3
 72
20
 73
16
 74
0
 42
0.0000001
 43
0.0000001
 44
0.0000000001
 40
0.0
 40
0.0
 40
0.0
 40
0.0
 40
0.0533746412
 40
0.1071906738
 40
0.1616931614
 40
0.2171255912
 40
0.2737366824
 40
0.3317408774
 40
0.3913023767
 40
0.4525183206
 40
0.5800030853
 40
0.7142472352
 40
0.7837597542
 40
0.8546721581
 40
1.0
 40
1.0
 40
1.0
 40
1.0
 10
15.3118592523
 20
9.1588365726
 30
0.0
 10
15.3084207885
 20
9.1587841051
 30
0.0
 10
15.3015154461
 20
9.1582928544
 30
0.0
 10
15.291248003
 20
9.1564187491
 30
0.0
 10
15.281112806
 20
9.1534164866
 30
0.0
 10
15.2711833631
 20
9.149299229
 30
0.0
 10
15.2615187731
 20
9.1441016558
 30
0.0
 10
15.2521765194
 20
9.1378548287
 30
0.0
 10
15.2432128934
 20
9.1305961192
 30
0.0
 10
15.2316801341
 20
9.1194884311
 30
0.0
 10
15.2185392707
 20
9.1032386667
 30
0.0
 10
15.2076398323
 20
9.0848087404
 30
0.0
 10
15.2001683598
 20
9.0687551649
 30
0.0
 10
15.1934713766
 20
9.0515955569
 30
0.0
 10
15.1896202636
 20
9.038160867
 30
0.0
 10
15.1875549182
 20
9.0290281946
 30
0.0
  0
SPLINE
  5
4F6
100
AcDbEntity
  8
0
100
AcDbSpline
 62
9
  6
CONTINUOUS
 70
0
 71
3
 72
21
 73
17
 74
0
 42
0.0000001
 43
0.0000001
 44
0.0000000001
 40
0.0
 40
0.0
 40
0.0
 40
0.0
 40
0.0726909816
 40
0.1450174695
 40
0.2166397382
 40
0.2872407537
 40
0.4241261994
 40
0.5538783715
 40
0.615787558
 40
0.6756149015
 40
0.7334165615
 40
0.7893243313
 40
0.8435805642
 40
0.8965249326
 40
0.9485406864
 40
1.0
 40
1.0
 40
1.0
 40
1.0
 10
15.1812841166
 20
8.9711624416
 30
0.0
 10
15.1813073136
 20
8.965081399
 30
0.0
 10
15.1817741782
 20
8.9529472064
 30
0.0
 10
15.183722704
 20
8.9349150513
 30
0.0
 10
15.1869081927
 20
8.9172348676
 30
0.0
 10
15.1926968007
 20
8.8945976037
 30
0.0
 10
15.2026943781
 20
8.8680919001
 30
0.0
 10
15.2165071993
 20
8.8441551124
 30
0.0
 10
15.2294781918
 20
8.8275539394
 30
0.0
 10
15.2398685095
 20
8.8166712906
 30
0.0
 10
15.2509657971
 20
8.8072668271
 30
0.0
 10
15.2626711802
 20
8.7994351643
 30
0.0
 10
15.2748758698
 20
8.7932550972
 30
0.0
 10
15.2874664416
 20
8.7887914024
 30
0.0
 10
15.3003107767
 20
8.7860981388
 30
0.0
 10
15.3089785144
 20
8.7854915662
 30
0.0
 10
15.3132834302
 20
8.7854915662
 30
0.0
  0
SPLINE
  5
4F7
100
AcDbEntity
  8
0
100
AcDbSpline
 62
7
  6
CONTINUOUS
 70
0
 71
3
 72
27
 73
23
 74
0
 42
0.0000001
 43
0.0000001
 44
0.0000000001
 40
0.0
 40
0.0
 40
0.0
 40
0.0
 40
0.0699643864
 40
0.1378625361
 40
0.2035092792
 40
0.2667911068
 40
0.3277246374
 40
0.3865284384
 40
0.4152873483
 40
0.4437165426
 40
0.4719166372
 40
0.4999991303
 40
0.5280816259
 40
0.5562817264
 40
0.5847109287
 40
0.6134698485
 40
0.6722736843
 40
0.7332072537
 40
0.7964891308
 40
0.862135862
 40
0.9300342118
 40
1.0
 40
1.0
 40
1.0
 40
1.0
 10
14.5586611396
 20
7.2781147208
 30
0.0
 10
14.5513810992
 20
7.2853737865
 30
0.0
 10
14.5367222094
 20
7.2993687186
 30
0.0
 10
14.5140227086
 20
7.3188613948
 30
0.0
 10
14.4908890845
 20
7.3362607644
 30
0.0
 10
14.467308959
 20
7.351237538
 30
0.0
 10
14.4432896824
 20
7.3634382604
 30
0.0
 10
14.4227734221
 20
7.3710499362
 30
0.0
 10
14.40626971
 20
7.3753546266
 30
0.0
 10
14.3939264848
 20
7.3776676298
 30
0.0
 10
14.3815461293
 20
7.3790654094
 30
0.0
 10
14.369146436
 20
7.3795323416
 30
0.0
 10
14.3567467429
 20
7.3790653763
 30
0.0
 10
14.3443663893
 20
7.3776675593
 30
0.0
 10
14.3320231661
 20
7.3753545267
 30
0.0
 10
14.3155194582
 20
7.3710497892
 30
0.0
 10
14.295003204
 20
7.3634380635
 30
0.0
 10
14.2709839325
 20
7.3512372923
 30
0.0
 10
14.2474038285
 20
7.3362604579
 30
0.0
 10
14.2242702078
 20
7.318861049
 30
0.0
 10
14.2015703261
 20
7.2993684082
 30
0.0
 10
14.1869122753
 20
7.2853722586
 30
0.0
 10
14.1796320909
 20
7.2781130456
 30
0.0
  0
SPLINE
  5
4F8
100
AcDbEntity
  8
0
100
AcDbSpline
 62
9
  6
CONTINUOUS
 70
0
 71
3
 72
17
 73
13
 74
0
 42
0.0000001
 43
0.0000001
 44
0.0000000001
 40
0.0
 40
0.0
 40
0.0
 40
0.0
 40
0.1181247909
 40
0.2419499748
 40
0.3698875147
 40
0.4348289283
 40
0.5000408018
 40
0.5652514213
 40
0.6301885337
 40
0.7581096188
 40
0.8819086205
 40
1.0
 40
1.0
 40
1.0
 40
1.0
 10
15.194589952
 20
8.8410669505
 30
0.0
 10
15.1887718739
 20
8.8502095253
 30
0.0
 10
15.1784454005
 20
8.8699827687
 30
0.0
 10
15.1673412793
 20
8.9021588231
 30
0.0
 10
15.1616948823
 20
8.930757537
 30
0.0
 10
15.1594027804
 20
8.9543367626
 30
0.0
 10
15.1588266588
 20
8.9722634146
 30
0.0
 10
15.1594150617
 20
8.9901892635
 30
0.0
 10
15.161722604
 20
9.0137649551
 30
0.0
 10
15.1673883917
 20
9.0423554989
 30
0.0
 10
15.1785142551
 20
9.0745167309
 30
0.0
 10
15.1888546397
 20
9.0942766282
 30
0.0
 10
15.1946789772
 20
9.1034115817
 30
0.0
  0
SPLINE
  5
4F9
100
AcDbEntity
  8
0
100
AcDbSpline
 62
7
  6
CONTINUOUS
 70
0
 71
3
 72
27
 73
23
 74
0
 42
0.0000001
 43
0.0000001
 44
0.0000000001
 40
0.0
 40
0.0
 40
0.0
 40
0.0
 40
0.0699649392
 40
0.1378632269
 40
0.2035100358
 40
0.2667919482
 40
0.32772556
 40
0.3865294401
 40
0.415288388
 40
0.4437176188
 40
0.471917748
 40
0.5000002736
 40
0.5280827996
 40
0.556282928
 40
0.5847121561
 40
0.6134710996
 40
0.6722749778
 40
0.7332085857
 40
0.7964904917
 40
0.8621373075
 40
0.9300355324
 40
1.0
 40
1.0
 40
1.0
 40
1.0
 10
15.6957524105
 20
7.2781142608
 30
0.0
 10
15.6884723305
 20
7.2853733699
 30
0.0
 10
15.6738137408
 20
7.2993686983
 30
0.0
 10
15.6511141318
 20
7.3188613349
 30
0.0
 10
15.6279805321
 20
7.3362606938
 30
0.0
 10
15.604400438
 20
7.3512374679
 30
0.0
 10
15.5803811886
 20
7.3634381921
 30
0.0
 10
15.5598649528
 20
7.3710498789
 30
0.0
 10
15.5433612596
 20
7.3753545826
 30
0.0
 10
15.5310180485
 20
7.3776675982
 30
0.0
 10
15.5186377069
 20
7.3790653923
 30
0.0
 10
15.5062380272
 20
7.3795323412
 30
0.0
 10
15.4938383473
 20
7.3790653948
 30
0.0
 10
15.4814580065
 20
7.3776675983
 30
0.0
 10
15.4691147957
 20
7.3753545881
 30
0.0
 10
15.4526111043
 20
7.3710498822
 30
0.0
 10
15.4320948686
 20
7.3634382
 30
0.0
 10
15.4080756206
 20
7.3512374763
 30
0.0
 10
15.3844955241
 20
7.3362607092
 30
0.0
 10
15.3613619272
 20
7.3188613542
 30
0.0
 10
15.3386624524
 20
7.299368697
 30
0.0
 10
15.3240035789
 20
7.2853737791
 30
0.0
 10
15.316723546
 20
7.2781147209
 30
0.0
  0
SPLINE
  5
4FA
100
AcDbEntity
  8
0
100
AcDbSpline
 62
7
  6
CONTINUOUS
 70
0
 71
3
 72
21
 73
17
 74
0
 42
0.0000001
 43
0.0000001
 44
0.0000000001
 40
0.0
 40
0.0
 40
0.0
 40
0.0
 40
0.062507566
 40
0.1250150899
 40
0.2499846819
 40
0.3124896962
 40
0.3749938211
 40
0.4374971647
 40
0.500000011
 40
0.5625028568
 40
0.6250061933
 40
0.6875103176
 40
0.7500153297
 40
0.8749849129
 40
0.9374924329
 40
1.0
 40
1.0
 40
1.0
 40
1.0
 10
15.3167216946
 20
7.2781147209
 30
0.0
 10
15.3019590638
 20
7.2854747776
 30
0.0
 10
15.2721687274
 20
7.2996756169
 30
0.0
 10
15.2115241804
 20
7.3256663509
 30
0.0
 10
15.1491020365
 20
7.3474562011
 30
0.0
 10
15.0851073272
 20
7.3636275986
 30
0.0
 10
15.0364047654
 20
7.3726068167
 30
0.0
 10
14.9871870939
 20
7.3781325421
 30
0.0
 10
14.9376923342
 20
7.3799990905
 30
0.0
 10
14.8881975766
 20
7.3781325399
 30
0.0
 10
14.8389799073
 20
7.3726068145
 30
0.0
 10
14.7902773482
 20
7.363627596
 30
0.0
 10
14.726282642
 20
7.3474561991
 30
0.0
 10
14.663860502
 20
7.3256663496
 30
0.0
 10
14.6032159575
 20
7.2996756175
 30
0.0
 10
14.5734256222
 20
7.2854747776
 30
0.0
 10
14.5586629911
 20
7.2781147208
 30
0.0
  0
SPLINE
  5
4FB
100
AcDbEntity
  8
0
100
AcDbSpline
 62
7
  6
CONTINUOUS
 70
0
 71
3
 72
9
 73
5
 74
0
 42
0.0000001
 43
0.0000001
 44
0.0000000001
 40
0.0
 40
0.0
 40
0.0
 40
0.0
 40
0.4955043156
 40
1.0
 40
1.0
 40
1.0
 40
1.0
 10
15.3030741314
 20
9.1742896592
 30
0.0
 10
15.3070064604
 20
9.1733489072
 30
0.0
 10
15.3148403462
 20
9.1709973788
 30
0.0
 10
15.3223673392
 20
9.16780144
 30
0.0
 10
15.3260683956
 20
9.1659989152
 30
0.0
  0
SPLINE
  5
4FC
100
AcDbEntity
  8
0
100
AcDbSpline
 62
7
  6
CONTINUOUS
 70
0
 71
3
 72
9
 73
5
 74
0
 42
0.0000001
 43
0.0000001
 44
0.0000000001
 40
0.0
 40
0.0
 40
0.0
 40
0.0
 40
0.504515241
 40
1.0
 40
1.0
 40
1.0
 40
1.0
 10
15.3260375241
 20
8.778325101
 30
0.0
 10
15.3223117974
 20
8.7765118729
 30
0.0
 10
15.3147337167
 20
8.7732998869
 30
0.0
 10
15.3068453897
 20
8.7709442455
 30
0.0
 10
15.3028860034
 20
8.7700045782
 30
0.0
  0
SPLINE
  5
4FD
100
AcDbEntity
  8
0
100
AcDbSpline
 62
9
  6
CONTINUOUS
 70
0
 71
3
 72
10
 73
6
 74
0
 42
0.0000001
 43
0.0000001
 44
0.0000000001
 40
0.0
 40
0.0
 40
0.0
 40
0.0
 40
0.2559334653
 40
0.5096544517
 40
1.0
 40
1.0
 40
1.0
 40
1.0
 10
14.3723607061
 20
8.9721695021
 30
0.0
 10
14.3723607061
 20
8.9618525696
 30
0.0
 10
14.3713592269
 20
8.9412888364
 30
0.0
 10
14.3654815456
 20
8.9013756339
 30
0.0
 10
14.356672128
 20
8.8723938705
 30
0.0
 10
14.3487982663
 20
8.8542635209
 30
0.0
  0
SPLINE
  5
4FE
100
AcDbEntity
  8
0
100
AcDbSpline
 62
9
  6
CONTINUOUS
 70
0
 71
3
 72
9
 73
5
 74
0
 42
0.0000001
 43
0.0000001
 44
0.0000000001
 40
0.0
 40
0.0
 40
0.0
 40
0.0
 40
0.2569919022
 40
1.0
 40
1.0
 40
1.0
 40
1.0
 10
14.3487982663
 20
8.8542635209
 30
0.0
 10
14.3471152442
 20
8.8503881951
 30
0.0
 10
14.3401955261
 20
8.8354745243
 30
0.0
 10
14.3317504167
 20
8.8212518962
 30
0.0
 10
14.3246072591
 20
8.811342945
 30
0.0
  0
SPLINE
  5
4FF
100
AcDbEntity
  8
0
100
AcDbSpline
 62
9
  6
CONTINUOUS
 70
0
 71
3
 72
13
 73
9
 74
0
 42
0.0000001
 43
0.0000001
 44
0.0000000001
 40
0.0
 40
0.0
 40
0.0
 40
0.0
 40
0.1312129435
 40
0.261965392
 40
0.5187445881
 40
0.6438278927
 40
0.7660283771
 40
1.0
 40
1.0
 40
1.0
 40
1.0
 10
14.3897624204
 20
8.9721695021
 30
0.0
 10
14.3897624204
 20
8.9777180976
 30
0.0
 10
14.389371092
 20
8.9888006036
 30
0.0
 10
14.3870629438
 20
9.0106268385
 30
0.0
 10
14.3824855449
 20
9.0319104456
 30
0.0
 10
14.3756478544
 20
9.0521200521
 30
0.0
 10
14.3676196014
 20
9.0708341591
 30
0.0
 10
14.3599796294
 20
9.083933131
 30
0.0
 10
14.3541935156
 20
9.0919587817
 30
0.0
  0
SPLINE
  5
500
100
AcDbEntity
  8
0
100
AcDbSpline
 62
9
  6
CONTINUOUS
 70
0
 71
3
 72
9
 73
5
 74
0
 42
0.0000001
 43
0.0000001
 44
0.0000000001
 40
0.0
 40
0.0
 40
0.0
 40
0.0
 40
0.4955657787
 40
1.0
 40
1.0
 40
1.0
 40
1.0
 10
14.309652066
 20
8.7936685652
 30
0.0
 10
14.3130550364
 20
8.7944585378
 30
0.0
 10
14.3198376662
 20
8.7964376688
 30
0.0
 10
14.3263661969
 20
8.7991354893
 30
0.0
 10
14.3295793
 20
8.8006589543
 30
0.0
  0
SPLINE
  5
501
100
AcDbEntity
  8
0
100
AcDbSpline
 62
9
  6
CONTINUOUS
 70
0
 71
3
 72
18
 73
14
 74
0
 42
0.0000001
 43
0.0000001
 44
0.0000000001
 40
0.0
 40
0.0
 40
0.0
 40
0.0
 40
0.0523246358
 40
0.1059352666
 40
0.1609749452
 40
0.2175354182
 40
0.3353141105
 40
0.459334701
 40
0.5235534421
 40
0.5890605155
 40
0.7233029982
 40
0.8608687679
 40
1.0
 40
1.0
 40
1.0
 40
1.0
 10
14.3295793
 20
8.8006589543
 30
0.0
 10
14.3327650022
 20
8.8021694274
 30
0.0
 10
14.3390641613
 20
8.8055554318
 30
0.0
 10
14.3480950373
 20
8.8115897997
 30
0.0
 10
14.3567617293
 20
8.8186001401
 30
0.0
 10
14.367912635
 20
8.8293254163
 30
0.0
 10
14.3806240148
 20
8.8450135039
 30
0.0
 10
14.3911758421
 20
8.8628074647
 30
0.0
 10
14.3984155098
 20
8.878307334
 30
0.0
 10
14.4049103854
 20
8.8948766218
 30
0.0
 10
14.4112291045
 20
8.9167709756
 30
0.0
 10
14.4158061214
 20
8.9441340286
 30
0.0
 10
14.416833053
 20
8.9627947897
 30
0.0
 10
14.416833053
 20
8.9721695021
 30
0.0
  0
SPLINE
  5
502
100
AcDbEntity
  8
0
100
AcDbSpline
 62
9
  6
CONTINUOUS
 70
0
 71
3
 72
18
 73
14
 74
0
 42
0.0000001
 43
0.0000001
 44
0.0000000001
 40
0.0
 40
0.0
 40
0.0
 40
0.0
 40
0.1391220656
 40
0.2766770274
 40
0.4109117638
 40
0.4764168362
 40
0.5406345089
 40
0.664656458
 40
0.7824419272
 40
0.8390077371
 40
0.8940532092
 40
0.94766959
 40
1.0
 40
1.0
 40
1.0
 40
1.0
 10
14.416833053
 20
8.9721695021
 30
0.0
 10
14.416833053
 20
8.9815402085
 30
0.0
 10
14.4158070484
 20
9.0001928646
 30
0.0
 10
14.4112339876
 20
9.0275444696
 30
0.0
 10
14.4049207144
 20
9.0494303081
 30
0.0
 10
14.3984315249
 20
9.0659941164
 30
0.0
 10
14.3911979894
 20
9.0814898869
 30
0.0
 10
14.3806545811
 20
9.0992806169
 30
0.0
 10
14.3679530452
 20
9.1149682851
 30
0.0
 10
14.3568103798
 20
9.1256957532
 30
0.0
 10
14.3481497381
 20
9.1327089571
 30
0.0
 10
14.3391245818
 20
9.1387468769
 30
0.0
 10
14.3328293512
 20
9.1421363079
 30
0.0
 10
14.3296455263
 20
9.1436486715
 30
0.0
  0
SPLINE
  5
503
100
AcDbEntity
  8
0
100
AcDbSpline
 62
9
  6
CONTINUOUS
 70
0
 71
3
 72
9
 73
5
 74
0
 42
0.0000001
 43
0.0000001
 44
0.0000000001
 40
0.0
 40
0.0
 40
0.0
 40
0.0
 40
0.5044182638
 40
1.0
 40
1.0
 40
1.0
 40
1.0
 10
14.3296455263
 20
9.1436486715
 30
0.0
 10
14.3264573649
 20
9.145163095
 30
0.0
 10
14.3199802959
 20
9.1478480665
 30
0.0
 10
14.3132519481
 20
9.1498257004
 30
0.0
 10
14.3098759635
 20
9.1506181168
 30
0.0
  0
SPLINE
  5
504
100
AcDbEntity
  8
0
100
AcDbSpline
 62
7
  6
CONTINUOUS
 70
0
 71
3
 72
11
 73
7
 74
0
 42
0.0000001
 43
0.0000001
 44
0.0000000001
 40
0.0
 40
0.0
 40
0.0
 40
0.0
 40
0.215096608
 40
0.4666182108
 40
0.7352143279
 40
1.0
 40
1.0
 40
1.0
 40
1.0
 10
14.8315382798
 20
9.4583997415
 30
0.0
 10
14.8328630913
 20
9.458338901
 30
0.0
 10
14.835741049
 20
9.4582961274
 30
0.0
 10
14.8402737085
 20
9.4583915607
 30
0.0
 10
14.8451073909
 20
9.4586412858
 30
0.0
 10
14.8483861151
 20
9.4589037606
 30
0.0
 10
14.8500111019
 20
9.4590609585
 30
0.0
  0
SPLINE
  5
505
100
AcDbEntity
  8
0
100
AcDbSpline
 62
7
  6
CONTINUOUS
 70
0
 71
3
 72
19
 73
15
 74
0
 42
0.0000001
 43
0.0000001
 44
0.0000000001
 40
0.0
 40
0.0
 40
0.0
 40
0.0
 40
0.0513404167
 40
0.1035157394
 40
0.1568839705
 40
0.211736964
 40
0.3265722745
 40
0.386924034
 40
0.4492124256
 40
0.5792123318
 40
0.7155632869
 40
0.8565671367
 40
0.9281829169
 40
1.0
 40
1.0
 40
1.0
 40
1.0
 10
14.3013560232
 20
9.160439154
 30
0.0
 10
14.3054743098
 20
9.1598949695
 30
0.0
 10
14.3137158877
 20
9.1582556711
 30
0.0
 10
14.3257813822
 20
9.1542128441
 30
0.0
 10
14.337524387
 20
9.1486127937
 30
0.0
 10
14.3528395677
 20
9.1390029137
 30
0.0
 10
14.3668721517
 20
9.1265382749
 30
0.0
 10
14.3793101541
 20
9.1118700395
 30
0.0
 10
14.3910998581
 20
9.0951392168
 30
0.0
 10
14.4035733997
 20
9.0715143476
 30
0.0
 10
14.4144603317
 20
9.0402908544
 30
0.0
 10
14.4199972467
 20
9.0125062645
 30
0.0
 10
14.4222482021
 20
8.989590031
 30
0.0
 10
14.4226293214
 20
8.9779804067
 30
0.0
 10
14.4226293214
 20
8.9721695021
 30
0.0
  0
SPLINE
  5
506
100
AcDbEntity
  8
0
100
AcDbSpline
 62
7
  6
CONTINUOUS
 70
0
 71
3
 72
19
 73
15
 74
0
 42
0.0000001
 43
0.0000001
 44
0.0000000001
 40
0.0
 40
0.0
 40
0.0
 40
0.0
 40
0.0718367827
 40
0.1434703189
 40
0.284500218
 40
0.4208651884
 40
0.5508617554
 40
0.6131430638
 40
0.6734842341
 40
0.7882928248
 40
0.8431325832
 40
0.8964901934
 40
0.9486590693
 40
1.0
 40
1.0
 40
1.0
 40
1.0
 10
14.4226293214
 20
8.9721695021
 30
0.0
 10
14.4226293214
 20
8.9663501564
 30
0.0
 10
14.4222471236
 20
8.9547238083
 30
0.0
 10
14.4199897854
 20
8.9317757364
 30
0.0
 10
14.4144373626
 20
8.9039551339
 30
0.0
 10
14.4035208138
 20
8.872697147
 30
0.0
 10
14.3910134751
 20
8.8490536867
 30
0.0
 10
14.379193458
 20
8.8323166654
 30
0.0
 10
14.3667242807
 20
8.8176498202
 30
0.0
 10
14.3526581696
 20
8.8051946836
 30
0.0
 10
14.33730861
 20
8.7956070112
 30
0.0
 10
14.3255411486
 20
8.7900280592
 30
0.0
 10
14.3134519088
 20
8.786012795
 30
0.0
 10
14.3051963594
 20
8.7843951976
 30
0.0
 10
14.3010715752
 20
8.7838626529
 30
0.0
  0
SPLINE
  5
507
100
AcDbEntity
  8
0
100
AcDbSpline
 62
7
  6
CONTINUOUS
 70
0
 71
3
 72
15
 73
11
 74
0
 42
0.0000001
 43
0.0000001
 44
0.0000000001
 40
0.0
 40
0.0
 40
0.0
 40
0.0
 40
0.1248859036
 40
0.2564435353
 40
0.3910090529
 40
0.5253335886
 40
0.656311345
 40
0.7810050492
 40
0.8965243789
 40
1.0
 40
1.0
 40
1.0
 40
1.0
 10
14.7379372704
 20
9.4393126375
 30
0.0
 10
14.7402658438
 20
9.4394299927
 30
0.0
 10
14.7450442316
 20
9.439736066
 30
0.0
 10
14.7523173685
 20
9.4403661784
 30
0.0
 10
14.7597506836
 20
9.441169666
 30
0.0
 10
14.7671553644
 20
9.4421227027
 30
0.0
 10
14.774356342
 20
9.4432024672
 30
0.0
 10
14.7811859107
 20
9.44438111
 30
0.0
 10
14.787480118
 20
9.4456308632
 30
0.0
 10
14.7914663081
 20
9.4465439003
 30
0.0
 10
14.7933401787
 20
9.4470134913
 30
0.0
  0
SPLINE
  5
508
100
AcDbEntity
  8
0
100
AcDbSpline
 62
7
  6
CONTINUOUS
 70
0
 71
3
 72
13
 73
9
 74
0
 42
0.0000001
 43
0.0000001
 44
0.0000000001
 40
0.0
 40
0.0
 40
0.0
 40
0.0
 40
0.3909085119
 40
0.5534859011
 40
0.6921241715
 40
0.8055850874
 40
0.8932527884
 40
1.0
 40
1.0
 40
1.0
 40
1.0
 10
14.8130422298
 20
9.451689026
 30
0.0
 10
14.8132908217
 20
9.4517447269
 30
0.0
 10
14.8136411546
 20
9.4518314495
 30
0.0
 10
14.8140719808
 20
9.451966738
 30
0.0
 10
14.8143247423
 20
9.4520603948
 30
0.0
 10
14.814528253
 20
9.4521543451
 30
0.0
 10
14.8146947296
 20
9.452253758
 30
0.0
 10
14.814800444
 20
9.4523605007
 30
0.0
 10
14.8148004794
 20
9.452430068
 30
0.0
  0
SPLINE
  5
509
100
AcDbEntity
  8
0
100
AcDbSpline
 62
9
  6
CONTINUOUS
 70
0
 71
3
 72
9
 73
5
 74
0
 42
0.0000001
 43
0.0000001
 44
0.0000000001
 40
0.0
 40
0.0
 40
0.0
 40
0.0
 40
0.2558562338
 40
1.0
 40
1.0
 40
1.0
 40
1.0
 10
14.6941024896
 20
8.9721695021
 30
0.0
 10
14.6941024896
 20
8.9803560667
 30
0.0
 10
14.6926159728
 20
9.0123227111
 30
0.0
 10
14.6852307514
 20
9.0441153463
 30
0.0
 10
14.6761612988
 20
9.0661305533
 30
0.0
  0
SPLINE
  5
50A
100
AcDbEntity
  8
0
100
AcDbSpline
 62
9
  6
CONTINUOUS
 70
0
 71
3
 72
24
 73
20
 74
0
 42
0.0000001
 43
0.0000001
 44
0.0000000001
 40
0.0
 40
0.0
 40
0.0
 40
0.0
 40
0.0734568638
 40
0.1446426716
 40
0.2134067937
 40
0.2796875469
 40
0.343542176
 40
0.4051387843
 40
0.4647791054
 40
0.5228811085
 40
0.5799716428
 40
0.6366484084
 40
0.6935438884
 40
0.7512697561
 40
0.8103813808
 40
0.8713299248
 40
0.9026204352
 40
0.9344867002
 40
1.0
 40
1.0
 40
1.0
 40
1.0
 10
14.6747514319
 20
9.0694724817
 30
0.0
 10
14.6723578112
 20
9.0750145042
 30
0.0
 10
14.6671780759
 20
9.0857341846
 30
0.0
 10
14.6581162399
 20
9.1007792846
 30
0.0
 10
14.6479792484
 20
9.1143986881
 30
0.0
 10
14.6368707066
 20
9.1264342406
 30
0.0
 10
14.6249152917
 20
9.1367540886
 30
0.0
 10
14.6122386701
 20
9.1452351114
 30
0.0
 10
14.5989818554
 20
9.1517778614
 30
0.0
 10
14.5852924295
 20
9.1563004305
 30
0.0
 10
14.5713280673
 20
9.1587421444
 30
0.0
 10
14.5572535247
 20
9.1590738021
 30
0.0
 10
14.5432374049
 20
9.1572847857
 30
0.0
 10
14.5294441401
 20
9.1534073347
 30
0.0
 10
14.516037961
 20
9.1474840177
 30
0.0
 10
14.5053993314
 20
9.1409680608
 30
0.0
 10
14.497232308
 20
9.1348497778
 30
0.0
 10
14.4891623168
 20
9.1280089907
 30
0.0
 10
14.4835191765
 20
9.1223031701
 30
0.0
 10
14.4799415077
 20
9.1182797429
 30
0.0
  0
SPLINE
  5
50B
100
AcDbEntity
  8
0
100
AcDbSpline
 62
9
  6
CONTINUOUS
 70
0
 71
3
 72
9
 73
5
 74
0
 42
0.0000001
 43
0.0000001
 44
0.0000000001
 40
0.0
 40
0.0
 40
0.0
 40
0.0
 40
0.2444249202
 40
1.0
 40
1.0
 40
1.0
 40
1.0
 10
14.4790661645
 20
9.1172866841
 30
0.0
 10
14.4775154943
 20
9.1155120515
 30
0.0
 10
14.4713390458
 20
9.1081059814
 30
0.0
 10
14.4658291272
 20
9.1001503497
 30
0.0
 10
14.4620420998
 20
9.0939270039
 30
0.0
  0
SPLINE
  5
50C
100
AcDbEntity
  8
0
100
AcDbSpline
 62
9
  6
CONTINUOUS
 70
0
 71
3
 72
12
 73
8
 74
0
 42
0.0000001
 43
0.0000001
 44
0.0000000001
 40
0.0
 40
0.0
 40
0.0
 40
0.0
 40
0.1302842618
 40
0.2602111404
 40
0.5161026412
 40
0.7637112419
 40
1.0
 40
1.0
 40
1.0
 40
1.0
 10
14.7163636945
 20
8.9721695021
 30
0.0
 10
14.7163636945
 20
8.966207033
 30
0.0
 10
14.7159766063
 20
8.9542943068
 30
0.0
 10
14.7136898781
 20
8.9307737576
 30
0.0
 10
14.7080626076
 20
8.9022383414
 30
0.0
 10
14.6969971904
 20
8.8701315832
 30
0.0
 10
14.6867143899
 20
8.8503942104
 30
0.0
 10
14.6809199114
 20
8.8412639474
 30
0.0
  0
SPLINE
  5
50D
100
AcDbEntity
  8
0
100
AcDbSpline
 62
7
  6
CONTINUOUS
 70
0
 71
3
 72
9
 73
5
 74
0
 42
0.0000001
 43
0.0000001
 44
0.0000000001
 40
0.0
 40
0.0
 40
0.0
 40
0.0
 40
0.4955042891
 40
1.0
 40
1.0
 40
1.0
 40
1.0
 10
14.5723106399
 20
8.7700493258
 30
0.0
 10
14.5683782912
 20
8.7709900784
 30
0.0
 10
14.5605443656
 20
8.773341613
 30
0.0
 10
14.5530173359
 20
8.7765375674
 30
0.0
 10
14.5493162619
 20
8.7783401021
 30
0.0
  0
SPLINE
  5
50E
100
AcDbEntity
  8
0
100
AcDbSpline
 62
7
  6
CONTINUOUS
 70
0
 71
3
 72
9
 73
5
 74
0
 42
0.0000001
 43
0.0000001
 44
0.0000000001
 40
0.0
 40
0.0
 40
0.0
 40
0.0
 40
0.5045153104
 40
1.0
 40
1.0
 40
1.0
 40
1.0
 10
14.549347104
 20
9.1660138764
 30
0.0
 10
14.5530728874
 20
9.1678271346
 30
0.0
 10
14.5606510859
 20
9.1710391683
 30
0.0
 10
14.56853954
 20
9.1733948281
 30
0.0
 10
14.5724989896
 20
9.174334497
 30
0.0
  0
SPLINE
  5
50F
100
AcDbEntity
  8
0
100
AcDbSpline
 62
7
  6
CONTINUOUS
 70
0
 71
3
 72
13
 73
9
 74
0
 42
0.0000001
 43
0.0000001
 44
0.0000000001
 40
0.0
 40
0.0
 40
0.0
 40
0.0
 40
0.3255450968
 40
0.6036390556
 40
0.7232208752
 40
0.829270267
 40
0.921567739
 40
1.0
 40
1.0
 40
1.0
 40
1.0
 10
14.6834874549
 20
9.4452935984
 30
0.0
 10
14.6810334206
 20
9.4446679984
 30
0.0
 10
14.6764998077
 20
9.4434407435
 30
0.0
 10
14.6711296328
 20
9.4417539578
 30
0.0
 10
14.6674488723
 20
9.4404074521
 30
0.0
 10
14.6651589471
 20
9.4394708325
 30
0.0
 10
14.6632066949
 20
9.4385606389
 30
0.0
 10
14.6620399958
 20
9.4379224109
 30
0.0
 10
14.6615201504
 20
9.4376029682
 30
0.0
  0
SPLINE
  5
510
100
AcDbEntity
  8
0
100
AcDbSpline
 62
7
  6
CONTINUOUS
 70
0
 71
3
 72
11
 73
7
 74
0
 42
0.0000001
 43
0.0000001
 44
0.0000000001
 40
0.0
 40
0.0
 40
0.0
 40
0.0
 40
0.3221924799
 40
0.5933289616
 40
0.8169494456
 40
1.0
 40
1.0
 40
1.0
 40
1.0
 10
14.6615201504
 20
9.4376029682
 30
0.0
 10
14.6611750831
 20
9.4373909259
 30
0.0
 10
14.6605522999
 20
9.4369787813
 30
0.0
 10
14.6597552637
 20
9.4363271372
 30
0.0
 10
14.6591768684
 20
9.435696945
 30
0.0
 10
14.6589169291
 20
9.4352478269
 30
0.0
 10
14.6588383483
 20
9.4350315578
 30
0.0
  0
SPLINE
  5
511
100
AcDbEntity
  8
0
100
AcDbSpline
 62
7
  6
CONTINUOUS
 70
0
 71
3
 72
12
 73
8
 74
0
 42
0.0000001
 43
0.0000001
 44
0.0000000001
 40
0.0
 40
0.0
 40
0.0
 40
0.0
 40
0.3073251699
 40
0.5809861887
 40
0.8137605887
 40
0.913035548
 40
1.0
 40
1.0
 40
1.0
 40
1.0
 10
14.7379372704
 20
9.4393126544
 30
0.0
 10
14.7334940514
 20
9.4390887256
 30
0.0
 10
14.7250894769
 20
9.4387518319
 30
0.0
 10
14.7133097174
 20
9.438570486
 30
0.0
 10
14.7045397624
 20
9.4387170451
 30
0.0
 10
14.6984825433
 20
9.4390488207
 30
0.0
 10
14.6957956534
 20
9.4392788981
 30
0.0
 10
14.6945440032
 20
9.4394138351
 30
0.0
  0
SPLINE
  5
512
100
AcDbEntity
  8
0
100
AcDbSpline
 62
7
  6
CONTINUOUS
 70
0
 71
3
 72
10
 73
6
 74
0
 42
0.0000001
 43
0.0000001
 44
0.0000000001
 40
0.0
 40
0.0
 40
0.0
 40
0.0
 40
0.2100982042
 40
0.4475981062
 40
1.0
 40
1.0
 40
1.0
 40
1.0
 10
14.6945440032
 20
9.440435428
 30
0.0
 10
14.6956896498
 20
9.4403120029
 30
0.0
 10
14.698135713
 20
9.4400980483
 30
0.0
 10
14.7036113751
 20
9.4397793434
 30
0.0
 10
14.7079440874
 20
9.4396835861
 30
0.0
 10
14.7109736206
 20
9.4396596245
 30
0.0
  0
SPLINE
  5
513
100
AcDbEntity
  8
0
100
AcDbSpline
 62
7
  6
CONTINUOUS
 70
0
 71
3
 72
9
 73
5
 74
0
 42
0.0000001
 43
0.0000001
 44
0.0000000001
 40
0.0
 40
0.0
 40
0.0
 40
0.0
 40
0.4709006715
 40
1.0
 40
1.0
 40
1.0
 40
1.0
 10
14.7127185987
 20
9.4396507634
 30
0.0
 10
14.7166788692
 20
9.4396415345
 30
0.0
 10
14.7250893148
 20
9.4397707059
 30
0.0
 10
14.7334931703
 20
9.4401104905
 30
0.0
 10
14.7379372704
 20
9.4403343123
 30
0.0
  0
SPLINE
  5
514
100
AcDbEntity
  8
0
100
AcDbSpline
 62
9
  6
CONTINUOUS
 70
0
 71
3
 72
24
 73
20
 74
0
 42
0.0000001
 43
0.0000001
 44
0.0000000001
 40
0.0
 40
0.0
 40
0.0
 40
0.0
 40
0.135790761
 40
0.1998130369
 40
0.2613585503
 40
0.3207556659
 40
0.3498155098
 40
0.378530664
 40
0.4352147596
 40
0.4634056241
 40
0.4916035255
 40
0.5483431047
 40
0.5771052899
 40
0.6062238318
 40
0.6657686989
 40
0.7274922909
 40
0.7917111542
 40
0.8585822775
 40
1.0
 40
1.0
 40
1.0
 40
1.0
 10
14.4623071147
 20
8.8499776661
 30
0.0
 10
14.468664821
 20
8.8395943985
 30
0.0
 10
14.4795983561
 20
8.8251497858
 30
0.0
 10
14.4969592554
 20
8.8093359006
 30
0.0
 10
14.51061219
 20
8.7998302539
 30
0.0
 10
14.5226716338
 20
8.7937590067
 30
0.0
 10
14.5325398703
 20
8.7901272697
 30
0.0
 10
14.5424243585
 20
8.7873379197
 30
0.0
 10
14.5525354215
 20
8.7857410692
 30
0.0
 10
14.5626768588
 20
8.785390317
 30
0.0
 10
14.572818205
 20
8.7858661207
 30
0.0
 10
14.582918502
 20
8.7875881642
 30
0.0
 10
14.5927830843
 20
8.7904984272
 30
0.0
 10
14.6026298265
 20
8.7942520221
 30
0.0
 10
14.6146519146
 20
8.8004727343
 30
0.0
 10
14.6282424724
 20
8.8101428927
 30
0.0
 10
14.6409453921
 20
8.8219387176
 30
0.0
 10
14.6567592971
 20
8.8406200218
 30
0.0
 10
14.6663587786
 20
8.8568461648
 30
0.0
 10
14.6717839427
 20
8.868306526
 30
0.0
  0
SPLINE
  5
515
100
AcDbEntity
  8
0
100
AcDbSpline
 62
9
  6
CONTINUOUS
 70
0
 71
3
 72
9
 73
5
 74
0
 42
0.0000001
 43
0.0000001
 44
0.0000000001
 40
0.0
 40
0.0
 40
0.0
 40
0.0
 40
0.2456683717
 40
1.0
 40
1.0
 40
1.0
 40
1.0
 10
14.6732859647
 20
8.8715517368
 30
0.0
 10
14.6745256949
 20
8.8742918095
 30
0.0
 10
14.6793314936
 20
8.8855531897
 30
0.0
 10
14.683183413
 20
8.8972171459
 30
0.0
 10
14.6855688887
 20
8.9061382661
 30
0.0
  0
SPLINE
  5
516
100
AcDbEntity
  8
0
100
AcDbSpline
 62
9
  6
CONTINUOUS
 70
0
 71
3
 72
10
 73
6
 74
0
 42
0.0000001
 43
0.0000001
 44
0.0000000001
 40
0.0
 40
0.0
 40
0.0
 40
0.0
 40
0.4959175133
 40
0.7476246068
 40
1.0
 40
1.0
 40
1.0
 40
1.0
 10
14.6855688887
 20
8.9061382661
 30
0.0
 10
14.688418756
 20
8.9167961021
 30
0.0
 10
14.6916132537
 20
8.9331842274
 30
0.0
 10
14.6937419981
 20
8.9553369748
 30
0.0
 10
14.6941024896
 20
8.9665551085
 30
0.0
 10
14.6941024896
 20
8.9721695021
 30
0.0
  0
SPLINE
  5
517
100
AcDbEntity
  8
0
100
AcDbSpline
 62
7
  6
CONTINUOUS
 70
0
 71
3
 72
15
 73
11
 74
0
 42
0.0000001
 43
0.0000001
 44
0.0000000001
 40
0.0
 40
0.0
 40
0.0
 40
0.0
 40
0.1034716564
 40
0.2189866423
 40
0.3436808883
 40
0.4746633039
 40
0.6089936958
 40
0.7435615218
 40
0.8751162386
 40
1.0
 40
1.0
 40
1.0
 40
1.0
 10
14.7933401787
 20
9.4480299814
 30
0.0
 10
14.791466333
 20
9.4475607095
 30
0.0
 10
14.7874802235
 20
9.4466482835
 30
0.0
 10
14.7811860882
 20
9.4453993873
 30
0.0
 10
14.7743564693
 20
9.4442215314
 30
0.0
 10
14.7671552875
 20
9.4431424444
 30
0.0
 10
14.7597503925
 20
9.4421900386
 30
0.0
 10
14.75231703
 20
9.4413870834
 30
0.0
 10
14.7450440128
 20
9.4407574011
 30
0.0
 10
14.7402657745
 20
9.4404515572
 30
0.0
 10
14.7379372704
 20
9.4403342848
 30
0.0
  0
LINE
  5
518
100
AcDbEntity
  8
0
100
AcDbLine
 62
7
  6
CONTINUOUS
 10
14.7127185987
 20
9.4396507634
 11
14.7109736206
 21
9.4396596245
  0
SPLINE
  5
519
100
AcDbEntity
  8
0
100
AcDbSpline
 62
7
  6
CONTINUOUS
 70
0
 71
3
 72
15
 73
11
 74
0
 42
0.0000001
 43
0.0000001
 44
0.0000000001
 40
0.0
 40
0.0
 40
0.0
 40
0.0
 40
0.2074318995
 40
0.3899953492
 40
0.5475409938
 40
0.680175319
 40
0.7885062824
 40
0.874243962
 40
0.9417742459
 40
1.0
 40
1.0
 40
1.0
 40
1.0
 10
14.6945440032
 20
9.4404353586
 30
0.0
 10
14.6941533754
 20
9.4404774425
 30
0.0
 10
14.6934201173
 20
9.4405684454
 30
0.0
 10
14.6923969932
 20
9.4407403258
 30
0.0
 10
14.6915229995
 20
9.4409378305
 30
0.0
 10
14.6908006103
 20
9.4411598848
 30
0.0
 10
14.690230713
 20
9.4414057906
 30
0.0
 10
14.6898125173
 20
9.4416775651
 30
0.0
 10
14.6895429102
 20
9.4419856064
 30
0.0
 10
14.6894791108
 20
9.4422266853
 30
0.0
 10
14.689479193
 20
9.4423369683
 30
0.0
  0
SPLINE
  5
51A
100
AcDbEntity
  8
0
100
AcDbSpline
 62
9
  6
CONTINUOUS
 70
0
 71
3
 72
16
 73
12
 74
0
 42
0.0000001
 43
0.0000001
 44
0.0000000001
 40
0.0
 40
0.0
 40
0.0
 40
0.0
 40
0.1152660573
 40
0.2362055288
 40
0.3616939915
 40
0.4257189758
 40
0.4902992875
 40
0.6201824971
 40
0.7495866929
 40
0.8767312603
 40
1.0
 40
1.0
 40
1.0
 40
1.0
 10
15.5507775634
 20
8.8113431427
 30
0.0
 10
15.5442467953
 20
8.8204003548
 30
0.0
 10
15.5323655604
 20
8.8400777727
 30
0.0
 10
15.5186601137
 20
8.8724317214
 30
0.0
 10
15.5106149924
 20
8.9015022416
 30
0.0
 10
15.5062546081
 20
8.9257403092
 30
0.0
 10
15.5033147426
 20
8.9506212621
 30
0.0
 10
15.5024350684
 20
8.9820626879
 30
0.0
 10
15.505811172
 20
9.0194332264
 30
0.0
 10
15.5135241131
 20
9.0554998065
 30
0.0
 10
15.5215804174
 20
9.0784699892
 30
0.0
 10
15.5263085033
 20
9.0894355416
 30
0.0
  0
SPLINE
  5
51B
100
AcDbEntity
  8
0
100
AcDbSpline
 62
9
  6
CONTINUOUS
 70
0
 71
3
 72
9
 73
5
 74
0
 42
0.0000001
 43
0.0000001
 44
0.0000000001
 40
0.0
 40
0.0
 40
0.0
 40
0.0
 40
0.2570611322
 40
1.0
 40
1.0
 40
1.0
 40
1.0
 10
15.5263085033
 20
9.0894355416
 30
0.0
 10
15.528005408
 20
9.093371066
 30
0.0
 10
15.5349887959
 20
9.1085107344
 30
0.0
 10
15.543533128
 20
9.1229488983
 30
0.0
 10
15.5507775634
 20
9.1329958616
 30
0.0
  0
SPLINE
  5
51C
100
AcDbEntity
  8
0
100
AcDbSpline
 62
9
  6
CONTINUOUS
 70
0
 71
3
 72
12
 73
8
 74
0
 42
0.0000001
 43
0.0000001
 44
0.0000000001
 40
0.0
 40
0.0
 40
0.0
 40
0.0
 40
0.2364555499
 40
0.4840282822
 40
0.7398191426
 40
0.8697098168
 40
1.0
 40
1.0
 40
1.0
 40
1.0
 10
14.6811884599
 20
9.1026509273
 30
0.0
 10
14.6868530545
 20
9.0936730239
 30
0.0
 10
14.6969240881
 20
9.0743006747
 30
0.0
 10
14.7078364809
 20
9.042826721
 30
0.0
 10
14.7134711886
 20
9.0148680998
 30
0.0
 10
14.7158493302
 20
8.9918147799
 30
0.0
 10
14.7163110016
 20
8.9801333236
 30
0.0
 10
14.7163556277
 20
8.9742841708
 30
0.0
  0
LINE
  5
51D
100
AcDbEntity
  8
0
100
AcDbLine
 62
7
  6
CONTINUOUS
 10
14.9154184791
 20
9.4728495268
 11
14.9078214609
 21
9.4727564594
  0
LINE
  5
51E
100
AcDbEntity
  8
0
100
AcDbLine
 62
7
  6
CONTINUOUS
 10
14.9078214609
 20
9.4727564594
 11
14.9002248073
 21
9.4727564594
  0
LINE
  5
51F
100
AcDbEntity
  8
0
100
AcDbLine
 62
7
  6
CONTINUOUS
 10
14.9002248073
 20
9.4727564594
 11
14.8931440992
 21
9.4725303607
  0
ENDSEC
  0
SECTION
  2
OBJECTS
  0
DICTIONARY
  5
C
100
AcDbDictionary
280
0
281
1
  3
ACAD_GROUP
350
D
  3
ACAD_MLINESTYLE
350
17
  3
ACAD_LAYOUT
350
1A
  3
ACAD_PLOTSETTINGS
350
19
  3
ACAD_PLOTSTYLENAME
350
E
  0
DICTIONARY
  5
D
102
{ACAD_REACTORS
330
C
102
}
100
AcDbDictionary
280
0
281
1
  0
ACDBDICTIONARYWDFLT
  5
E
102
{ACAD_REACTORS
330
C
102
}
100
AcDbDictionary
281
1
  3
Normal
350
F
100
AcDbDictionaryWithDefault
340
F
  0
DICTIONARY
  5
17
102
{ACAD_REACTORS
330
C
102
}
100
AcDbDictionary
280
0
281
1
  3
Standard
350
18
  0
DICTIONARY
  5
19
102
{ACAD_REACTORS
330
C
102
}
100
AcDbDictionary
281
1
  0
DICTIONARY
  5
1A
102
{ACAD_REACTORS
330
C
102
}
100
AcDbDictionary
281
1
  3
Model
350
520
  3
Layout1
350
521
  0
ACDBPLACEHOLDER
  5
F
102
{ACAD_REACTORS
330
E
102
}
  0
MLINESTYLE
  5
18
102
{ACAD_REACTORS
330
17
102
}
100
AcDbMlineStyle
  2
STANDARD
 70
0
  3

 62
256
 51
90.0
 52
90.0
 71
2
 49
0.5
 62
256
  6
BYLAYER
 49
-0.5
 62
256
  6
BYLAYER
  0
LAYOUT
  5
520
102
{ACAD_REACTORS
330
1A
102
}
100
AcDbPlotSettings
  1

  2
none_device
  4
ANSI_C_(22.00_x_17.00_Inches)
  6

 40
0.0
 41
0.0
 42
0.0
 43
0.0
 44
558.8
 45
431.8
 46
0.0
 47
0.0
 48
0.0
 49
0.0
140
0.0
141
0.0
142
1.0
143
1.0
 70
1024
 72
0
 73
0
 74
0
  7

 75
0
147
1.0
148
0.0
149
0.0
100
AcDbLayout
  1
Model
 70
0
 71
0
 10
0.0
 20
0.0
 11
22.0
 21
17.0
 12
0.0
 22
0.0
 32
0.0
 14
0.0
 24
0.0
 34
0.0
 15
0.0
 25
0.0
 35
0.0
146
0.0
 13
0.0
 23
0.0
 33
0.0
 16
1.0
 26
0.0
 36
0.0
 17
0.0
 27
1.0
 37
0.0
 76
0
330
202
345
0
346
0
  0
LAYOUT
  5
521
102
{ACAD_REACTORS
330
1A
102
}
100
AcDbPlotSettings
  1

  2
none_device
  4
ANSI_C_(22.00_x_17.00_Inches)
  6

 40
0.0
 41
0.0
 42
0.0
 43
0.0
 44
558.8
 45
431.8
 46
0.0
 47
0.0
 48
0.0
 49
0.0
140
0.0
141
0.0
142
1.0
143
1.0
 70
0
 72
0
 73
0
 74
0
  7

 75
0
147
1.0
148
0.0
149
0.0
100
AcDbLayout
  1
Layout1
 70
0
 71
1
 10
0.0
 20
0.0
 11
22.0
 21
17.0
 12
0.0
 22
0.0
 32
0.0
 14
0.0
 24
0.0
 34
0.0
 15
0.0
 25
0.0
 35
0.0
146
0.0
 13
0.0
 23
0.0
 33
0.0
 16
1.0
 26
0.0
 36
0.0
 17
0.0
 27
1.0
 37
0.0
 76
0
330
203
345
0
346
0
  0
ENDSEC
  0
EOF
